  0
SECTION
  2
HEADER
  9
$ACADVER
  1
AC1015
  9
$ACADMAINTVER
 70
     6
  9
$DWGCODEPAGE
  3
ANSI_1252
  9
$INSBASE
 10
0.0
 20
0.0
 30
0.0
  9
$EXTMIN
 10
0.284
 20
0.0359999999999999
 30
0.0
  9
$EXTMAX
 10
6.537999999999999
 20
6.252000000000001
 30
0.0
  9
$LIMMIN
 10
0.0
 20
0.0
  9
$LIMMAX
 10
9.0
 20
12.0
  9
$ORTHOMODE
 70
     0
  9
$REGENMODE
 70
     0
  9
$FILLMODE
 70
     1
  9
$QTEXTMODE
 70
     0
  9
$MIRRTEXT
 70
     1
  9
$LTSCALE
 40
0.25
  9
$ATTMODE
 70
     1
  9
$TEXTSIZE
 40
0.125
  9
$TRACEWID
 40
0.05
  9
$TEXTSTYLE
  7
STANDARD
  9
$CLAYER
  8
0
  9
$CELTYPE
  6
ByLayer
  9
$CECOLOR
 62
   256
  9
$CELTSCALE
 40
1.0
  9
$DISPSILH
 70
     0
  9
$DIMSCALE
 40
1.0
  9
$DIMASZ
 40
0.1
  9
$DIMEXO
 40
0.063
  9
$DIMDLI
 40
0.38
  9
$DIMRND
 40
0.0
  9
$DIMDLE
 40
0.0
  9
$DIMEXE
 40
0.18
  9
$DIMTP
 40
0.0
  9
$DIMTM
 40
0.0
  9
$DIMTXT
 40
0.1
  9
$DIMCEN
 40
0.09
  9
$DIMTSZ
 40
0.0
  9
$DIMTOL
 70
     0
  9
$DIMLIM
 70
     0
  9
$DIMTIH
 70
     1
  9
$DIMTOH
 70
     1
  9
$DIMSE1
 70
     0
  9
$DIMSE2
 70
     0
  9
$DIMTAD
 70
     0
  9
$DIMZIN
 70
     0
  9
$DIMBLK
  1

  9
$DIMASO
 70
     0
  9
$DIMSHO
 70
     0
  9
$DIMPOST
  1

  9
$DIMAPOST
  1

  9
$DIMALT
 70
     0
  9
$DIMALTD
 70
     2
  9
$DIMALTF
 40
25.4
  9
$DIMLFAC
 40
1.0
  9
$DIMTOFL
 70
     0
  9
$DIMTVP
 40
0.0
  9
$DIMTIX
 70
     0
  9
$DIMSOXD
 70
     0
  9
$DIMSAH
 70
     0
  9
$DIMBLK1
  1

  9
$DIMBLK2
  1

  9
$DIMSTYLE
  2
Standard
  9
$DIMCLRD
 70
     0
  9
$DIMCLRE
 70
     0
  9
$DIMCLRT
 70
     0
  9
$DIMTFAC
 40
1.0
  9
$DIMGAP
 40
0.09
  9
$DIMJUST
 70
     0
  9
$DIMSD1
 70
     0
  9
$DIMSD2
 70
     0
  9
$DIMTOLJ
 70
     1
  9
$DIMTZIN
 70
     0
  9
$DIMALTZ
 70
     0
  9
$DIMALTTZ
 70
     0
  9
$DIMUPT
 70
     0
  9
$DIMDEC
 70
     4
  9
$DIMTDEC
 70
     4
  9
$DIMALTU
 70
     2
  9
$DIMALTTD
 70
     2
  9
$DIMTXSTY
  7
STANDARD
  9
$DIMAUNIT
 70
     0
  9
$DIMADEC
 70
     0
  9
$DIMALTRND
 40
0.0
  9
$DIMAZIN
 70
     0
  9
$DIMDSEP
 70
    46
  9
$DIMATFIT
 70
     3
  9
$DIMFRAC
 70
     0
  9
$DIMLDRBLK
  1

  9
$DIMLUNIT
 70
     2
  9
$DIMLWD
 70
    -2
  9
$DIMLWE
 70
    -2
  9
$DIMTMOVE
 70
     0
  9
$LUNITS
 70
     2
  9
$LUPREC
 70
     4
  9
$SKETCHINC
 40
0.1
  9
$FILLETRAD
 40
0.0
  9
$AUNITS
 70
     0
  9
$AUPREC
 70
     0
  9
$MENU
  1
acad
  9
$ELEVATION
 40
0.0
  9
$PELEVATION
 40
0.0
  9
$THICKNESS
 40
0.0
  9
$LIMCHECK
 70
     0
  9
$CHAMFERA
 40
0.0
  9
$CHAMFERB
 40
0.0
  9
$CHAMFERC
 40
1.0
  9
$CHAMFERD
 40
0.0
  9
$SKPOLY
 70
     0
  9
$TDCREATE
 40
2453955.561856331
  9
$TDUCREATE
 40
2453955.895189664
  9
$TDUPDATE
 40
2453955.60352301
  9
$TDUUPDATE
 40
2453955.895189676
  9
$TDINDWG
 40
0.0000000116
  9
$TDUSRTIMER
 40
0.0000000116
  9
$USRTIMER
 70
     1
  9
$ANGBASE
 50
0.0
  9
$ANGDIR
 70
     0
  9
$PDMODE
 70
     0
  9
$PDSIZE
 40
0.0
  9
$PLINEWID
 40
0.0
  9
$SPLFRAME
 70
     0
  9
$SPLINETYPE
 70
     6
  9
$SPLINESEGS
 70
     8
  9
$HANDSEED
  5
255
  9
$SURFTAB1
 70
     6
  9
$SURFTAB2
 70
     6
  9
$SURFTYPE
 70
     6
  9
$SURFU
 70
     6
  9
$SURFV
 70
     6
  9
$UCSBASE
  2

  9
$UCSNAME
  2

  9
$UCSORG
 10
0.0
 20
0.0
 30
0.0
  9
$UCSXDIR
 10
1.0
 20
0.0
 30
0.0
  9
$UCSYDIR
 10
0.0
 20
1.0
 30
0.0
  9
$UCSORTHOREF
  2

  9
$UCSORTHOVIEW
 70
     0
  9
$UCSORGTOP
 10
0.0
 20
0.0
 30
0.0
  9
$UCSORGBOTTOM
 10
0.0
 20
0.0
 30
0.0
  9
$UCSORGLEFT
 10
0.0
 20
0.0
 30
0.0
  9
$UCSORGRIGHT
 10
0.0
 20
0.0
 30
0.0
  9
$UCSORGFRONT
 10
0.0
 20
0.0
 30
0.0
  9
$UCSORGBACK
 10
0.0
 20
0.0
 30
0.0
  9
$PUCSBASE
  2

  9
$PUCSNAME
  2

  9
$PUCSORG
 10
0.0
 20
0.0
 30
0.0
  9
$PUCSXDIR
 10
1.0
 20
0.0
 30
0.0
  9
$PUCSYDIR
 10
0.0
 20
1.0
 30
0.0
  9
$PUCSORTHOREF
  2

  9
$PUCSORTHOVIEW
 70
     0
  9
$PUCSORGTOP
 10
0.0
 20
0.0
 30
0.0
  9
$PUCSORGBOTTOM
 10
0.0
 20
0.0
 30
0.0
  9
$PUCSORGLEFT
 10
0.0
 20
0.0
 30
0.0
  9
$PUCSORGRIGHT
 10
0.0
 20
0.0
 30
0.0
  9
$PUCSORGFRONT
 10
0.0
 20
0.0
 30
0.0
  9
$PUCSORGBACK
 10
0.0
 20
0.0
 30
0.0
  9
$USERI1
 70
     0
  9
$USERI2
 70
     0
  9
$USERI3
 70
     0
  9
$USERI4
 70
     0
  9
$USERI5
 70
     0
  9
$USERR1
 40
0.0
  9
$USERR2
 40
0.0
  9
$USERR3
 40
0.0
  9
$USERR4
 40
0.0
  9
$USERR5
 40
0.0
  9
$WORLDVIEW
 70
     1
  9
$SHADEDGE
 70
     3
  9
$SHADEDIF
 70
    70
  9
$TILEMODE
 70
     1
  9
$MAXACTVP
 70
    16
  9
$PINSBASE
 10
0.0
 20
0.0
 30
0.0
  9
$PLIMCHECK
 70
     0
  9
$PEXTMIN
 10
1.000000000000000E+20
 20
1.000000000000000E+20
 30
1.000000000000000E+20
  9
$PEXTMAX
 10
-1.000000000000000E+20
 20
-1.000000000000000E+20
 30
-1.000000000000000E+20
  9
$PLIMMIN
 10
0.0
 20
0.0
  9
$PLIMMAX
 10
12.0
 20
9.0
  9
$UNITMODE
 70
     0
  9
$VISRETAIN
 70
     0
  9
$PLINEGEN
 70
     0
  9
$PSLTSCALE
 70
     0
  9
$TREEDEPTH
 70
  3020
  9
$CMLSTYLE
  2
Standard
  9
$CMLJUST
 70
     0
  9
$CMLSCALE
 40
1.0
  9
$PROXYGRAPHICS
 70
     1
  9
$MEASUREMENT
 70
     0
  9
$CELWEIGHT
370
    -1
  9
$ENDCAPS
280
     0
  9
$JOINSTYLE
280
     0
  9
$LWDISPLAY
290
     0
  9
$INSUNITS
 70
     1
  9
$HYPERLINKBASE
  1

  9
$STYLESHEET
  1

  9
$XEDIT
290
     1
  9
$CEPSNTYPE
380
     0
  9
$PSTYLEMODE
290
     0
  9
$FINGERPRINTGUID
  2
{FAEB1C30-E019-11D5-929B-00C0DF256EC4}
  9
$VERSIONGUID
  2
{FAEB1C32-E019-11D5-929B-00C0DF256EC4}
  9
$EXTNAMES
290
     1
  9
$PSVPSCALE
 40
0.0
  9
$OLESTARTUP
290
     0
  0
ENDSEC
  0
SECTION
  2
CLASSES
  0
CLASS
  1
ACDBDICTIONARYWDFLT
  2
AcDbDictionaryWithDefault
  3
AutoCAD 2000
 90
        0
280
     0
281
     0
  0
CLASS
  1
ACDBPLACEHOLDER
  2
AcDbPlaceHolder
  3
ObjectDBX Classes
 90
        0
280
     0
281
     0
  0
CLASS
  1
LAYOUT
  2
AcDbLayout
  3
ObjectDBX Classes
 90
        0
280
     0
281
     0
  0
ENDSEC
  0
SECTION
  2
TABLES
  0
TABLE
  2
VPORT
  5
8
330
0
100
AcDbSymbolTable
 70
     2
  0
VPORT
  5
1E
330
8
100
AcDbSymbolTableRecord
100
AcDbViewportTableRecord
  2
*ACTIVE
 70
     0
 10
0.0
 20
0.0
 11
1.0
 21
1.0
 12
8.324455205811137
 22
6.0
 13
5.94742
 23
0.7824989999999999
 14
0.025
 24
0.025
 15
0.0
 25
0.0
 16
0.0
 26
0.0
 36
1.0
 17
0.0
 27
0.0
 37
0.0
 40
12.0
 41
0.7207678883071553
 42
50.0
 43
0.0
 44
0.0
 50
0.0
 51
0.0
 71
     0
 72
  2000
 73
     1
 74
     0
 75
     0
 76
     0
 77
     0
 78
     0
281
     0
 65
     1
110
0.0
120
0.0
130
0.0
111
1.0
121
0.0
131
0.0
112
0.0
122
1.0
132
0.0
 79
     0
146
0.0
  0
ENDTAB
  0
TABLE
  2
LTYPE
  5
5
330
0
100
AcDbSymbolTable
 70
     1
  0
LTYPE
  5
10
330
5
100
AcDbSymbolTableRecord
100
AcDbLinetypeTableRecord
  2
ByBlock
 70
     0
  3

 72
    65
 73
     0
 40
0.0
  0
LTYPE
  5
11
330
5
100
AcDbSymbolTableRecord
100
AcDbLinetypeTableRecord
  2
ByLayer
 70
     0
  3

 72
    65
 73
     0
 40
0.0
  0
LTYPE
  5
1B
330
5
100
AcDbSymbolTableRecord
100
AcDbLinetypeTableRecord
  2
CONTINUOUS
 70
     0
  3
Solid line
 72
    65
 73
     0
 40
0.0
  0
ENDTAB
  0
TABLE
  2
LAYER
  5
2
330
0
100
AcDbSymbolTable
 70
     1
  0
LAYER
  5
1C
330
2
100
AcDbSymbolTableRecord
100
AcDbLayerTableRecord
  2
0
 70
     0
 62
     7
  6
CONTINUOUS
370
    -3
390
F
  0
ENDTAB
  0
TABLE
  2
STYLE
  5
3
330
0
100
AcDbSymbolTable
 70
     1
  0
STYLE
  5
21
330
3
100
AcDbSymbolTableRecord
100
AcDbTextStyleTableRecord
  2
STANDARD
 70
     0
 40
0.0
 41
1.0
 50
0.0
 71
     0
 42
0.125
  3
romans
  4

  0
ENDTAB
  0
TABLE
  2
VIEW
  5
6
330
0
100
AcDbSymbolTable
 70
     1
  0
VIEW
  5
20
330
6
100
AcDbSymbolTableRecord
100
AcDbViewTableRecord
  2
1
 70
     0
 40
7.66
 10
4.913
 20
3.239
 41
10.576
 11
0.0
 21
0.0
 31
1.0
 12
0.0
 22
0.0
 32
0.0
 42
50.0
 43
0.0
 44
0.0
 50
0.0
 71
     0
281
     0
 72
     0
  0
ENDTAB
  0
TABLE
  2
UCS
  5
7
330
0
100
AcDbSymbolTable
 70
     0
  0
ENDTAB
  0
TABLE
  2
APPID
  5
9
330
0
100
AcDbSymbolTable
 70
     1
  0
APPID
  5
1F
330
9
100
AcDbSymbolTableRecord
100
AcDbRegAppTableRecord
  2
ACAD
 70
     0
  0
ENDTAB
  0
TABLE
  2
DIMSTYLE
  5
A
330
0
100
AcDbSymbolTable
 70
     1
100
AcDbDimStyleTable
  0
DIMSTYLE
105
22
330
A
100
AcDbSymbolTableRecord
100
AcDbDimStyleTableRecord
  2
Standard
 70
     0
  3

  4

340
21
  0
ENDTAB
  0
TABLE
  2
BLOCK_RECORD
  5
1
330
0
100
AcDbSymbolTable
 70
     0
  0
BLOCK_RECORD
  5
18
330
1
100
AcDbSymbolTableRecord
100
AcDbBlockTableRecord
  2
*Model_Space
340
19
  0
BLOCK_RECORD
  5
16
330
1
100
AcDbSymbolTableRecord
100
AcDbBlockTableRecord
  2
*Paper_Space
340
17
  0
ENDTAB
  0
ENDSEC
  0
SECTION
  2
BLOCKS
  0
BLOCK
  5
24A
330
18
100
AcDbEntity
  8
0
100
AcDbBlockBegin
  2
*Model_Space
 70
     0
 10
0.0
 20
0.0
 30
0.0
  3
*Model_Space
  1

  4

  0
ENDBLK
  5
24B
330
18
100
AcDbEntity
  8
0
100
AcDbBlockEnd
  0
BLOCK
  5
248
330
16
100
AcDbEntity
 67
     1
  8
0
100
AcDbBlockBegin
  2
*Paper_Space
 70
     0
 10
0.0
 20
0.0
 30
0.0
  3
*Paper_Space
  1

  4

  0
ENDBLK
  5
249
330
16
100
AcDbEntity
 67
     1
  8
0
100
AcDbBlockEnd
  0
ENDSEC
  0
SECTION
  2
ENTITIES
  0
LINE
  5
23
330
18
100
AcDbEntity
  8
0
100
AcDbLine
 10
1.184
 20
1.645
 30
0.0
 11
1.189
 21
1.644
 31
0.0
  0
LINE
  5
24
330
18
100
AcDbEntity
  8
0
100
AcDbLine
 10
1.082
 20
1.685
 30
0.0
 11
1.184
 21
1.645
 31
0.0
  0
LINE
  5
25
330
18
100
AcDbEntity
  8
0
100
AcDbLine
 10
1.002
 20
1.721
 30
0.0
 11
1.082
 21
1.685
 31
0.0
  0
LINE
  5
26
330
18
100
AcDbEntity
  8
0
100
AcDbLine
 10
0.9229999999999999
 20
1.728
 30
0.0
 11
1.002
 21
1.721
 31
0.0
  0
LINE
  5
27
330
18
100
AcDbEntity
  8
0
100
AcDbLine
 10
0.841
 20
1.775
 30
0.0
 11
0.9229999999999999
 21
1.728
 31
0.0
  0
LINE
  5
28
330
18
100
AcDbEntity
  8
0
100
AcDbLine
 10
0.772
 20
1.871
 30
0.0
 11
0.841
 21
1.775
 31
0.0
  0
LINE
  5
29
330
18
100
AcDbEntity
  8
0
100
AcDbLine
 10
0.6870000000000001
 20
1.968
 30
0.0
 11
0.772
 21
1.871
 31
0.0
  0
LINE
  5
2A
330
18
100
AcDbEntity
  8
0
100
AcDbLine
 10
0.6790000000000001
 20
1.978
 30
0.0
 11
0.6870000000000001
 21
1.968
 31
0.0
  0
LINE
  5
2B
330
18
100
AcDbEntity
  8
0
100
AcDbLine
 10
6.016
 20
2.898
 30
0.0
 11
5.926
 21
2.85
 31
0.0
  0
LINE
  5
2C
330
18
100
AcDbEntity
  8
0
100
AcDbLine
 10
6.122999999999999
 20
2.965
 30
0.0
 11
6.016
 21
2.898
 31
0.0
  0
LINE
  5
2D
330
18
100
AcDbEntity
  8
0
100
AcDbLine
 10
6.232
 20
3.018
 30
0.0
 11
6.122999999999999
 21
2.965
 31
0.0
  0
LINE
  5
2E
330
18
100
AcDbEntity
  8
0
100
AcDbLine
 10
6.238
 20
3.122
 30
0.0
 11
6.232
 21
3.018
 31
0.0
  0
LINE
  5
2F
330
18
100
AcDbEntity
  8
0
100
AcDbLine
 10
6.282
 20
3.234
 30
0.0
 11
6.238
 21
3.122
 31
0.0
  0
LINE
  5
30
330
18
100
AcDbEntity
  8
0
100
AcDbLine
 10
6.43
 20
3.646
 30
0.0
 11
6.282
 21
3.234
 31
0.0
  0
LINE
  5
31
330
18
100
AcDbEntity
  8
0
100
AcDbLine
 10
6.513999999999999
 20
3.817
 30
0.0
 11
6.43
 21
3.646
 31
0.0
  0
LINE
  5
32
330
18
100
AcDbEntity
  8
0
100
AcDbLine
 10
6.537999999999999
 20
3.907
 30
0.0
 11
6.513999999999999
 21
3.817
 31
0.0
  0
LINE
  5
33
330
18
100
AcDbEntity
  8
0
100
AcDbLine
 10
6.531000000000001
 20
3.944
 30
0.0
 11
6.537999999999999
 21
3.907
 31
0.0
  0
LINE
  5
34
330
18
100
AcDbEntity
  8
0
100
AcDbLine
 10
6.489
 20
3.957
 30
0.0
 11
6.531000000000001
 21
3.944
 31
0.0
  0
LINE
  5
35
330
18
100
AcDbEntity
  8
0
100
AcDbLine
 10
6.416
 20
4.01
 30
0.0
 11
6.489
 21
3.957
 31
0.0
  0
LINE
  5
36
330
18
100
AcDbEntity
  8
0
100
AcDbLine
 10
6.37
 20
4.111000000000001
 30
0.0
 11
6.416
 21
4.01
 31
0.0
  0
LINE
  5
37
330
18
100
AcDbEntity
  8
0
100
AcDbLine
 10
6.388
 20
4.212
 30
0.0
 11
6.37
 21
4.111000000000001
 31
0.0
  0
LINE
  5
38
330
18
100
AcDbEntity
  8
0
100
AcDbLine
 10
6.399
 20
4.357
 30
0.0
 11
6.388
 21
4.212
 31
0.0
  0
LINE
  5
39
330
18
100
AcDbEntity
  8
0
100
AcDbLine
 10
6.421
 20
4.56
 30
0.0
 11
6.399
 21
4.357
 31
0.0
  0
LINE
  5
3A
330
18
100
AcDbEntity
  8
0
100
AcDbLine
 10
6.425
 20
4.694
 30
0.0
 11
6.421
 21
4.56
 31
0.0
  0
LINE
  5
3B
330
18
100
AcDbEntity
  8
0
100
AcDbLine
 10
6.407
 20
4.846
 30
0.0
 11
6.425
 21
4.694
 31
0.0
  0
LINE
  5
3C
330
18
100
AcDbEntity
  8
0
100
AcDbLine
 10
6.417999999999999
 20
4.931
 30
0.0
 11
6.407
 21
4.846
 31
0.0
  0
LINE
  5
3D
330
18
100
AcDbEntity
  8
0
100
AcDbLine
 10
6.483
 20
5.044
 30
0.0
 11
6.417999999999999
 21
4.931
 31
0.0
  0
LINE
  5
3E
330
18
100
AcDbEntity
  8
0
100
AcDbLine
 10
6.513
 20
5.155
 30
0.0
 11
6.483
 21
5.044
 31
0.0
  0
LINE
  5
3F
330
18
100
AcDbEntity
  8
0
100
AcDbLine
 10
6.511
 20
5.24
 30
0.0
 11
6.513
 21
5.155
 31
0.0
  0
LINE
  5
40
330
18
100
AcDbEntity
  8
0
100
AcDbLine
 10
6.341
 20
4.126
 30
0.0
 11
6.381
 21
4.086
 31
0.0
  0
LINE
  5
41
330
18
100
AcDbEntity
  8
0
100
AcDbLine
 10
6.307
 20
4.188
 30
0.0
 11
6.341
 21
4.126
 31
0.0
  0
LINE
  5
42
330
18
100
AcDbEntity
  8
0
100
AcDbLine
 10
6.285
 20
4.293
 30
0.0
 11
6.307
 21
4.188
 31
0.0
  0
LINE
  5
43
330
18
100
AcDbEntity
  8
0
100
AcDbLine
 10
6.252999999999999
 20
4.379
 30
0.0
 11
6.285
 21
4.293
 31
0.0
  0
LINE
  5
44
330
18
100
AcDbEntity
  8
0
100
AcDbLine
 10
6.241000000000001
 20
4.51
 30
0.0
 11
6.252999999999999
 21
4.379
 31
0.0
  0
LINE
  5
45
330
18
100
AcDbEntity
  8
0
100
AcDbLine
 10
6.279
 20
4.571000000000001
 30
0.0
 11
6.241000000000001
 21
4.51
 31
0.0
  0
LINE
  5
46
330
18
100
AcDbEntity
  8
0
100
AcDbLine
 10
6.318
 20
4.652
 30
0.0
 11
6.279
 21
4.571000000000001
 31
0.0
  0
LINE
  5
47
330
18
100
AcDbEntity
  8
0
100
AcDbLine
 10
6.414
 20
4.787
 30
0.0
 11
6.318
 21
4.652
 31
0.0
  0
LINE
  5
48
330
18
100
AcDbEntity
  8
0
100
AcDbLine
 10
5.083
 20
3.388
 30
0.0
 11
5.088
 21
3.431
 31
0.0
  0
LINE
  5
49
330
18
100
AcDbEntity
  8
0
100
AcDbLine
 10
5.059
 20
3.268
 30
0.0
 11
5.083
 21
3.388
 31
0.0
  0
LINE
  5
4A
330
18
100
AcDbEntity
  8
0
100
AcDbLine
 10
5.021
 20
3.086
 30
0.0
 11
5.059
 21
3.268
 31
0.0
  0
LINE
  5
4B
330
18
100
AcDbEntity
  8
0
100
AcDbLine
 10
4.979
 20
2.855
 30
0.0
 11
5.021
 21
3.086
 31
0.0
  0
LINE
  5
4C
330
18
100
AcDbEntity
  8
0
100
AcDbLine
 10
4.932
 20
2.54
 30
0.0
 11
4.979
 21
2.855
 31
0.0
  0
LINE
  5
4D
330
18
100
AcDbEntity
  8
0
100
AcDbLine
 10
5.202000000000001
 20
3.405
 30
0.0
 11
5.216
 21
3.488
 31
0.0
  0
LINE
  5
4E
330
18
100
AcDbEntity
  8
0
100
AcDbLine
 10
5.174
 20
3.257
 30
0.0
 11
5.202000000000001
 21
3.405
 31
0.0
  0
LINE
  5
4F
330
18
100
AcDbEntity
  8
0
100
AcDbLine
 10
5.141
 20
3.101
 30
0.0
 11
5.174
 21
3.257
 31
0.0
  0
LINE
  5
50
330
18
100
AcDbEntity
  8
0
100
AcDbLine
 10
5.102
 20
2.893
 30
0.0
 11
5.141
 21
3.101
 31
0.0
  0
LINE
  5
51
330
18
100
AcDbEntity
  8
0
100
AcDbLine
 10
5.037
 20
2.593
 30
0.0
 11
5.102
 21
2.893
 31
0.0
  0
LINE
  5
52
330
18
100
AcDbEntity
  8
0
100
AcDbLine
 10
5.327999999999999
 20
3.455
 30
0.0
 11
5.343
 21
3.544
 31
0.0
  0
LINE
  5
53
330
18
100
AcDbEntity
  8
0
100
AcDbLine
 10
5.313
 20
3.378
 30
0.0
 11
5.327999999999999
 21
3.455
 31
0.0
  0
LINE
  5
54
330
18
100
AcDbEntity
  8
0
100
AcDbLine
 10
5.263999999999999
 20
3.159
 30
0.0
 11
5.313
 21
3.378
 31
0.0
  0
LINE
  5
55
330
18
100
AcDbEntity
  8
0
100
AcDbLine
 10
5.218
 20
2.967
 30
0.0
 11
5.263999999999999
 21
3.159
 31
0.0
  0
LINE
  5
56
330
18
100
AcDbEntity
  8
0
100
AcDbLine
 10
5.151
 20
2.65
 30
0.0
 11
5.218
 21
2.967
 31
0.0
  0
LINE
  5
57
330
18
100
AcDbEntity
  8
0
100
AcDbLine
 10
5.468
 20
3.514
 30
0.0
 11
5.485
 21
3.606
 31
0.0
  0
LINE
  5
58
330
18
100
AcDbEntity
  8
0
100
AcDbLine
 10
5.417000000000001
 20
3.342
 30
0.0
 11
5.468
 21
3.514
 31
0.0
  0
LINE
  5
59
330
18
100
AcDbEntity
  8
0
100
AcDbLine
 10
5.359
 20
3.049
 30
0.0
 11
5.417000000000001
 21
3.342
 31
0.0
  0
LINE
  5
5A
330
18
100
AcDbEntity
  8
0
100
AcDbLine
 10
5.294
 20
2.721
 30
0.0
 11
5.359
 21
3.049
 31
0.0
  0
LINE
  5
5B
330
18
100
AcDbEntity
  8
0
100
AcDbLine
 10
5.591
 20
3.57
 30
0.0
 11
5.6
 21
3.657
 31
0.0
  0
LINE
  5
5C
330
18
100
AcDbEntity
  8
0
100
AcDbLine
 10
5.556
 20
3.404
 30
0.0
 11
5.591
 21
3.57
 31
0.0
  0
LINE
  5
5D
330
18
100
AcDbEntity
  8
0
100
AcDbLine
 10
5.507000000000001
 20
3.218
 30
0.0
 11
5.556
 21
3.404
 31
0.0
  0
LINE
  5
5E
330
18
100
AcDbEntity
  8
0
100
AcDbLine
 10
5.474
 20
3.044
 30
0.0
 11
5.507000000000001
 21
3.218
 31
0.0
  0
LINE
  5
5F
330
18
100
AcDbEntity
  8
0
100
AcDbLine
 10
5.425
 20
2.786
 30
0.0
 11
5.474
 21
3.044
 31
0.0
  0
LINE
  5
60
330
18
100
AcDbEntity
  8
0
100
AcDbLine
 10
5.757000000000001
 20
3.688
 30
0.0
 11
5.765
 21
3.73
 31
0.0
  0
LINE
  5
61
330
18
100
AcDbEntity
  8
0
100
AcDbLine
 10
5.714
 20
3.504
 30
0.0
 11
5.757000000000001
 21
3.688
 31
0.0
  0
LINE
  5
62
330
18
100
AcDbEntity
  8
0
100
AcDbLine
 10
5.671
 20
3.307
 30
0.0
 11
5.714
 21
3.504
 31
0.0
  0
LINE
  5
63
330
18
100
AcDbEntity
  8
0
100
AcDbLine
 10
5.636
 20
3.09
 30
0.0
 11
5.671
 21
3.307
 31
0.0
  0
LINE
  5
64
330
18
100
AcDbEntity
  8
0
100
AcDbLine
 10
5.571000000000001
 20
2.86
 30
0.0
 11
5.636
 21
3.09
 31
0.0
  0
LINE
  5
65
330
18
100
AcDbEntity
  8
0
100
AcDbLine
 10
5.81
 20
3.416
 30
0.0
 11
5.83
 21
3.478
 31
0.0
  0
LINE
  5
66
330
18
100
AcDbEntity
  8
0
100
AcDbLine
 10
5.784
 20
3.271
 30
0.0
 11
5.81
 21
3.416
 31
0.0
  0
LINE
  5
67
330
18
100
AcDbEntity
  8
0
100
AcDbLine
 10
5.76
 20
3.117
 30
0.0
 11
5.784
 21
3.271
 31
0.0
  0
LINE
  5
68
330
18
100
AcDbEntity
  8
0
100
AcDbLine
 10
5.718999999999999
 20
2.935
 30
0.0
 11
5.76
 21
3.117
 31
0.0
  0
LINE
  5
69
330
18
100
AcDbEntity
  8
0
100
AcDbLine
 10
4.952
 20
3.231
 30
0.0
 11
4.971
 21
3.38
 31
0.0
  0
LINE
  5
6A
330
18
100
AcDbEntity
  8
0
100
AcDbLine
 10
4.919
 20
3.036
 30
0.0
 11
4.952
 21
3.231
 31
0.0
  0
LINE
  5
6B
330
18
100
AcDbEntity
  8
0
100
AcDbLine
 10
4.86
 20
2.806
 30
0.0
 11
4.919
 21
3.036
 31
0.0
  0
LINE
  5
6C
330
18
100
AcDbEntity
  8
0
100
AcDbLine
 10
4.854
 20
2.786
 30
0.0
 11
4.86
 21
2.806
 31
0.0
  0
LINE
  5
6D
330
18
100
AcDbEntity
  8
0
100
AcDbLine
 10
5.718999999999999
 20
2.35
 30
0.0
 11
5.729
 21
2.416
 31
0.0
  0
LINE
  5
6E
330
18
100
AcDbEntity
  8
0
100
AcDbLine
 10
5.687
 20
2.186
 30
0.0
 11
5.718999999999999
 21
2.35
 31
0.0
  0
LINE
  5
6F
330
18
100
AcDbEntity
  8
0
100
AcDbLine
 10
5.656000000000001
 20
1.999
 30
0.0
 11
5.687
 21
2.186
 31
0.0
  0
LINE
  5
70
330
18
100
AcDbEntity
  8
0
100
AcDbLine
 10
5.62
 20
1.833
 30
0.0
 11
5.656000000000001
 21
1.999
 31
0.0
  0
LINE
  5
71
330
18
100
AcDbEntity
  8
0
100
AcDbLine
 10
5.574
 20
1.546
 30
0.0
 11
5.62
 21
1.833
 31
0.0
  0
LINE
  5
72
330
18
100
AcDbEntity
  8
0
100
AcDbLine
 10
5.574
 20
2.28
 30
0.0
 11
5.58
 21
2.342
 31
0.0
  0
LINE
  5
73
330
18
100
AcDbEntity
  8
0
100
AcDbLine
 10
5.549
 20
2.128
 30
0.0
 11
5.574
 21
2.28
 31
0.0
  0
LINE
  5
74
330
18
100
AcDbEntity
  8
0
100
AcDbLine
 10
5.522
 20
1.972
 30
0.0
 11
5.549
 21
2.128
 31
0.0
  0
LINE
  5
75
330
18
100
AcDbEntity
  8
0
100
AcDbLine
 10
5.476
 20
1.797
 30
0.0
 11
5.522
 21
1.972
 31
0.0
  0
LINE
  5
76
330
18
100
AcDbEntity
  8
0
100
AcDbLine
 10
5.422000000000001
 20
1.47
 30
0.0
 11
5.476
 21
1.797
 31
0.0
  0
LINE
  5
77
330
18
100
AcDbEntity
  8
0
100
AcDbLine
 10
5.443
 20
2.253
 30
0.0
 11
5.447
 21
2.275
 31
0.0
  0
LINE
  5
78
330
18
100
AcDbEntity
  8
0
100
AcDbLine
 10
5.427000000000001
 20
2.152
 30
0.0
 11
5.443
 21
2.253
 31
0.0
  0
LINE
  5
79
330
18
100
AcDbEntity
  8
0
100
AcDbLine
 10
5.395
 20
1.958
 30
0.0
 11
5.427000000000001
 21
2.152
 31
0.0
  0
LINE
  5
7A
330
18
100
AcDbEntity
  8
0
100
AcDbLine
 10
5.349
 20
1.733
 30
0.0
 11
5.395
 21
1.958
 31
0.0
  0
LINE
  5
7B
330
18
100
AcDbEntity
  8
0
100
AcDbLine
 10
5.297000000000001
 20
1.408
 30
0.0
 11
5.349
 21
1.733
 31
0.0
  0
LINE
  5
7C
330
18
100
AcDbEntity
  8
0
100
AcDbLine
 10
5.301
 20
2.112
 30
0.0
 11
5.315
 21
2.209
 31
0.0
  0
LINE
  5
7D
330
18
100
AcDbEntity
  8
0
100
AcDbLine
 10
5.257000000000001
 20
1.932
 30
0.0
 11
5.301
 21
2.112
 31
0.0
  0
LINE
  5
7E
330
18
100
AcDbEntity
  8
0
100
AcDbLine
 10
5.209
 20
1.729
 30
0.0
 11
5.257000000000001
 21
1.932
 31
0.0
  0
LINE
  5
7F
330
18
100
AcDbEntity
  8
0
100
AcDbLine
 10
5.147
 20
1.332
 30
0.0
 11
5.209
 21
1.729
 31
0.0
  0
LINE
  5
80
330
18
100
AcDbEntity
  8
0
100
AcDbLine
 10
5.159
 20
2.12
 30
0.0
 11
5.16
 21
2.131
 31
0.0
  0
LINE
  5
81
330
18
100
AcDbEntity
  8
0
100
AcDbLine
 10
5.141
 20
2.012
 30
0.0
 11
5.159
 21
2.12
 31
0.0
  0
LINE
  5
82
330
18
100
AcDbEntity
  8
0
100
AcDbLine
 10
5.093
 20
1.833
 30
0.0
 11
5.141
 21
2.012
 31
0.0
  0
LINE
  5
83
330
18
100
AcDbEntity
  8
0
100
AcDbLine
 10
5.04
 20
1.59
 30
0.0
 11
5.093
 21
1.833
 31
0.0
  0
LINE
  5
84
330
18
100
AcDbEntity
  8
0
100
AcDbLine
 10
4.979
 20
1.248
 30
0.0
 11
5.04
 21
1.59
 31
0.0
  0
LINE
  5
85
330
18
100
AcDbEntity
  8
0
100
AcDbLine
 10
5.007
 20
2.053
 30
0.0
 11
5.008
 21
2.055
 31
0.0
  0
LINE
  5
86
330
18
100
AcDbEntity
  8
0
100
AcDbLine
 10
4.998
 20
1.954
 30
0.0
 11
5.007
 21
2.053
 31
0.0
  0
LINE
  5
87
330
18
100
AcDbEntity
  8
0
100
AcDbLine
 10
4.953
 20
1.754
 30
0.0
 11
4.998
 21
1.954
 31
0.0
  0
LINE
  5
88
330
18
100
AcDbEntity
  8
0
100
AcDbLine
 10
4.908
 20
1.518
 30
0.0
 11
4.953
 21
1.754
 31
0.0
  0
LINE
  5
89
330
18
100
AcDbEntity
  8
0
100
AcDbLine
 10
4.875
 20
1.196
 30
0.0
 11
4.908
 21
1.518
 31
0.0
  0
LINE
  5
8A
330
18
100
AcDbEntity
  8
0
100
AcDbLine
 10
4.884
 20
1.933
 30
0.0
 11
4.904
 21
2.003
 31
0.0
  0
LINE
  5
8B
330
18
100
AcDbEntity
  8
0
100
AcDbLine
 10
4.864
 20
1.861
 30
0.0
 11
4.884
 21
1.933
 31
0.0
  0
LINE
  5
8C
330
18
100
AcDbEntity
  8
0
100
AcDbLine
 10
5.818
 20
2.187
 30
0.0
 11
5.842000000000001
 21
2.264
 31
0.0
  0
LINE
  5
8D
330
18
100
AcDbEntity
  8
0
100
AcDbLine
 10
5.795
 20
2.061
 30
0.0
 11
5.818
 21
2.187
 31
0.0
  0
LINE
  5
8E
330
18
100
AcDbEntity
  8
0
100
AcDbLine
 10
5.765
 20
1.907
 30
0.0
 11
5.795
 21
2.061
 31
0.0
  0
LINE
  5
8F
330
18
100
AcDbEntity
  8
0
100
AcDbLine
 10
5.728
 20
1.624
 30
0.0
 11
5.765
 21
1.907
 31
0.0
  0
LINE
  5
90
330
18
100
AcDbEntity
  8
0
100
AcDbLine
 10
4.95
 20
2.108
 30
0.0
 11
4.817
 21
2.263
 31
0.0
  0
LINE
  5
91
330
18
100
AcDbEntity
  8
0
100
AcDbLine
 10
5.008
 20
2.055
 30
0.0
 11
4.95
 21
2.108
 31
0.0
  0
LINE
  5
92
330
18
100
AcDbEntity
  8
0
100
AcDbLine
 10
4.815
 20
2.136
 30
0.0
 11
4.801
 21
2.157
 31
0.0
  0
LINE
  5
93
330
18
100
AcDbEntity
  8
0
100
AcDbLine
 10
4.855
 20
2.083
 30
0.0
 11
4.815
 21
2.136
 31
0.0
  0
LINE
  5
94
330
18
100
AcDbEntity
  8
0
100
AcDbLine
 10
4.91
 20
2.006
 30
0.0
 11
4.855
 21
2.083
 31
0.0
  0
LINE
  5
95
330
18
100
AcDbEntity
  8
0
100
AcDbLine
 10
4.084
 20
1.679
 30
0.0
 11
4.157
 21
1.691
 31
0.0
  0
LINE
  5
96
330
18
100
AcDbEntity
  8
0
100
AcDbLine
 10
3.977
 20
1.659
 30
0.0
 11
4.084
 21
1.679
 31
0.0
  0
LINE
  5
97
330
18
100
AcDbEntity
  8
0
100
AcDbLine
 10
3.87
 20
1.605
 30
0.0
 11
3.977
 21
1.659
 31
0.0
  0
LINE
  5
98
330
18
100
AcDbEntity
  8
0
100
AcDbLine
 10
3.612
 20
1.615
 30
0.0
 11
3.87
 21
1.605
 31
0.0
  0
LINE
  5
99
330
18
100
AcDbEntity
  8
0
100
AcDbLine
 10
3.409
 20
1.56
 30
0.0
 11
3.612
 21
1.615
 31
0.0
  0
LINE
  5
9A
330
18
100
AcDbEntity
  8
0
100
AcDbLine
 10
3.146
 20
1.592
 30
0.0
 11
3.409
 21
1.56
 31
0.0
  0
LINE
  5
9B
330
18
100
AcDbEntity
  8
0
100
AcDbLine
 10
2.824
 20
1.622
 30
0.0
 11
3.146
 21
1.592
 31
0.0
  0
LINE
  5
9C
330
18
100
AcDbEntity
  8
0
100
AcDbLine
 10
2.553
 20
1.588
 30
0.0
 11
2.824
 21
1.622
 31
0.0
  0
LINE
  5
9D
330
18
100
AcDbEntity
  8
0
100
AcDbLine
 10
2.33
 20
1.526
 30
0.0
 11
2.553
 21
1.588
 31
0.0
  0
LINE
  5
9E
330
18
100
AcDbEntity
  8
0
100
AcDbLine
 10
2.017
 20
1.373
 30
0.0
 11
2.33
 21
1.526
 31
0.0
  0
LINE
  5
9F
330
18
100
AcDbEntity
  8
0
100
AcDbLine
 10
1.773
 20
1.329
 30
0.0
 11
2.017
 21
1.373
 31
0.0
  0
LINE
  5
A0
330
18
100
AcDbEntity
  8
0
100
AcDbLine
 10
1.635
 20
1.277
 30
0.0
 11
1.773
 21
1.329
 31
0.0
  0
LINE
  5
A1
330
18
100
AcDbEntity
  8
0
100
AcDbLine
 10
1.526
 20
1.284
 30
0.0
 11
1.635
 21
1.277
 31
0.0
  0
LINE
  5
A2
330
18
100
AcDbEntity
  8
0
100
AcDbLine
 10
1.46
 20
1.325
 30
0.0
 11
1.526
 21
1.284
 31
0.0
  0
LINE
  5
A3
330
18
100
AcDbEntity
  8
0
100
AcDbLine
 10
1.376
 20
1.387
 30
0.0
 11
1.46
 21
1.325
 31
0.0
  0
LINE
  5
A4
330
18
100
AcDbEntity
  8
0
100
AcDbLine
 10
1.293
 20
1.448
 30
0.0
 11
1.376
 21
1.387
 31
0.0
  0
LINE
  5
A5
330
18
100
AcDbEntity
  8
0
100
AcDbLine
 10
1.193
 20
1.617
 30
0.0
 11
1.293
 21
1.448
 31
0.0
  0
LINE
  5
A6
330
18
100
AcDbEntity
  8
0
100
AcDbLine
 10
1.174
 20
1.766
 30
0.0
 11
1.193
 21
1.617
 31
0.0
  0
LINE
  5
A7
330
18
100
AcDbEntity
  8
0
100
AcDbLine
 10
1.111
 20
1.862
 30
0.0
 11
1.174
 21
1.766
 31
0.0
  0
LINE
  5
A8
330
18
100
AcDbEntity
  8
0
100
AcDbLine
 10
1.019
 20
1.944
 30
0.0
 11
1.111
 21
1.862
 31
0.0
  0
LINE
  5
A9
330
18
100
AcDbEntity
  8
0
100
AcDbLine
 10
0.978
 20
1.998
 30
0.0
 11
1.019
 21
1.944
 31
0.0
  0
LINE
  5
AA
330
18
100
AcDbEntity
  8
0
100
AcDbLine
 10
0.853
 20
2.001
 30
0.0
 11
0.978
 21
1.998
 31
0.0
  0
LINE
  5
AB
330
18
100
AcDbEntity
  8
0
100
AcDbLine
 10
0.648
 20
1.974
 30
0.0
 11
0.853
 21
2.001
 31
0.0
  0
LINE
  5
AC
330
18
100
AcDbEntity
  8
0
100
AcDbLine
 10
0.447
 20
1.969
 30
0.0
 11
0.648
 21
1.974
 31
0.0
  0
LINE
  5
AD
330
18
100
AcDbEntity
  8
0
100
AcDbLine
 10
0.299
 20
1.997
 30
0.0
 11
0.447
 21
1.969
 31
0.0
  0
LINE
  5
AE
330
18
100
AcDbEntity
  8
0
100
AcDbLine
 10
0.284
 20
2.01
 30
0.0
 11
0.299
 21
1.997
 31
0.0
  0
LINE
  5
AF
330
18
100
AcDbEntity
  8
0
100
AcDbLine
 10
1.394
 20
3.457
 30
0.0
 11
1.363
 21
3.458
 31
0.0
  0
LINE
  5
B0
330
18
100
AcDbEntity
  8
0
100
AcDbLine
 10
1.544
 20
3.454
 30
0.0
 11
1.394
 21
3.457
 31
0.0
  0
LINE
  5
B1
330
18
100
AcDbEntity
  8
0
100
AcDbLine
 10
1.566
 20
3.451
 30
0.0
 11
1.544
 21
3.454
 31
0.0
  0
LINE
  5
B2
330
18
100
AcDbEntity
  8
0
100
AcDbLine
 10
1.49
 20
3.695
 30
0.0
 11
1.566
 21
3.695
 31
0.0
  0
LINE
  5
B3
330
18
100
AcDbEntity
  8
0
100
AcDbLine
 10
1.354
 20
3.697
 30
0.0
 11
1.49
 21
3.695
 31
0.0
  0
LINE
  5
B4
330
18
100
AcDbEntity
  8
0
100
AcDbLine
 10
1.191
 20
3.725
 30
0.0
 11
1.354
 21
3.697
 31
0.0
  0
LINE
  5
B5
330
18
100
AcDbEntity
  8
0
100
AcDbLine
 10
0.997
 20
3.755
 30
0.0
 11
1.191
 21
3.725
 31
0.0
  0
LINE
  5
B6
330
18
100
AcDbEntity
  8
0
100
AcDbLine
 10
0.94
 20
3.753
 30
0.0
 11
0.997
 21
3.755
 31
0.0
  0
LINE
  5
B7
330
18
100
AcDbEntity
  8
0
100
AcDbLine
 10
1.496
 20
3.793
 30
0.0
 11
1.566
 21
3.795
 31
0.0
  0
LINE
  5
B8
330
18
100
AcDbEntity
  8
0
100
AcDbLine
 10
1.349
 20
3.808
 30
0.0
 11
1.496
 21
3.793
 31
0.0
  0
LINE
  5
B9
330
18
100
AcDbEntity
  8
0
100
AcDbLine
 10
1.197
 20
3.837
 30
0.0
 11
1.349
 21
3.808
 31
0.0
  0
LINE
  5
BA
330
18
100
AcDbEntity
  8
0
100
AcDbLine
 10
1.022
 20
3.861
 30
0.0
 11
1.197
 21
3.837
 31
0.0
  0
LINE
  5
BB
330
18
100
AcDbEntity
  8
0
100
AcDbLine
 10
0.878
 20
3.879
 30
0.0
 11
1.022
 21
3.861
 31
0.0
  0
LINE
  5
BC
330
18
100
AcDbEntity
  8
0
100
AcDbLine
 10
0.778
 20
3.905
 30
0.0
 11
0.878
 21
3.879
 31
0.0
  0
LINE
  5
BD
330
18
100
AcDbEntity
  8
0
100
AcDbLine
 10
0.7240000000000001
 20
3.903
 30
0.0
 11
0.778
 21
3.905
 31
0.0
  0
LINE
  5
BE
330
18
100
AcDbEntity
  8
0
100
AcDbLine
 10
1.49
 20
3.892
 30
0.0
 11
1.566
 21
3.884
 31
0.0
  0
LINE
  5
BF
330
18
100
AcDbEntity
  8
0
100
AcDbLine
 10
1.376
 20
3.911
 30
0.0
 11
1.49
 21
3.892
 31
0.0
  0
LINE
  5
C0
330
18
100
AcDbEntity
  8
0
100
AcDbLine
 10
1.265
 20
3.927
 30
0.0
 11
1.376
 21
3.911
 31
0.0
  0
LINE
  5
C1
330
18
100
AcDbEntity
  8
0
100
AcDbLine
 10
1.101
 20
3.966
 30
0.0
 11
1.265
 21
3.927
 31
0.0
  0
LINE
  5
C2
330
18
100
AcDbEntity
  8
0
100
AcDbLine
 10
0.917
 20
3.989
 30
0.0
 11
1.101
 21
3.966
 31
0.0
  0
LINE
  5
C3
330
18
100
AcDbEntity
  8
0
100
AcDbLine
 10
0.8040000000000001
 20
3.994
 30
0.0
 11
0.917
 21
3.989
 31
0.0
  0
LINE
  5
C4
330
18
100
AcDbEntity
  8
0
100
AcDbLine
 10
0.635
 20
4.032
 30
0.0
 11
0.8040000000000001
 21
3.994
 31
0.0
  0
LINE
  5
C5
330
18
100
AcDbEntity
  8
0
100
AcDbLine
 10
0.532
 20
4.037
 30
0.0
 11
0.635
 21
4.032
 31
0.0
  0
LINE
  5
C6
330
18
100
AcDbEntity
  8
0
100
AcDbLine
 10
1.342
 20
4.045
 30
0.0
 11
1.392
 21
4.043
 31
0.0
  0
LINE
  5
C7
330
18
100
AcDbEntity
  8
0
100
AcDbLine
 10
1.228
 20
4.056
 30
0.0
 11
1.342
 21
4.045
 31
0.0
  0
LINE
  5
C8
330
18
100
AcDbEntity
  8
0
100
AcDbLine
 10
1.075
 20
4.073
 30
0.0
 11
1.228
 21
4.056
 31
0.0
  0
LINE
  5
C9
330
18
100
AcDbEntity
  8
0
100
AcDbLine
 10
0.9270000000000001
 20
4.097
 30
0.0
 11
1.075
 21
4.073
 31
0.0
  0
LINE
  5
CA
330
18
100
AcDbEntity
  8
0
100
AcDbLine
 10
0.7490000000000001
 20
4.154
 30
0.0
 11
0.9270000000000001
 21
4.097
 31
0.0
  0
LINE
  5
CB
330
18
100
AcDbEntity
  8
0
100
AcDbLine
 10
0.54
 20
4.174
 30
0.0
 11
0.7490000000000001
 21
4.154
 31
0.0
  0
LINE
  5
CC
330
18
100
AcDbEntity
  8
0
100
AcDbLine
 10
0.369
 20
4.194
 30
0.0
 11
0.54
 21
4.174
 31
0.0
  0
LINE
  5
CD
330
18
100
AcDbEntity
  8
0
100
AcDbLine
 10
0.318
 20
4.186
 30
0.0
 11
0.369
 21
4.194
 31
0.0
  0
LINE
  5
CE
330
18
100
AcDbEntity
  8
0
100
AcDbLine
 10
0.442
 20
4.56
 30
0.0
 11
0.586
 21
4.563
 31
0.0
  0
LINE
  5
CF
330
18
100
AcDbEntity
  8
0
100
AcDbLine
 10
0.287
 20
4.566
 30
0.0
 11
0.442
 21
4.56
 31
0.0
  0
LINE
  5
D0
330
18
100
AcDbEntity
  8
0
100
AcDbLine
 10
0.284
 20
4.565
 30
0.0
 11
0.287
 21
4.566
 31
0.0
  0
LINE
  5
D1
330
18
100
AcDbEntity
  8
0
100
AcDbLine
 10
0.64
 20
4.465
 30
0.0
 11
0.732
 21
4.468999999999999
 31
0.0
  0
LINE
  5
D2
330
18
100
AcDbEntity
  8
0
100
AcDbLine
 10
0.518
 20
4.456
 30
0.0
 11
0.64
 21
4.465
 31
0.0
  0
LINE
  5
D3
330
18
100
AcDbEntity
  8
0
100
AcDbLine
 10
0.393
 20
4.502
 30
0.0
 11
0.518
 21
4.456
 31
0.0
  0
LINE
  5
D4
330
18
100
AcDbEntity
  8
0
100
AcDbLine
 10
0.284
 20
4.487
 30
0.0
 11
0.393
 21
4.502
 31
0.0
  0
LINE
  5
D5
330
18
100
AcDbEntity
  8
0
100
AcDbLine
 10
0.825
 20
4.35
 30
0.0
 11
0.92
 21
4.348
 31
0.0
  0
LINE
  5
D6
330
18
100
AcDbEntity
  8
0
100
AcDbLine
 10
0.635
 20
4.37
 30
0.0
 11
0.825
 21
4.35
 31
0.0
  0
LINE
  5
D7
330
18
100
AcDbEntity
  8
0
100
AcDbLine
 10
0.476
 20
4.372
 30
0.0
 11
0.635
 21
4.37
 31
0.0
  0
LINE
  5
D8
330
18
100
AcDbEntity
  8
0
100
AcDbLine
 10
0.312
 20
4.387
 30
0.0
 11
0.476
 21
4.372
 31
0.0
  0
LINE
  5
D9
330
18
100
AcDbEntity
  8
0
100
AcDbLine
 10
0.284
 20
4.385
 30
0.0
 11
0.312
 21
4.387
 31
0.0
  0
LINE
  5
DA
330
18
100
AcDbEntity
  8
0
100
AcDbLine
 10
1.058
 20
4.204
 30
0.0
 11
1.143
 21
4.203
 31
0.0
  0
LINE
  5
DB
330
18
100
AcDbEntity
  8
0
100
AcDbLine
 10
0.893
 20
4.215
 30
0.0
 11
1.058
 21
4.204
 31
0.0
  0
LINE
  5
DC
330
18
100
AcDbEntity
  8
0
100
AcDbLine
 10
0.758
 20
4.233000000000001
 30
0.0
 11
0.893
 21
4.215
 31
0.0
  0
LINE
  5
DD
330
18
100
AcDbEntity
  8
0
100
AcDbLine
 10
0.609
 20
4.259
 30
0.0
 11
0.758
 21
4.233000000000001
 31
0.0
  0
LINE
  5
DE
330
18
100
AcDbEntity
  8
0
100
AcDbLine
 10
0.458
 20
4.277
 30
0.0
 11
0.609
 21
4.259
 31
0.0
  0
LINE
  5
DF
330
18
100
AcDbEntity
  8
0
100
AcDbLine
 10
0.284
 20
4.275
 30
0.0
 11
0.458
 21
4.277
 31
0.0
  0
LINE
  5
E0
330
18
100
AcDbEntity
  8
0
100
AcDbLine
 10
0.347
 20
4.662
 30
0.0
 11
0.424
 21
4.668
 31
0.0
  0
LINE
  5
E1
330
18
100
AcDbEntity
  8
0
100
AcDbLine
 10
0.284
 20
4.649
 30
0.0
 11
0.347
 21
4.662
 31
0.0
  0
LINE
  5
E2
330
18
100
AcDbEntity
  8
0
100
AcDbLine
 10
1.422
 20
3.578
 30
0.0
 11
1.566
 21
3.554
 31
0.0
  0
LINE
  5
E3
330
18
100
AcDbEntity
  8
0
100
AcDbLine
 10
1.248
 20
3.61
 30
0.0
 11
1.422
 21
3.578
 31
0.0
  0
LINE
  5
E4
330
18
100
AcDbEntity
  8
0
100
AcDbLine
 10
1.152
 20
3.605
 30
0.0
 11
1.248
 21
3.61
 31
0.0
  0
LINE
  5
E5
330
18
100
AcDbEntity
  8
0
100
AcDbLine
 10
1.01
 20
1.86
 30
0.0
 11
0.996
 21
1.893
 31
0.0
  0
LINE
  5
E6
330
18
100
AcDbEntity
  8
0
100
AcDbLine
 10
0.965
 20
1.815
 30
0.0
 11
1.01
 21
1.86
 31
0.0
  0
LINE
  5
E7
330
18
100
AcDbEntity
  8
0
100
AcDbLine
 10
0.9229999999999999
 20
1.822
 30
0.0
 11
0.965
 21
1.815
 31
0.0
  0
LINE
  5
E8
330
18
100
AcDbEntity
  8
0
100
AcDbLine
 10
0.9359999999999999
 20
1.874
 30
0.0
 11
0.9229999999999999
 21
1.822
 31
0.0
  0
LINE
  5
E9
330
18
100
AcDbEntity
  8
0
100
AcDbLine
 10
0.965
 20
1.911
 30
0.0
 11
0.9359999999999999
 21
1.874
 31
0.0
  0
LINE
  5
EA
330
18
100
AcDbEntity
  8
0
100
AcDbLine
 10
0.996
 20
1.893
 30
0.0
 11
0.965
 21
1.911
 31
0.0
  0
LINE
  5
EB
330
18
100
AcDbEntity
  8
0
100
AcDbLine
 10
1.096
 20
1.767
 30
0.0
 11
1.095
 21
1.813
 31
0.0
  0
LINE
  5
EC
330
18
100
AcDbEntity
  8
0
100
AcDbLine
 10
1.082
 20
1.752
 30
0.0
 11
1.096
 21
1.767
 31
0.0
  0
LINE
  5
ED
330
18
100
AcDbEntity
  8
0
100
AcDbLine
 10
1.054
 20
1.765
 30
0.0
 11
1.082
 21
1.752
 31
0.0
  0
LINE
  5
EE
330
18
100
AcDbEntity
  8
0
100
AcDbLine
 10
1.045
 20
1.79
 30
0.0
 11
1.054
 21
1.765
 31
0.0
  0
LINE
  5
EF
330
18
100
AcDbEntity
  8
0
100
AcDbLine
 10
1.07
 20
1.82
 30
0.0
 11
1.045
 21
1.79
 31
0.0
  0
LINE
  5
F0
330
18
100
AcDbEntity
  8
0
100
AcDbLine
 10
1.095
 20
1.813
 30
0.0
 11
1.07
 21
1.82
 31
0.0
  0
LINE
  5
F1
330
18
100
AcDbEntity
  8
0
100
AcDbLine
 10
0.9159999999999999
 20
1.948
 30
0.0
 11
0.895
 21
1.967
 31
0.0
  0
LINE
  5
F2
330
18
100
AcDbEntity
  8
0
100
AcDbLine
 10
0.909
 20
1.923
 30
0.0
 11
0.9159999999999999
 21
1.948
 31
0.0
  0
LINE
  5
F3
330
18
100
AcDbEntity
  8
0
100
AcDbLine
 10
0.882
 20
1.925
 30
0.0
 11
0.909
 21
1.923
 31
0.0
  0
LINE
  5
F4
330
18
100
AcDbEntity
  8
0
100
AcDbLine
 10
0.871
 20
1.944
 30
0.0
 11
0.882
 21
1.925
 31
0.0
  0
LINE
  5
F5
330
18
100
AcDbEntity
  8
0
100
AcDbLine
 10
0.895
 20
1.967
 30
0.0
 11
0.871
 21
1.944
 31
0.0
  0
LINE
  5
F6
330
18
100
AcDbEntity
  8
0
100
AcDbLine
 10
3.621
 20
1.59
 30
0.0
 11
3.631
 21
1.614
 31
0.0
  0
LINE
  5
F7
330
18
100
AcDbEntity
  8
0
100
AcDbLine
 10
3.54
 20
1.521
 30
0.0
 11
3.621
 21
1.59
 31
0.0
  0
LINE
  5
F8
330
18
100
AcDbEntity
  8
0
100
AcDbLine
 10
3.439
 20
1.496
 30
0.0
 11
3.54
 21
1.521
 31
0.0
  0
LINE
  5
F9
330
18
100
AcDbEntity
  8
0
100
AcDbLine
 10
3.315
 20
1.441
 30
0.0
 11
3.439
 21
1.496
 31
0.0
  0
LINE
  5
FA
330
18
100
AcDbEntity
  8
0
100
AcDbLine
 10
3.195
 20
1.454
 30
0.0
 11
3.315
 21
1.441
 31
0.0
  0
LINE
  5
FB
330
18
100
AcDbEntity
  8
0
100
AcDbLine
 10
3.07
 20
1.486
 30
0.0
 11
3.195
 21
1.454
 31
0.0
  0
LINE
  5
FC
330
18
100
AcDbEntity
  8
0
100
AcDbLine
 10
2.932
 20
1.424
 30
0.0
 11
3.07
 21
1.486
 31
0.0
  0
LINE
  5
FD
330
18
100
AcDbEntity
  8
0
100
AcDbLine
 10
2.794
 20
1.394
 30
0.0
 11
2.932
 21
1.424
 31
0.0
  0
LINE
  5
FE
330
18
100
AcDbEntity
  8
0
100
AcDbLine
 10
2.596
 20
1.405
 30
0.0
 11
2.794
 21
1.394
 31
0.0
  0
LINE
  5
FF
330
18
100
AcDbEntity
  8
0
100
AcDbLine
 10
2.458
 20
1.437
 30
0.0
 11
2.596
 21
1.405
 31
0.0
  0
LINE
  5
100
330
18
100
AcDbEntity
  8
0
100
AcDbLine
 10
2.298
 20
1.511
 30
0.0
 11
2.458
 21
1.437
 31
0.0
  0
LINE
  5
101
330
18
100
AcDbEntity
  8
0
100
AcDbLine
 10
2.718
 20
1.475
 30
0.0
 11
2.717
 21
1.521
 31
0.0
  0
LINE
  5
102
330
18
100
AcDbEntity
  8
0
100
AcDbLine
 10
2.704
 20
1.46
 30
0.0
 11
2.718
 21
1.475
 31
0.0
  0
LINE
  5
103
330
18
100
AcDbEntity
  8
0
100
AcDbLine
 10
2.677
 20
1.473
 30
0.0
 11
2.704
 21
1.46
 31
0.0
  0
LINE
  5
104
330
18
100
AcDbEntity
  8
0
100
AcDbLine
 10
2.667
 20
1.499
 30
0.0
 11
2.677
 21
1.473
 31
0.0
  0
LINE
  5
105
330
18
100
AcDbEntity
  8
0
100
AcDbLine
 10
2.692
 20
1.528
 30
0.0
 11
2.667
 21
1.499
 31
0.0
  0
LINE
  5
106
330
18
100
AcDbEntity
  8
0
100
AcDbLine
 10
2.717
 20
1.521
 30
0.0
 11
2.692
 21
1.528
 31
0.0
  0
LINE
  5
107
330
18
100
AcDbEntity
  8
0
100
AcDbLine
 10
3.005
 20
1.535
 30
0.0
 11
2.991
 21
1.567
 31
0.0
  0
LINE
  5
108
330
18
100
AcDbEntity
  8
0
100
AcDbLine
 10
2.96
 20
1.49
 30
0.0
 11
3.005
 21
1.535
 31
0.0
  0
LINE
  5
109
330
18
100
AcDbEntity
  8
0
100
AcDbLine
 10
2.918
 20
1.496
 30
0.0
 11
2.96
 21
1.49
 31
0.0
  0
LINE
  5
10A
330
18
100
AcDbEntity
  8
0
100
AcDbLine
 10
2.93
 20
1.548
 30
0.0
 11
2.918
 21
1.496
 31
0.0
  0
LINE
  5
10B
330
18
100
AcDbEntity
  8
0
100
AcDbLine
 10
2.959
 20
1.586
 30
0.0
 11
2.93
 21
1.548
 31
0.0
  0
LINE
  5
10C
330
18
100
AcDbEntity
  8
0
100
AcDbLine
 10
2.991
 20
1.567
 30
0.0
 11
2.959
 21
1.586
 31
0.0
  0
LINE
  5
10D
330
18
100
AcDbEntity
  8
0
100
AcDbLine
 10
3.343
 20
1.509
 30
0.0
 11
3.323
 21
1.528
 31
0.0
  0
LINE
  5
10E
330
18
100
AcDbEntity
  8
0
100
AcDbLine
 10
3.336
 20
1.483
 30
0.0
 11
3.343
 21
1.509
 31
0.0
  0
LINE
  5
10F
330
18
100
AcDbEntity
  8
0
100
AcDbLine
 10
3.309
 20
1.486
 30
0.0
 11
3.336
 21
1.483
 31
0.0
  0
LINE
  5
110
330
18
100
AcDbEntity
  8
0
100
AcDbLine
 10
3.299
 20
1.505
 30
0.0
 11
3.309
 21
1.486
 31
0.0
  0
LINE
  5
111
330
18
100
AcDbEntity
  8
0
100
AcDbLine
 10
3.323
 20
1.528
 30
0.0
 11
3.299
 21
1.505
 31
0.0
  0
LINE
  5
112
330
18
100
AcDbEntity
  8
0
100
AcDbLine
 10
3.159
 20
1.533
 30
0.0
 11
3.139
 21
1.552
 31
0.0
  0
LINE
  5
113
330
18
100
AcDbEntity
  8
0
100
AcDbLine
 10
3.152
 20
1.507
 30
0.0
 11
3.159
 21
1.533
 31
0.0
  0
LINE
  5
114
330
18
100
AcDbEntity
  8
0
100
AcDbLine
 10
3.125
 20
1.51
 30
0.0
 11
3.152
 21
1.507
 31
0.0
  0
LINE
  5
115
330
18
100
AcDbEntity
  8
0
100
AcDbLine
 10
3.114
 20
1.529
 30
0.0
 11
3.125
 21
1.51
 31
0.0
  0
LINE
  5
116
330
18
100
AcDbEntity
  8
0
100
AcDbLine
 10
3.139
 20
1.552
 30
0.0
 11
3.114
 21
1.529
 31
0.0
  0
LINE
  5
117
330
18
100
AcDbEntity
  8
0
100
AcDbLine
 10
2.539
 20
1.491
 30
0.0
 11
2.519
 21
1.51
 31
0.0
  0
LINE
  5
118
330
18
100
AcDbEntity
  8
0
100
AcDbLine
 10
2.532
 20
1.465
 30
0.0
 11
2.539
 21
1.491
 31
0.0
  0
LINE
  5
119
330
18
100
AcDbEntity
  8
0
100
AcDbLine
 10
2.505
 20
1.468
 30
0.0
 11
2.532
 21
1.465
 31
0.0
  0
LINE
  5
11A
330
18
100
AcDbEntity
  8
0
100
AcDbLine
 10
2.494
 20
1.487
 30
0.0
 11
2.505
 21
1.468
 31
0.0
  0
LINE
  5
11B
330
18
100
AcDbEntity
  8
0
100
AcDbLine
 10
2.519
 20
1.51
 30
0.0
 11
2.494
 21
1.487
 31
0.0
  0
LINE
  5
11C
330
18
100
AcDbEntity
  8
0
100
AcDbLine
 10
6.331
 20
4.475
 30
0.0
 11
6.311
 21
4.494
 31
0.0
  0
LINE
  5
11D
330
18
100
AcDbEntity
  8
0
100
AcDbLine
 10
6.324
 20
4.45
 30
0.0
 11
6.331
 21
4.475
 31
0.0
  0
LINE
  5
11E
330
18
100
AcDbEntity
  8
0
100
AcDbLine
 10
6.297000000000001
 20
4.452
 30
0.0
 11
6.324
 21
4.45
 31
0.0
  0
LINE
  5
11F
330
18
100
AcDbEntity
  8
0
100
AcDbLine
 10
6.286000000000001
 20
4.471
 30
0.0
 11
6.297000000000001
 21
4.452
 31
0.0
  0
LINE
  5
120
330
18
100
AcDbEntity
  8
0
100
AcDbLine
 10
6.311
 20
4.494
 30
0.0
 11
6.286000000000001
 21
4.471
 31
0.0
  0
LINE
  5
121
330
18
100
AcDbEntity
  8
0
100
AcDbLine
 10
6.397
 20
4.593999999999999
 30
0.0
 11
6.396
 21
4.638999999999999
 31
0.0
  0
LINE
  5
122
330
18
100
AcDbEntity
  8
0
100
AcDbLine
 10
6.382999999999999
 20
4.578
 30
0.0
 11
6.397
 21
4.593999999999999
 31
0.0
  0
LINE
  5
123
330
18
100
AcDbEntity
  8
0
100
AcDbLine
 10
6.356
 20
4.591
 30
0.0
 11
6.382999999999999
 21
4.578
 31
0.0
  0
LINE
  5
124
330
18
100
AcDbEntity
  8
0
100
AcDbLine
 10
6.346
 20
4.617
 30
0.0
 11
6.356
 21
4.591
 31
0.0
  0
LINE
  5
125
330
18
100
AcDbEntity
  8
0
100
AcDbLine
 10
6.371
 20
4.646
 30
0.0
 11
6.346
 21
4.617
 31
0.0
  0
LINE
  5
126
330
18
100
AcDbEntity
  8
0
100
AcDbLine
 10
6.396
 20
4.638999999999999
 30
0.0
 11
6.371
 21
4.646
 31
0.0
  0
LINE
  5
127
330
18
100
AcDbEntity
  8
0
100
AcDbLine
 10
6.347
 20
4.326000000000001
 30
0.0
 11
6.327000000000001
 21
4.343999999999999
 31
0.0
  0
LINE
  5
128
330
18
100
AcDbEntity
  8
0
100
AcDbLine
 10
6.34
 20
4.3
 30
0.0
 11
6.347
 21
4.326000000000001
 31
0.0
  0
LINE
  5
129
330
18
100
AcDbEntity
  8
0
100
AcDbLine
 10
6.313
 20
4.303
 30
0.0
 11
6.34
 21
4.3
 31
0.0
  0
LINE
  5
12A
330
18
100
AcDbEntity
  8
0
100
AcDbLine
 10
6.302000000000001
 20
4.322
 30
0.0
 11
6.313
 21
4.303
 31
0.0
  0
LINE
  5
12B
330
18
100
AcDbEntity
  8
0
100
AcDbLine
 10
6.327000000000001
 20
4.343999999999999
 30
0.0
 11
6.302000000000001
 21
4.322
 31
0.0
  0
LINE
  5
12C
330
18
100
AcDbEntity
  8
0
100
AcDbLine
 10
1.566
 20
3.93
 30
0.0
 11
6.22
 21
5.632999999999999
 31
0.0
  0
LINE
  5
12D
330
18
100
AcDbEntity
  8
0
100
AcDbLine
 10
1.566
 20
3.317
 30
0.0
 11
3.008
 21
3.877
 31
0.0
  0
LINE
  5
12E
330
18
100
AcDbEntity
  8
0
100
AcDbLine
 10
1.566
 20
3.93
 30
0.0
 11
1.566
 21
1.281
 31
0.0
  0
LINE
  5
12F
330
18
100
AcDbEntity
  8
0
100
AcDbLine
 10
6.226
 20
5.129
 30
0.0
 11
6.22
 21
5.632999999999999
 31
0.0
  0
LINE
  5
130
330
18
100
AcDbEntity
  8
0
100
AcDbLine
 10
0.284
 20
4.758
 30
0.0
 11
1.566
 21
3.93
 31
0.0
  0
LINE
  5
131
330
18
100
AcDbEntity
  8
0
100
AcDbLine
 10
0.284
 20
4.21
 30
0.0
 11
1.566
 21
3.317
 31
0.0
  0
LINE
  5
132
330
18
100
AcDbEntity
  8
0
100
AcDbLine
 10
0.284
 20
4.758
 30
0.0
 11
0.284
 21
2.01
 31
0.0
  0
LINE
  5
133
330
18
100
AcDbEntity
  8
0
100
AcDbLine
 10
0.284
 20
4.758
 30
0.0
 11
4.928999999999999
 21
6.252000000000001
 31
0.0
  0
LINE
  5
134
330
18
100
AcDbEntity
  8
0
100
AcDbLine
 10
4.928999999999999
 20
6.252000000000001
 30
0.0
 11
5.448
 21
6.002999999999999
 31
0.0
  0
LINE
  5
135
330
18
100
AcDbEntity
  8
0
100
AcDbLine
 10
5.448
 20
6.002999999999999
 30
0.0
 11
5.726
 21
6.017
 31
0.0
  0
LINE
  5
136
330
18
100
AcDbEntity
  8
0
100
AcDbLine
 10
5.726
 20
6.017
 30
0.0
 11
5.516
 21
5.807
 31
0.0
  0
LINE
  5
137
330
18
100
AcDbEntity
  8
0
100
AcDbLine
 10
5.516
 20
5.807
 30
0.0
 11
5.776
 21
5.846
 31
0.0
  0
LINE
  5
138
330
18
100
AcDbEntity
  8
0
100
AcDbLine
 10
5.776
 20
5.846
 30
0.0
 11
6.22
 21
5.632999999999999
 31
0.0
  0
LINE
  5
139
330
18
100
AcDbEntity
  8
0
100
AcDbLine
 10
5.728
 20
5.837999999999999
 30
0.0
 11
5.726
 21
6.017
 31
0.0
  0
LINE
  5
13A
330
18
100
AcDbEntity
  8
0
100
AcDbLine
 10
5.652
 20
5.944
 30
0.0
 11
5.706
 21
5.835
 31
0.0
  0
LINE
  5
13B
330
18
100
AcDbEntity
  8
0
100
AcDbLine
 10
5.586
 20
5.877999999999999
 30
0.0
 11
5.616000000000001
 21
5.822
 31
0.0
  0
LINE
  5
13C
330
18
100
AcDbEntity
  8
0
100
AcDbLine
 10
6.223
 20
5.377999999999999
 30
0.0
 11
6.511
 21
5.24
 31
0.0
  0
LINE
  5
13D
330
18
100
AcDbEntity
  8
0
100
AcDbLine
 10
4.849
 20
3.325
 30
0.0
 11
3.002
 21
4.456
 31
0.0
  0
LINE
  5
13E
330
18
100
AcDbEntity
  8
0
100
AcDbLine
 10
5.827000000000001
 20
3.757
 30
0.0
 11
4.056
 21
4.841
 31
0.0
  0
LINE
  5
13F
330
18
100
AcDbEntity
  8
0
100
AcDbLine
 10
4.849
 20
3.325
 30
0.0
 11
5.827000000000001
 21
3.757
 31
0.0
  0
LINE
  5
140
330
18
100
AcDbEntity
  8
0
100
AcDbLine
 10
4.612
 20
4.501
 30
0.0
 11
6.511
 21
5.24
 31
0.0
  0
LINE
  5
141
330
18
100
AcDbEntity
  8
0
100
AcDbLine
 10
4.871
 20
1.194
 30
0.0
 11
4.863
 21
1.958
 31
0.0
  0
LINE
  5
142
330
18
100
AcDbEntity
  8
0
100
AcDbLine
 10
5.848
 20
1.684
 30
0.0
 11
5.84
 21
2.472
 31
0.0
  0
LINE
  5
143
330
18
100
AcDbEntity
  8
0
100
AcDbLine
 10
4.871
 20
1.194
 30
0.0
 11
5.848
 21
1.684
 31
0.0
  0
LINE
  5
144
330
18
100
AcDbEntity
  8
0
100
AcDbLine
 10
4.863
 20
1.958
 30
0.0
 11
4.767
 21
2.265
 31
0.0
  0
LINE
  5
145
330
18
100
AcDbEntity
  8
0
100
AcDbLine
 10
4.767
 20
2.265
 30
0.0
 11
5.013999999999999
 21
2.259
 31
0.0
  0
LINE
  5
146
330
18
100
AcDbEntity
  8
0
100
AcDbLine
 10
5.013999999999999
 20
2.259
 30
0.0
 11
4.857
 21
2.503
 31
0.0
  0
LINE
  5
147
330
18
100
AcDbEntity
  8
0
100
AcDbLine
 10
4.857
 20
2.503
 30
0.0
 11
4.849
 21
3.325
 31
0.0
  0
LINE
  5
148
330
18
100
AcDbEntity
  8
0
100
AcDbLine
 10
4.855
 20
1.978
 30
0.0
 11
5.842000000000001
 21
2.473
 31
0.0
  0
LINE
  5
149
330
18
100
AcDbEntity
  8
0
100
AcDbLine
 10
5.013999999999999
 20
2.259
 30
0.0
 11
5.991000000000001
 21
2.749
 31
0.0
  0
LINE
  5
14A
330
18
100
AcDbEntity
  8
0
100
AcDbLine
 10
4.857
 20
2.503
 30
0.0
 11
5.835
 21
2.992
 31
0.0
  0
LINE
  5
14B
330
18
100
AcDbEntity
  8
0
100
AcDbLine
 10
5.991000000000001
 20
2.749
 30
0.0
 11
5.835
 21
2.992
 31
0.0
  0
LINE
  5
14C
330
18
100
AcDbEntity
  8
0
100
AcDbLine
 10
5.835
 20
2.992
 30
0.0
 11
5.827000000000001
 21
3.757
 31
0.0
  0
LINE
  5
14D
330
18
100
AcDbEntity
  8
0
100
AcDbLine
 10
5.842000000000001
 20
2.473
 30
0.0
 11
5.787000000000001
 21
2.647
 31
0.0
  0
LINE
  5
14E
330
18
100
AcDbEntity
  8
0
100
AcDbLine
 10
5.159
 20
2.12
 30
0.0
 11
5.027
 21
2.265
 31
0.0
  0
LINE
  5
14F
330
18
100
AcDbEntity
  8
0
100
AcDbLine
 10
5.315
 20
2.209
 30
0.0
 11
5.181
 21
2.343
 31
0.0
  0
LINE
  5
150
330
18
100
AcDbEntity
  8
0
100
AcDbLine
 10
5.443
 20
2.253
 30
0.0
 11
5.31
 21
2.407
 31
0.0
  0
LINE
  5
151
330
18
100
AcDbEntity
  8
0
100
AcDbLine
 10
5.58
 20
2.342
 30
0.0
 11
5.452000000000001
 21
2.479
 31
0.0
  0
LINE
  5
152
330
18
100
AcDbEntity
  8
0
100
AcDbLine
 10
5.729
 20
2.416
 30
0.0
 11
5.597
 21
2.551
 31
0.0
  0
LINE
  5
153
330
18
100
AcDbEntity
  8
0
100
AcDbLine
 10
5.82
 20
2.54
 30
0.0
 11
5.742000000000001
 21
2.624
 31
0.0
  0
LINE
  5
154
330
18
100
AcDbEntity
  8
0
100
AcDbLine
 10
4.932
 20
2.54
 30
0.0
 11
4.947
 21
2.363
 31
0.0
  0
LINE
  5
155
330
18
100
AcDbEntity
  8
0
100
AcDbLine
 10
5.037
 20
2.593
 30
0.0
 11
5.063
 21
2.284
 31
0.0
  0
LINE
  5
156
330
18
100
AcDbEntity
  8
0
100
AcDbLine
 10
5.151
 20
2.65
 30
0.0
 11
5.178
 21
2.341
 31
0.0
  0
LINE
  5
157
330
18
100
AcDbEntity
  8
0
100
AcDbLine
 10
5.294
 20
2.721
 30
0.0
 11
5.321000000000001
 21
2.413
 31
0.0
  0
LINE
  5
158
330
18
100
AcDbEntity
  8
0
100
AcDbLine
 10
5.425
 20
2.786
 30
0.0
 11
5.468999999999999
 21
2.487
 31
0.0
  0
LINE
  5
159
330
18
100
AcDbEntity
  8
0
100
AcDbLine
 10
5.571000000000001
 20
2.86
 30
0.0
 11
5.614
 21
2.56
 31
0.0
  0
LINE
  5
15A
330
18
100
AcDbEntity
  8
0
100
AcDbLine
 10
5.718999999999999
 20
2.935
 30
0.0
 11
5.759
 21
2.633
 31
0.0
  0
LINE
  5
15B
330
18
100
AcDbEntity
  8
0
100
AcDbLine
 10
5.887000000000001
 20
2.91
 30
0.0
 11
5.914
 21
2.71
 31
0.0
  0
LINE
  5
15C
330
18
100
AcDbEntity
  8
0
100
AcDbLine
 10
4.871
 20
1.194
 30
0.0
 11
3.776
 21
1.957
 31
0.0
  0
LINE
  5
15D
330
18
100
AcDbEntity
  8
0
100
AcDbLine
 10
3.002
 20
4.456
 30
0.0
 11
3.014
 21
3.264
 31
0.0
  0
LINE
  5
15E
330
18
100
AcDbEntity
  8
0
100
AcDbLine
 10
2.484
 20
3.581
 30
0.0
 11
2.495
 21
2.496
 31
0.0
  0
ARC
  5
15F
330
18
100
AcDbEntity
  8
0
100
AcDbCircle
 10
2.318
 20
3.556
 30
0.0
 40
0.167
100
AcDbArc
 50
8.841000000000001
 51
38.719
  0
LINE
  5
160
330
18
100
AcDbEntity
  8
0
100
AcDbLine
 10
2.534
 20
3.582
 30
0.0
 11
2.545
 21
2.465
 31
0.0
  0
ARC
  5
161
330
18
100
AcDbEntity
  8
0
100
AcDbCircle
 10
2.318
 20
3.556
 30
0.0
 40
0.217
100
AcDbArc
 50
8.841000000000001
 51
34.613
  0
LINE
  5
162
330
18
100
AcDbEntity
  8
0
100
AcDbLine
 10
2.534
 20
3.582
 30
0.0
 11
2.533
 21
3.589
 31
0.0
  0
LINE
  5
163
330
18
100
AcDbEntity
  8
0
100
AcDbLine
 10
2.545
 20
2.465
 30
0.0
 11
2.945
 21
2.642
 31
0.0
  0
LINE
  5
164
330
18
100
AcDbEntity
  8
0
100
AcDbLine
 10
2.545
 20
2.465
 30
0.0
 11
2.495
 21
2.496
 31
0.0
  0
LINE
  5
165
330
18
100
AcDbEntity
  8
0
100
AcDbLine
 10
3.716
 20
1.901
 30
0.0
 11
2.947
 21
2.436
 31
0.0
  0
LINE
  5
166
330
18
100
AcDbEntity
  8
0
100
AcDbLine
 10
3.716
 20
1.901
 30
0.0
 11
3.707
 21
2.724
 31
0.0
  0
LINE
  5
167
330
18
100
AcDbEntity
  8
0
100
AcDbLine
 10
3.765
 20
1.977
 30
0.0
 11
3.757
 21
2.746
 31
0.0
  0
LINE
  5
168
330
18
100
AcDbEntity
  8
0
100
AcDbLine
 10
3.707
 20
2.724
 30
0.0
 11
3.757
 21
2.746
 31
0.0
  0
ARC
  5
169
330
18
100
AcDbEntity
  8
0
100
AcDbCircle
 10
3.79
 20
1.977
 30
0.0
 40
0.025
100
AcDbArc
 50
180.596
 51
235.149
  0
ARC
  5
16A
330
18
100
AcDbEntity
  8
0
100
AcDbCircle
 10
3.757
 20
1.959
 30
0.0
 40
0.071
100
AcDbArc
 50
234.412
 51
332.352
  0
LINE
  5
16B
330
18
100
AcDbEntity
  8
0
100
AcDbLine
 10
3.707
 20
2.724
 30
0.0
 11
2.939
 21
3.259
 31
0.0
  0
LINE
  5
16C
330
18
100
AcDbEntity
  8
0
100
AcDbLine
 10
3.757
 20
2.746
 30
0.0
 11
2.989
 21
3.281
 31
0.0
  0
LINE
  5
16D
330
18
100
AcDbEntity
  8
0
100
AcDbLine
 10
2.939
 20
3.259
 30
0.0
 11
2.989
 21
3.281
 31
0.0
  0
LINE
  5
16E
330
18
100
AcDbEntity
  8
0
100
AcDbLine
 10
2.947
 20
2.436
 30
0.0
 11
2.945
 21
2.666
 31
0.0
  0
ARC
  5
16F
330
18
100
AcDbEntity
  8
0
100
AcDbCircle
 10
2.933
 20
3.043
 30
0.0
 40
0.097
100
AcDbArc
 50
56.403
 51
114.958
  0
ARC
  5
170
330
18
100
AcDbEntity
  8
0
100
AcDbCircle
 10
2.933
 20
3.001
 30
0.0
 40
0.097
100
AcDbArc
 50
56.403
 51
114.958
  0
ARC
  5
171
330
18
100
AcDbEntity
  8
0
100
AcDbCircle
 10
2.934
 20
2.959
 30
0.0
 40
0.097
100
AcDbArc
 50
56.403
 51
114.958
  0
ARC
  5
172
330
18
100
AcDbEntity
  8
0
100
AcDbCircle
 10
2.934
 20
2.917
 30
0.0
 40
0.097
100
AcDbArc
 50
56.403
 51
114.958
  0
ARC
  5
173
330
18
100
AcDbEntity
  8
0
100
AcDbCircle
 10
2.934
 20
2.875
 30
0.0
 40
0.097
100
AcDbArc
 50
56.403
 51
114.958
  0
ARC
  5
174
330
18
100
AcDbEntity
  8
0
100
AcDbCircle
 10
2.935
 20
2.834
 30
0.0
 40
0.097
100
AcDbArc
 50
56.403
 51
114.958
  0
ARC
  5
175
330
18
100
AcDbEntity
  8
0
100
AcDbCircle
 10
2.935
 20
2.792
 30
0.0
 40
0.097
100
AcDbArc
 50
56.403
 51
114.958
  0
ARC
  5
176
330
18
100
AcDbEntity
  8
0
100
AcDbCircle
 10
2.936
 20
2.75
 30
0.0
 40
0.097
100
AcDbArc
 50
56.403
 51
114.958
  0
ARC
  5
177
330
18
100
AcDbEntity
  8
0
100
AcDbCircle
 10
2.936
 20
2.709
 30
0.0
 40
0.097
100
AcDbArc
 50
56.403
 51
114.958
  0
ARC
  5
178
330
18
100
AcDbEntity
  8
0
100
AcDbCircle
 10
2.937
 20
2.667
 30
0.0
 40
0.097
100
AcDbArc
 50
56.403
 51
114.958
  0
ARC
  5
179
330
18
100
AcDbEntity
  8
0
100
AcDbCircle
 10
2.937
 20
2.625
 30
0.0
 40
0.097
100
AcDbArc
 50
56.403
 51
114.958
  0
ARC
  5
17A
330
18
100
AcDbEntity
  8
0
100
AcDbCircle
 10
2.938
 20
2.584
 30
0.0
 40
0.097
100
AcDbArc
 50
56.403
 51
114.958
  0
LINE
  5
17B
330
18
100
AcDbEntity
  8
0
100
AcDbLine
 10
2.94
 20
3.162
 30
0.0
 11
2.939
 21
3.259
 31
0.0
  0
POINT
  5
17C
330
18
100
AcDbEntity
  8
0
100
AcDbPoint
 10
5.087
 20
4.342
 30
0.0
  0
POINT
  5
17D
330
18
100
AcDbEntity
  8
0
100
AcDbPoint
 10
5.223
 20
4.542
 30
0.0
  0
POINT
  5
17E
330
18
100
AcDbEntity
  8
0
100
AcDbPoint
 10
5.01
 20
4.476
 30
0.0
  0
POINT
  5
17F
330
18
100
AcDbEntity
  8
0
100
AcDbPoint
 10
5.231
 20
4.395
 30
0.0
  0
POINT
  5
180
330
18
100
AcDbEntity
  8
0
100
AcDbPoint
 10
5.299
 20
4.468
 30
0.0
  0
POINT
  5
181
330
18
100
AcDbEntity
  8
0
100
AcDbPoint
 10
5.428999999999999
 20
4.314
 30
0.0
  0
POINT
  5
182
330
18
100
AcDbEntity
  8
0
100
AcDbPoint
 10
5.597
 20
4.056
 30
0.0
  0
POINT
  5
183
330
18
100
AcDbEntity
  8
0
100
AcDbPoint
 10
5.965
 20
4.365
 30
0.0
  0
POINT
  5
184
330
18
100
AcDbEntity
  8
0
100
AcDbPoint
 10
5.626
 20
4.776
 30
0.0
  0
POINT
  5
185
330
18
100
AcDbEntity
  8
0
100
AcDbPoint
 10
5.904
 20
4.861000000000001
 30
0.0
  0
POINT
  5
186
330
18
100
AcDbEntity
  8
0
100
AcDbPoint
 10
6.292999999999999
 20
3.923
 30
0.0
  0
POINT
  5
187
330
18
100
AcDbEntity
  8
0
100
AcDbPoint
 10
6.352
 20
4.287
 30
0.0
  0
POINT
  5
188
330
18
100
AcDbEntity
  8
0
100
AcDbPoint
 10
6.305
 20
4.419
 30
0.0
  0
POINT
  5
189
330
18
100
AcDbEntity
  8
0
100
AcDbPoint
 10
6.345
 20
4.374
 30
0.0
  0
POINT
  5
18A
330
18
100
AcDbEntity
  8
0
100
AcDbPoint
 10
6.384
 20
4.436
 30
0.0
  0
POINT
  5
18B
330
18
100
AcDbEntity
  8
0
100
AcDbPoint
 10
6.35
 20
4.51
 30
0.0
  0
POINT
  5
18C
330
18
100
AcDbEntity
  8
0
100
AcDbPoint
 10
3.134
 20
2.041
 30
0.0
  0
POINT
  5
18D
330
18
100
AcDbEntity
  8
0
100
AcDbPoint
 10
2.632
 20
2.017
 30
0.0
  0
POINT
  5
18E
330
18
100
AcDbEntity
  8
0
100
AcDbPoint
 10
2.746
 20
2.452
 30
0.0
  0
POINT
  5
18F
330
18
100
AcDbEntity
  8
0
100
AcDbPoint
 10
2.836
 20
2.528
 30
0.0
  0
POINT
  5
190
330
18
100
AcDbEntity
  8
0
100
AcDbPoint
 10
2.46
 20
2.995
 30
0.0
  0
POINT
  5
191
330
18
100
AcDbEntity
  8
0
100
AcDbPoint
 10
2.424
 20
3.274
 30
0.0
  0
POINT
  5
192
330
18
100
AcDbEntity
  8
0
100
AcDbPoint
 10
2.41
 20
3.512
 30
0.0
  0
POINT
  5
193
330
18
100
AcDbEntity
  8
0
100
AcDbPoint
 10
2.216
 20
3.361
 30
0.0
  0
POINT
  5
194
330
18
100
AcDbEntity
  8
0
100
AcDbPoint
 10
2.312
 20
3.032
 30
0.0
  0
POINT
  5
195
330
18
100
AcDbEntity
  8
0
100
AcDbPoint
 10
2.259
 20
2.941
 30
0.0
  0
POINT
  5
196
330
18
100
AcDbEntity
  8
0
100
AcDbPoint
 10
2.194
 20
3.085
 30
0.0
  0
POINT
  5
197
330
18
100
AcDbEntity
  8
0
100
AcDbPoint
 10
2.038
 20
3.186
 30
0.0
  0
POINT
  5
198
330
18
100
AcDbEntity
  8
0
100
AcDbPoint
 10
2.041
 20
3.341
 30
0.0
  0
POINT
  5
199
330
18
100
AcDbEntity
  8
0
100
AcDbPoint
 10
1.814
 20
3.319
 30
0.0
  0
POINT
  5
19A
330
18
100
AcDbEntity
  8
0
100
AcDbPoint
 10
1.881
 20
3.156
 30
0.0
  0
POINT
  5
19B
330
18
100
AcDbEntity
  8
0
100
AcDbPoint
 10
1.645
 20
3.249
 30
0.0
  0
POINT
  5
19C
330
18
100
AcDbEntity
  8
0
100
AcDbPoint
 10
1.663
 20
2.994
 30
0.0
  0
POINT
  5
19D
330
18
100
AcDbEntity
  8
0
100
AcDbPoint
 10
1.828
 20
2.876
 30
0.0
  0
POINT
  5
19E
330
18
100
AcDbEntity
  8
0
100
AcDbPoint
 10
1.663
 20
2.923
 30
0.0
  0
POINT
  5
19F
330
18
100
AcDbEntity
  8
0
100
AcDbPoint
 10
1.661
 20
2.785
 30
0.0
  0
POINT
  5
1A0
330
18
100
AcDbEntity
  8
0
100
AcDbPoint
 10
1.676
 20
2.593
 30
0.0
  0
POINT
  5
1A1
330
18
100
AcDbEntity
  8
0
100
AcDbPoint
 10
1.809
 20
2.59
 30
0.0
  0
POINT
  5
1A2
330
18
100
AcDbEntity
  8
0
100
AcDbPoint
 10
1.736
 20
2.345
 30
0.0
  0
POINT
  5
1A3
330
18
100
AcDbEntity
  8
0
100
AcDbPoint
 10
1.648
 20
2.326
 30
0.0
  0
POINT
  5
1A4
330
18
100
AcDbEntity
  8
0
100
AcDbPoint
 10
1.641
 20
2.075
 30
0.0
  0
POINT
  5
1A5
330
18
100
AcDbEntity
  8
0
100
AcDbPoint
 10
1.906
 20
2.181
 30
0.0
  0
POINT
  5
1A6
330
18
100
AcDbEntity
  8
0
100
AcDbPoint
 10
2.016
 20
2.4
 30
0.0
  0
POINT
  5
1A7
330
18
100
AcDbEntity
  8
0
100
AcDbPoint
 10
2.274
 20
2.435
 30
0.0
  0
POINT
  5
1A8
330
18
100
AcDbEntity
  8
0
100
AcDbPoint
 10
2.005
 20
2.929
 30
0.0
  0
POINT
  5
1A9
330
18
100
AcDbEntity
  8
0
100
AcDbPoint
 10
1.55
 20
3.3
 30
0.0
  0
POINT
  5
1AA
330
18
100
AcDbEntity
  8
0
100
AcDbPoint
 10
1.436
 20
3.332
 30
0.0
  0
POINT
  5
1AB
330
18
100
AcDbEntity
  8
0
100
AcDbPoint
 10
1.439
 20
3.131
 30
0.0
  0
POINT
  5
1AC
330
18
100
AcDbEntity
  8
0
100
AcDbPoint
 10
1.423
 20
3.001
 30
0.0
  0
POINT
  5
1AD
330
18
100
AcDbEntity
  8
0
100
AcDbPoint
 10
1.461
 20
3.202
 30
0.0
  0
POINT
  5
1AE
330
18
100
AcDbEntity
  8
0
100
AcDbPoint
 10
1.475
 20
3.186
 30
0.0
  0
POINT
  5
1AF
330
18
100
AcDbEntity
  8
0
100
AcDbPoint
 10
1.495
 20
3.092
 30
0.0
  0
POINT
  5
1B0
330
18
100
AcDbEntity
  8
0
100
AcDbPoint
 10
1.499
 20
2.973
 30
0.0
  0
POINT
  5
1B1
330
18
100
AcDbEntity
  8
0
100
AcDbPoint
 10
1.319
 20
3.056
 30
0.0
  0
POINT
  5
1B2
330
18
100
AcDbEntity
  8
0
100
AcDbPoint
 10
1.326
 20
3.246
 30
0.0
  0
POINT
  5
1B3
330
18
100
AcDbEntity
  8
0
100
AcDbPoint
 10
1.243
 20
3.307
 30
0.0
  0
POINT
  5
1B4
330
18
100
AcDbEntity
  8
0
100
AcDbPoint
 10
1.233
 20
3.164
 30
0.0
  0
POINT
  5
1B5
330
18
100
AcDbEntity
  8
0
100
AcDbPoint
 10
1.124
 20
3.32
 30
0.0
  0
POINT
  5
1B6
330
18
100
AcDbEntity
  8
0
100
AcDbPoint
 10
1.116
 20
3.496
 30
0.0
  0
POINT
  5
1B7
330
18
100
AcDbEntity
  8
0
100
AcDbPoint
 10
0.9379999999999999
 20
3.631
 30
0.0
  0
POINT
  5
1B8
330
18
100
AcDbEntity
  8
0
100
AcDbPoint
 10
0.74
 20
3.752
 30
0.0
  0
POINT
  5
1B9
330
18
100
AcDbEntity
  8
0
100
AcDbPoint
 10
0.78
 20
3.588
 30
0.0
  0
POINT
  5
1BA
330
18
100
AcDbEntity
  8
0
100
AcDbPoint
 10
0.985
 20
3.553
 30
0.0
  0
POINT
  5
1BB
330
18
100
AcDbEntity
  8
0
100
AcDbPoint
 10
1.089
 20
3.378
 30
0.0
  0
POINT
  5
1BC
330
18
100
AcDbEntity
  8
0
100
AcDbPoint
 10
0.898
 20
3.462
 30
0.0
  0
POINT
  5
1BD
330
18
100
AcDbEntity
  8
0
100
AcDbPoint
 10
0.752
 20
3.523
 30
0.0
  0
POINT
  5
1BE
330
18
100
AcDbEntity
  8
0
100
AcDbPoint
 10
0.621
 20
3.381
 30
0.0
  0
POINT
  5
1BF
330
18
100
AcDbEntity
  8
0
100
AcDbPoint
 10
0.502
 20
3.597
 30
0.0
  0
POINT
  5
1C0
330
18
100
AcDbEntity
  8
0
100
AcDbPoint
 10
0.5920000000000001
 20
3.408
 30
0.0
  0
POINT
  5
1C1
330
18
100
AcDbEntity
  8
0
100
AcDbPoint
 10
0.7190000000000001
 20
3.253
 30
0.0
  0
POINT
  5
1C2
330
18
100
AcDbEntity
  8
0
100
AcDbPoint
 10
0.852
 20
3.226
 30
0.0
  0
POINT
  5
1C3
330
18
100
AcDbEntity
  8
0
100
AcDbPoint
 10
1.026
 20
3.053
 30
0.0
  0
POINT
  5
1C4
330
18
100
AcDbEntity
  8
0
100
AcDbPoint
 10
1.138
 20
2.893
 30
0.0
  0
POINT
  5
1C5
330
18
100
AcDbEntity
  8
0
100
AcDbPoint
 10
0.9570000000000001
 20
3.275
 30
0.0
  0
POINT
  5
1C6
330
18
100
AcDbEntity
  8
0
100
AcDbPoint
 10
0.768
 20
3.373
 30
0.0
  0
POINT
  5
1C7
330
18
100
AcDbEntity
  8
0
100
AcDbPoint
 10
0.78
 20
2.839
 30
0.0
  0
POINT
  5
1C8
330
18
100
AcDbEntity
  8
0
100
AcDbPoint
 10
1.069
 20
3.021
 30
0.0
  0
POINT
  5
1C9
330
18
100
AcDbEntity
  8
0
100
AcDbPoint
 10
1.214
 20
3.01
 30
0.0
  0
POINT
  5
1CA
330
18
100
AcDbEntity
  8
0
100
AcDbPoint
 10
1.458
 20
2.79
 30
0.0
  0
POINT
  5
1CB
330
18
100
AcDbEntity
  8
0
100
AcDbPoint
 10
1.452
 20
2.474
 30
0.0
  0
POINT
  5
1CC
330
18
100
AcDbEntity
  8
0
100
AcDbPoint
 10
1.206
 20
2.657
 30
0.0
  0
POINT
  5
1CD
330
18
100
AcDbEntity
  8
0
100
AcDbPoint
 10
1.219
 20
2.833
 30
0.0
  0
POINT
  5
1CE
330
18
100
AcDbEntity
  8
0
100
AcDbPoint
 10
1.019
 20
2.834
 30
0.0
  0
POINT
  5
1CF
330
18
100
AcDbEntity
  8
0
100
AcDbPoint
 10
1.079
 20
2.541
 30
0.0
  0
POINT
  5
1D0
330
18
100
AcDbEntity
  8
0
100
AcDbPoint
 10
1.42
 20
2.687
 30
0.0
  0
POINT
  5
1D1
330
18
100
AcDbEntity
  8
0
100
AcDbPoint
 10
1.062
 20
3.014
 30
0.0
  0
POINT
  5
1D2
330
18
100
AcDbEntity
  8
0
100
AcDbPoint
 10
0.8590000000000001
 20
3.082
 30
0.0
  0
POINT
  5
1D3
330
18
100
AcDbEntity
  8
0
100
AcDbPoint
 10
0.865
 20
2.726
 30
0.0
  0
POINT
  5
1D4
330
18
100
AcDbEntity
  8
0
100
AcDbPoint
 10
0.8740000000000001
 20
2.54
 30
0.0
  0
POINT
  5
1D5
330
18
100
AcDbEntity
  8
0
100
AcDbPoint
 10
1.048
 20
3.092
 30
0.0
  0
POINT
  5
1D6
330
18
100
AcDbEntity
  8
0
100
AcDbPoint
 10
1.066
 20
3.23
 30
0.0
  0
POINT
  5
1D7
330
18
100
AcDbEntity
  8
0
100
AcDbPoint
 10
1.404
 20
2.145
 30
0.0
  0
POINT
  5
1D8
330
18
100
AcDbEntity
  8
0
100
AcDbPoint
 10
1.359
 20
2.555
 30
0.0
  0
POINT
  5
1D9
330
18
100
AcDbEntity
  8
0
100
AcDbPoint
 10
1.291
 20
2.452
 30
0.0
  0
POINT
  5
1DA
330
18
100
AcDbEntity
  8
0
100
AcDbPoint
 10
1.198
 20
2.341
 30
0.0
  0
POINT
  5
1DB
330
18
100
AcDbEntity
  8
0
100
AcDbPoint
 10
0.8759999999999999
 20
2.42
 30
0.0
  0
POINT
  5
1DC
330
18
100
AcDbEntity
  8
0
100
AcDbPoint
 10
1.152
 20
1.703
 30
0.0
  0
POINT
  5
1DD
330
18
100
AcDbEntity
  8
0
100
AcDbPoint
 10
1.012
 20
1.751
 30
0.0
  0
POINT
  5
1DE
330
18
100
AcDbEntity
  8
0
100
AcDbPoint
 10
0.922
 20
1.797
 30
0.0
  0
POINT
  5
1DF
330
18
100
AcDbEntity
  8
0
100
AcDbPoint
 10
0.8690000000000001
 20
1.889
 30
0.0
  0
POINT
  5
1E0
330
18
100
AcDbEntity
  8
0
100
AcDbPoint
 10
0.823
 20
1.946
 30
0.0
  0
POINT
  5
1E1
330
18
100
AcDbEntity
  8
0
100
AcDbPoint
 10
0.955
 20
1.955
 30
0.0
  0
POINT
  5
1E2
330
18
100
AcDbEntity
  8
0
100
AcDbPoint
 10
0.92
 20
1.895
 30
0.0
  0
POINT
  5
1E3
330
18
100
AcDbEntity
  8
0
100
AcDbPoint
 10
1.02
 20
1.948
 30
0.0
  0
POINT
  5
1E4
330
18
100
AcDbEntity
  8
0
100
AcDbPoint
 10
1.007
 20
1.802
 30
0.0
  0
POINT
  5
1E5
330
18
100
AcDbEntity
  8
0
100
AcDbPoint
 10
3.37
 20
1.557
 30
0.0
  0
POINT
  5
1E6
330
18
100
AcDbEntity
  8
0
100
AcDbPoint
 10
3.235
 20
1.522
 30
0.0
  0
POINT
  5
1E7
330
18
100
AcDbEntity
  8
0
100
AcDbPoint
 10
3.271
 20
1.555
 30
0.0
  0
POINT
  5
1E8
330
18
100
AcDbEntity
  8
0
100
AcDbPoint
 10
3.183
 20
1.561
 30
0.0
  0
POINT
  5
1E9
330
18
100
AcDbEntity
  8
0
100
AcDbPoint
 10
2.984
 20
1.483
 30
0.0
  0
POINT
  5
1EA
330
18
100
AcDbEntity
  8
0
100
AcDbPoint
 10
2.906
 20
1.446
 30
0.0
  0
POINT
  5
1EB
330
18
100
AcDbEntity
  8
0
100
AcDbPoint
 10
2.903
 20
1.503
 30
0.0
  0
POINT
  5
1EC
330
18
100
AcDbEntity
  8
0
100
AcDbPoint
 10
2.873
 20
1.578
 30
0.0
  0
POINT
  5
1ED
330
18
100
AcDbEntity
  8
0
100
AcDbPoint
 10
2.855
 20
1.537
 30
0.0
  0
POINT
  5
1EE
330
18
100
AcDbEntity
  8
0
100
AcDbPoint
 10
2.811
 20
1.47
 30
0.0
  0
POINT
  5
1EF
330
18
100
AcDbEntity
  8
0
100
AcDbPoint
 10
2.739
 20
1.441
 30
0.0
  0
POINT
  5
1F0
330
18
100
AcDbEntity
  8
0
100
AcDbPoint
 10
2.601
 20
1.496
 30
0.0
  0
POINT
  5
1F1
330
18
100
AcDbEntity
  8
0
100
AcDbPoint
 10
2.479
 20
1.515
 30
0.0
  0
POINT
  5
1F2
330
18
100
AcDbEntity
  8
0
100
AcDbPoint
 10
2.413
 20
1.505
 30
0.0
  0
POINT
  5
1F3
330
18
100
AcDbEntity
  8
0
100
AcDbPoint
 10
2.532
 20
1.524
 30
0.0
  0
POINT
  5
1F4
330
18
100
AcDbEntity
  8
0
100
AcDbPoint
 10
2.651
 20
1.539
 30
0.0
  0
POINT
  5
1F5
330
18
100
AcDbEntity
  8
0
100
AcDbPoint
 10
6.355
 20
4.403000000000001
 30
0.0
  0
POINT
  5
1F6
330
18
100
AcDbEntity
  8
0
100
AcDbPoint
 10
6.327999999999999
 20
4.254
 30
0.0
  0
POINT
  5
1F7
330
18
100
AcDbEntity
  8
0
100
AcDbPoint
 10
6.302000000000001
 20
4.394
 30
0.0
  0
POINT
  5
1F8
330
18
100
AcDbEntity
  8
0
100
AcDbPoint
 10
6.315
 20
4.548
 30
0.0
  0
TEXT
  5
1F9
330
18
100
AcDbEntity
  8
0
100
AcDbText
 10
3.099
 20
0.036
 30
0.0
 40
0.125
  1
GH46-6
100
AcDbText
  0
LINE
  5
1FA
330
18
100
AcDbEntity
  8
0
100
AcDbLine
 10
2.608
 20
3.672
 30
0.0
 11
3.008
 21
3.827
 31
0.0
  0
LWPOLYLINE
  5
1FB
330
18
100
AcDbEntity
  8
0
100
AcDbPolyline
 90
       16
 70
     1
 43
0.0
 10
3.503
 20
2.722
 42
0.143
 10
3.489
 20
2.719
 42
0.107
 10
3.475
 20
2.707
 42
0.078
 10
3.465
 20
2.69
 42
0.066
 10
3.46
 20
2.667
 42
0.066
 10
3.462
 20
2.644
 42
0.078
 10
3.468
 20
2.626
 42
0.107
 10
3.48
 20
2.612
 42
0.143
 10
3.493
 20
2.607
 42
0.143
 10
3.507
 20
2.609
 42
0.107
 10
3.521
 20
2.621
 42
0.078
 10
3.531
 20
2.639
 42
0.066
 10
3.536
 20
2.661
 42
0.066
 10
3.534
 20
2.685
 42
0.078
 10
3.528
 20
2.703
 42
0.107
 10
3.516
 20
2.717
 42
0.143
  0
LWPOLYLINE
  5
20E
330
18
100
AcDbEntity
  8
0
100
AcDbPolyline
 90
        3
 70
     0
 43
0.0
 10
3.524
 20
2.725
 42
0.143
 10
3.51
 20
2.722
 42
0.009
 10
3.509
 20
2.721
 42
0.078
  0
LWPOLYLINE
  5
214
330
18
100
AcDbEntity
  8
0
100
AcDbPolyline
 90
       10
 70
     0
 43
0.0
 10
3.509
 20
2.61
 42
0.062
 10
3.515
 20
2.609
 42
0.143
 10
3.528
 20
2.612
 42
0.107
 10
3.543
 20
2.624
 42
0.078
 10
3.552
 20
2.641
 42
0.066
 10
3.557
 20
2.664
 42
0.066
 10
3.556
 20
2.687
 42
0.078
 10
3.549
 20
2.705
 42
0.107
 10
3.537
 20
2.72
 42
0.143
 10
3.524
 20
2.725
 42
0.143
  0
LWPOLYLINE
  5
221
330
18
100
AcDbEntity
  8
0
100
AcDbPolyline
 90
       10
 70
     0
 43
0.0
 10
3.498
 20
2.201
 42
0.062
 10
3.504
 20
2.2
 42
0.143
 10
3.518
 20
2.203
 42
0.107
 10
3.532
 20
2.215
 42
0.078
 10
3.542
 20
2.232
 42
0.066
 10
3.546
 20
2.255
 42
0.066
 10
3.545
 20
2.278
 42
0.078
 10
3.539
 20
2.296
 42
0.107
 10
3.527
 20
2.311
 42
0.143
 10
3.514
 20
2.316
 42
0.143
  0
LWPOLYLINE
  5
22E
330
18
100
AcDbEntity
  8
0
100
AcDbPolyline
 90
        3
 70
     0
 43
0.0
 10
3.514
 20
2.316
 42
0.143
 10
3.5
 20
2.313
 42
0.009
 10
3.498
 20
2.312
 42
0.078
  0
LWPOLYLINE
  5
234
330
18
100
AcDbEntity
  8
0
100
AcDbPolyline
 90
       16
 70
     1
 43
0.0
 10
3.492
 20
2.313
 42
0.143
 10
3.479
 20
2.31
 42
0.107
 10
3.464
 20
2.298
 42
0.078
 10
3.455
 20
2.281
 42
0.066
 10
3.45
 20
2.258
 42
0.066
 10
3.451
 20
2.235
 42
0.078
 10
3.458
 20
2.217
 42
0.107
 10
3.47
 20
2.203
 42
0.143
 10
3.483
 20
2.198
 42
0.143
 10
3.497
 20
2.2
 42
0.107
 10
3.511
 20
2.212
 42
0.078
 10
3.52
 20
2.23
 42
0.066
 10
3.525
 20
2.252
 42
0.066
 10
3.524
 20
2.276
 42
0.078
 10
3.518
 20
2.294
 42
0.107
 10
3.506
 20
2.308
 42
0.143
  0
TEXT
  5
247
330
18
100
AcDbEntity
  8
0
100
AcDbText
 10
3.099
 20
0.224
 30
0.0
 40
0.125
  1
Simpson Strong-Tie
100
AcDbText
  0
ENDSEC
  0
SECTION
  2
OBJECTS
  0
DICTIONARY
  5
C
330
0
100
AcDbDictionary
281
     1
  3
ACAD_COLOR
350
24D
  3
ACAD_GROUP
350
D
  3
ACAD_LAYOUT
350
15
  3
ACAD_MATERIAL
350
24F
  3
ACAD_MLINESTYLE
350
12
  3
ACAD_PLOTSETTINGS
350
14
  3
ACAD_PLOTSTYLENAME
350
E
  3
ACDBHEADERROUNDTRIPXREC
350
24C
  0
DICTIONARY
  5
24D
102
{ACAD_REACTORS
330
C
102
}
330
C
100
AcDbDictionary
281
     1
  0
DICTIONARY
  5
D
102
{ACAD_REACTORS
330
C
102
}
330
C
100
AcDbDictionary
281
     1
  0
DICTIONARY
  5
15
102
{ACAD_REACTORS
330
C
102
}
330
C
100
AcDbDictionary
281
     1
  3
Layout1
350
17
  3
Model
350
19
  0
DICTIONARY
  5
24F
102
{ACAD_REACTORS
330
C
102
}
330
C
100
AcDbDictionary
281
     1
  0
DICTIONARY
  5
12
102
{ACAD_REACTORS
330
C
102
}
330
C
100
AcDbDictionary
281
     1
  3
Standard
350
13
  0
DICTIONARY
  5
14
102
{ACAD_REACTORS
330
C
102
}
330
C
100
AcDbDictionary
281
     1
  0
ACDBDICTIONARYWDFLT
  5
E
102
{ACAD_REACTORS
330
C
102
}
330
C
100
AcDbDictionary
281
     1
  3
Normal
350
F
100
AcDbDictionaryWithDefault
340
F
  0
DICTIONARY
  5
24C
102
{ACAD_REACTORS
330
C
102
}
330
C
100
AcDbDictionary
281
     1
  3
COLORDICT
350
24E
  3
MATERIALDICT
350
250
  0
LAYOUT
  5
17
102
{ACAD_REACTORS
330
15
102
}
102
{ACAD_XDICTIONARY
360
251
102
}
330
15
100
AcDbPlotSettings
  1

  2

  4

  6

 40
0.0
 41
0.0
 42
0.0
 43
0.0
 44
0.0
 45
0.0
 46
0.0
 47
0.0
 48
0.0
 49
0.0
140
0.0
141
0.0
142
1.0
143
1.0
 70
   688
 72
     0
 73
     0
 74
     5
  7

 75
    16
147
1.0
148
0.0
149
0.0
100
AcDbLayout
  1
Layout1
 70
     1
 71
     1
 10
0.0
 20
0.0
 11
12.0
 21
9.0
 12
0.0
 22
0.0
 32
0.0
 14
1.000000000000000E+20
 24
1.000000000000000E+20
 34
1.000000000000000E+20
 15
-1.000000000000000E+20
 25
-1.000000000000000E+20
 35
-1.000000000000000E+20
146
0.0
 13
0.0
 23
0.0
 33
0.0
 16
1.0
 26
0.0
 36
0.0
 17
0.0
 27
1.0
 37
0.0
 76
     0
330
16
  0
LAYOUT
  5
19
102
{ACAD_REACTORS
330
15
102
}
102
{ACAD_XDICTIONARY
360
253
102
}
330
15
100
AcDbPlotSettings
  1

  2

  4

  6

 40
0.0
 41
0.0
 42
0.0
 43
0.0
 44
0.0
 45
0.0
 46
0.0
 47
0.0
 48
0.0
 49
0.0
140
0.0
141
0.0
142
1.0
143
1.0
 70
  1712
 72
     0
 73
     0
 74
     0
  7

 75
     0
147
1.0
148
0.0
149
0.0
100
AcDbLayout
  1
Model
 70
     1
 71
     0
 10
0.0
 20
0.0
 11
0.0
 21
0.0
 12
0.0
 22
0.0
 32
0.0
 14
0.0
 24
0.0
 34
0.0
 15
0.0
 25
0.0
 35
0.0
146
0.0
 13
0.0
 23
0.0
 33
0.0
 16
1.0
 26
0.0
 36
0.0
 17
0.0
 27
1.0
 37
0.0
 76
     0
330
18
  0
MLINESTYLE
  5
13
102
{ACAD_REACTORS
330
12
102
}
330
12
100
AcDbMlineStyle
  2
Standard
 70
     0
  3

 62
   256
 51
90.0
 52
90.0
 71
     2
 49
0.5
 62
   256
  6
BYLAYER
 49
-0.5
 62
   256
  6
BYLAYER
  0
ACDBPLACEHOLDER
  5
F
102
{ACAD_REACTORS
330
E
102
}
330
E
  0
XRECORD
  5
24E
102
{ACAD_REACTORS
330
24C
102
}
330
24C
100
AcDbXrecord
340
24D
  0
XRECORD
  5
250
102
{ACAD_REACTORS
330
24C
102
}
330
24C
100
AcDbXrecord
340
24F
  0
DICTIONARY
  5
251
330
17
100
AcDbDictionary
280
     1
281
     1
  3
ACAD_XREC_ROUNDTRIP
360
252
  0
DICTIONARY
  5
253
330
19
100
AcDbDictionary
280
     1
281
     1
  3
ACAD_XREC_ROUNDTRIP
360
254
  0
XRECORD
  5
252
102
{ACAD_REACTORS
330
251
102
}
330
251
100
AcDbXrecord
102
SHADEPLOT
 70
 -2448
102
SHADEPLOTRESLEVEL
 70
 12296
102
SHADEPLOTCUSTOMDPI
 70
 12336
  0
XRECORD
  5
254
102
{ACAD_REACTORS
330
253
102
}
330
253
100
AcDbXrecord
102
SHADEPLOT
 70
     0
102
SHADEPLOTRESLEVEL
 70
     0
102
SHADEPLOTCUSTOMDPI
 70
     0
  0
ENDSEC
  0
EOF
