  0
SECTION
  2
HEADER
  9
$ACADVER
  1
AC1015
  9
$ACADMAINTVER
 70
     6
  9
$DWGCODEPAGE
  3
ASCII
  9
$INSBASE
 10
0.0
 20
0.0
 30
0.0
  9
$EXTMIN
 10
1.016398571428572
 20
0.462916
 30
0.0
  9
$EXTMAX
 10
7.383226142857143
 20
8.300466999999999
 30
0.0
  9
$LIMMIN
 10
0.0
 20
0.0
  9
$LIMMAX
 10
12.0
 20
9.0
  9
$ORTHOMODE
 70
     1
  9
$REGENMODE
 70
     0
  9
$FILLMODE
 70
     1
  9
$QTEXTMODE
 70
     0
  9
$MIRRTEXT
 70
     1
  9
$LTSCALE
 40
0.25
  9
$ATTMODE
 70
     1
  9
$TEXTSIZE
 40
0.2
  9
$TRACEWID
 40
0.05
  9
$TEXTSTYLE
  7
STANDARD
  9
$CLAYER
  8
0
  9
$CELTYPE
  6
ByLayer
  9
$CECOLOR
 62
   256
  9
$CELTSCALE
 40
1.0
  9
$DISPSILH
 70
     0
  9
$DIMSCALE
 40
1.0
  9
$DIMASZ
 40
0.125
  9
$DIMEXO
 40
0.0625
  9
$DIMDLI
 40
0.38
  9
$DIMRND
 40
0.0
  9
$DIMDLE
 40
0.0
  9
$DIMEXE
 40
0.1
  9
$DIMTP
 40
0.0
  9
$DIMTM
 40
0.0
  9
$DIMTXT
 40
0.125
  9
$DIMCEN
 40
0.09
  9
$DIMTSZ
 40
0.0
  9
$DIMTOL
 70
     0
  9
$DIMLIM
 70
     0
  9
$DIMTIH
 70
     0
  9
$DIMTOH
 70
     0
  9
$DIMSE1
 70
     0
  9
$DIMSE2
 70
     0
  9
$DIMTAD
 70
     1
  9
$DIMZIN
 70
     0
  9
$DIMBLK
  1

  9
$DIMASO
 70
     1
  9
$DIMSHO
 70
     1
  9
$DIMPOST
  1

  9
$DIMAPOST
  1

  9
$DIMALT
 70
     0
  9
$DIMALTD
 70
     2
  9
$DIMALTF
 40
25.4
  9
$DIMLFAC
 40
1.0
  9
$DIMTOFL
 70
     0
  9
$DIMTVP
 40
0.0
  9
$DIMTIX
 70
     0
  9
$DIMSOXD
 70
     0
  9
$DIMSAH
 70
     0
  9
$DIMBLK1
  1

  9
$DIMBLK2
  1

  9
$DIMSTYLE
  2
Standard
  9
$DIMCLRD
 70
     0
  9
$DIMCLRE
 70
     0
  9
$DIMCLRT
 70
     0
  9
$DIMTFAC
 40
1.0
  9
$DIMGAP
 40
0.09
  9
$DIMJUST
 70
     0
  9
$DIMSD1
 70
     0
  9
$DIMSD2
 70
     0
  9
$DIMTOLJ
 70
     1
  9
$DIMTZIN
 70
     0
  9
$DIMALTZ
 70
     0
  9
$DIMALTTZ
 70
     0
  9
$DIMUPT
 70
     0
  9
$DIMDEC
 70
     4
  9
$DIMTDEC
 70
     4
  9
$DIMALTU
 70
     2
  9
$DIMALTTD
 70
     2
  9
$DIMTXSTY
  7
STANDARD
  9
$DIMAUNIT
 70
     0
  9
$DIMADEC
 70
     0
  9
$DIMALTRND
 40
0.0
  9
$DIMAZIN
 70
     0
  9
$DIMDSEP
 70
    46
  9
$DIMATFIT
 70
     3
  9
$DIMFRAC
 70
     0
  9
$DIMLDRBLK
  1

  9
$DIMLUNIT
 70
     2
  9
$DIMLWD
 70
    -2
  9
$DIMLWE
 70
    -2
  9
$DIMTMOVE
 70
     0
  9
$LUNITS
 70
     2
  9
$LUPREC
 70
     4
  9
$SKETCHINC
 40
0.1
  9
$FILLETRAD
 40
0.0
  9
$AUNITS
 70
     0
  9
$AUPREC
 70
     0
  9
$MENU
  1
acad
  9
$ELEVATION
 40
0.0
  9
$PELEVATION
 40
0.0
  9
$THICKNESS
 40
0.0
  9
$LIMCHECK
 70
     0
  9
$CHAMFERA
 40
0.0
  9
$CHAMFERB
 40
0.0
  9
$CHAMFERC
 40
1.0
  9
$CHAMFERD
 40
0.0
  9
$SKPOLY
 70
     0
  9
$TDCREATE
 40
2453955.561849271
  9
$TDUCREATE
 40
2453955.895182604
  9
$TDUPDATE
 40
2453955.603515949
  9
$TDUUPDATE
 40
2453955.895182616
  9
$TDINDWG
 40
0.0000000116
  9
$TDUSRTIMER
 40
0.0000000116
  9
$USRTIMER
 70
     1
  9
$ANGBASE
 50
0.0
  9
$ANGDIR
 70
     0
  9
$PDMODE
 70
     0
  9
$PDSIZE
 40
0.0
  9
$PLINEWID
 40
0.0
  9
$SPLFRAME
 70
     0
  9
$SPLINETYPE
 70
     6
  9
$SPLINESEGS
 70
     8
  9
$HANDSEED
  5
339
  9
$SURFTAB1
 70
     6
  9
$SURFTAB2
 70
     6
  9
$SURFTYPE
 70
     6
  9
$SURFU
 70
     6
  9
$SURFV
 70
     6
  9
$UCSBASE
  2

  9
$UCSNAME
  2

  9
$UCSORG
 10
0.0
 20
0.0
 30
0.0
  9
$UCSXDIR
 10
1.0
 20
0.0
 30
0.0
  9
$UCSYDIR
 10
0.0
 20
1.0
 30
0.0
  9
$UCSORTHOREF
  2

  9
$UCSORTHOVIEW
 70
     0
  9
$UCSORGTOP
 10
0.0
 20
0.0
 30
0.0
  9
$UCSORGBOTTOM
 10
0.0
 20
0.0
 30
0.0
  9
$UCSORGLEFT
 10
0.0
 20
0.0
 30
0.0
  9
$UCSORGRIGHT
 10
0.0
 20
0.0
 30
0.0
  9
$UCSORGFRONT
 10
0.0
 20
0.0
 30
0.0
  9
$UCSORGBACK
 10
0.0
 20
0.0
 30
0.0
  9
$PUCSBASE
  2

  9
$PUCSNAME
  2

  9
$PUCSORG
 10
0.0
 20
0.0
 30
0.0
  9
$PUCSXDIR
 10
1.0
 20
0.0
 30
0.0
  9
$PUCSYDIR
 10
0.0
 20
1.0
 30
0.0
  9
$PUCSORTHOREF
  2

  9
$PUCSORTHOVIEW
 70
     0
  9
$PUCSORGTOP
 10
0.0
 20
0.0
 30
0.0
  9
$PUCSORGBOTTOM
 10
0.0
 20
0.0
 30
0.0
  9
$PUCSORGLEFT
 10
0.0
 20
0.0
 30
0.0
  9
$PUCSORGRIGHT
 10
0.0
 20
0.0
 30
0.0
  9
$PUCSORGFRONT
 10
0.0
 20
0.0
 30
0.0
  9
$PUCSORGBACK
 10
0.0
 20
0.0
 30
0.0
  9
$USERI1
 70
     0
  9
$USERI2
 70
     0
  9
$USERI3
 70
     0
  9
$USERI4
 70
     0
  9
$USERI5
 70
     0
  9
$USERR1
 40
0.0
  9
$USERR2
 40
0.0
  9
$USERR3
 40
0.0
  9
$USERR4
 40
0.0
  9
$USERR5
 40
0.0
  9
$WORLDVIEW
 70
     1
  9
$SHADEDGE
 70
     3
  9
$SHADEDIF
 70
    70
  9
$TILEMODE
 70
     1
  9
$MAXACTVP
 70
    16
  9
$PINSBASE
 10
0.0
 20
0.0
 30
0.0
  9
$PLIMCHECK
 70
     0
  9
$PEXTMIN
 10
1.000000000000000E+20
 20
1.000000000000000E+20
 30
1.000000000000000E+20
  9
$PEXTMAX
 10
-1.000000000000000E+20
 20
-1.000000000000000E+20
 30
-1.000000000000000E+20
  9
$PLIMMIN
 10
0.0
 20
0.0
  9
$PLIMMAX
 10
12.0
 20
9.0
  9
$UNITMODE
 70
     0
  9
$VISRETAIN
 70
     0
  9
$PLINEGEN
 70
     0
  9
$PSLTSCALE
 70
     1
  9
$TREEDEPTH
 70
  3020
  9
$CMLSTYLE
  2
Standard
  9
$CMLJUST
 70
     0
  9
$CMLSCALE
 40
1.0
  9
$PROXYGRAPHICS
 70
     1
  9
$MEASUREMENT
 70
     0
  9
$CELWEIGHT
370
    -1
  9
$ENDCAPS
280
     0
  9
$JOINSTYLE
280
     0
  9
$LWDISPLAY
290
     0
  9
$INSUNITS
 70
     1
  9
$HYPERLINKBASE
  1

  9
$STYLESHEET
  1

  9
$XEDIT
290
     1
  9
$CEPSNTYPE
380
     0
  9
$PSTYLEMODE
290
     0
  9
$FINGERPRINTGUID
  2
{FAEB1C30-E019-11D5-929B-00C0DF256EC4}
  9
$VERSIONGUID
  2
{FAEB1C32-E019-11D5-929B-00C0DF256EC4}
  9
$EXTNAMES
290
     1
  9
$PSVPSCALE
 40
0.0
  9
$OLESTARTUP
290
     0
  0
ENDSEC
  0
SECTION
  2
CLASSES
  0
CLASS
  1
ACDBDICTIONARYWDFLT
  2
AcDbDictionaryWithDefault
  3
AutoCAD 2000
 90
        0
280
     0
281
     0
  0
CLASS
  1
ACDBPLACEHOLDER
  2
AcDbPlaceHolder
  3
ObjectDBX Classes
 90
        0
280
     0
281
     0
  0
CLASS
  1
LAYOUT
  2
AcDbLayout
  3
ObjectDBX Classes
 90
        0
280
     0
281
     0
  0
ENDSEC
  0
SECTION
  2
TABLES
  0
TABLE
  2
VPORT
  5
2FC
330
0
100
AcDbSymbolTable
 70
     2
  0
VPORT
  5
313
330
2FC
100
AcDbSymbolTableRecord
100
AcDbViewportTableRecord
  2
*ACTIVE
 70
     0
 10
0.0
 20
0.0
 11
1.0
 21
1.0
 12
6.530232558139535
 22
4.5
 13
0.0
 23
0.0
 14
1.0
 24
1.0
 15
0.0
 25
0.0
 16
0.0
 26
0.0
 36
1.0
 17
0.0
 27
0.0
 37
0.0
 40
9.0
 41
0.6891025641025641
 42
50.0
 43
0.0
 44
0.0
 50
0.0
 51
0.0
 71
     0
 72
  2000
 73
     1
 74
     0
 75
     0
 76
     0
 77
     0
 78
     0
281
     0
 65
     1
110
0.0
120
0.0
130
0.0
111
1.0
121
0.0
131
0.0
112
0.0
122
1.0
132
0.0
 79
     0
146
0.0
  0
ENDTAB
  0
TABLE
  2
LTYPE
  5
2F9
330
0
100
AcDbSymbolTable
 70
     2
  0
LTYPE
  5
304
330
2F9
100
AcDbSymbolTableRecord
100
AcDbLinetypeTableRecord
  2
ByBlock
 70
     0
  3

 72
    65
 73
     0
 40
0.0
  0
LTYPE
  5
305
330
2F9
100
AcDbSymbolTableRecord
100
AcDbLinetypeTableRecord
  2
ByLayer
 70
     0
  3

 72
    65
 73
     0
 40
0.0
  0
LTYPE
  5
30F
330
2F9
100
AcDbSymbolTableRecord
100
AcDbLinetypeTableRecord
  2
CONTINUOUS
 70
     0
  3
Solid line
 72
    65
 73
     0
 40
0.0
  0
LTYPE
  5
310
330
2F9
100
AcDbSymbolTableRecord
100
AcDbLinetypeTableRecord
  2
CENTER
 70
     0
  3
____ _ ____ _ ____ _ ____ _ ____ _ ____ _ ____ 
 72
    65
 73
     4
 40
2.0
 49
1.25
 74
     0
 49
-0.25
 74
     0
 49
0.25
 74
     0
 49
-0.25
 74
     0
  0
ENDTAB
  0
TABLE
  2
LAYER
  5
2F6
330
0
100
AcDbSymbolTable
 70
     1
  0
LAYER
  5
311
330
2F6
100
AcDbSymbolTableRecord
100
AcDbLayerTableRecord
  2
0
 70
     0
 62
     7
  6
CONTINUOUS
370
    -3
390
303
  0
ENDTAB
  0
TABLE
  2
STYLE
  5
2F7
330
0
100
AcDbSymbolTable
 70
     2
  0
STYLE
  5
315
330
2F7
100
AcDbSymbolTableRecord
100
AcDbTextStyleTableRecord
  2
STANDARD
 70
     0
 40
0.0
 41
0.75
 50
0.0
 71
     0
 42
0.2
  3
ROMANS.SHX
  4

  0
STYLE
  5
316
330
2F7
100
AcDbSymbolTableRecord
100
AcDbTextStyleTableRecord
  2
ROMANS
 70
     0
 40
0.0
 41
1.0
 50
0.0
 71
     0
 42
0.2
  3
ROMANS.SHX
  4

  0
ENDTAB
  0
TABLE
  2
VIEW
  5
2FA
330
0
100
AcDbSymbolTable
 70
     0
  0
ENDTAB
  0
TABLE
  2
UCS
  5
2FB
330
0
100
AcDbSymbolTable
 70
     0
  0
ENDTAB
  0
TABLE
  2
APPID
  5
2FD
330
0
100
AcDbSymbolTable
 70
     1
  0
APPID
  5
314
330
2FD
100
AcDbSymbolTableRecord
100
AcDbRegAppTableRecord
  2
ACAD
 70
     0
  0
ENDTAB
  0
TABLE
  2
DIMSTYLE
  5
2FE
330
0
100
AcDbSymbolTable
 70
     1
100
AcDbDimStyleTable
  0
DIMSTYLE
105
317
330
2FE
100
AcDbSymbolTableRecord
100
AcDbDimStyleTableRecord
  2
Standard
 70
     0
  3

  4

340
315
  0
ENDTAB
  0
TABLE
  2
BLOCK_RECORD
  5
2F5
330
0
100
AcDbSymbolTable
 70
     0
  0
BLOCK_RECORD
  5
30C
330
2F5
100
AcDbSymbolTableRecord
100
AcDbBlockTableRecord
  2
*Model_Space
340
30D
  0
BLOCK_RECORD
  5
30A
330
2F5
100
AcDbSymbolTableRecord
100
AcDbBlockTableRecord
  2
*Paper_Space
340
30B
  0
ENDTAB
  0
ENDSEC
  0
SECTION
  2
BLOCKS
  0
BLOCK
  5
32E
330
30C
100
AcDbEntity
  8
0
100
AcDbBlockBegin
  2
*Model_Space
 70
     0
 10
0.0
 20
0.0
 30
0.0
  3
*Model_Space
  1

  4

  0
ENDBLK
  5
32F
330
30C
100
AcDbEntity
  8
0
100
AcDbBlockEnd
  0
BLOCK
  5
32C
330
30A
100
AcDbEntity
 67
     1
  8
0
100
AcDbBlockBegin
  2
*Paper_Space
 70
     0
 10
0.0
 20
0.0
 30
0.0
  3
*Paper_Space
  1

  4

  0
ENDBLK
  5
32D
330
30A
100
AcDbEntity
 67
     1
  8
0
100
AcDbBlockEnd
  0
ENDSEC
  0
SECTION
  2
ENTITIES
  0
LINE
  5
2
330
30C
100
AcDbEntity
  8
0
100
AcDbLine
 10
1.354311
 20
6.533364
 30
0.0
 11
1.354311
 21
4.902745
 31
0.0
  0
LINE
  5
3
330
30C
100
AcDbEntity
  8
0
100
AcDbLine
 10
6.242305
 20
5.904578
 30
0.0
 11
6.242305
 21
4.52966
 31
0.0
  0
LINE
  5
4
330
30C
100
AcDbEntity
  8
0
100
AcDbLine
 10
6.242305
 20
1.402829
 30
0.0
 11
5.167311
 21
1.648002
 31
0.0
  0
LINE
  5
5
330
30C
100
AcDbEntity
  8
0
100
AcDbLine
 10
6.533074
 20
6.788579
 30
0.0
 11
6.533074
 21
5.188471
 31
0.0
  0
LINE
  5
6
330
30C
100
AcDbEntity
  8
0
100
AcDbLine
 10
6.533074
 20
2.855341
 30
0.0
 11
6.242305
 21
1.402829
 31
0.0
  0
LINE
  5
7
330
30C
100
AcDbEntity
  8
0
100
AcDbLine
 10
6.242305
 20
5.904578
 30
0.0
 11
6.533074
 21
6.788579
 31
0.0
  0
LINE
  5
8
330
30C
100
AcDbEntity
  8
0
100
AcDbLine
 10
6.533074
 20
6.788579
 30
0.0
 11
2.151175
 21
7.265938
 31
0.0
  0
LINE
  5
9
330
30C
100
AcDbEntity
  8
0
100
AcDbLine
 10
2.151175
 20
7.265938
 30
0.0
 11
1.354311
 21
6.533364
 31
0.0
  0
LINE
  5
A
330
30C
100
AcDbEntity
  8
0
100
AcDbLine
 10
1.354311
 20
6.533364
 30
0.0
 11
2.20338
 21
6.424141000000001
 31
0.0
  0
LINE
  5
B
330
30C
100
AcDbEntity
  8
0
100
AcDbLine
 10
1.354311
 20
4.902745
 30
0.0
 11
1.515234
 21
4.723218
 31
0.0
  0
LINE
  5
C
330
30C
100
AcDbEntity
  8
0
100
AcDbLine
 10
1.515234
 20
4.723218
 30
0.0
 11
1.285657
 21
4.623081
 31
0.0
  0
LINE
  5
D
330
30C
100
AcDbEntity
  8
0
100
AcDbLine
 10
1.285657
 20
4.623081
 30
0.0
 11
1.359964
 21
4.430894
 31
0.0
  0
LINE
  5
E
330
30C
100
AcDbEntity
  8
0
100
AcDbLine
 10
1.354311
 20
4.445513
 30
0.0
 11
1.354311
 21
2.517627
 31
0.0
  0
LINE
  5
F
330
30C
100
AcDbEntity
  8
0
100
AcDbLine
 10
1.285657
 20
4.623081
 30
0.0
 11
1.416716
 21
4.833126
 31
0.0
  0
LINE
  5
10
330
30C
100
AcDbEntity
  8
0
100
AcDbLine
 10
2.20338
 20
6.424141000000001
 30
0.0
 11
2.20338
 21
5.264594000000001
 31
0.0
  0
LINE
  5
11
330
30C
100
AcDbEntity
  8
0
100
AcDbLine
 10
2.20338
 20
6.424141000000001
 30
0.0
 11
2.598956
 21
6.865355
 31
0.0
  0
LINE
  5
12
330
30C
100
AcDbEntity
  8
0
100
AcDbLine
 10
2.598956
 20
6.865355
 30
0.0
 11
3.973675
 21
6.707808
 31
0.0
  0
LINE
  5
13
330
30C
100
AcDbEntity
  8
0
100
AcDbLine
 10
5.409383
 20
6.543272
 30
0.0
 11
5.182472
 21
6.040913
 31
0.0
  0
LINE
  5
14
330
30C
100
AcDbEntity
  8
0
100
AcDbLine
 10
5.182472
 20
6.040913
 30
0.0
 11
5.182472
 21
5.245551
 31
0.0
  0
LINE
  5
15
330
30C
100
AcDbEntity
  8
0
100
AcDbLine
 10
5.409383
 20
6.543272
 30
0.0
 11
5.409383
 21
6.482480000000001
 31
0.0
  0
LINE
  5
16
330
30C
100
AcDbEntity
  8
0
100
AcDbLine
 10
5.409383
 20
6.482480000000001
 30
0.0
 11
5.208424
 21
6.037575
 31
0.0
  0
LINE
  5
17
330
30C
100
AcDbEntity
  8
0
100
AcDbLine
 10
5.208424
 20
6.037575
 30
0.0
 11
5.208424
 21
5.228022
 31
0.0
  0
LINE
  5
18
330
30C
100
AcDbEntity
  8
0
100
AcDbLine
 10
5.208424
 20
4.859797
 30
0.0
 11
5.182472
 21
4.773358
 31
0.0
  0
LINE
  5
19
330
30C
100
AcDbEntity
  8
0
100
AcDbLine
 10
3.356686
 20
6.413831
 30
0.0
 11
3.683232
 21
6.286256
 31
0.0
  0
LINE
  5
1A
330
30C
100
AcDbEntity
  8
0
100
AcDbLine
 10
4.067507
 20
6.136128
 30
0.0
 11
4.169183
 21
5.930003
 31
0.0
  0
LINE
  5
1B
330
30C
100
AcDbEntity
  8
0
100
AcDbLine
 10
5.167311
 20
3.906543
 30
0.0
 11
4.911438
 21
3.773901
 31
0.0
  0
LINE
  5
1C
330
30C
100
AcDbEntity
  8
0
100
AcDbLine
 10
4.526269999999999
 20
3.574234
 30
0.0
 11
4.342785
 21
4.003773000000001
 31
0.0
  0
LINE
  5
1D
330
30C
100
AcDbEntity
  8
0
100
AcDbLine
 10
3.336955
 20
6.358421
 30
0.0
 11
3.356686
 21
6.413831
 31
0.0
  0
LINE
  5
1E
330
30C
100
AcDbEntity
  8
0
100
AcDbLine
 10
5.167311
 20
3.906543
 30
0.0
 11
5.167311
 21
3.235934
 31
0.0
  0
LINE
  5
1F
330
30C
100
AcDbEntity
  8
0
100
AcDbLine
 10
5.167311
 20
0.8419139999999999
 30
0.0
 11
4.526269999999999
 21
0.462916
 31
0.0
  0
LINE
  5
20
330
30C
100
AcDbEntity
  8
0
100
AcDbLine
 10
4.526269999999999
 20
3.574234
 30
0.0
 11
4.526269999999999
 21
2.446226
 31
0.0
  0
LINE
  5
21
330
30C
100
AcDbEntity
  8
0
100
AcDbLine
 10
4.526269999999999
 20
0.462916
 30
0.0
 11
3.777898
 21
2.235906
 31
0.0
  0
LINE
  5
22
330
30C
100
AcDbEntity
  8
0
100
AcDbLine
 10
3.293716
 20
5.148376
 30
0.0
 11
3.293716
 21
4.05604
 31
0.0
  0
LINE
  5
23
330
30C
100
AcDbEntity
  8
0
100
AcDbLine
 10
2.20338
 20
5.264594000000001
 30
0.0
 11
2.908314
 21
5.161527
 31
0.0
  0
LINE
  5
24
330
30C
100
AcDbEntity
  8
0
100
AcDbLine
 10
4.697401
 20
4.859171
 30
0.0
 11
5.182472
 21
4.773358
 31
0.0
  0
LINE
  5
25
330
30C
100
AcDbEntity
  8
0
100
AcDbLine
 10
3.29906
 20
6.283194
 30
0.0
 11
3.445099
 21
5.940625
 31
0.0
  0
LINE
  5
26
330
30C
100
AcDbEntity
  8
0
100
AcDbLine
 10
3.718719
 20
5.298780000000001
 30
0.0
 11
3.718719
 21
3.98862
 31
0.0
  0
LINE
  5
27
330
30C
100
AcDbEntity
  8
0
100
AcDbLine
 10
3.78341
 20
5.313269
 30
0.0
 11
3.78341
 21
3.98907
 31
0.0
  0
LINE
  5
28
330
30C
100
AcDbEntity
  8
0
100
AcDbLine
 10
3.648591
 20
2.218244
 30
0.0
 11
3.250293
 21
3.169582
 31
0.0
  0
LINE
  5
29
330
30C
100
AcDbEntity
  8
0
100
AcDbLine
 10
3.250293
 20
3.169582
 30
0.0
 11
3.250293
 21
3.217251
 31
0.0
  0
ARC
  5
2A
330
30C
100
AcDbEntity
  8
0
100
AcDbCircle
 10
3.60562
 20
1.739468
 30
0.0
 40
0.480701
100
AcDbArc
 50
65.848213
 51
84.871329
  0
LINE
  5
2B
330
30C
100
AcDbEntity
  8
0
100
AcDbLine
 10
3.648591
 20
2.218244
 30
0.0
 11
3.648591
 21
2.265913
 31
0.0
  0
ARC
  5
2C
330
30C
100
AcDbEntity
  8
0
100
AcDbCircle
 10
3.60562
 20
1.787137
 30
0.0
 40
0.480701
100
AcDbArc
 50
68.998722
 51
84.871329
  0
LINE
  5
2D
330
30C
100
AcDbEntity
  8
0
100
AcDbLine
 10
3.648591
 20
2.265913
 30
0.0
 11
3.250293
 21
3.217251
 31
0.0
  0
ARC
  5
2E
330
30C
100
AcDbEntity
  8
0
100
AcDbCircle
 10
3.653764
 20
2.346467
 30
0.0
 40
0.06639
100
AcDbArc
 50
260.003103
 51
348.067545
  0
ARC
  5
2F
330
30C
100
AcDbEntity
  8
0
100
AcDbCircle
 10
3.638783
 20
2.382248
 30
0.0
 40
0.06639
100
AcDbArc
 50
260.003103
 51
348.067545
  0
ARC
  5
30
330
30C
100
AcDbEntity
  8
0
100
AcDbCircle
 10
3.623803
 20
2.41803
 30
0.0
 40
0.06639
100
AcDbArc
 50
260.003103
 51
348.067545
  0
ARC
  5
31
330
30C
100
AcDbEntity
  8
0
100
AcDbCircle
 10
3.608822
 20
2.453811
 30
0.0
 40
0.06639
100
AcDbArc
 50
260.003103
 51
348.067545
  0
ARC
  5
32
330
30C
100
AcDbEntity
  8
0
100
AcDbCircle
 10
3.593841
 20
2.489593
 30
0.0
 40
0.06639
100
AcDbArc
 50
260.003103
 51
348.067545
  0
ARC
  5
33
330
30C
100
AcDbEntity
  8
0
100
AcDbCircle
 10
3.57886
 20
2.525374
 30
0.0
 40
0.06639
100
AcDbArc
 50
260.003103
 51
348.067545
  0
ARC
  5
34
330
30C
100
AcDbEntity
  8
0
100
AcDbCircle
 10
3.56388
 20
2.561156
 30
0.0
 40
0.06639
100
AcDbArc
 50
260.003103
 51
348.067545
  0
ARC
  5
35
330
30C
100
AcDbEntity
  8
0
100
AcDbCircle
 10
3.548899
 20
2.596937
 30
0.0
 40
0.06639
100
AcDbArc
 50
260.003103
 51
348.067545
  0
ARC
  5
36
330
30C
100
AcDbEntity
  8
0
100
AcDbCircle
 10
3.533918
 20
2.632719
 30
0.0
 40
0.06639
100
AcDbArc
 50
260.003103
 51
348.067545
  0
ARC
  5
37
330
30C
100
AcDbEntity
  8
0
100
AcDbCircle
 10
3.518938
 20
2.6685
 30
0.0
 40
0.06639
100
AcDbArc
 50
260.003103
 51
348.067545
  0
ARC
  5
38
330
30C
100
AcDbEntity
  8
0
100
AcDbCircle
 10
3.503957
 20
2.704282
 30
0.0
 40
0.06639
100
AcDbArc
 50
260.003103
 51
348.067545
  0
ARC
  5
39
330
30C
100
AcDbEntity
  8
0
100
AcDbCircle
 10
3.488976
 20
2.740063
 30
0.0
 40
0.06639
100
AcDbArc
 50
260.003103
 51
348.067545
  0
ARC
  5
3A
330
30C
100
AcDbEntity
  8
0
100
AcDbCircle
 10
3.473995
 20
2.775845
 30
0.0
 40
0.06639
100
AcDbArc
 50
260.003103
 51
348.067545
  0
ARC
  5
3B
330
30C
100
AcDbEntity
  8
0
100
AcDbCircle
 10
3.459015
 20
2.811626
 30
0.0
 40
0.06639
100
AcDbArc
 50
260.003103
 51
348.067545
  0
ARC
  5
3C
330
30C
100
AcDbEntity
  8
0
100
AcDbCircle
 10
3.444034
 20
2.847408
 30
0.0
 40
0.06639
100
AcDbArc
 50
260.003103
 51
348.067545
  0
ARC
  5
3D
330
30C
100
AcDbEntity
  8
0
100
AcDbCircle
 10
3.429053
 20
2.883189
 30
0.0
 40
0.06639
100
AcDbArc
 50
260.003103
 51
348.067545
  0
ARC
  5
3E
330
30C
100
AcDbEntity
  8
0
100
AcDbCircle
 10
3.414073
 20
2.918971
 30
0.0
 40
0.06639
100
AcDbArc
 50
260.003103
 51
348.067545
  0
ARC
  5
3F
330
30C
100
AcDbEntity
  8
0
100
AcDbCircle
 10
3.399092
 20
2.954752
 30
0.0
 40
0.06639
100
AcDbArc
 50
260.003103
 51
348.067545
  0
ARC
  5
40
330
30C
100
AcDbEntity
  8
0
100
AcDbCircle
 10
3.384111
 20
2.990534
 30
0.0
 40
0.06639
100
AcDbArc
 50
260.003103
 51
348.067545
  0
ARC
  5
41
330
30C
100
AcDbEntity
  8
0
100
AcDbCircle
 10
3.369131
 20
3.026315
 30
0.0
 40
0.06639
100
AcDbArc
 50
260.003103
 51
348.067545
  0
ARC
  5
42
330
30C
100
AcDbEntity
  8
0
100
AcDbCircle
 10
3.35415
 20
3.062097
 30
0.0
 40
0.06639
100
AcDbArc
 50
260.003103
 51
348.067545
  0
ARC
  5
43
330
30C
100
AcDbEntity
  8
0
100
AcDbCircle
 10
3.339169
 20
3.097878
 30
0.0
 40
0.06639
100
AcDbArc
 50
260.003103
 51
348.067545
  0
ARC
  5
44
330
30C
100
AcDbEntity
  8
0
100
AcDbCircle
 10
3.324188
 20
3.13366
 30
0.0
 40
0.06639
100
AcDbArc
 50
260.003103
 51
348.067545
  0
ARC
  5
45
330
30C
100
AcDbEntity
  8
0
100
AcDbCircle
 10
3.309208
 20
3.169442
 30
0.0
 40
0.06639
100
AcDbArc
 50
260.003103
 51
348.067545
  0
ARC
  5
46
330
30C
100
AcDbEntity
  8
0
100
AcDbCircle
 10
3.294227
 20
3.205223
 30
0.0
 40
0.06639
100
AcDbArc
 50
260.003103
 51
348.067545
  0
ARC
  5
47
330
30C
100
AcDbEntity
  8
0
100
AcDbCircle
 10
3.279246
 20
3.241005
 30
0.0
 40
0.06639
100
AcDbArc
 50
260.003103
 51
348.067545
  0
ARC
  5
48
330
30C
100
AcDbEntity
  8
0
100
AcDbCircle
 10
3.264266
 20
3.276786
 30
0.0
 40
0.06639
100
AcDbArc
 50
260.003103
 51
348.067545
  0
LWPOLYLINE
  5
4A
330
30C
100
AcDbEntity
  8
0
100
AcDbPolyline
 90
       16
 70
     1
 43
0.0
 10
3.474392
 20
3.776257
 42
0.149422
 10
3.464942
 20
3.773369
 42
0.107073
 10
3.455501
 20
3.763518
 42
0.075565
 10
3.449855
 20
3.750163
 42
0.062366
 10
3.447676
 20
3.732763
 42
0.062366
 10
3.449855
 20
3.715363
 42
0.075565
 10
3.455501
 20
3.702008
 42
0.107073
 10
3.464942
 20
3.692158
 42
0.149422
 10
3.474392
 20
3.689269
 42
0.149422
 10
3.483843
 20
3.692158
 42
0.107073
 10
3.493283
 20
3.702008
 42
0.075565
 10
3.49893
 20
3.715363
 42
0.062366
 10
3.501108
 20
3.732763
 42
0.062366
 10
3.49893
 20
3.750163
 42
0.075565
 10
3.493283
 20
3.763518
 42
0.107073
 10
3.483843
 20
3.773369
 42
0.149422
  0
LWPOLYLINE
  5
5C
330
30C
100
AcDbEntity
  8
0
100
AcDbPolyline
 90
       16
 70
     1
 43
0.0
 10
3.474392
 20
3.403499
 42
0.149422
 10
3.464942
 20
3.40061
 42
0.107073
 10
3.455501
 20
3.39076
 42
0.075565
 10
3.449855
 20
3.377405
 42
0.062366
 10
3.447676
 20
3.360005
 42
0.062366
 10
3.449855
 20
3.342605
 42
0.075565
 10
3.455501
 20
3.32925
 42
0.107073
 10
3.464942
 20
3.319399
 42
0.149422
 10
3.474392
 20
3.316511
 42
0.149422
 10
3.483843
 20
3.319399
 42
0.107073
 10
3.493283
 20
3.32925
 42
0.075565
 10
3.49893
 20
3.342605
 42
0.062366
 10
3.501108
 20
3.360005
 42
0.062366
 10
3.49893
 20
3.377405
 42
0.075565
 10
3.493283
 20
3.39076
 42
0.107073
 10
3.483843
 20
3.40061
 42
0.149422
  0
LWPOLYLINE
  5
6E
330
30C
100
AcDbEntity
  8
0
100
AcDbPolyline
 90
       16
 70
     1
 43
0.0
 10
3.474392
 20
3.164053
 42
0.149422
 10
3.464942
 20
3.161164
 42
0.107073
 10
3.455501
 20
3.151314
 42
0.075565
 10
3.449855
 20
3.137959
 42
0.062366
 10
3.447676
 20
3.120559
 42
0.062366
 10
3.449855
 20
3.103159
 42
0.075565
 10
3.455501
 20
3.089804
 42
0.107073
 10
3.464942
 20
3.079954
 42
0.149422
 10
3.474392
 20
3.077065
 42
0.149422
 10
3.483843
 20
3.079954
 42
0.107073
 10
3.493283
 20
3.089804
 42
0.075565
 10
3.49893
 20
3.103159
 42
0.062366
 10
3.501108
 20
3.120559
 42
0.062366
 10
3.49893
 20
3.137959
 42
0.075565
 10
3.493283
 20
3.151314
 42
0.107073
 10
3.483843
 20
3.161164
 42
0.149422
  0
LWPOLYLINE
  5
80
330
30C
100
AcDbEntity
  8
0
100
AcDbPolyline
 90
       16
 70
     1
 43
0.0
 10
3.64918
 20
3.976671
 42
0.149422
 10
3.63973
 20
3.973782
 42
0.107073
 10
3.630289
 20
3.963932
 42
0.075565
 10
3.624643
 20
3.950577
 42
0.062366
 10
3.622464
 20
3.933177
 42
0.062366
 10
3.624643
 20
3.915777
 42
0.075565
 10
3.630289
 20
3.902422
 42
0.107073
 10
3.63973
 20
3.892572
 42
0.149422
 10
3.64918
 20
3.889683
 42
0.149422
 10
3.658630000000001
 20
3.892572
 42
0.107073
 10
3.668071
 20
3.902422
 42
0.075565
 10
3.673717
 20
3.915777
 42
0.062366
 10
3.675896
 20
3.933177
 42
0.062366
 10
3.673717
 20
3.950577
 42
0.075565
 10
3.668071
 20
3.963932
 42
0.107073
 10
3.658630000000001
 20
3.973782
 42
0.149422
  0
LWPOLYLINE
  5
92
330
30C
100
AcDbEntity
  8
0
100
AcDbPolyline
 90
       16
 70
     1
 43
0.0
 10
3.64918
 20
3.576819
 42
0.149422
 10
3.63973
 20
3.57393
 42
0.107073
 10
3.630289
 20
3.56408
 42
0.075565
 10
3.624643
 20
3.550725
 42
0.062366
 10
3.622464
 20
3.533325
 42
0.062366
 10
3.624643
 20
3.515925
 42
0.075565
 10
3.630289
 20
3.50257
 42
0.107073
 10
3.63973
 20
3.49272
 42
0.149422
 10
3.64918
 20
3.489831
 42
0.149422
 10
3.658630000000001
 20
3.49272
 42
0.107073
 10
3.668071
 20
3.50257
 42
0.075565
 10
3.673717
 20
3.515925
 42
0.062366
 10
3.675896
 20
3.533325
 42
0.062366
 10
3.673717
 20
3.550725
 42
0.075565
 10
3.668071
 20
3.56408
 42
0.107073
 10
3.658630000000001
 20
3.57393
 42
0.149422
  0
LWPOLYLINE
  5
A4
330
30C
100
AcDbEntity
  8
0
100
AcDbPolyline
 90
       16
 70
     1
 43
0.0
 10
3.64918
 20
2.930401
 42
0.149422
 10
3.63973
 20
2.927512
 42
0.107073
 10
3.630289
 20
2.917662
 42
0.075565
 10
3.624643
 20
2.904307
 42
0.062366
 10
3.622464
 20
2.886907
 42
0.062366
 10
3.624643
 20
2.869507
 42
0.075565
 10
3.630289
 20
2.856152
 42
0.107073
 10
3.63973
 20
2.846301
 42
0.149422
 10
3.64918
 20
2.843413
 42
0.149422
 10
3.658630000000001
 20
2.846301
 42
0.107073
 10
3.668071
 20
2.856152
 42
0.075565
 10
3.673717
 20
2.869507
 42
0.062366
 10
3.675896
 20
2.886907
 42
0.062366
 10
3.673717
 20
2.904307
 42
0.075565
 10
3.668071
 20
2.917662
 42
0.107073
 10
3.658630000000001
 20
2.927512
 42
0.149422
  0
LINE
  5
B6
330
30C
100
AcDbEntity
  8
0
100
AcDbLine
 10
3.718719
 20
5.298780000000001
 30
0.0
 11
3.78341
 21
5.313269
 31
0.0
  0
ARC
  5
B9
330
30C
100
AcDbEntity
  8
0
100
AcDbCircle
 10
3.284699
 20
5.105908
 30
0.0
 40
0.043415
100
AcDbArc
 50
19.668505
 51
136.356997
  0
ARC
  5
BA
330
30C
100
AcDbEntity
  8
0
100
AcDbCircle
 10
3.284699
 20
5.155849
 30
0.0
 40
0.043415
100
AcDbArc
 50
19.668505
 51
136.356997
  0
ARC
  5
BB
330
30C
100
AcDbEntity
  8
0
100
AcDbCircle
 10
3.284699
 20
5.20579
 30
0.0
 40
0.043415
100
AcDbArc
 50
19.668505
 51
136.356997
  0
ARC
  5
BC
330
30C
100
AcDbEntity
  8
0
100
AcDbCircle
 10
3.284699
 20
5.305672
 30
0.0
 40
0.043415
100
AcDbArc
 50
19.668505
 51
136.356997
  0
ARC
  5
BD
330
30C
100
AcDbEntity
  8
0
100
AcDbCircle
 10
3.284699
 20
5.255731
 30
0.0
 40
0.043415
100
AcDbArc
 50
19.668505
 51
136.356997
  0
ARC
  5
BE
330
30C
100
AcDbEntity
  8
0
100
AcDbCircle
 10
3.284699
 20
5.355613
 30
0.0
 40
0.043415
100
AcDbArc
 50
19.668505
 51
136.356997
  0
ARC
  5
BF
330
30C
100
AcDbEntity
  8
0
100
AcDbCircle
 10
3.284699
 20
5.305672
 30
0.0
 40
0.043415
100
AcDbArc
 50
19.668505
 51
136.356997
  0
ARC
  5
C0
330
30C
100
AcDbEntity
  8
0
100
AcDbCircle
 10
3.284699
 20
5.405554
 30
0.0
 40
0.043415
100
AcDbArc
 50
19.668505
 51
136.356997
  0
ARC
  5
C1
330
30C
100
AcDbEntity
  8
0
100
AcDbCircle
 10
3.284699
 20
5.355613
 30
0.0
 40
0.043415
100
AcDbArc
 50
19.668505
 51
136.356997
  0
ARC
  5
C2
330
30C
100
AcDbEntity
  8
0
100
AcDbCircle
 10
3.284699
 20
5.455495
 30
0.0
 40
0.043415
100
AcDbArc
 50
19.668505
 51
136.356997
  0
ARC
  5
C3
330
30C
100
AcDbEntity
  8
0
100
AcDbCircle
 10
3.284699
 20
5.405554
 30
0.0
 40
0.043415
100
AcDbArc
 50
19.668505
 51
136.356997
  0
ARC
  5
C4
330
30C
100
AcDbEntity
  8
0
100
AcDbCircle
 10
3.284699
 20
5.555377
 30
0.0
 40
0.043415
100
AcDbArc
 50
19.668505
 51
136.356997
  0
ARC
  5
C5
330
30C
100
AcDbEntity
  8
0
100
AcDbCircle
 10
3.284699
 20
5.505436
 30
0.0
 40
0.043415
100
AcDbArc
 50
19.668505
 51
136.356997
  0
ARC
  5
C6
330
30C
100
AcDbEntity
  8
0
100
AcDbCircle
 10
3.284699
 20
5.655259
 30
0.0
 40
0.043415
100
AcDbArc
 50
19.668505
 51
27.735201
  0
ARC
  5
C7
330
30C
100
AcDbEntity
  8
0
100
AcDbCircle
 10
3.284699
 20
5.605318000000001
 30
0.0
 40
0.043415
100
AcDbArc
 50
19.668505
 51
66.259287
  0
ARC
  5
C8
330
30C
100
AcDbEntity
  8
0
100
AcDbCircle
 10
3.284699
 20
5.755142
 30
0.0
 40
0.043415
100
AcDbArc
 50
19.668505
 51
136.356997
  0
ARC
  5
C9
330
30C
100
AcDbEntity
  8
0
100
AcDbCircle
 10
3.284699
 20
5.7052
 30
0.0
 40
0.043415
100
AcDbArc
 50
19.668505
 51
136.356997
  0
ARC
  5
CA
330
30C
100
AcDbEntity
  8
0
100
AcDbCircle
 10
3.284699
 20
5.855024
 30
0.0
 40
0.043415
100
AcDbArc
 50
19.668505
 51
136.356997
  0
ARC
  5
CB
330
30C
100
AcDbEntity
  8
0
100
AcDbCircle
 10
3.284699
 20
5.805083
 30
0.0
 40
0.043415
100
AcDbArc
 50
19.668505
 51
136.356997
  0
ARC
  5
CC
330
30C
100
AcDbEntity
  8
0
100
AcDbCircle
 10
3.284699
 20
5.954905999999999
 30
0.0
 40
0.043415
100
AcDbArc
 50
19.668505
 51
136.356997
  0
ARC
  5
CD
330
30C
100
AcDbEntity
  8
0
100
AcDbCircle
 10
3.284699
 20
5.904965
 30
0.0
 40
0.043415
100
AcDbArc
 50
19.668505
 51
136.356997
  0
ARC
  5
CE
330
30C
100
AcDbEntity
  8
0
100
AcDbCircle
 10
3.284699
 20
6.054787999999999
 30
0.0
 40
0.043415
100
AcDbArc
 50
19.668505
 51
136.356997
  0
ARC
  5
CF
330
30C
100
AcDbEntity
  8
0
100
AcDbCircle
 10
3.284699
 20
6.004847
 30
0.0
 40
0.043415
100
AcDbArc
 50
19.668505
 51
136.356997
  0
ARC
  5
D0
330
30C
100
AcDbEntity
  8
0
100
AcDbCircle
 10
3.284699
 20
6.154669999999999
 30
0.0
 40
0.043415
100
AcDbArc
 50
19.668505
 51
136.356997
  0
ARC
  5
D1
330
30C
100
AcDbEntity
  8
0
100
AcDbCircle
 10
3.284699
 20
6.104729
 30
0.0
 40
0.043415
100
AcDbArc
 50
19.668505
 51
136.356997
  0
ARC
  5
D3
330
30C
100
AcDbEntity
  8
0
100
AcDbCircle
 10
3.284699
 20
6.204611
 30
0.0
 40
0.043415
100
AcDbArc
 50
19.668505
 51
136.356997
  0
LINE
  5
D4
330
30C
100
AcDbEntity
  8
0
100
AcDbLine
 10
3.293716
 20
6.24708
 30
0.0
 11
3.293716
 21
6.283881
 31
0.0
  0
LWPOLYLINE
  5
D5
330
30C
100
AcDbEntity
  8
0
100
AcDbPolyline
 90
       16
 70
     1
 43
0.0
 10
2.311641
 20
6.31421
 42
0.116503
 10
2.299447
 20
6.311329
 42
0.104219
 10
2.288512
 20
6.302637
 42
0.090535
 10
2.281505
 20
6.290138
 42
0.082775
 10
2.278932
 20
6.2747
 42
0.082775
 10
2.281505
 20
6.259261
 42
0.090535
 10
2.288512
 20
6.246762
 42
0.104219
 10
2.299447
 20
6.23807
 42
0.116503
 10
2.311641
 20
6.23519
 42
0.116503
 10
2.323834
 20
6.23807
 42
0.104219
 10
2.334769
 20
6.246762
 42
0.090535
 10
2.341776
 20
6.259261
 42
0.082775
 10
2.34435
 20
6.2747
 42
0.082775
 10
2.341776
 20
6.290138
 42
0.090535
 10
2.334769
 20
6.302637
 42
0.104219
 10
2.323834
 20
6.311329
 42
0.116503
  0
LINE
  5
E7
330
30C
100
AcDbEntity
  8
0
100
AcDbLine
 10
2.20338
 20
6.127007
 30
0.0
 11
1.354311
 21
6.227498000000001
 31
0.0
  0
LINE
  5
E8
330
30C
100
AcDbEntity
  8
0
100
AcDbLine
 10
2.20338
 20
5.816829
 30
0.0
 11
1.491031
 21
5.901139
 31
0.0
  0
LINE
  5
E9
330
30C
100
AcDbEntity
  8
0
100
AcDbLine
 10
2.20338
 20
5.526647000000001
 30
0.0
 11
1.729649
 21
5.582716000000001
 31
0.0
  0
LINE
  5
EA
330
30C
100
AcDbEntity
  8
0
100
AcDbLine
 10
1.981236
 20
5.202116999999999
 30
0.0
 11
2.848878
 21
5.075261
 31
0.0
  0
LINE
  5
EE
330
30C
100
AcDbEntity
  8
0
100
AcDbLine
 10
2.858386
 20
4.798106
 30
0.0
 11
3.293716
 21
4.734457
 31
0.0
  0
LINE
  5
EF
330
30C
100
AcDbEntity
  8
0
100
AcDbLine
 10
3.596894
 20
2.341724
 30
0.0
 11
3.178709
 21
2.447441
 31
0.0
  0
LINE
  5
F0
330
30C
100
AcDbEntity
  8
0
100
AcDbLine
 10
3.45994
 20
2.668839
 30
0.0
 11
2.539927
 21
2.853691
 31
0.0
  0
LINE
  5
F1
330
30C
100
AcDbEntity
  8
0
100
AcDbLine
 10
3.348383
 20
2.935293
 30
0.0
 11
3.116845
 21
2.972689
 31
0.0
  0
LINE
  5
F2
330
30C
100
AcDbEntity
  8
0
100
AcDbLine
 10
5.167311
 20
2.004154
 30
0.0
 11
5.446514
 21
1.948177
 31
0.0
  0
LINE
  5
F3
330
30C
100
AcDbEntity
  8
0
100
AcDbLine
 10
4.526269999999999
 20
3.221515
 30
0.0
 11
4.270743
 21
3.816811
 31
0.0
  0
LINE
  5
F4
330
30C
100
AcDbEntity
  8
0
100
AcDbLine
 10
4.056105000000001
 20
4.316849
 30
0.0
 11
3.78341
 21
4.952141
 31
0.0
  0
LINE
  5
F5
330
30C
100
AcDbEntity
  8
0
100
AcDbLine
 10
4.526269999999999
 20
3.221515
 30
0.0
 11
5.002433
 21
3.466177
 31
0.0
  0
LINE
  5
F6
330
30C
100
AcDbEntity
  8
0
100
AcDbLine
 10
4.526269999999999
 20
2.906954
 30
0.0
 11
4.099341000000001
 21
3.848375
 31
0.0
  0
LINE
  5
F7
330
30C
100
AcDbEntity
  8
0
100
AcDbLine
 10
4.526269999999999
 20
2.906954
 30
0.0
 11
5.1195
 21
3.220045
 31
0.0
  0
LINE
  5
F8
330
30C
100
AcDbEntity
  8
0
100
AcDbLine
 10
4.526269999999999
 20
2.62186
 30
0.0
 11
4.057019
 21
3.731493
 31
0.0
  0
LINE
  5
F9
330
30C
100
AcDbEntity
  8
0
100
AcDbLine
 10
4.526269999999999
 20
2.62186
 30
0.0
 11
5.167311
 21
2.957391
 31
0.0
  0
LINE
  5
FA
330
30C
100
AcDbEntity
  8
0
100
AcDbLine
 10
4.526269999999999
 20
2.446226
 30
0.0
 11
4.608914
 21
2.263981
 31
0.0
  0
LINE
  5
FB
330
30C
100
AcDbEntity
  8
0
100
AcDbLine
 10
4.608914
 20
2.263981
 30
0.0
 11
4.471552
 21
2.239884
 31
0.0
  0
LINE
  5
FC
330
30C
100
AcDbEntity
  8
0
100
AcDbLine
 10
4.471552
 20
2.239884
 30
0.0
 11
4.526269999999999
 21
2.110622
 31
0.0
  0
LINE
  5
FD
330
30C
100
AcDbEntity
  8
0
100
AcDbLine
 10
5.167311
 20
2.786276
 30
0.0
 11
5.242623
 21
2.611114
 31
0.0
  0
LINE
  5
FE
330
30C
100
AcDbEntity
  8
0
100
AcDbLine
 10
5.242623
 20
2.611114
 30
0.0
 11
4.608914
 21
2.263981
 31
0.0
  0
LINE
  5
FF
330
30C
100
AcDbEntity
  8
0
100
AcDbLine
 10
4.526269999999999
 20
2.110622
 30
0.0
 11
4.526269999999999
 21
0.462916
 31
0.0
  0
LINE
  5
100
330
30C
100
AcDbEntity
  8
0
100
AcDbLine
 10
5.167311
 20
2.473736
 30
0.0
 11
5.126779
 21
2.547657
 31
0.0
  0
LINE
  5
101
330
30C
100
AcDbEntity
  8
0
100
AcDbLine
 10
5.167311
 20
2.473736
 30
0.0
 11
5.167311
 21
0.8419139999999999
 31
0.0
  0
LINE
  5
102
330
30C
100
AcDbEntity
  8
0
100
AcDbLine
 10
4.526269999999999
 20
2.446226
 30
0.0
 11
5.167311
 21
2.786276
 31
0.0
  0
LINE
  5
103
330
30C
100
AcDbEntity
  8
0
100
AcDbLine
 10
4.415379
 20
2.381516
 30
0.0
 11
4.134146
 21
3.017717
 31
0.0
  0
LINE
  5
104
330
30C
100
AcDbEntity
  8
0
100
AcDbLine
 10
4.526269999999999
 20
2.110622
 30
0.0
 11
5.167311
 21
2.473736
 31
0.0
  0
LINE
  5
105
330
30C
100
AcDbEntity
  8
0
100
AcDbLine
 10
4.526269999999999
 20
1.98468
 30
0.0
 11
5.167311
 21
2.348521
 31
0.0
  0
LINE
  5
106
330
30C
100
AcDbEntity
  8
0
100
AcDbLine
 10
4.526269999999999
 20
1.744352
 30
0.0
 11
4.201755
 21
2.503593
 31
0.0
  0
LINE
  5
107
330
30C
100
AcDbEntity
  8
0
100
AcDbLine
 10
4.526269999999999
 20
1.708756
 30
0.0
 11
5.167311
 21
2.048125
 31
0.0
  0
LINE
  5
108
330
30C
100
AcDbEntity
  8
0
100
AcDbLine
 10
4.526269999999999
 20
1.447838
 30
0.0
 11
4.321547
 21
1.935686
 31
0.0
  0
LINE
  5
109
330
30C
100
AcDbEntity
  8
0
100
AcDbLine
 10
5.167311
 20
1.732113
 30
0.0
 11
4.643674
 21
1.435322
 31
0.0
  0
LINE
  5
10A
330
30C
100
AcDbEntity
  8
0
100
AcDbLine
 10
4.526269999999999
 20
1.113278
 30
0.0
 11
4.094282
 21
2.086435
 31
0.0
  0
LINE
  5
10B
330
30C
100
AcDbEntity
  8
0
100
AcDbLine
 10
5.167311
 20
1.423386
 30
0.0
 11
4.739158
 21
1.186641
 31
0.0
  0
LINE
  5
10C
330
30C
100
AcDbEntity
  8
0
100
AcDbLine
 10
4.526269999999999
 20
0.815335
 30
0.0
 11
5.04735
 21
1.077182
 31
0.0
  0
LINE
  5
10D
330
30C
100
AcDbEntity
  8
0
100
AcDbLine
 10
5.082125
 20
1.094657
 30
0.0
 11
5.146329
 21
1.126921
 31
0.0
  0
LINE
  5
10E
330
30C
100
AcDbEntity
  8
0
100
AcDbLine
 10
4.685569999999999
 20
1.15701
 30
0.0
 11
4.592187
 21
1.105374
 31
0.0
  0
LINE
  5
10F
330
30C
100
AcDbEntity
  8
0
100
AcDbLine
 10
4.526269999999999
 20
0.815335
 30
0.0
 11
4.264872
 21
1.437734
 31
0.0
  0
LINE
  5
110
330
30C
100
AcDbEntity
  8
0
100
AcDbLine
 10
3.904481
 20
1.936013
 30
0.0
 11
1.354311
 21
2.517627
 31
0.0
  0
LINE
  5
111
330
30C
100
AcDbEntity
  8
0
100
AcDbLine
 10
6.242305
 20
3.016672
 30
0.0
 11
5.860769
 21
3.071818
 31
0.0
  0
LINE
  5
112
330
30C
100
AcDbEntity
  8
0
100
AcDbLine
 10
6.242305
 20
3.016672
 30
0.0
 11
6.322532
 21
3.245169
 31
0.0
  0
LINE
  5
113
330
30C
100
AcDbEntity
  8
0
100
AcDbLine
 10
6.242305
 20
3.320223
 30
0.0
 11
5.746632
 21
3.390019
 31
0.0
  0
LINE
  5
114
330
30C
100
AcDbEntity
  8
0
100
AcDbLine
 10
6.242305
 20
3.320223
 30
0.0
 11
6.337699
 21
3.590283
 31
0.0
  0
LINE
  5
115
330
30C
100
AcDbEntity
  8
0
100
AcDbLine
 10
6.242305
 20
3.631991
 30
0.0
 11
5.167311
 21
3.815583
 31
0.0
  0
LINE
  5
116
330
30C
100
AcDbEntity
  8
0
100
AcDbLine
 10
6.242305
 20
3.70218
 30
0.0
 11
6.156635
 21
3.819026
 31
0.0
  0
LINE
  5
117
330
30C
100
AcDbEntity
  8
0
100
AcDbLine
 10
6.156635
 20
3.819026
 30
0.0
 11
6.346533999999999
 21
3.950243
 31
0.0
  0
LINE
  5
118
330
30C
100
AcDbEntity
  8
0
100
AcDbLine
 10
6.346533999999999
 20
3.950243
 30
0.0
 11
6.242305
 21
4.090925
 31
0.0
  0
LINE
  5
119
330
30C
100
AcDbEntity
  8
0
100
AcDbLine
 10
6.242305
 20
3.70218
 30
0.0
 11
6.242305
 21
2.695256
 31
0.0
  0
LINE
  5
11B
330
30C
100
AcDbEntity
  8
0
100
AcDbLine
 10
6.242305
 20
4.227605000000001
 30
0.0
 11
5.28099
 21
4.387144
 31
0.0
  0
LINE
  5
11C
330
30C
100
AcDbEntity
  8
0
100
AcDbLine
 10
6.341131
 20
3.94651
 30
0.0
 11
5.041176999999999
 21
4.162248
 31
0.0
  0
LINE
  5
11D
330
30C
100
AcDbEntity
  8
0
100
AcDbLine
 10
6.346533999999999
 20
3.950243
 30
0.0
 11
6.636957000000001
 21
5.070079
 31
0.0
  0
LINE
  5
11E
330
30C
100
AcDbEntity
  8
0
100
AcDbLine
 10
6.636957000000001
 20
5.070079
 30
0.0
 11
6.533074
 21
5.188471
 31
0.0
  0
LINE
  5
11F
330
30C
100
AcDbEntity
  8
0
100
AcDbLine
 10
6.533074
 20
4.669518
 30
0.0
 11
6.533074
 21
2.974909
 31
0.0
  0
LINE
  5
120
330
30C
100
AcDbEntity
  8
0
100
AcDbLine
 10
6.533074
 20
5.188471
 30
0.0
 11
6.242305
 21
4.090925
 31
0.0
  0
LINE
  5
121
330
30C
100
AcDbEntity
  8
0
100
AcDbLine
 10
6.242305
 20
4.527206
 30
0.0
 11
6.380684
 21
4.957346
 31
0.0
  0
LINE
  5
122
330
30C
100
AcDbEntity
  8
0
100
AcDbLine
 10
4.731148
 20
4.790756
 30
0.0
 11
5.560908
 21
4.653006
 31
0.0
  0
LINE
  5
123
330
30C
100
AcDbEntity
  8
0
100
AcDbLine
 10
5.208424
 20
5.046463
 30
0.0
 11
5.437176999999999
 21
5.013167
 31
0.0
  0
LINE
  5
124
330
30C
100
AcDbEntity
  8
0
100
AcDbLine
 10
6.242305
 20
4.895975
 30
0.0
 11
6.465808
 21
5.522898000000001
 31
0.0
  0
LINE
  5
125
330
30C
100
AcDbEntity
  8
0
100
AcDbLine
 10
5.208424
 20
5.368766
 30
0.0
 11
6.242305
 21
5.239023
 31
0.0
  0
LINE
  5
126
330
30C
100
AcDbEntity
  8
0
100
AcDbLine
 10
6.242305
 20
5.239023
 30
0.0
 11
6.424465000000001
 21
5.759803
 31
0.0
  0
LINE
  5
127
330
30C
100
AcDbEntity
  8
0
100
AcDbLine
 10
5.208424
 20
5.69572
 30
0.0
 11
6.242305
 21
5.578849
 31
0.0
  0
LINE
  5
128
330
30C
100
AcDbEntity
  8
0
100
AcDbLine
 10
6.242305
 20
5.578849
 30
0.0
 11
6.456571
 21
6.151269999999999
 31
0.0
  0
LINE
  5
129
330
30C
100
AcDbEntity
  8
0
  6
CENTER
100
AcDbLine
 10
4.32676
 20
7.220282000000001
 30
0.0
 11
3.917867
 21
6.626808000000001
 31
0.0
  0
LINE
  5
12A
330
30C
100
AcDbEntity
  8
0
100
AcDbLine
 10
3.748957
 20
6.213856
 30
0.0
 11
7.243125999999999
 21
3.85363
 31
0.0
  0
LINE
  5
12B
330
30C
100
AcDbEntity
  8
0
100
AcDbLine
 10
3.710704
 20
6.18201
 30
0.0
 11
4.677159
 21
4.15006
 31
0.0
  0
LINE
  5
12C
330
30C
100
AcDbEntity
  8
0
100
AcDbLine
 10
5.208424
 20
6.037575
 30
0.0
 11
6.242305
 21
5.904578
 31
0.0
  0
LINE
  5
12D
330
30C
100
AcDbEntity
  8
0
100
AcDbLine
 10
2.270518
 20
6.453185
 30
0.0
 11
3.336955
 21
6.328441000000001
 31
0.0
  0
LINE
  5
12E
330
30C
100
AcDbEntity
  8
0
100
AcDbLine
 10
2.311512
 20
6.408144
 30
0.0
 11
3.336955
 21
6.288196
 31
0.0
  0
LINE
  5
12F
330
30C
100
AcDbEntity
  8
0
100
AcDbLine
 10
3.336955
 20
6.358421
 30
0.0
 11
3.336955
 21
6.194302
 31
0.0
  0
LINE
  5
130
330
30C
100
AcDbEntity
  8
0
100
AcDbLine
 10
3.906477
 20
6.230415
 30
0.0
 11
5.088205
 21
6.075304
 31
0.0
  0
LINE
  5
131
330
30C
100
AcDbEntity
  8
0
100
AcDbLine
 10
4.077815
 20
6.166341
 30
0.0
 11
4.932765
 21
6.054123000000001
 31
0.0
  0
LWPOLYLINE
  5
156
330
30C
100
AcDbEntity
  8
0
100
AcDbPolyline
 90
       16
 70
     1
 43
0.0
 10
5.284139
 20
6.469483
 42
0.171787
 10
5.282001999999999
 20
6.474735
 42
0.104713
 10
5.274649
 20
6.480157
 42
0.066121
 10
5.265207
 20
6.483022
 42
0.052262
 10
5.252764
 20
6.483747
 42
0.052262
 10
5.240441000000001
 20
6.481876000000001
 42
0.066121
 10
5.231304
 20
6.47815
 42
0.104713
 10
5.224484
 20
6.472072
 42
0.171787
 10
5.22284
 20
6.466645
 42
0.171787
 10
5.224978
 20
6.461392
 42
0.104713
 10
5.232330999999999
 20
6.455971
 42
0.066121
 10
5.241773
 20
6.453105
 42
0.052262
 10
5.254216
 20
6.452381
 42
0.052262
 10
5.266539
 20
6.454251999999999
 42
0.066121
 10
5.275676
 20
6.457977
 42
0.104713
 10
5.282496
 20
6.464055
 42
0.171787
  0
LWPOLYLINE
  5
168
330
30C
100
AcDbEntity
  8
0
100
AcDbPolyline
 90
       16
 70
     1
 43
0.0
 10
4.763443
 20
6.445147
 42
0.171787
 10
4.761305
 20
6.450399
 42
0.104713
 10
4.753952
 20
6.455821
 42
0.066121
 10
4.74451
 20
6.458686
 42
0.052262
 10
4.732067
 20
6.459411
 42
0.052262
 10
4.719744
 20
6.45754
 42
0.066121
 10
4.710607
 20
6.453814
 42
0.104713
 10
4.703787
 20
6.447736
 42
0.171787
 10
4.702143
 20
6.442309
 42
0.171787
 10
4.704281
 20
6.437056
 42
0.104713
 10
4.711633999999999
 20
6.431635
 42
0.066121
 10
4.721076
 20
6.428769
 42
0.052262
 10
4.733519
 20
6.428045
 42
0.052262
 10
4.745842
 20
6.429916
 42
0.066121
 10
4.754979000000001
 20
6.433642
 42
0.104713
 10
4.761799
 20
6.439719
 42
0.171787
  0
LWPOLYLINE
  5
17A
330
30C
100
AcDbEntity
  8
0
100
AcDbPolyline
 90
       16
 70
     1
 43
0.0
 10
2.663905
 20
6.795324000000001
 42
0.171787
 10
2.661767
 20
6.800576
 42
0.104713
 10
2.654414
 20
6.805998
 42
0.066121
 10
2.644972
 20
6.808863000000001
 42
0.052262
 10
2.632529
 20
6.809588000000001
 42
0.052262
 10
2.620207
 20
6.807717
 42
0.066121
 10
2.611069
 20
6.803991000000001
 42
0.104713
 10
2.604249
 20
6.797913
 42
0.171787
 10
2.602606
 20
6.792486
 42
0.171787
 10
2.604743
 20
6.787234
 42
0.104713
 10
2.612096
 20
6.781812
 42
0.066121
 10
2.621539
 20
6.778946
 42
0.052262
 10
2.633981
 20
6.778222
 42
0.052262
 10
2.646304
 20
6.780092999999999
 42
0.066121
 10
2.655441
 20
6.783819
 42
0.104713
 10
2.662262
 20
6.789896000000001
 42
0.171787
  0
LWPOLYLINE
  5
18C
330
30C
100
AcDbEntity
  8
0
100
AcDbPolyline
 90
       16
 70
     1
 43
0.0
 10
3.035909
 20
6.651851
 42
0.171787
 10
3.033771
 20
6.657104
 42
0.104713
 10
3.026418
 20
6.662526
 42
0.066121
 10
3.016976
 20
6.665391000000001
 42
0.052262
 10
3.004533
 20
6.666116000000001
 42
0.052262
 10
2.992211
 20
6.664244999999999
 42
0.066121
 10
2.983073
 20
6.660519
 42
0.104713
 10
2.976253
 20
6.654441
 42
0.171787
 10
2.97461
 20
6.649014
 42
0.171787
 10
2.976747
 20
6.643761000000001
 42
0.104713
 10
2.9841
 20
6.63834
 42
0.066121
 10
2.993543
 20
6.635474
 42
0.052262
 10
3.005985
 20
6.634749
 42
0.052262
 10
3.018308
 20
6.636621000000001
 42
0.066121
 10
3.027445
 20
6.640346000000001
 42
0.104713
 10
3.034266
 20
6.646424000000001
 42
0.171787
  0
LWPOLYLINE
  5
19E
330
30C
100
AcDbEntity
  8
0
100
AcDbPolyline
 90
       16
 70
     1
 43
0.0
 10
2.538277
 20
6.203027
 42
0.116503
 10
2.526083
 20
6.200146
 42
0.104219
 10
2.515148
 20
6.191454
 42
0.090535
 10
2.508141
 20
6.178955
 42
0.082775
 10
2.505568
 20
6.163517
 42
0.082775
 10
2.508141
 20
6.148078
 42
0.090535
 10
2.515148
 20
6.135579
 42
0.104219
 10
2.526083
 20
6.126887
 42
0.116503
 10
2.538277
 20
6.124007
 42
0.116503
 10
2.550471
 20
6.126887
 42
0.104219
 10
2.561406
 20
6.135579
 42
0.090535
 10
2.568412
 20
6.148078
 42
0.082775
 10
2.570986
 20
6.163517
 42
0.082775
 10
2.568412
 20
6.178955
 42
0.090535
 10
2.561406
 20
6.191454
 42
0.104219
 10
2.550471
 20
6.200146
 42
0.116503
  0
LWPOLYLINE
  5
1B0
330
30C
100
AcDbEntity
  8
0
100
AcDbPolyline
 90
       16
 70
     1
 43
0.0
 10
2.408937
 20
6.001229
 42
0.116503
 10
2.396743
 20
5.998349
 42
0.104219
 10
2.385808
 20
5.989657
 42
0.090535
 10
2.378802
 20
5.977158
 42
0.082775
 10
2.376228
 20
5.961719
 42
0.082775
 10
2.378802
 20
5.946281
 42
0.090535
 10
2.385808
 20
5.933782
 42
0.104219
 10
2.396743
 20
5.92509
 42
0.116503
 10
2.408937
 20
5.922209
 42
0.116503
 10
2.421131
 20
5.92509
 42
0.104219
 10
2.432066
 20
5.933782
 42
0.090535
 10
2.439073
 20
5.946281
 42
0.082775
 10
2.441646
 20
5.961719
 42
0.082775
 10
2.439073
 20
5.977158
 42
0.090535
 10
2.432066
 20
5.989657
 42
0.104219
 10
2.421131
 20
5.998349
 42
0.116503
  0
LWPOLYLINE
  5
1C2
330
30C
100
AcDbEntity
  8
0
100
AcDbPolyline
 90
       16
 70
     1
 43
0.0
 10
5.020098
 20
5.652648
 42
0.116503
 10
5.007904
 20
5.649768
 42
0.104219
 10
4.996969
 20
5.641076
 42
0.090535
 10
4.989962
 20
5.628577
 42
0.082775
 10
4.987389
 20
5.613137999999999
 42
0.082775
 10
4.989962
 20
5.5977
 42
0.090535
 10
4.996969
 20
5.5852
 42
0.104219
 10
5.007904
 20
5.576508000000001
 42
0.116503
 10
5.020098
 20
5.573628
 42
0.116503
 10
5.032291000000001
 20
5.576508000000001
 42
0.104219
 10
5.043226
 20
5.5852
 42
0.090535
 10
5.050233
 20
5.5977
 42
0.082775
 10
5.052806
 20
5.613137999999999
 42
0.082775
 10
5.050233
 20
5.628577
 42
0.090535
 10
5.043226
 20
5.641076
 42
0.104219
 10
5.032291000000001
 20
5.649768
 42
0.116503
  0
LWPOLYLINE
  5
1D4
330
30C
100
AcDbEntity
  8
0
100
AcDbPolyline
 90
       16
 70
     1
 43
0.0
 10
4.884957
 20
5.883431
 42
0.116503
 10
4.872763
 20
5.880551000000001
 42
0.104219
 10
4.861828
 20
5.871859
 42
0.090535
 10
4.854821
 20
5.85936
 42
0.082775
 10
4.852248
 20
5.843921
 42
0.082775
 10
4.854821
 20
5.828482
 42
0.090535
 10
4.861828
 20
5.815983
 42
0.104219
 10
4.872763
 20
5.807291
 42
0.116503
 10
4.884957
 20
5.804411
 42
0.116503
 10
4.89715
 20
5.807291
 42
0.104219
 10
4.908085
 20
5.815983
 42
0.090535
 10
4.915092
 20
5.828482
 42
0.082775
 10
4.917665
 20
5.843921
 42
0.082775
 10
4.915092
 20
5.85936
 42
0.090535
 10
4.908085
 20
5.871859
 42
0.104219
 10
4.89715
 20
5.880551000000001
 42
0.116503
  0
LWPOLYLINE
  5
1E6
330
30C
100
AcDbEntity
  8
0
100
AcDbPolyline
 90
       16
 70
     1
 43
0.0
 10
5.106747
 20
5.974398000000001
 42
0.116503
 10
5.094552999999999
 20
5.971517
 42
0.104219
 10
5.083618
 20
5.962825
 42
0.090535
 10
5.076611
 20
5.950326
 42
0.082775
 10
5.074038
 20
5.934888
 42
0.082775
 10
5.076611
 20
5.919449
 42
0.090535
 10
5.083618
 20
5.90695
 42
0.104219
 10
5.094552999999999
 20
5.898258
 42
0.116503
 10
5.106747
 20
5.895378
 42
0.116503
 10
5.11894
 20
5.898258
 42
0.104219
 10
5.129875
 20
5.90695
 42
0.090535
 10
5.136882
 20
5.919449
 42
0.082775
 10
5.139456
 20
5.934888
 42
0.082775
 10
5.136882
 20
5.950326
 42
0.090535
 10
5.129875
 20
5.962825
 42
0.104219
 10
5.11894
 20
5.971517
 42
0.116503
  0
LINE
  5
1F8
330
30C
100
AcDbEntity
  8
0
100
AcDbLine
 10
1.33638
 20
4.704374
 30
0.0
 11
1.413912
 21
4.679024
 31
0.0
  0
LINE
  5
1F9
330
30C
100
AcDbEntity
  8
0
100
AcDbLine
 10
1.467269
 20
4.702297
 30
0.0
 11
1.361364
 21
4.744415
 31
0.0
  0
LINE
  5
1FA
330
30C
100
AcDbEntity
  8
0
100
AcDbLine
 10
1.387756
 20
4.786712000000001
 30
0.0
 11
1.50466
 21
4.735015
 31
0.0
  0
TEXT
  5
1FB
330
30C
100
AcDbEntity
  8
0
100
AcDbText
 10
3.385075
 20
8.100467
 30
0.0
 40
0.2
  1
SPECIFY LOW SIDE, HIGH SIDE,
 41
0.75
100
AcDbText
  0
TEXT
  5
1FC
330
30C
100
AcDbEntity
  8
0
100
AcDbText
 10
3.385075
 20
7.776657000000001
 30
0.0
 40
0.2
  1
OR CENTER FLUSH WITH HEADER
 41
0.75
100
AcDbText
  0
TEXT
  5
1FD
330
30C
100
AcDbEntity
  8
0
100
AcDbText
 10
3.385075
 20
7.452848
 30
0.0
 40
0.2
  1
(LOW SIDE FLUSH SHOWN)
 41
0.75
100
AcDbText
  0
TEXT
  5
1FE
330
30C
100
AcDbEntity
  8
0
100
AcDbText
 10
6.690369000000001
 20
3.160557
 30
0.0
 40
0.2
  1
SLOPE
 41
0.75
100
AcDbText
  0
TEXT
  5
1FF
330
30C
100
AcDbEntity
  8
0
100
AcDbText
 10
6.690369000000001
 20
2.836747
 30
0.0
 40
0.2
  1
ANGLE
 41
0.75
100
AcDbText
  0
TEXT
  5
200
330
30C
100
AcDbEntity
  8
0
100
AcDbText
 10
2.643359714285714
 20
4.150447
 30
0.0
 40
0.2
  1
SKEW
 41
0.75
 72
     2
 11
3.229074
 21
4.150447
 31
0.0
100
AcDbText
  0
TEXT
  5
201
330
30C
100
AcDbEntity
  8
0
100
AcDbText
 10
2.550502571428572
 20
3.826638
 30
0.0
 40
0.2
  1
ANGLE
 41
0.75
 72
     2
 11
3.229074
 21
3.826638
 31
0.0
100
AcDbText
  0
LINE
  5
204
330
30C
100
AcDbEntity
  8
0
  6
CENTER
100
AcDbLine
 10
1.869936
 20
3.654408
 30
0.0
 11
1.58286
 21
3.237741
 31
0.0
  0
LINE
  5
207
330
30C
100
AcDbEntity
  8
0
100
AcDbLine
 10
3.468307
 20
5.886182
 30
0.0
 11
3.718719
 21
5.298780000000001
 31
0.0
  0
LINE
  5
208
330
30C
100
AcDbEntity
  8
0
100
AcDbLine
 10
3.488509
 20
6.003632
 30
0.0
 11
3.336955
 21
6.358421
 31
0.0
  0
LINE
  5
209
330
30C
100
AcDbEntity
  8
0
100
AcDbLine
 10
3.731073
 20
6.267565
 30
0.0
 11
4.067507
 21
6.136128
 31
0.0
  0
ARC
  5
20A
330
30C
100
AcDbEntity
  8
0
100
AcDbCircle
 10
3.284699
 20
5.655259
 30
0.0
 40
0.043415
100
AcDbArc
 50
98.81506400000001
 51
136.356997
  0
LINE
  5
20B
330
30C
100
AcDbEntity
  8
0
100
AcDbLine
 10
2.963476
 20
5.153462
 30
0.0
 11
3.293716
 21
5.105178
 31
0.0
  0
LINE
  5
20C
330
30C
100
AcDbEntity
  8
0
100
AcDbLine
 10
2.90404
 20
5.067196
 30
0.0
 11
3.293716
 21
5.010222
 31
0.0
  0
LINE
  5
20E
330
30C
100
AcDbEntity
  8
0
100
AcDbLine
 10
4.02995
 20
6.701359
 30
0.0
 11
5.409383
 21
6.543272
 31
0.0
  0
LINE
  5
211
330
30C
100
AcDbEntity
  8
0
100
AcDbLine
 10
5.551039
 20
4.996593
 30
0.0
 11
6.242305
 21
4.895975
 31
0.0
  0
LINE
  5
212
330
30C
100
AcDbEntity
  8
0
100
AcDbLine
 10
4.213819
 20
5.839515000000001
 30
0.0
 11
4.983855
 21
4.278454
 31
0.0
  0
LINE
  5
213
330
30C
100
AcDbEntity
  8
0
100
AcDbLine
 10
5.208424
 20
5.167684
 30
0.0
 11
5.208424
 21
4.859797
 31
0.0
  0
LINE
  5
214
330
30C
100
AcDbEntity
  8
0
100
AcDbLine
 10
5.182472
 20
5.185213
 30
0.0
 11
5.182472
 21
4.773358
 31
0.0
  0
LINE
  5
215
330
30C
100
AcDbEntity
  8
0
100
AcDbLine
 10
6.242305
 20
4.469322
 30
0.0
 11
6.242305
 21
4.090925
 31
0.0
  0
LINE
  5
217
330
30C
100
AcDbEntity
  8
0
100
AcDbLine
 10
5.167311
 20
3.119525
 30
0.0
 11
5.167311
 21
2.786276
 31
0.0
  0
LINE
  5
218
330
30C
100
AcDbEntity
  8
0
100
AcDbLine
 10
4.867022
 20
3.750876
 30
0.0
 11
4.526269999999999
 21
3.574234
 31
0.0
  0
LINE
  5
219
330
30C
100
AcDbEntity
  8
0
100
AcDbLine
 10
5.163758000000001
 20
3.243403
 30
0.0
 11
5.167311
 21
3.245278
 31
0.0
  0
LINE
  5
21A
330
30C
100
AcDbEntity
  8
0
100
AcDbLine
 10
5.046926999999999
 20
3.489039
 30
0.0
 11
5.167311
 21
3.550895
 31
0.0
  0
ARC
  5
21B
330
30C
100
AcDbEntity
  8
0
100
AcDbCircle
 10
4.627126000000001
 20
4.665628
 30
0.0
 40
2.547777
100
AcDbArc
 50
291.470003
 51
321.142379
  0
ARC
  5
224
330
30C
100
AcDbEntity
  8
0
100
AcDbCircle
 10
4.627126000000001
 20
4.665628
 30
0.0
 40
2.547777
100
AcDbArc
 50
333.596019
 51
344.0591
  0
LINE
  5
226
330
30C
100
AcDbEntity
  8
0
100
AcDbLine
 10
6.533074
 20
2.900462
 30
0.0
 11
6.533074
 21
2.855341
 31
0.0
  0
LINE
  5
227
330
30C
100
AcDbEntity
  8
0
100
AcDbLine
 10
6.242305
 20
2.631017
 30
0.0
 11
6.242305
 21
1.402829
 31
0.0
  0
ARC
  5
228
330
30C
100
AcDbEntity
  8
0
100
AcDbCircle
 10
3.731235
 20
6.840093
 30
0.0
 40
2.8515
100
AcDbArc
 50
240.961925
 51
246.880618
  0
SOLID
  5
230
330
30C
100
AcDbEntity
  8
0
100
AcDbTrace
 10
2.551517
 20
4.197143
 30
0.0
 11
2.589083
 21
4.271529
 31
0.0
 12
2.347143
 22
4.347034
 32
0.0
 13
2.347143
 23
4.347034
 33
0.0
  0
SOLID
  5
232
330
30C
100
AcDbEntity
  8
0
100
AcDbTrace
 10
5.568385
 20
4.695953
 30
0.0
 11
5.628605
 21
4.638351
 31
0.0
 12
5.771301
 22
4.847812
 32
0.0
 13
5.771301
 23
4.847812
 33
0.0
  0
SOLID
  5
234
330
30C
100
AcDbEntity
  8
0
100
AcDbTrace
 10
6.96081
 20
3.740609
 30
0.0
 11
7.040151
 21
3.715126
 31
0.0
 12
7.07693
 22
3.965892
 32
0.0
 13
7.07693
 23
3.965892
 33
0.0
  0
SOLID
  5
236
330
30C
100
AcDbEntity
  8
0
100
AcDbTrace
 10
5.806879
 20
2.35044
 30
0.0
 11
5.775418
 21
2.427607
 31
0.0
 12
5.559648
 22
2.294643
 32
0.0
 13
5.559648
 23
2.294643
 33
0.0
  0
ARC
  5
238
330
30C
100
AcDbEntity
  8
0
100
AcDbCircle
 10
3.731235
 20
6.840093
 30
0.0
 40
2.8515
100
AcDbArc
 50
260.633267
 51
315.67895
  0
ARC
  5
239
330
30C
100
AcDbEntity
  8
0
100
AcDbCircle
 10
3.296559
 20
7.807293
 30
0.0
 40
1.785579
100
AcDbArc
 50
297.194682
 51
342.369144
  0
SOLID
  5
23A
330
30C
100
AcDbEntity
  8
0
100
AcDbTrace
 10
4.34687
 20
6.315798
 30
0.0
 11
4.302844
 21
6.386552
 31
0.0
 12
4.112596
 22
6.219094999999999
 32
0.0
 13
4.112596
 23
6.219094999999999
 33
0.0
  0
LINE
  5
23C
330
30C
100
AcDbEntity
  8
0
  6
CENTER
100
AcDbLine
 10
3.897848
 20
6.597752000000001
 30
0.0
 11
3.746918
 21
6.37869
 31
0.0
  0
LINE
  5
23D
330
30C
100
AcDbEntity
  8
0
  6
CENTER
100
AcDbLine
 10
3.72318
 20
6.344237000000001
 30
0.0
 11
2.037021
 21
3.896918
 31
0.0
  0
LWPOLYLINE
  5
299
330
30C
100
AcDbEntity
  8
0
100
AcDbPolyline
 90
        8
 70
     0
 43
0.0
 10
2.661685
 20
6.789147
 42
0.067821
 10
2.660406
 20
6.791052000000001
 42
0.104713
 10
2.653053
 20
6.796473
 42
0.066121
 10
2.643611
 20
6.799339
 42
0.052262
 10
2.631168
 20
6.800063000000001
 42
0.052262
 10
2.618846
 20
6.798192
 42
0.066121
 10
2.609708
 20
6.794466000000001
 42
0.093886
 10
2.603464
 20
6.789138
 42
0.171787
  0
LWPOLYLINE
  5
2A3
330
30C
100
AcDbEntity
  8
0
100
AcDbPolyline
 90
        8
 70
     0
 43
0.0
 10
3.033689
 20
6.645675
 42
0.067821
 10
3.03241
 20
6.647579
 42
0.104713
 10
3.025057
 20
6.653001
 42
0.066121
 10
3.015615
 20
6.655866000000001
 42
0.052262
 10
3.003172
 20
6.656591000000001
 42
0.052262
 10
2.99085
 20
6.654719999999999
 42
0.066121
 10
2.981712
 20
6.650994
 42
0.093886
 10
2.975468
 20
6.645666
 42
0.171787
  0
LWPOLYLINE
  5
2D1
330
30C
100
AcDbEntity
  8
0
100
AcDbPolyline
 90
        9
 70
     0
 43
0.0
 10
5.282925
 20
6.464698
 42
0.045917
 10
5.282001999999999
 20
6.465952
 42
0.104713
 10
5.274649
 20
6.471373000000001
 42
0.066121
 10
5.265207
 20
6.474239
 42
0.052262
 10
5.252764
 20
6.474963
 42
0.052262
 10
5.240441000000001
 20
6.473091999999999
 42
0.066121
 10
5.231304
 20
6.469367
 42
0.104713
 10
5.224484
 20
6.463289
 42
0.022757
 10
5.224054
 20
6.462646
 42
0.171787
  0
LWPOLYLINE
  5
2DC
330
30C
100
AcDbEntity
  8
0
100
AcDbPolyline
 90
        9
 70
     0
 43
0.0
 10
4.762229000000001
 20
6.440362
 42
0.045917
 10
4.761305
 20
6.441616000000001
 42
0.104713
 10
4.753952
 20
6.447037
 42
0.066121
 10
4.74451
 20
6.449903
 42
0.052262
 10
4.732067
 20
6.450628
 42
0.052262
 10
4.719744
 20
6.448756
 42
0.066121
 10
4.710607
 20
6.445031
 42
0.104713
 10
4.703787
 20
6.438953
 42
0.022757
 10
4.703357
 20
6.43831
 42
0.171787
  0
LINE
  5
2E7
330
30C
100
AcDbEntity
  8
0
100
AcDbLine
 10
3.293716
 20
4.004214
 30
0.0
 11
3.293716
 21
3.217286
 31
0.0
  0
LINE
  5
2E9
330
30C
100
AcDbEntity
  8
0
100
AcDbLine
 10
3.78341
 20
3.939062
 30
0.0
 11
3.78341
 21
2.221697
 31
0.0
  0
LINE
  5
2EA
330
30C
100
AcDbEntity
  8
0
100
AcDbLine
 10
3.718719
 20
3.93862
 30
0.0
 11
3.718719
 21
2.254343
 31
0.0
  0
LINE
  5
2EB
330
30C
100
AcDbEntity
  8
0
100
AcDbLine
 10
4.322772000000001
 20
4.050624
 30
0.0
 11
3.511747
 21
5.949232
 31
0.0
  0
LINE
  5
2EC
330
30C
100
AcDbEntity
  8
0
100
AcDbLine
 10
4.698753
 20
4.104657
 30
0.0
 11
5.628837
 21
2.149176
 31
0.0
  0
LINE
  5
2ED
330
30C
100
AcDbEntity
  8
0
100
AcDbLine
 10
5.005975
 20
4.233613
 30
0.0
 11
5.167311
 21
3.906543
 31
0.0
  0
LINE
  5
2EE
330
30C
100
AcDbEntity
  8
0
100
AcDbLine
 10
5.206016
 20
4.399586
 30
0.0
 11
4.898967
 21
4.450544
 31
0.0
  0
LINE
  5
2EF
330
30C
100
AcDbEntity
  8
0
100
AcDbLine
 10
5.625521
 20
4.64228
 30
0.0
 11
6.127884
 21
4.558881
 31
0.0
  0
TEXT
  5
2F0
330
30C
100
AcDbEntity
  8
0
100
AcDbText
 10
1.852062
 20
3.720065
 30
0.0
 40
0.2
  1
C
 41
0.75
 72
     1
 11
1.927062
 21
3.720065
 31
0.0
100
AcDbText
  0
TEXT
  5
2F1
330
30C
100
AcDbEntity
  8
0
100
AcDbText
 10
1.901905428571429
 20
3.621092
 30
0.0
 40
0.2
  1
L
 41
0.75
 72
     1
 11
1.973334
 21
3.621092
 31
0.0
100
AcDbText
  0
TEXT
  5
2F2
330
30C
100
AcDbEntity
  8
0
100
AcDbText
 10
0.99497
 20
1.413926
 30
0.0
 40
0.2
  1
Simpson Strong-Tie
 41
0.75
100
AcDbText
  0
TEXT
  5
2F3
330
30C
100
AcDbEntity
  8
0
100
AcDbText
 10
0.99497
 20
1.090117
 30
0.0
 40
0.2
  1
GLT/GLTV
 41
0.75
100
AcDbText
  0
TEXT
  5
2F4
330
30C
100
AcDbEntity
  8
0
100
AcDbText
 10
0.99497
 20
0.766307
 30
0.0
 40
0.2
  1
Sloped and Skewed
 41
0.75
100
AcDbText
  0
ENDSEC
  0
SECTION
  2
OBJECTS
  0
DICTIONARY
  5
300
330
0
100
AcDbDictionary
281
     1
  3
ACAD_COLOR
350
331
  3
ACAD_GROUP
350
301
  3
ACAD_LAYOUT
350
309
  3
ACAD_MATERIAL
350
333
  3
ACAD_MLINESTYLE
350
306
  3
ACAD_PLOTSETTINGS
350
308
  3
ACAD_PLOTSTYLENAME
350
302
  3
ACDBHEADERROUNDTRIPXREC
350
330
  0
DICTIONARY
  5
331
102
{ACAD_REACTORS
330
300
102
}
330
300
100
AcDbDictionary
281
     1
  0
DICTIONARY
  5
301
102
{ACAD_REACTORS
330
300
102
}
330
300
100
AcDbDictionary
281
     1
  0
DICTIONARY
  5
309
102
{ACAD_REACTORS
330
300
102
}
330
300
100
AcDbDictionary
281
     1
  3
Layout1
350
30B
  3
Model
350
30D
  0
DICTIONARY
  5
333
102
{ACAD_REACTORS
330
300
102
}
330
300
100
AcDbDictionary
281
     1
  0
DICTIONARY
  5
306
102
{ACAD_REACTORS
330
300
102
}
330
300
100
AcDbDictionary
281
     1
  3
Standard
350
307
  0
DICTIONARY
  5
308
102
{ACAD_REACTORS
330
300
102
}
330
300
100
AcDbDictionary
281
     1
  0
ACDBDICTIONARYWDFLT
  5
302
102
{ACAD_REACTORS
330
300
102
}
330
300
100
AcDbDictionary
281
     1
  3
Normal
350
303
100
AcDbDictionaryWithDefault
340
303
  0
DICTIONARY
  5
330
102
{ACAD_REACTORS
330
300
102
}
330
300
100
AcDbDictionary
281
     1
  3
COLORDICT
350
332
  3
MATERIALDICT
350
334
  0
LAYOUT
  5
30B
102
{ACAD_REACTORS
330
309
102
}
102
{ACAD_XDICTIONARY
360
335
102
}
330
309
100
AcDbPlotSettings
  1

  2

  4

  6

 40
0.0
 41
0.0
 42
0.0
 43
0.0
 44
0.0
 45
0.0
 46
0.0
 47
0.0
 48
0.0
 49
0.0
140
0.0
141
0.0
142
1.0
143
1.0
 70
   688
 72
     0
 73
     0
 74
     5
  7

 75
    16
147
1.0
148
0.0
149
0.0
100
AcDbLayout
  1
Layout1
 70
     1
 71
     1
 10
0.0
 20
0.0
 11
12.0
 21
9.0
 12
0.0
 22
0.0
 32
0.0
 14
1.000000000000000E+20
 24
1.000000000000000E+20
 34
1.000000000000000E+20
 15
-1.000000000000000E+20
 25
-1.000000000000000E+20
 35
-1.000000000000000E+20
146
0.0
 13
0.0
 23
0.0
 33
0.0
 16
1.0
 26
0.0
 36
0.0
 17
0.0
 27
1.0
 37
0.0
 76
     0
330
30A
  0
LAYOUT
  5
30D
102
{ACAD_REACTORS
330
309
102
}
102
{ACAD_XDICTIONARY
360
337
102
}
330
309
100
AcDbPlotSettings
  1

  2

  4

  6

 40
0.0
 41
0.0
 42
0.0
 43
0.0
 44
0.0
 45
0.0
 46
0.0
 47
0.0
 48
0.0
 49
0.0
140
0.0
141
0.0
142
1.0
143
1.0
 70
  1712
 72
     0
 73
     0
 74
     0
  7

 75
     0
147
1.0
148
0.0
149
0.0
100
AcDbLayout
  1
Model
 70
     1
 71
     0
 10
0.0
 20
0.0
 11
0.0
 21
0.0
 12
0.0
 22
0.0
 32
0.0
 14
0.0
 24
0.0
 34
0.0
 15
0.0
 25
0.0
 35
0.0
146
0.0
 13
0.0
 23
0.0
 33
0.0
 16
1.0
 26
0.0
 36
0.0
 17
0.0
 27
1.0
 37
0.0
 76
     0
330
30C
  0
MLINESTYLE
  5
307
102
{ACAD_REACTORS
330
306
102
}
330
306
100
AcDbMlineStyle
  2
Standard
 70
     0
  3

 62
   256
 51
90.0
 52
90.0
 71
     2
 49
0.5
 62
   256
  6
BYLAYER
 49
-0.5
 62
   256
  6
BYLAYER
  0
ACDBPLACEHOLDER
  5
303
102
{ACAD_REACTORS
330
302
102
}
330
302
  0
XRECORD
  5
332
102
{ACAD_REACTORS
330
330
102
}
330
330
100
AcDbXrecord
340
331
  0
XRECORD
  5
334
102
{ACAD_REACTORS
330
330
102
}
330
330
100
AcDbXrecord
340
333
  0
DICTIONARY
  5
335
330
30B
100
AcDbDictionary
280
     1
281
     1
  3
ACAD_XREC_ROUNDTRIP
360
336
  0
DICTIONARY
  5
337
330
30D
100
AcDbDictionary
280
     1
281
     1
  3
ACAD_XREC_ROUNDTRIP
360
338
  0
XRECORD
  5
336
102
{ACAD_REACTORS
330
335
102
}
330
335
100
AcDbXrecord
102
SHADEPLOT
 70
     0
102
SHADEPLOTRESLEVEL
 70
     0
102
SHADEPLOTCUSTOMDPI
 70
     0
  0
XRECORD
  5
338
102
{ACAD_REACTORS
330
337
102
}
330
337
100
AcDbXrecord
102
SHADEPLOT
 70
 31552
102
SHADEPLOTRESLEVEL
 70
 30752
102
SHADEPLOTCUSTOMDPI
 70
 31608
  0
ENDSEC
  0
EOF
