  0
SECTION
  2
HEADER
  9
$ACADVER
  1
AC1015
  9
$ACADMAINTVER
 70
     6
  9
$DWGCODEPAGE
  3
ANSI_1252
  9
$INSBASE
 10
0.0
 20
0.0
 30
0.0
  9
$EXTMIN
 10
31.86657442289523
 20
20.97353204985216
 30
-0.0015258207003612
  9
$EXTMAX
 10
110.7069800904133
 20
148.6295528556334
 30
0.0000000349246008
  9
$LIMMIN
 10
31.73621961805555
 20
20.85057915581597
  9
$LIMMAX
 10
110.8373345269097
 20
148.7525051540798
  9
$ORTHOMODE
 70
     0
  9
$REGENMODE
 70
     1
  9
$FILLMODE
 70
     1
  9
$QTEXTMODE
 70
     0
  9
$MIRRTEXT
 70
     1
  9
$LTSCALE
 40
1.0
  9
$ATTMODE
 70
     1
  9
$TEXTSIZE
 40
0.2
  9
$TRACEWID
 40
0.05
  9
$TEXTSTYLE
  7
STANDARD
  9
$CLAYER
  8
0
  9
$CELTYPE
  6
CONTINUOUS
  9
$CECOLOR
 62
   256
  9
$CELTSCALE
 40
1.0
  9
$DISPSILH
 70
     0
  9
$DIMSCALE
 40
1.0
  9
$DIMASZ
 40
0.18
  9
$DIMEXO
 40
0.0625
  9
$DIMDLI
 40
0.38
  9
$DIMRND
 40
0.0
  9
$DIMDLE
 40
0.0
  9
$DIMEXE
 40
0.18
  9
$DIMTP
 40
0.0
  9
$DIMTM
 40
0.0
  9
$DIMTXT
 40
0.18
  9
$DIMCEN
 40
0.09
  9
$DIMTSZ
 40
0.0
  9
$DIMTOL
 70
     0
  9
$DIMLIM
 70
     0
  9
$DIMTIH
 70
     1
  9
$DIMTOH
 70
     1
  9
$DIMSE1
 70
     0
  9
$DIMSE2
 70
     0
  9
$DIMTAD
 70
     0
  9
$DIMZIN
 70
     0
  9
$DIMBLK
  1

  9
$DIMASO
 70
     1
  9
$DIMSHO
 70
     1
  9
$DIMPOST
  1

  9
$DIMAPOST
  1

  9
$DIMALT
 70
     0
  9
$DIMALTD
 70
     2
  9
$DIMALTF
 40
25.4
  9
$DIMLFAC
 40
1.0
  9
$DIMTOFL
 70
     0
  9
$DIMTVP
 40
0.0
  9
$DIMTIX
 70
     0
  9
$DIMSOXD
 70
     0
  9
$DIMSAH
 70
     0
  9
$DIMBLK1
  1

  9
$DIMBLK2
  1

  9
$DIMSTYLE
  2
STANDARD
  9
$DIMCLRD
 70
     0
  9
$DIMCLRE
 70
     0
  9
$DIMCLRT
 70
     0
  9
$DIMTFAC
 40
1.0
  9
$DIMGAP
 40
0.09
  9
$DIMJUST
 70
     0
  9
$DIMSD1
 70
     0
  9
$DIMSD2
 70
     0
  9
$DIMTOLJ
 70
     1
  9
$DIMTZIN
 70
     0
  9
$DIMALTZ
 70
     0
  9
$DIMALTTZ
 70
     0
  9
$DIMUPT
 70
     0
  9
$DIMDEC
 70
     4
  9
$DIMTDEC
 70
     4
  9
$DIMALTU
 70
     2
  9
$DIMALTTD
 70
     2
  9
$DIMTXSTY
  7
STANDARD
  9
$DIMAUNIT
 70
     0
  9
$DIMADEC
 70
     0
  9
$DIMALTRND
 40
0.0
  9
$DIMAZIN
 70
     0
  9
$DIMDSEP
 70
    46
  9
$DIMATFIT
 70
     3
  9
$DIMFRAC
 70
     0
  9
$DIMLDRBLK
  1

  9
$DIMLUNIT
 70
     2
  9
$DIMLWD
 70
    -2
  9
$DIMLWE
 70
    -2
  9
$DIMTMOVE
 70
     0
  9
$LUNITS
 70
     2
  9
$LUPREC
 70
     4
  9
$SKETCHINC
 40
0.1
  9
$FILLETRAD
 40
0.0
  9
$AUNITS
 70
     0
  9
$AUPREC
 70
     0
  9
$MENU
  1
acad
  9
$ELEVATION
 40
0.0
  9
$PELEVATION
 40
0.0
  9
$THICKNESS
 40
0.0
  9
$LIMCHECK
 70
     0
  9
$CHAMFERA
 40
0.0
  9
$CHAMFERB
 40
0.0
  9
$CHAMFERC
 40
0.0
  9
$CHAMFERD
 40
0.0
  9
$SKPOLY
 70
     0
  9
$TDCREATE
 40
2444971.666666667
  9
$TDUCREATE
 40
2444972.0
  9
$TDUPDATE
 40
2452215.475409375
  9
$TDUUPDATE
 40
2452215.808742709
  9
$TDINDWG
 40
0.0005537037
  9
$TDUSRTIMER
 40
0.0005537037
  9
$USRTIMER
 70
     1
  9
$ANGBASE
 50
0.0
  9
$ANGDIR
 70
     0
  9
$PDMODE
 70
     0
  9
$PDSIZE
 40
0.0
  9
$PLINEWID
 40
0.0
  9
$SPLFRAME
 70
     0
  9
$SPLINETYPE
 70
     6
  9
$SPLINESEGS
 70
     8
  9
$HANDSEED
  5
154
  9
$SURFTAB1
 70
     6
  9
$SURFTAB2
 70
     6
  9
$SURFTYPE
 70
     6
  9
$SURFU
 70
     6
  9
$SURFV
 70
     6
  9
$UCSBASE
  2

  9
$UCSNAME
  2

  9
$UCSORG
 10
0.0
 20
0.0
 30
0.0
  9
$UCSXDIR
 10
1.0
 20
0.0
 30
0.0
  9
$UCSYDIR
 10
0.0
 20
1.0
 30
0.0
  9
$UCSORTHOREF
  2

  9
$UCSORTHOVIEW
 70
     0
  9
$UCSORGTOP
 10
0.0
 20
0.0
 30
0.0
  9
$UCSORGBOTTOM
 10
0.0
 20
0.0
 30
0.0
  9
$UCSORGLEFT
 10
0.0
 20
0.0
 30
0.0
  9
$UCSORGRIGHT
 10
0.0
 20
0.0
 30
0.0
  9
$UCSORGFRONT
 10
0.0
 20
0.0
 30
0.0
  9
$UCSORGBACK
 10
0.0
 20
0.0
 30
0.0
  9
$PUCSBASE
  2

  9
$PUCSNAME
  2

  9
$PUCSORG
 10
0.0
 20
0.0
 30
0.0
  9
$PUCSXDIR
 10
1.0
 20
0.0
 30
0.0
  9
$PUCSYDIR
 10
0.0
 20
1.0
 30
0.0
  9
$PUCSORTHOREF
  2

  9
$PUCSORTHOVIEW
 70
     0
  9
$PUCSORGTOP
 10
0.0
 20
0.0
 30
0.0
  9
$PUCSORGBOTTOM
 10
0.0
 20
0.0
 30
0.0
  9
$PUCSORGLEFT
 10
0.0
 20
0.0
 30
0.0
  9
$PUCSORGRIGHT
 10
0.0
 20
0.0
 30
0.0
  9
$PUCSORGFRONT
 10
0.0
 20
0.0
 30
0.0
  9
$PUCSORGBACK
 10
0.0
 20
0.0
 30
0.0
  9
$USERI1
 70
     0
  9
$USERI2
 70
     0
  9
$USERI3
 70
     0
  9
$USERI4
 70
     0
  9
$USERI5
 70
     0
  9
$USERR1
 40
0.0
  9
$USERR2
 40
0.0
  9
$USERR3
 40
0.0
  9
$USERR4
 40
0.0
  9
$USERR5
 40
0.0
  9
$WORLDVIEW
 70
     1
  9
$SHADEDGE
 70
     3
  9
$SHADEDIF
 70
    70
  9
$TILEMODE
 70
     1
  9
$MAXACTVP
 70
    16
  9
$PINSBASE
 10
0.0
 20
0.0
 30
0.0
  9
$PLIMCHECK
 70
     0
  9
$PEXTMIN
 10
1.000000000000000E+20
 20
1.000000000000000E+20
 30
1.000000000000000E+20
  9
$PEXTMAX
 10
-1.000000000000000E+20
 20
-1.000000000000000E+20
 30
-1.000000000000000E+20
  9
$PLIMMIN
 10
0.0
 20
0.0
  9
$PLIMMAX
 10
12.0
 20
9.0
  9
$UNITMODE
 70
     0
  9
$VISRETAIN
 70
     0
  9
$PLINEGEN
 70
     1
  9
$PSLTSCALE
 70
     0
  9
$TREEDEPTH
 70
  3020
  9
$CMLSTYLE
  2
STANDARD
  9
$CMLJUST
 70
     0
  9
$CMLSCALE
 40
1.0
  9
$PROXYGRAPHICS
 70
     0
  9
$MEASUREMENT
 70
     0
  9
$CELWEIGHT
370
    -1
  9
$ENDCAPS
280
     0
  9
$JOINSTYLE
280
     0
  9
$LWDISPLAY
290
     0
  9
$INSUNITS
 70
     0
  9
$HYPERLINKBASE
  1

  9
$STYLESHEET
  1

  9
$XEDIT
290
     1
  9
$CEPSNTYPE
380
     0
  9
$PSTYLEMODE
290
     1
  9
$FINGERPRINTGUID
  2
{87DE953D-CEA3-11D5-923F-00805F198AD5}
  9
$VERSIONGUID
  2
{87DE953F-CEA3-11D5-923F-00805F198AD5}
  9
$EXTNAMES
290
     1
  9
$PSVPSCALE
 40
0.0
  9
$OLESTARTUP
290
     0
  0
ENDSEC
  0
SECTION
  2
CLASSES
  0
CLASS
  1
LWPOLYLINE
  2
AcDbPolyline
  3
AutoCAD 2000
 90
        0
280
     0
281
     1
  0
CLASS
  1
IMAGE
  2
AcDbRasterImage
  3
ISM
 90
      127
280
     0
281
     1
  0
CLASS
  1
OLE2FRAME
  2
AcDbOle2Frame
  3
AutoCAD 2000
 90
        0
280
     0
281
     1
  0
CLASS
  1
HATCH
  2
AcDbHatch
  3
AutoCAD 2000
 90
        0
280
     0
281
     1
  0
CLASS
  1
DICTIONARYVAR
  2
AcDbDictionaryVar
  3
AutoCAD 2000
 90
        0
280
     0
281
     0
  0
CLASS
  1
RASTERVARIABLES
  2
AcDbRasterVariables
  3
ISM
 90
        0
280
     0
281
     0
  0
CLASS
  1
IMAGEDEF
  2
AcDbRasterImageDef
  3
ISM
 90
        0
280
     0
281
     0
  0
CLASS
  1
IMAGEDEF_REACTOR
  2
AcDbRasterImageDefReactor
  3
ISM
 90
        1
280
     0
281
     0
  0
CLASS
  1
IDBUFFER
  2
AcDbIdBuffer
  3
AutoCAD 2000
 90
        0
280
     0
281
     0
  0
CLASS
  1
SPATIAL_FILTER
  2
AcDbSpatialFilter
  3
AutoCAD 2000
 90
        0
280
     0
281
     0
  0
CLASS
  1
XRECORD
  2
AcDbXrecord
  3
AutoCAD 2000
 90
        0
280
     0
281
     0
  0
CLASS
  1
SORTENTSTABLE
  2
AcDbSortentsTable
  3
AutoCAD 2000
 90
        0
280
     0
281
     0
  0
CLASS
  1
LAYER_INDEX
  2
AcDbLayerIndex
  3
AutoCAD 2000
 90
        0
280
     0
281
     0
  0
CLASS
  1
SPATIAL_INDEX
  2
AcDbSpatialIndex
  3
AutoCAD 2000
 90
        0
280
     0
281
     0
  0
CLASS
  1
OBJECT_PTR
  2
CAseDLPNTableRecord
  3
ASE-LPNTableRecord
 90
        1
280
     1
281
     0
  0
CLASS
  1
LAYOUT
  2
AcDbLayout
  3
ObjectDBX Classes
 90
        0
280
     0
281
     0
  0
CLASS
  1
PLOTSETTINGS
  2
AcDbPlotSettings
  3
AutoCAD 2000
 90
        0
280
     0
281
     0
  0
CLASS
  1
ACDBDICTIONARYWDFLT
  2
AcDbDictionaryWithDefault
  3
AutoCAD 2000
 90
        0
280
     0
281
     0
  0
CLASS
  1
ACDBPLACEHOLDER
  2
AcDbPlaceHolder
  3
ObjectDBX Classes
 90
        0
280
     0
281
     0
  0
CLASS
  1
VBAPROJECT
  2
AcDbVbaProject
  3
ObjectDBX Classes
 90
        0
280
     0
281
     0
  0
CLASS
  1
WIPEOUT
  2
AcDbWipeout
  3
WipeOut|AutoCAD Express Tool|expresstools@autodesk.com
 90
      127
280
     0
281
     1
  0
CLASS
  1
WIPEOUTVARIABLES
  2
AcDbWipeoutVariables
  3
WipeOut|AutoCAD Express Tool|expresstools@autodesk.com
 90
        0
280
     0
281
     0
  0
CLASS
  1
RTEXT
  2
RText
  3
RText|AutoCAD Express Tool|expresstools@autodesk.com
 90
        0
280
     0
281
     1
  0
CLASS
  1
ARCALIGNEDTEXT
  2
AcDbArcAlignedText
  3
ATEXT|AutoCAD Express Tool|expresstools@autodesk.com
 90
        0
280
     0
281
     1
  0
CLASS
  1
LONG_TRANSACTION
  2
AcDbLongTransaction
  3
AutoCAD 2000
 90
        0
280
     1
281
     0
  0
CLASS
  1
LWPOLYLINE
  2
AcDbPolyline
  3
AutoCAD 2000
 90
        0
280
     0
281
     1
  0
CLASS
  1
HATCH
  2
AcDbHatch
  3
AutoCAD 2000
 90
        0
280
     0
281
     1
  0
CLASS
  1
XRECORD
  2
AcDbXrecord
  3
AutoCAD 2000
 90
        0
280
     0
281
     0
  0
ENDSEC
  0
SECTION
  2
TABLES
  0
TABLE
  2
VPORT
  5
7
330
0
100
AcDbSymbolTable
 70
     2
  0
VPORT
  5
120
330
7
100
AcDbSymbolTableRecord
100
AcDbViewportTableRecord
  2
*Active
 70
     0
 10
0.0
 20
0.0
 11
1.0
 21
1.0
 12
71.28677725665428
 22
84.80154245274278
 13
0.0
 23
0.0
 14
1.0
 24
1.0
 15
0.0
 25
0.0
 16
0.0
 26
0.0
 36
1.0
 17
0.0
 27
0.0
 37
0.0
 40
129.6663518420928
 41
1.836842105263158
 42
50.0
 43
0.0
 44
0.0
 50
0.0
 51
0.0
 71
     0
 72
   100
 73
     1
 74
     1
 75
     0
 76
     0
 77
     0
 78
     0
281
     0
 65
     1
110
0.0
120
0.0
130
0.0
111
1.0
121
0.0
131
0.0
112
0.0
122
1.0
132
0.0
 79
     0
146
0.0
  0
ENDTAB
  0
TABLE
  2
LTYPE
  5
4
330
0
100
AcDbSymbolTable
 70
     1
  0
LTYPE
  5
11
330
4
100
AcDbSymbolTableRecord
100
AcDbLinetypeTableRecord
  2
BYBLOCK
 70
     0
  3

 72
    65
 73
     0
 40
0.0
  0
LTYPE
  5
12
330
4
100
AcDbSymbolTableRecord
100
AcDbLinetypeTableRecord
  2
BYLAYER
 70
     0
  3

 72
    65
 73
     0
 40
0.0
  0
LTYPE
  5
13
330
4
100
AcDbSymbolTableRecord
100
AcDbLinetypeTableRecord
  2
CONTINUOUS
 70
     0
  3
Solid line
 72
    65
 73
     0
 40
0.0
  0
ENDTAB
  0
TABLE
  2
LAYER
  5
2
330
0
100
AcDbSymbolTable
 70
     2
  0
LAYER
  5
14
330
2
100
AcDbSymbolTableRecord
100
AcDbLayerTableRecord
  2
0
 70
     0
 62
     7
  6
CONTINUOUS
370
    -3
390
0
  0
LAYER
  5
21
330
2
100
AcDbSymbolTableRecord
100
AcDbLayerTableRecord
  2
LAYER_1
 70
     0
 62
     5
  6
CONTINUOUS
370
    -3
390
0
  0
ENDTAB
  0
TABLE
  2
STYLE
  5
3
330
0
100
AcDbSymbolTable
 70
     5
  0
STYLE
  5
17
330
3
100
AcDbSymbolTableRecord
100
AcDbTextStyleTableRecord
  2
STANDARD
 70
     0
 40
0.0
 41
1.0
 50
0.0
 71
     0
 42
0.2
  3
txt
  4

  0
STYLE
  5
1D
330
3
100
AcDbSymbolTableRecord
100
AcDbTextStyleTableRecord
  2
STD
 70
     0
 40
0.0
 41
1.0
 50
0.0
 71
     0
 42
0.2
  3
txt
  4

  0
STYLE
  5
1E
330
3
100
AcDbSymbolTableRecord
100
AcDbTextStyleTableRecord
  2
TATESTD
 70
     4
 40
0.0
 41
1.0
 50
0.0
 71
     0
 42
0.2
  3
txt
  4

  0
STYLE
  5
1F
330
3
100
AcDbSymbolTableRecord
100
AcDbTextStyleTableRecord
  2
KANJISTD
 70
     0
 40
0.0
 41
1.0
 50
0.0
 71
     0
 42
0.2
  3
txt
  4
extfont
  0
STYLE
  5
20
330
3
100
AcDbSymbolTableRecord
100
AcDbTextStyleTableRecord
  2
KANJITATE
 70
     4
 40
0.0
 41
1.0
 50
0.0
 71
     0
 42
0.2
  3
txt
  4
extfont
  0
ENDTAB
  0
TABLE
  2
VIEW
  5
5
330
0
100
AcDbSymbolTable
 70
     0
  0
ENDTAB
  0
TABLE
  2
UCS
  5
6
330
0
100
AcDbSymbolTable
 70
     0
  0
ENDTAB
  0
TABLE
  2
APPID
  5
8
330
0
100
AcDbSymbolTable
 70
     1
  0
APPID
  5
16
330
8
100
AcDbSymbolTableRecord
100
AcDbRegAppTableRecord
  2
ACAD
 70
     0
  0
ENDTAB
  0
TABLE
  2
DIMSTYLE
  5
9
330
0
100
AcDbSymbolTable
 70
     1
100
AcDbDimStyleTable
  0
DIMSTYLE
105
18
330
9
100
AcDbSymbolTableRecord
100
AcDbDimStyleTableRecord
  2
STANDARD
 70
     0
  3

  4

289
     0
340
17
  0
ENDTAB
  0
TABLE
  2
BLOCK_RECORD
  5
1
330
0
100
AcDbSymbolTable
 70
     0
  0
BLOCK_RECORD
  5
A
330
1
100
AcDbSymbolTableRecord
100
AcDbBlockTableRecord
  2
*MODEL_SPACE
340
11B
  0
BLOCK_RECORD
  5
B
330
1
100
AcDbSymbolTableRecord
100
AcDbBlockTableRecord
  2
*PAPER_SPACE
340
11C
  0
ENDTAB
  0
ENDSEC
  0
SECTION
  2
BLOCKS
  0
BLOCK
  5
D
330
A
100
AcDbEntity
  8
0
100
AcDbBlockBegin
  2
*MODEL_SPACE
 70
     0
 10
0.0
 20
0.0
 30
0.0
  3
*MODEL_SPACE
  1

  4

  0
ENDBLK
  5
E
330
A
100
AcDbEntity
  8
0
100
AcDbBlockEnd
  0
BLOCK
  5
F
330
B
100
AcDbEntity
 67
     1
  8
0
100
AcDbBlockBegin
  2
*PAPER_SPACE
 70
     0
 10
0.0
 20
0.0
 30
0.0
  3
*PAPER_SPACE
  1

  4

  0
ENDBLK
  5
10
330
B
100
AcDbEntity
 67
     1
  8
0
100
AcDbBlockEnd
  0
ENDSEC
  0
SECTION
  2
ENTITIES
  0
LWPOLYLINE
  5
105
330
A
100
AcDbEntity
  8
LAYER_1
 62
     7
100
AcDbPolyline
 90
       15
 70
     0
 43
0.0
 10
78.4637722439236
 20
37.90655788845486
 10
63.95303005642361
 20
20.98287082248264
 10
50.47237141927083
 20
29.71859944661458
 10
50.14853244357639
 20
67.57296413845485
 10
33.21657714843749
 20
76.30834825303819
 10
32.89308268229166
 20
105.1038343641493
 10
31.86851128472222
 20
107.6921346028646
 10
33.86391059027778
 20
109.1480319552951
 10
32.81212293836806
 20
111.1430867513021
 10
32.67741970486111
 20
138.6442504882812
 10
52.68308919270833
 20
148.6202134874132
 10
110.5972113715278
 20
131.8498331705729
 10
110.705042860243
 20
63.66346978081597
 10
95.41777615017361
 20
43.98129475911458
 10
87.7779324001736
 20
47.9662367078993
  0
SPLINE
  5
104
330
A
100
AcDbEntity
  8
LAYER_1
 62
     7
100
AcDbSpline
210
0.0
220
0.0
230
1.0
 70
    11
 71
     3
 72
    62
 73
    58
 74
     0
 42
0.0000000001
 43
0.0000000001
 40
0.0
 40
0.0
 40
0.0
 40
0.0
 40
1.0
 40
1.0
 40
1.0
 40
2.0
 40
2.0
 40
2.0
 40
3.0
 40
3.0
 40
3.0
 40
4.0
 40
4.0
 40
4.0
 40
5.0
 40
5.0
 40
5.0
 40
6.0
 40
6.0
 40
6.0
 40
7.0
 40
7.0
 40
7.0
 40
8.0
 40
8.0
 40
8.0
 40
9.0
 40
9.0
 40
9.0
 40
10.0
 40
10.0
 40
10.0
 40
11.0
 40
11.0
 40
11.0
 40
12.0
 40
12.0
 40
12.0
 40
13.0
 40
13.0
 40
13.0
 40
14.0
 40
14.0
 40
14.0
 40
15.0
 40
15.0
 40
15.0
 40
16.0
 40
16.0
 40
16.0
 40
17.0
 40
17.0
 40
17.0
 40
18.0
 40
18.0
 40
18.0
 40
19.0
 40
19.0
 40
19.0
 40
19.0
 10
58.99209255642361
 20
119.0161634657118
 30
0.0
 10
58.99209255642361
 20
119.0161634657118
 30
0.0
 10
58.93834906684027
 20
128.7223754882812
 30
0.0
 10
58.93834906684027
 20
129.4234524197049
 30
0.0
 10
58.93834906684027
 20
130.1241848415799
 30
0.0
 10
58.99209255642361
 20
130.7715182834201
 30
0.0
 10
59.74725748697916
 20
131.2028442382812
 30
0.0
 10
60.50207790798611
 20
131.6341701931424
 30
0.0
 10
68.15914713541666
 20
136.3257012261285
 30
0.0
 10
68.15914713541666
 20
136.3257012261285
 30
0.0
 10
68.15914713541666
 20
136.3257012261285
 30
0.0
 10
102.5088161892361
 20
125.6217895507812
 30
0.0
 10
102.5088161892361
 20
125.6217895507812
 30
0.0
 10
102.5088161892361
 20
125.6217895507812
 30
0.0
 10
102.5088161892361
 20
124.893840874566
 30
0.0
 10
102.5088161892361
 20
124.893840874566
 30
0.0
 10
102.5088161892361
 20
124.893840874566
 30
0.0
 10
95.1480251736111
 20
118.5848375108507
 30
0.0
 10
95.1480251736111
 20
118.5848375108507
 30
0.0
 10
95.1480251736111
 20
118.5848375108507
 30
0.0
 10
95.1480251736111
 20
107.0179294162326
 30
0.0
 10
95.1480251736111
 20
107.0179294162326
 30
0.0
 10
95.1480251736111
 20
107.0179294162326
 30
0.0
 10
94.2581570095486
 20
106.3440687391493
 30
0.0
 10
94.2581570095486
 20
106.3440687391493
 30
0.0
 10
94.2581570095486
 20
106.3440687391493
 30
0.0
 10
94.31224500868055
 20
55.84448106553819
 30
0.0
 10
94.31224500868055
 20
55.84448106553819
 30
0.0
 10
94.31224500868055
 20
55.84448106553819
 30
0.0
 10
79.6264919704861
 20
38.09776068793403
 30
0.0
 10
79.15968153211804
 20
37.45662841796874
 30
0.0
 10
78.94401855468749
 20
37.16000569661458
 30
0.0
 10
78.674267578125
 20
37.05217420789931
 30
0.0
 10
78.16198187934027
 20
37.45662841796874
 30
0.0
 10
78.4048611111111
 20
37.69916314019097
 30
0.0
 10
78.43173285590277
 20
37.91482611762152
 30
0.0
 10
78.45860460069444
 20
38.2924085828993
 30
0.0
 10
78.48547634548611
 20
38.66964653862847
 30
0.0
 10
78.29702962239583
 20
106.3978122287326
 30
0.0
 10
78.29702962239583
 20
106.3978122287326
 30
0.0
 10
78.29702962239583
 20
106.3978122287326
 30
0.0
 10
93.07201063368055
 20
118.6923244900174
 30
0.0
 10
93.07201063368055
 20
118.6923244900174
 30
0.0
 10
93.07201063368055
 20
118.6923244900174
 30
0.0
 10
81.18195258246527
 20
122.4671156141493
 30
0.0
 10
81.18195258246527
 20
122.4671156141493
 30
0.0
 10
81.18195258246527
 20
122.4671156141493
 30
0.0
 10
64.84289822048611
 20
110.3882663302951
 30
0.0
 10
64.84289822048611
 20
110.3882663302951
 30
0.0
 10
64.84289822048611
 20
110.3882663302951
 30
0.0
 10
64.84289822048611
 20
111.2509182400174
 30
0.0
 10
64.84289822048611
 20
111.2509182400174
 30
0.0
 10
64.84289822048611
 20
111.2509182400174
 30
0.0
 10
70.18141818576389
 20
115.0797973632812
 30
0.0
 10
70.18141818576389
 20
115.0797973632812
 30
0.0
 10
70.18141818576389
 20
115.0797973632812
 30
0.0
 10
58.99209255642361
 20
119.0161634657118
 30
0.0
 10
58.99209255642361
 20
119.0161634657118
 30
0.0
  0
SPLINE
  5
103
330
A
100
AcDbEntity
  8
LAYER_1
 62
     7
100
AcDbSpline
210
0.0
220
0.0
230
1.0
 70
     8
 71
     3
 72
    11
 73
     7
 74
     0
 42
0.0000000001
 43
0.0000000001
 40
0.0
 40
0.0
 40
0.0
 40
0.0
 40
1.0
 40
1.0
 40
1.0
 40
2.0
 40
2.0
 40
2.0
 40
2.0
 10
58.50702311197916
 20
46.81212972005208
 30
0.0
 10
59.26184353298611
 20
46.46176350911458
 30
0.0
 10
59.88196072048611
 20
46.21922878689236
 30
0.0
 10
60.28641493055555
 20
46.0841810438368
 30
0.0
 10
60.690869140625
 20
45.94947781032986
 30
0.0
 10
63.49483235677083
 20
44.81707492404514
 30
0.0
 10
63.71049533420138
 20
44.8439466688368
 30
0.0
  0
SPLINE
  5
102
330
A
100
AcDbEntity
  8
LAYER_1
 62
     7
100
AcDbSpline
210
0.0
220
0.0
230
1.0
 70
     8
 71
     3
 72
    14
 73
    10
 74
     0
 42
0.0000000001
 43
0.0000000001
 40
0.0
 40
0.0
 40
0.0
 40
0.0
 40
1.0
 40
1.0
 40
1.0
 40
2.0
 40
2.0
 40
2.0
 40
3.0
 40
3.0
 40
3.0
 40
3.0
 10
57.15861273871527
 20
48.99597574869792
 30
0.0
 10
57.69811469184027
 20
48.64560953776041
 30
0.0
 10
58.58763834635416
 20
48.26837158203124
 30
0.0
 10
58.93834906684027
 20
48.18741183810764
 30
0.0
 10
59.28871527777778
 20
48.10645209418402
 30
0.0
 10
60.690869140625
 20
47.62103814019097
 30
0.0
 10
61.14906684027778
 20
47.3244154188368
 30
0.0
 10
61.60760904947916
 20
47.02813720703124
 30
0.0
 10
63.49483235677083
 20
46.46176350911458
 30
0.0
 10
63.65675184461805
 20
46.38080376519097
 30
0.0
  0
SPLINE
  5
101
330
A
100
AcDbEntity
  8
LAYER_1
 62
     7
100
AcDbSpline
210
0.0
220
0.0
230
1.0
 70
     8
 71
     3
 72
    14
 73
    10
 74
     0
 42
0.0000000001
 43
0.0000000001
 40
0.0
 40
0.0
 40
0.0
 40
0.0
 40
1.0
 40
1.0
 40
1.0
 40
2.0
 40
2.0
 40
2.0
 40
3.0
 40
3.0
 40
3.0
 40
3.0
 10
58.29101562499999
 20
49.99367540147569
 30
0.0
 10
58.64172634548611
 20
49.75114067925347
 30
0.0
 10
59.18088378906249
 20
49.48138970269097
 30
0.0
 10
59.66629774305555
 20
49.31981472439236
 30
0.0
 10
60.1517116970486
 20
49.15789523654514
 30
0.0
 10
61.76918402777777
 20
48.48369004991319
 30
0.0
 10
62.20050998263888
 20
48.29524332682291
 30
0.0
 10
62.63183593749999
 20
48.10645209418402
 30
0.0
 10
63.71049533420138
 20
47.62103814019097
 30
0.0
 10
63.71049533420138
 20
47.62103814019097
 30
0.0
  0
SPLINE
  5
100
330
A
100
AcDbEntity
  8
LAYER_1
 62
     7
100
AcDbSpline
210
0.0
220
0.0
230
1.0
 70
     8
 71
     3
 72
    11
 73
     7
 74
     0
 42
0.0000000001
 43
0.0000000001
 40
0.0
 40
0.0
 40
0.0
 40
0.0
 40
1.0
 40
1.0
 40
1.0
 40
2.0
 40
2.0
 40
2.0
 40
2.0
 10
56.18812934027778
 20
53.93004150390625
 30
0.0
 10
57.18582899305555
 20
53.36401231553819
 30
0.0
 10
58.10256890190972
 20
52.39318440755208
 30
0.0
 10
58.42606336805555
 20
52.12377794053819
 30
0.0
 10
58.74955783420138
 20
51.85402696397569
 30
0.0
 10
59.20775553385416
 20
51.34174126519097
 30
0.0
 10
59.58533799913194
 20
51.12607828776041
 30
0.0
  0
SPLINE
  5
FF
330
A
100
AcDbEntity
  8
LAYER_1
 62
     7
100
AcDbSpline
210
0.0
220
0.0
230
1.0
 70
     8
 71
     3
 72
     8
 73
     4
 74
     0
 42
0.0000000001
 43
0.0000000001
 40
0.0
 40
0.0
 40
0.0
 40
0.0
 40
1.0
 40
1.0
 40
1.0
 40
1.0
 10
60.42111816406249
 20
52.23160942925347
 30
0.0
 10
60.85244411892361
 20
51.74619547526041
 30
0.0
 10
63.2522976345486
 20
49.8048841688368
 30
0.0
 10
63.68362358940971
 20
49.77801242404514
 30
0.0
  0
SPLINE
  5
FE
330
A
100
AcDbEntity
  8
LAYER_1
 62
     7
100
AcDbSpline
210
0.0
220
0.0
230
1.0
 70
     8
 71
     3
 72
     8
 73
     4
 74
     0
 42
0.0000000001
 43
0.0000000001
 40
0.0
 40
0.0
 40
0.0
 40
0.0
 40
1.0
 40
1.0
 40
1.0
 40
1.0
 10
58.96522081163194
 20
55.00870090060764
 30
0.0
 10
59.26184353298611
 20
54.79303792317708
 30
0.0
 10
62.65905219184027
 20
51.82715521918402
 30
0.0
 10
63.73736707899305
 20
51.26112603081597
 30
0.0
  0
SPLINE
  5
FD
330
A
100
AcDbEntity
  8
LAYER_1
 62
     7
100
AcDbSpline
210
0.0
220
0.0
230
1.0
 70
     8
 71
     3
 72
     8
 73
     4
 74
     0
 42
0.0000000001
 43
0.0000000001
 40
0.0
 40
0.0
 40
0.0
 40
0.0
 40
1.0
 40
1.0
 40
1.0
 40
1.0
 10
55.35234917534721
 20
56.59930148654514
 30
0.0
 10
55.64897189670138
 20
56.41051025390625
 30
0.0
 10
55.97246636284721
 20
56.30302327473958
 30
0.0
 10
56.16125759548611
 20
56.11388753255208
 30
0.0
  0
SPLINE
  5
FC
330
A
100
AcDbEntity
  8
LAYER_1
 62
     7
100
AcDbSpline
210
0.0
220
0.0
230
1.0
 70
     8
 71
     3
 72
    11
 73
     7
 74
     0
 42
0.0000000001
 43
0.0000000001
 40
0.0
 40
0.0
 40
0.0
 40
0.0
 40
1.0
 40
1.0
 40
1.0
 40
2.0
 40
2.0
 40
2.0
 40
2.0
 10
58.85738932291666
 20
56.65338948567708
 30
0.0
 10
59.5315945095486
 20
56.2758070203993
 30
0.0
 10
59.98979220920138
 20
55.70977783203124
 30
0.0
 10
60.50207790798611
 20
55.35906711154514
 30
0.0
 10
61.01436360677083
 20
55.00870090060764
 30
0.0
 10
63.36012912326388
 20
53.01364610460069
 30
0.0
 10
63.68362358940971
 20
52.98642985026041
 30
0.0
  0
SPLINE
  5
FB
330
A
100
AcDbEntity
  8
LAYER_1
 62
     7
100
AcDbSpline
210
0.0
220
0.0
230
1.0
 70
     8
 71
     3
 72
    11
 73
     7
 74
     0
 42
0.0000000001
 43
0.0000000001
 40
0.0
 40
0.0
 40
0.0
 40
0.0
 40
1.0
 40
1.0
 40
1.0
 40
2.0
 40
2.0
 40
2.0
 40
2.0
 10
59.82787272135416
 20
56.92314046223958
 30
0.0
 10
60.42111816406249
 20
56.46459825303819
 30
0.0
 10
60.79870062934027
 20
56.2758070203993
 30
0.0
 10
61.44568956163194
 20
55.9254408094618
 30
0.0
 10
62.09267849392361
 20
55.57473008897569
 30
0.0
 10
63.44074435763888
 20
54.60424669053819
 30
0.0
 10
63.71049533420138
 20
54.44232720269097
 30
0.0
  0
SPLINE
  5
FA
330
A
100
AcDbEntity
  8
LAYER_1
 62
     7
100
AcDbSpline
210
0.0
220
0.0
230
1.0
 70
     8
 71
     3
 72
     8
 73
     4
 74
     0
 42
0.0000000001
 43
0.0000000001
 40
0.0
 40
0.0
 40
0.0
 40
0.0
 40
1.0
 40
1.0
 40
1.0
 40
1.0
 10
55.83776312934027
 20
60.85950656467013
 30
0.0
 10
56.86233452690972
 20
60.80541856553819
 30
0.0
 10
57.85968967013888
 20
60.2662611219618
 30
0.0
 10
58.72268608940972
 20
60.21217312282985
 30
0.0
  0
SPLINE
  5
F9
330
A
100
AcDbEntity
  8
LAYER_1
 62
     7
100
AcDbSpline
210
0.0
220
0.0
230
1.0
 70
     8
 71
     3
 72
    17
 73
    13
 74
     0
 42
0.0000000001
 43
0.0000000001
 40
0.0
 40
0.0
 40
0.0
 40
0.0
 40
1.0
 40
1.0
 40
1.0
 40
2.0
 40
2.0
 40
2.0
 40
3.0
 40
3.0
 40
3.0
 40
4.0
 40
4.0
 40
4.0
 40
4.0
 10
50.71490614149305
 20
63.17805582682291
 30
0.0
 10
51.57755805121527
 20
63.23214382595486
 30
0.0
 10
53.35729437934027
 20
62.71985812717013
 30
0.0
 10
53.51886935763888
 20
62.7467298719618
 30
0.0
 10
53.68078884548611
 20
62.77360161675347
 30
0.0
 10
54.57031249999999
 20
62.66577012803819
 30
0.0
 10
55.70271538628472
 20
62.58481038411458
 30
0.0
 10
56.83511827256944
 20
62.50419514973958
 30
0.0
 10
57.64402669270833
 20
62.01878119574652
 30
0.0
 10
58.39919162326388
 20
61.7762464735243
 30
0.0
 10
59.15401204427083
 20
61.53336724175347
 30
0.0
 10
59.07305230034721
 20
61.96469319661458
 30
0.0
 10
59.82787272135416
 20
61.61432698567707
 30
0.0
  0
SPLINE
  5
F8
330
A
100
AcDbEntity
  8
LAYER_1
 62
     7
100
AcDbSpline
210
0.0
220
0.0
230
1.0
 70
     8
 71
     3
 72
     8
 73
     4
 74
     0
 42
0.0000000001
 43
0.0000000001
 40
0.0
 40
0.0
 40
0.0
 40
0.0
 40
1.0
 40
1.0
 40
1.0
 40
1.0
 10
50.22949218749999
 20
64.47237820095485
 30
0.0
 10
50.95744086371527
 20
64.6070814344618
 30
0.0
 10
53.95019531249999
 20
64.22949896918402
 30
0.0
 10
54.11211480034721
 20
64.22949896918402
 30
0.0
  0
SPLINE
  5
F7
330
A
100
AcDbEntity
  8
LAYER_1
 62
     7
100
AcDbSpline
210
0.0
220
0.0
230
1.0
 70
     8
 71
     3
 72
     8
 73
     4
 74
     0
 42
0.0000000001
 43
0.0000000001
 40
0.0
 40
0.0
 40
0.0
 40
0.0
 40
1.0
 40
1.0
 40
1.0
 40
1.0
 10
63.49483235677083
 20
66.27864176432291
 30
0.0
 10
63.49483235677083
 20
66.14393853081597
 30
0.0
 10
63.11724989149305
 20
64.58020968967013
 30
0.0
 10
62.90158691406249
 20
64.31045871310764
 30
0.0
  0
SPLINE
  5
F6
330
A
100
AcDbEntity
  8
LAYER_1
 62
     7
100
AcDbSpline
210
0.0
220
0.0
230
1.0
 70
     8
 71
     3
 72
     8
 73
     4
 74
     0
 42
0.0000000001
 43
0.0000000001
 40
0.0
 40
0.0
 40
0.0
 40
0.0
 40
1.0
 40
1.0
 40
1.0
 40
1.0
 10
61.52664930555555
 20
67.00659044053819
 30
0.0
 10
61.47256130642361
 20
66.62935248480902
 30
0.0
 10
61.25689832899305
 20
65.44286159939236
 30
0.0
 10
61.09532335069444
 20
65.2271986219618
 30
0.0
  0
SPLINE
  5
F5
330
A
100
AcDbEntity
  8
LAYER_1
 62
     7
100
AcDbSpline
210
0.0
220
0.0
230
1.0
 70
     8
 71
     3
 72
    11
 73
     7
 74
     0
 42
0.0000000001
 43
0.0000000001
 40
0.0
 40
0.0
 40
0.0
 40
0.0
 40
1.0
 40
1.0
 40
1.0
 40
2.0
 40
2.0
 40
2.0
 40
2.0
 10
50.17574869791666
 20
65.82044406467013
 30
0.0
 10
50.79586588541666
 20
66.06297878689236
 30
0.0
 10
51.90105251736111
 20
65.95514729817708
 30
0.0
 10
52.9797119140625
 20
65.90140380859374
 30
0.0
 10
54.05802680121527
 20
65.8473158094618
 30
0.0
 10
58.26414388020833
 20
65.01153564453125
 30
0.0
 10
59.450634765625
 20
64.8768324110243
 30
0.0
  0
SPLINE
  5
F4
330
A
100
AcDbEntity
  8
LAYER_1
 62
     7
100
AcDbSpline
210
0.0
220
0.0
230
1.0
 70
     8
 71
     3
 72
    17
 73
    13
 74
     0
 42
0.0000000001
 43
0.0000000001
 40
0.0
 40
0.0
 40
0.0
 40
0.0
 40
1.0
 40
1.0
 40
1.0
 40
2.0
 40
2.0
 40
2.0
 40
3.0
 40
3.0
 40
3.0
 40
4.0
 40
4.0
 40
4.0
 40
4.0
 10
59.50437825520833
 20
67.9774183485243
 30
0.0
 10
59.39654676649305
 20
67.86958685980902
 30
0.0
 10
58.72268608940972
 20
66.87188720703125
 30
0.0
 10
58.69546983506944
 20
66.4674329969618
 30
0.0
 10
58.10256890190972
 20
66.44056125217013
 30
0.0
 10
55.83776312934027
 20
66.79092746310764
 30
0.0
 10
55.729931640625
 20
66.8177992078993
 30
0.0
 10
55.62210015190972
 20
66.84501546223957
 30
0.0
 10
54.03115505642361
 20
67.0875501844618
 30
0.0
 10
52.95284016927083
 20
67.14163818359374
 30
0.0
 10
51.87418077256944
 20
67.19538167317708
 30
0.0
 10
50.41828342013888
 20
67.3573011610243
 30
0.0
 10
50.22949218749999
 20
67.24946967230902
 30
0.0
  0
SPLINE
  5
F3
330
A
100
AcDbEntity
  8
LAYER_1
 62
     7
100
AcDbSpline
210
0.0
220
0.0
230
1.0
 70
     8
 71
     3
 72
     8
 73
     4
 74
     0
 42
0.0000000001
 43
0.0000000001
 40
0.0
 40
0.0
 40
0.0
 40
0.0
 40
1.0
 40
1.0
 40
1.0
 40
1.0
 10
57.15861273871527
 20
69.10982123480902
 30
0.0
 10
57.07799750434027
 20
68.81319851345485
 30
0.0
 10
56.86233452690972
 20
67.46513264973957
 30
0.0
 10
56.86233452690972
 20
67.46513264973957
 30
0.0
  0
SPLINE
  5
F2
330
A
100
AcDbEntity
  8
LAYER_1
 62
     7
100
AcDbSpline
210
0.0
220
0.0
230
1.0
 70
     8
 71
     3
 72
     8
 73
     4
 74
     0
 42
0.0000000001
 43
0.0000000001
 40
0.0
 40
0.0
 40
0.0
 40
0.0
 40
1.0
 40
1.0
 40
1.0
 40
1.0
 10
54.81319173177083
 20
68.43561604817708
 30
0.0
 10
54.89380696614583
 20
68.78598225911458
 30
0.0
 10
55.32547743055555
 20
69.86464165581597
 30
0.0
 10
55.40609266493055
 20
69.97247314453125
 30
0.0
  0
SPLINE
  5
F1
330
A
100
AcDbEntity
  8
LAYER_1
 62
     7
100
AcDbSpline
210
0.0
220
0.0
230
1.0
 70
     8
 71
     3
 72
    11
 73
     7
 74
     0
 42
0.0000000001
 43
0.0000000001
 40
0.0
 40
0.0
 40
0.0
 40
0.0
 40
1.0
 40
1.0
 40
1.0
 40
2.0
 40
2.0
 40
2.0
 40
2.0
 10
50.20262044270833
 20
68.54344753689236
 30
0.0
 10
50.79586588541666
 20
68.62440728081597
 30
0.0
 10
52.19767523871527
 20
68.48970404730902
 30
0.0
 10
52.79092068142361
 20
68.38187255859374
 30
0.0
 10
53.38416612413194
 20
68.27404106987846
 30
0.0
 10
54.86693522135416
 20
68.00429009331597
 30
0.0
 10
55.24451768663194
 20
68.11212158203125
 30
0.0
  0
SPLINE
  5
F0
330
A
100
AcDbEntity
  8
LAYER_1
 62
     7
100
AcDbSpline
210
0.0
220
0.0
230
1.0
 70
     8
 71
     3
 72
     8
 73
     4
 74
     0
 42
0.0000000001
 43
0.0000000001
 40
0.0
 40
0.0
 40
0.0
 40
0.0
 40
1.0
 40
1.0
 40
1.0
 40
1.0
 10
53.19537489149305
 20
71.10487603081597
 30
0.0
 10
53.11441514756944
 20
70.99704454210068
 30
0.0
 10
52.65621744791666
 20
69.75681016710068
 30
0.0
 10
52.65621744791666
 20
69.5680189344618
 30
0.0
  0
SPLINE
  5
EF
330
A
100
AcDbEntity
  8
LAYER_1
 62
     7
100
AcDbSpline
210
0.0
220
0.0
230
1.0
 70
     8
 71
     3
 72
     8
 73
     4
 74
     0
 42
0.0000000001
 43
0.0000000001
 40
0.0
 40
0.0
 40
0.0
 40
0.0
 40
1.0
 40
1.0
 40
1.0
 40
1.0
 10
51.14623209635416
 20
70.24222412109374
 30
0.0
 10
51.25406358506944
 20
70.5385023328993
 30
0.0
 10
51.90105251736111
 20
71.64403347439236
 30
0.0
 10
52.00888400607639
 20
71.6981214735243
 30
0.0
  0
SPLINE
  5
EE
330
A
100
AcDbEntity
  8
LAYER_1
 62
     7
100
AcDbSpline
210
0.0
220
0.0
230
1.0
 70
     8
 71
     3
 72
     8
 73
     4
 74
     0
 42
0.0000000001
 43
0.0000000001
 40
0.0
 40
0.0
 40
0.0
 40
0.0
 40
1.0
 40
1.0
 40
1.0
 40
1.0
 10
62.95567491319444
 20
69.46018744574653
 30
0.0
 10
63.2522976345486
 20
69.0288614908854
 30
0.0
 10
63.30604112413194
 20
68.73223876953125
 30
0.0
 10
63.33291286892361
 20
68.3277845594618
 30
0.0
  0
SPLINE
  5
ED
330
A
100
AcDbEntity
  8
LAYER_1
 62
     7
100
AcDbSpline
210
0.0
220
0.0
230
1.0
 70
     8
 71
     3
 72
    11
 73
     7
 74
     0
 42
0.0000000001
 43
0.0000000001
 40
0.0
 40
0.0
 40
0.0
 40
0.0
 40
1.0
 40
1.0
 40
1.0
 40
2.0
 40
2.0
 40
2.0
 40
2.0
 10
61.74231228298611
 20
69.94560139973957
 30
0.0
 10
61.79605577256944
 20
69.54114718967013
 30
0.0
 10
61.76918402777777
 20
68.6781507703993
 30
0.0
 10
62.03893500434027
 20
68.16620958116319
 30
0.0
 10
62.30834147135416
 20
67.65392388237846
 30
0.0
 10
62.06580674913194
 20
66.84501546223957
 30
0.0
 10
62.06580674913194
 20
66.84501546223957
 30
0.0
  0
SPLINE
  5
EC
330
A
100
AcDbEntity
  8
LAYER_1
 62
     7
100
AcDbSpline
210
0.0
220
0.0
230
1.0
 70
     8
 71
     3
 72
    11
 73
     7
 74
     0
 42
0.0000000001
 43
0.0000000001
 40
0.0
 40
0.0
 40
0.0
 40
0.0
 40
1.0
 40
1.0
 40
1.0
 40
2.0
 40
2.0
 40
2.0
 40
2.0
 10
58.18318413628472
 20
71.75186496310764
 30
0.0
 10
58.45293511284721
 20
71.4283704969618
 30
0.0
 10
58.72268608940972
 20
70.40379909939236
 30
0.0
 10
58.9114773220486
 20
69.99934488932291
 30
0.0
 10
59.09992404513888
 20
69.59489067925347
 30
0.0
 10
59.39654676649305
 20
68.24682481553819
 30
0.0
 10
59.34280327690972
 20
68.11212158203125
 30
0.0
  0
SPLINE
  5
EB
330
A
100
AcDbEntity
  8
LAYER_1
 62
     7
100
AcDbSpline
210
0.0
220
0.0
230
1.0
 70
     8
 71
     3
 72
    14
 73
    10
 74
     0
 42
0.0000000001
 43
0.0000000001
 40
0.0
 40
0.0
 40
0.0
 40
0.0
 40
1.0
 40
1.0
 40
1.0
 40
2.0
 40
2.0
 40
2.0
 40
3.0
 40
3.0
 40
3.0
 40
3.0
 10
55.67584364149305
 20
72.91113959418402
 30
0.0
 10
55.91837836371527
 20
72.47981363932291
 30
0.0
 10
56.05342610677083
 20
71.96752794053819
 30
0.0
 10
56.10716959635416
 20
71.6981214735243
 30
0.0
 10
56.16125759548611
 20
71.4283704969618
 30
0.0
 10
56.24221733940972
 20
70.75416531032985
 30
0.0
 10
56.53884006076388
 20
70.43101535373263
 30
0.0
 10
56.83511827256944
 20
70.10717637803819
 30
0.0
 10
56.970166015625
 20
69.51427544487846
 30
0.0
 10
56.99703776041666
 20
69.35235595703125
 30
0.0
  0
SPLINE
  5
EA
330
A
100
AcDbEntity
  8
LAYER_1
 62
     7
100
AcDbSpline
210
0.0
220
0.0
230
1.0
 70
     8
 71
     3
 72
    14
 73
    10
 74
     0
 42
0.0000000001
 43
0.0000000001
 40
0.0
 40
0.0
 40
0.0
 40
0.0
 40
1.0
 40
1.0
 40
1.0
 40
2.0
 40
2.0
 40
2.0
 40
3.0
 40
3.0
 40
3.0
 40
3.0
 10
56.70041503906249
 20
73.96292724609374
 30
0.0
 10
56.970166015625
 20
73.39655354817708
 30
0.0
 10
57.29366048177083
 20
73.26185031467013
 30
0.0
 10
57.69811469184027
 20
73.04618733723957
 30
0.0
 10
58.10256890190972
 20
72.83052435980902
 30
0.0
 10
59.20775553385416
 20
72.02161593967013
 30
0.0
 10
59.5315945095486
 20
71.85969645182291
 30
0.0
 10
59.85508897569444
 20
71.6981214735243
 30
0.0
 10
61.36472981770833
 20
70.51163058810764
 30
0.0
 10
61.47256130642361
 20
70.2690958658854
 30
0.0
  0
SPLINE
  5
E9
330
A
100
AcDbEntity
  8
LAYER_1
 62
     7
100
AcDbSpline
210
0.0
220
0.0
230
1.0
 70
     8
 71
     3
 72
    23
 73
    19
 74
     0
 42
0.0000000001
 43
0.0000000001
 40
0.0
 40
0.0
 40
0.0
 40
0.0
 40
1.0
 40
1.0
 40
1.0
 40
2.0
 40
2.0
 40
2.0
 40
3.0
 40
3.0
 40
3.0
 40
4.0
 40
4.0
 40
4.0
 40
5.0
 40
5.0
 40
5.0
 40
6.0
 40
6.0
 40
6.0
 40
6.0
 10
63.71049533420138
 20
72.18319091796874
 30
0.0
 10
63.27916937934027
 20
72.1294474283854
 30
0.0
 10
63.36012912326388
 20
72.18319091796874
 30
0.0
 10
62.60496419270833
 20
72.42607014973957
 30
0.0
 10
61.85014377170138
 20
72.6686048719618
 30
0.0
 10
61.82327202690972
 20
72.64173312717013
 30
0.0
 10
61.09532335069444
 20
72.80330810546874
 30
0.0
 10
60.36737467447916
 20
72.96522759331596
 30
0.0
 10
58.96522081163194
 20
73.45064154730902
 30
0.0
 10
58.26414388020833
 20
73.39655354817708
 30
0.0
 10
58.77642957899305
 20
72.96522759331596
 30
0.0
 10
59.80100097656249
 20
72.56077338324653
 30
0.0
 10
60.23232693142361
 20
72.23727891710068
 30
0.0
 10
60.66365288628472
 20
71.91378445095485
 30
0.0
 10
62.03893500434027
 20
71.21270751953125
 30
0.0
 10
62.30834147135416
 20
70.97017279730902
 30
0.0
 10
62.57809244791666
 20
70.72729356553819
 30
0.0
 10
63.44074435763888
 20
70.35005560980902
 30
0.0
 10
63.68362358940971
 20
69.94560139973957
 30
0.0
  0
SPLINE
  5
E8
330
A
100
AcDbEntity
  8
LAYER_1
 62
     7
100
AcDbSpline
210
0.0
220
0.0
230
1.0
 70
     8
 71
     3
 72
    14
 73
    10
 74
     0
 42
0.0000000001
 43
0.0000000001
 40
0.0
 40
0.0
 40
0.0
 40
0.0
 40
1.0
 40
1.0
 40
1.0
 40
2.0
 40
2.0
 40
2.0
 40
3.0
 40
3.0
 40
3.0
 40
3.0
 10
52.25176323784721
 20
76.09268527560764
 30
0.0
 10
52.3595947265625
 20
75.7691908094618
 30
0.0
 10
53.11441514756944
 20
75.31099310980902
 30
0.0
 10
53.11441514756944
 20
75.31099310980902
 30
0.0
 10
53.11441514756944
 20
75.31099310980902
 30
0.0
 10
54.65127224392361
 20
74.42112494574653
 30
0.0
 10
54.81319173177083
 20
74.15171847873263
 30
0.0
 10
54.97476671006944
 20
73.88196750217013
 30
0.0
 10
57.02390950520833
 20
72.91113959418402
 30
0.0
 10
57.02390950520833
 20
72.45294189453125
 30
0.0
  0
LINE
  5
E7
330
A
100
AcDbEntity
  8
LAYER_1
 62
     7
100
AcDbLine
 10
50.12166069878472
 20
70.78138156467013
 30
0.0
 11
63.65675184461805
 21
63.82504475911458
 31
0.0
  0
SPLINE
  5
E6
330
A
100
AcDbEntity
  8
LAYER_1
 62
     7
100
AcDbSpline
210
0.0
220
0.0
230
1.0
 70
     8
 71
     3
 72
    11
 73
     7
 74
     0
 42
0.0000000001
 43
0.0000000001
 40
0.0
 40
0.0
 40
0.0
 40
0.0
 40
1.0
 40
1.0
 40
1.0
 40
2.0
 40
2.0
 40
2.0
 40
2.0
 10
50.36453993055555
 20
75.52665608723957
 30
0.0
 10
50.52611490885416
 20
75.09533013237846
 30
0.0
 10
50.82273763020833
 20
74.69087592230902
 30
0.0
 10
51.01152886284721
 20
73.96292724609374
 30
0.0
 10
51.20032009548611
 20
73.23497856987846
 30
0.0
 10
51.44285481770833
 20
72.1294474283854
 30
0.0
 10
51.41598307291666
 20
72.02161593967013
 30
0.0
  0
LINE
  5
E5
330
A
100
AcDbEntity
  8
LAYER_1
 62
     7
100
AcDbLine
 10
50.95744086371527
 20
72.23727891710068
 30
0.0
 11
62.68592393663194
 21
66.44056125217013
 31
0.0
  0
SPLINE
  5
E4
330
A
100
AcDbEntity
  8
LAYER_1
 62
     7
100
AcDbSpline
210
0.0
220
0.0
230
1.0
 70
     8
 71
     3
 72
    14
 73
    10
 74
     0
 42
0.0000000001
 43
0.0000000001
 40
0.0
 40
0.0
 40
0.0
 40
0.0
 40
1.0
 40
1.0
 40
1.0
 40
2.0
 40
2.0
 40
2.0
 40
3.0
 40
3.0
 40
3.0
 40
3.0
 10
50.20262044270833
 20
76.44339599609374
 30
0.0
 10
51.09248860677083
 20
75.82327880859374
 30
0.0
 10
52.44055447048611
 20
75.01437038845485
 30
0.0
 10
52.62900119357639
 20
74.63678792317708
 30
0.0
 10
52.81779242621527
 20
74.25954996744791
 30
0.0
 10
53.19537489149305
 20
73.07305908203125
 30
0.0
 10
53.38416612413194
 20
72.72269287109374
 30
0.0
 10
53.57295735677083
 20
72.37198215060764
 30
0.0
 10
54.11211480034721
 20
70.72729356553819
 30
0.0
 10
54.11211480034721
 20
70.72729356553819
 30
0.0
  0
SPLINE
  5
E3
330
A
100
AcDbEntity
  8
LAYER_1
 62
     7
100
AcDbSpline
210
0.0
220
0.0
230
1.0
 70
     8
 71
     3
 72
    14
 73
    10
 74
     0
 42
0.0000000001
 43
0.0000000001
 40
0.0
 40
0.0
 40
0.0
 40
0.0
 40
1.0
 40
1.0
 40
1.0
 40
2.0
 40
2.0
 40
2.0
 40
3.0
 40
3.0
 40
3.0
 40
3.0
 10
63.65675184461805
 20
73.15401882595485
 30
0.0
 10
62.65905219184027
 20
73.3696818033854
 30
0.0
 10
62.74001193576388
 20
73.23497856987846
 30
0.0
 10
61.79605577256944
 20
73.66630452473957
 30
0.0
 10
60.85244411892361
 20
74.09763047960068
 30
0.0
 10
60.09762369791666
 20
74.31329345703125
 30
0.0
 10
58.80330132378472
 20
74.5289564344618
 30
0.0
 10
57.50932345920138
 20
74.74461941189236
 30
0.0
 10
54.16585828993055
 20
75.58039957682291
 30
0.0
 10
53.81549207899305
 20
75.55352783203125
 30
0.0
  0
LINE
  5
E2
330
A
100
AcDbEntity
  8
LAYER_1
 62
     7
100
AcDbLine
 10
50.20262044270833
 20
75.66135932074653
 30
0.0
 11
63.73736707899305
 21
69.08260498046874
 31
0.0
  0
LINE
  5
E1
330
A
100
AcDbEntity
  8
LAYER_1
 62
     7
100
AcDbLine
 10
50.12166069878472
 20
77.19821641710068
 30
0.0
 11
63.65675184461805
 21
70.72729356553819
 31
0.0
  0
SPLINE
  5
E0
330
A
100
AcDbEntity
  8
LAYER_1
 62
     7
100
AcDbSpline
210
0.0
220
0.0
230
1.0
 70
     8
 71
     3
 72
    17
 73
    13
 74
     0
 42
0.0000000001
 43
0.0000000001
 40
0.0
 40
0.0
 40
0.0
 40
0.0
 40
1.0
 40
1.0
 40
1.0
 40
2.0
 40
2.0
 40
2.0
 40
3.0
 40
3.0
 40
3.0
 40
4.0
 40
4.0
 40
4.0
 40
4.0
 10
50.17574869791666
 20
77.73737386067708
 30
0.0
 10
51.68538953993055
 20
77.44075113932291
 30
0.0
 10
53.30320638020833
 20
76.84785020616319
 30
0.0
 10
53.97741156684027
 20
76.84785020616319
 30
0.0
 10
54.65127224392361
 20
76.84785020616319
 30
0.0
 10
57.72498643663194
 20
76.33556450737846
 30
0.0
 10
58.99209255642361
 20
75.90423855251736
 30
0.0
 10
60.25919867621527
 20
75.47256808810764
 30
0.0
 10
62.60496419270833
 20
75.01437038845485
 30
0.0
 10
62.82062717013888
 20
74.96028238932291
 30
0.0
 10
63.03663465711805
 20
74.90653889973957
 30
0.0
 10
63.71049533420138
 20
74.63678792317708
 30
0.0
 10
63.71049533420138
 20
74.63678792317708
 30
0.0
  0
SPLINE
  5
DF
330
A
100
AcDbEntity
  8
LAYER_1
 62
     7
100
AcDbSpline
210
0.0
220
0.0
230
1.0
 70
     8
 71
     3
 72
    17
 73
    13
 74
     0
 42
0.0000000001
 43
0.0000000001
 40
0.0
 40
0.0
 40
0.0
 40
0.0
 40
1.0
 40
1.0
 40
1.0
 40
2.0
 40
2.0
 40
2.0
 40
3.0
 40
3.0
 40
3.0
 40
4.0
 40
4.0
 40
4.0
 40
4.0
 10
50.17574869791666
 20
79.46302218967013
 30
0.0
 10
51.33502332899305
 20
79.65181342230902
 30
0.0
 10
53.38416612413194
 20
78.57315402560764
 30
0.0
 10
54.05802680121527
 20
78.3306193033854
 30
0.0
 10
54.73223198784721
 20
78.08808458116319
 30
0.0
 10
56.67354329427083
 20
77.52171088324653
 30
0.0
 10
57.94064941406249
 20
77.46796739366319
 30
0.0
 10
59.20775553385416
 20
77.41387939453125
 30
0.0
 10
59.63908148871527
 20
77.41387939453125
 30
0.0
 10
60.71774088541666
 20
76.74001871744791
 30
0.0
 10
61.79605577256944
 20
76.06581353081596
 30
0.0
 10
63.06350640190972
 20
75.55352783203125
 30
0.0
 10
63.62953559027777
 20
75.36473659939236
 30
0.0
  0
SPLINE
  5
DE
330
A
100
AcDbEntity
  8
LAYER_1
 62
     7
100
AcDbSpline
210
0.0
220
0.0
230
1.0
 70
     8
 71
     3
 72
    17
 73
    13
 74
     0
 42
0.0000000001
 43
0.0000000001
 40
0.0
 40
0.0
 40
0.0
 40
0.0
 40
1.0
 40
1.0
 40
1.0
 40
2.0
 40
2.0
 40
2.0
 40
3.0
 40
3.0
 40
3.0
 40
4.0
 40
4.0
 40
4.0
 40
4.0
 10
50.09478895399305
 20
81.2696302625868
 30
0.0
 10
51.22719184027778
 20
81.05362277560764
 30
0.0
 10
54.00428331163194
 20
80.1100111219618
 30
0.0
 10
54.489697265625
 20
80.00217963324653
 30
0.0
 10
54.97476671006944
 20
79.89434814453124
 30
0.0
 10
57.42836371527778
 20
79.03169623480902
 30
0.0
 10
57.590283203125
 20
79.00482449001736
 30
0.0
 10
57.75185818142361
 20
78.97760823567708
 30
0.0
 10
58.830517578125
 20
78.49253879123263
 30
0.0
 10
59.80100097656249
 20
78.43845079210068
 30
0.0
 10
60.7718288845486
 20
78.38470730251736
 30
0.0
 10
63.2522976345486
 20
77.68363037109374
 30
0.0
 10
63.54857584635416
 20
77.33291965060764
 30
0.0
  0
SPLINE
  5
DD
330
A
100
AcDbEntity
  8
LAYER_1
 62
     7
100
AcDbSpline
210
0.0
220
0.0
230
1.0
 70
     8
 71
     3
 72
    14
 73
    10
 74
     0
 42
0.0000000001
 43
0.0000000001
 40
0.0
 40
0.0
 40
0.0
 40
0.0
 40
1.0
 40
1.0
 40
1.0
 40
2.0
 40
2.0
 40
2.0
 40
3.0
 40
3.0
 40
3.0
 40
3.0
 10
50.06791720920138
 20
82.69831136067708
 30
0.0
 10
50.93056911892361
 20
82.72552761501736
 30
0.0
 10
51.7394775390625
 20
82.5098646375868
 30
0.0
 10
52.49429796006944
 20
82.21324191623263
 30
0.0
 10
53.249462890625
 20
81.91661919487846
 30
0.0
 10
54.40873752170138
 20
81.75469970703124
 30
0.0
 10
55.24451768663194
 20
81.40433349609374
 30
0.0
 10
56.08029785156249
 20
81.05362277560764
 30
0.0
 10
57.18582899305555
 20
80.70325656467013
 30
0.0
 10
57.67089843749999
 20
80.78421630859374
 30
0.0
  0
SPLINE
  5
DC
330
A
100
AcDbEntity
  8
LAYER_1
 62
     7
100
AcDbSpline
210
0.0
220
0.0
230
1.0
 70
     8
 71
     3
 72
    11
 73
     7
 74
     0
 42
0.0000000001
 43
0.0000000001
 40
0.0
 40
0.0
 40
0.0
 40
0.0
 40
1.0
 40
1.0
 40
1.0
 40
2.0
 40
2.0
 40
2.0
 40
2.0
 10
50.09478895399305
 20
85.36757134331596
 30
0.0
 10
50.52611490885416
 20
85.17878011067708
 30
0.0
 10
51.68538953993055
 20
84.26204020182291
 30
0.0
 10
52.44055447048611
 20
83.88480224609374
 30
0.0
 10
53.19537489149305
 20
83.50721978081596
 30
0.0
 10
54.46248101128472
 20
82.69831136067708
 30
0.0
 10
54.73223198784721
 20
82.29420166015625
 30
0.0
  0
LWPOLYLINE
  5
D7
330
A
100
AcDbEntity
  8
LAYER_1
 62
     7
100
AcDbPolyline
 90
        3
 70
     0
 43
0.0
 10
50.04070095486111
 20
84.28925645616319
 10
63.791455078125
 20
78.11495632595485
 10
78.24294162326389
 20
90.81392279730902
  0
SPLINE
  5
D6
330
A
100
AcDbEntity
  8
LAYER_1
 62
     7
100
AcDbSpline
210
0.0
220
0.0
230
1.0
 70
     8
 71
     3
 72
    17
 73
    13
 74
     0
 42
0.0000000001
 43
0.0000000001
 40
0.0
 40
0.0
 40
0.0
 40
0.0
 40
1.0
 40
1.0
 40
1.0
 40
2.0
 40
2.0
 40
2.0
 40
3.0
 40
3.0
 40
3.0
 40
4.0
 40
4.0
 40
4.0
 40
4.0
 10
50.06791720920138
 20
86.82346869574651
 30
0.0
 10
51.30815158420138
 20
86.09552001953124
 30
0.0
 10
53.08754340277778
 20
84.93624538845485
 30
0.0
 10
53.78862033420138
 20
84.61275092230902
 30
0.0
 10
54.489697265625
 20
84.28925645616319
 30
0.0
 10
56.67354329427083
 20
82.77927110460068
 30
0.0
 10
57.72498643663194
 20
82.29420166015625
 30
0.0
 10
58.77642957899305
 20
81.80878770616319
 30
0.0
 10
61.47256130642361
 20
80.43350558810764
 30
0.0
 10
62.09267849392361
 20
80.05626763237846
 30
0.0
 10
62.71279568142361
 20
79.67868516710068
 30
0.0
 10
63.27916937934027
 20
79.22048746744791
 30
0.0
 10
63.57579210069444
 20
79.11265597873263
 30
0.0
  0
SPLINE
  5
D5
330
A
100
AcDbEntity
  8
LAYER_1
 62
     7
100
AcDbSpline
210
0.0
220
0.0
230
1.0
 70
     8
 71
     3
 72
    17
 73
    13
 74
     0
 42
0.0000000001
 43
0.0000000001
 40
0.0
 40
0.0
 40
0.0
 40
0.0
 40
1.0
 40
1.0
 40
1.0
 40
2.0
 40
2.0
 40
2.0
 40
3.0
 40
3.0
 40
3.0
 40
4.0
 40
4.0
 40
4.0
 40
4.0
 10
49.98695746527778
 20
87.90212809244791
 30
0.0
 10
50.79586588541666
 20
87.71333685980902
 30
0.0
 10
52.79092068142361
 20
86.52719048394097
 30
0.0
 10
53.22224663628472
 20
86.3111829969618
 30
0.0
 10
53.65357259114583
 20
86.09552001953124
 30
0.0
 10
56.05342610677083
 20
84.20829671223957
 30
0.0
 10
57.29366048177083
 20
83.85793050130208
 30
0.0
 10
58.53389485677083
 20
83.50721978081596
 30
0.0
 10
59.63908148871527
 20
82.88710259331596
 30
0.0
 10
60.42111816406249
 20
82.37481689453124
 30
0.0
 10
61.20315483940972
 20
81.86253119574653
 30
0.0
 10
63.06350640190972
 20
80.70325656467013
 30
0.0
 10
63.65675184461805
 20
80.67638481987846
 30
0.0
  0
SPLINE
  5
D4
330
A
100
AcDbEntity
  8
LAYER_1
 62
     7
100
AcDbSpline
210
0.0
220
0.0
230
1.0
 70
     8
 71
     3
 72
    17
 73
    13
 74
     0
 42
0.0000000001
 43
0.0000000001
 40
0.0
 40
0.0
 40
0.0
 40
0.0
 40
1.0
 40
1.0
 40
1.0
 40
2.0
 40
2.0
 40
2.0
 40
3.0
 40
3.0
 40
3.0
 40
4.0
 40
4.0
 40
4.0
 40
4.0
 10
50.01382921006944
 20
89.70839165581596
 30
0.0
 10
50.87648111979166
 20
89.3311537000868
 30
0.0
 10
52.00888400607639
 20
88.52224527994791
 30
0.0
 10
52.65621744791666
 20
88.03683132595485
 30
0.0
 10
53.30320638020833
 20
87.5514173719618
 30
0.0
 10
55.32547743055555
 20
86.17647976345485
 30
0.0
 10
56.08029785156249
 20
86.06864827473957
 30
0.0
 10
56.83511827256944
 20
85.9608167860243
 30
0.0
 10
58.39919162326388
 20
84.82841389973957
 30
0.0
 10
59.01930881076388
 20
84.3702162000868
 30
0.0
 10
59.63908148871527
 20
83.9116739908854
 30
0.0
 10
63.30604112413194
 20
82.42890489366319
 30
0.0
 10
63.62953559027777
 20
81.88940294053819
 30
0.0
  0
SPLINE
  5
D3
330
A
100
AcDbEntity
  8
LAYER_1
 62
     7
100
AcDbSpline
210
0.0
220
0.0
230
1.0
 70
     8
 71
     3
 72
    17
 73
    13
 74
     0
 42
0.0000000001
 43
0.0000000001
 40
0.0
 40
0.0
 40
0.0
 40
0.0
 40
1.0
 40
1.0
 40
1.0
 40
2.0
 40
2.0
 40
2.0
 40
3.0
 40
3.0
 40
3.0
 40
4.0
 40
4.0
 40
4.0
 40
4.0
 10
49.96008572048611
 20
90.94862603081596
 30
0.0
 10
50.22949218749999
 20
90.97584228515625
 30
0.0
 10
51.65851779513888
 20
90.32850884331596
 30
0.0
 10
51.79356553819444
 20
90.16693386501736
 30
0.0
 10
51.92826877170138
 20
90.00501437717013
 30
0.0
 10
55.40609266493055
 20
88.06370307074651
 30
0.0
 10
55.94559461805555
 20
87.71333685980902
 30
0.0
 10
56.48475206163194
 20
87.36297064887152
 30
0.0
 10
58.69546983506944
 20
85.87985704210068
 30
0.0
 10
59.39654676649305
 20
85.6910658094618
 30
0.0
 10
60.09762369791666
 20
85.50261908637152
 30
0.0
 10
63.171337890625
 20
84.04672173394097
 30
0.0
 10
63.60266384548611
 20
83.58817952473957
 30
0.0
  0
SPLINE
  5
D2
330
A
100
AcDbEntity
  8
LAYER_1
 62
     7
100
AcDbSpline
210
0.0
220
0.0
230
1.0
 70
     8
 71
     3
 72
    11
 73
     7
 74
     0
 42
0.0000000001
 43
0.0000000001
 40
0.0
 40
0.0
 40
0.0
 40
0.0
 40
1.0
 40
1.0
 40
1.0
 40
2.0
 40
2.0
 40
2.0
 40
2.0
 10
63.71049533420138
 20
87.2010511610243
 30
0.0
 10
62.68592393663194
 20
87.36297064887152
 30
0.0
 10
62.06580674913194
 20
87.33575439453124
 30
0.0
 10
61.310986328125
 20
87.6323771158854
 30
0.0
 10
60.55582139756944
 20
87.92899983723957
 30
0.0
 10
59.20775553385416
 20
87.95587158203124
 30
0.0
 10
58.93834906684027
 20
87.98308783637152
 30
0.0
  0
SPLINE
  5
D1
330
A
100
AcDbEntity
  8
LAYER_1
 62
     7
100
AcDbSpline
210
0.0
220
0.0
230
1.0
 70
     8
 71
     3
 72
    23
 73
    19
 74
     0
 42
0.0000000001
 43
0.0000000001
 40
0.0
 40
0.0
 40
0.0
 40
0.0
 40
1.0
 40
1.0
 40
1.0
 40
2.0
 40
2.0
 40
2.0
 40
3.0
 40
3.0
 40
3.0
 40
4.0
 40
4.0
 40
4.0
 40
5.0
 40
5.0
 40
5.0
 40
6.0
 40
6.0
 40
6.0
 40
6.0
 10
63.71049533420138
 20
88.14466281467013
 30
0.0
 10
62.36242947048611
 20
88.33345404730902
 30
0.0
 10
62.01171874999999
 20
88.54911702473957
 30
0.0
 10
60.85244411892361
 20
88.7919962565104
 30
0.0
 10
59.69316948784721
 20
89.03453097873263
 30
0.0
 10
55.21764594184027
 20
89.9512708875868
 30
0.0
 10
54.81319173177083
 20
89.84343939887152
 30
0.0
 10
55.37922092013888
 20
89.38489718967013
 30
0.0
 10
56.26908908420138
 20
88.89982774522569
 30
0.0
 10
56.86233452690972
 20
88.54911702473957
 30
0.0
 10
57.45523546006944
 20
88.19875081380208
 30
0.0
 10
58.37197536892361
 20
87.60550537109374
 30
0.0
 10
59.28871527777778
 20
87.09321967230902
 30
0.0
 10
60.20545518663194
 20
86.5809339735243
 30
0.0
 10
60.58303765190972
 20
85.98768853081596
 30
0.0
 10
61.47256130642361
 20
85.82611355251736
 30
0.0
 10
62.36242947048611
 20
85.66419406467013
 30
0.0
 10
62.98254665798611
 20
85.07129313151042
 30
0.0
 10
63.68362358940971
 20
84.88250189887152
 30
0.0
  0
SPLINE
  5
D0
330
A
100
AcDbEntity
  8
LAYER_1
 62
     7
100
AcDbSpline
210
0.0
220
0.0
230
1.0
 70
     8
 71
     3
 72
    20
 73
    16
 74
     0
 42
0.0000000001
 43
0.0000000001
 40
0.0
 40
0.0
 40
0.0
 40
0.0
 40
1.0
 40
1.0
 40
1.0
 40
2.0
 40
2.0
 40
2.0
 40
3.0
 40
3.0
 40
3.0
 40
4.0
 40
4.0
 40
4.0
 40
5.0
 40
5.0
 40
5.0
 40
5.0
 10
51.46972656249999
 20
91.13741726345485
 30
0.0
 10
52.00888400607639
 20
91.2724650065104
 30
0.0
 10
53.5998291015625
 20
91.08367377387152
 30
0.0
 10
54.08524305555555
 20
91.02958577473957
 30
0.0
 10
54.57031249999999
 20
90.97584228515625
 30
0.0
 10
56.45788031684027
 20
90.5713880750868
 30
0.0
 10
57.05078124999999
 20
90.43634033203124
 30
0.0
 10
57.64402669270833
 20
90.3016370985243
 30
0.0
 10
59.96292046440972
 20
89.92405463324651
 30
0.0
 10
60.12449544270833
 20
89.9512708875868
 30
0.0
 10
60.28641493055555
 20
89.97814263237846
 30
0.0
 10
61.41881781684027
 20
89.81656765407985
 30
0.0
 10
62.33555772569444
 20
89.51994493272569
 30
0.0
 10
63.2522976345486
 20
89.22332221137152
 30
0.0
 10
63.54857584635416
 20
89.11549072265625
 30
0.0
 10
63.71049533420138
 20
89.03453097873263
 30
0.0
  0
SPLINE
  5
CF
330
A
100
AcDbEntity
  8
LAYER_1
 62
     7
100
AcDbSpline
210
0.0
220
0.0
230
1.0
 70
     8
 71
     3
 72
    17
 73
    13
 74
     0
 42
0.0000000001
 43
0.0000000001
 40
0.0
 40
0.0
 40
0.0
 40
0.0
 40
1.0
 40
1.0
 40
1.0
 40
2.0
 40
2.0
 40
2.0
 40
3.0
 40
3.0
 40
3.0
 40
4.0
 40
4.0
 40
4.0
 40
4.0
 10
50.01382921006944
 20
92.48548312717013
 30
0.0
 10
51.30815158420138
 20
92.5933146158854
 30
0.0
 10
52.89875217013888
 20
92.4317396375868
 30
0.0
 10
53.70766059027778
 20
92.32390814887152
 30
0.0
 10
54.51656901041666
 20
92.21607666015625
 30
0.0
 10
56.94294976128472
 20
91.73066270616319
 30
0.0
 10
57.77907443576388
 20
91.59595947265625
 30
0.0
 10
58.61485460069444
 20
91.46091172960068
 30
0.0
 10
60.71774088541666
 20
91.11054551866319
 30
0.0
 10
61.71544053819444
 20
90.84079454210068
 30
0.0
 10
62.71279568142361
 20
90.5713880750868
 30
0.0
 10
63.06350640190972
 20
90.24789360894097
 30
0.0
 10
63.54857584635416
 20
90.40946858723957
 30
0.0
  0
SPLINE
  5
CE
330
A
100
AcDbEntity
  8
LAYER_1
 62
     7
100
AcDbSpline
210
0.0
220
0.0
230
1.0
 70
     8
 71
     3
 72
    17
 73
    13
 74
     0
 42
0.0000000001
 43
0.0000000001
 40
0.0
 40
0.0
 40
0.0
 40
0.0
 40
1.0
 40
1.0
 40
1.0
 40
2.0
 40
2.0
 40
2.0
 40
3.0
 40
3.0
 40
3.0
 40
4.0
 40
4.0
 40
4.0
 40
4.0
 10
50.04070095486111
 20
93.69884575737846
 30
0.0
 10
50.84960937499999
 20
93.88763699001736
 30
0.0
 10
52.57525770399305
 20
93.64510226779512
 30
0.0
 10
53.57295735677083
 20
93.48318277994791
 30
0.0
 10
54.57031249999999
 20
93.32126329210068
 30
0.0
 10
57.02390950520833
 20
92.99776882595485
 30
0.0
 10
58.07535264756944
 20
92.88993733723957
 30
0.0
 10
59.12714029947916
 20
92.7821058485243
 30
0.0
 10
61.09532335069444
 20
92.21607666015625
 30
0.0
 10
61.85014377170138
 20
92.08102891710068
 30
0.0
 10
62.60496419270833
 20
91.94632568359374
 30
0.0
 10
63.49483235677083
 20
91.67657470703124
 30
0.0
 10
63.65675184461805
 20
91.62283121744791
 30
0.0
  0
SPLINE
  5
CD
330
A
100
AcDbEntity
  8
LAYER_1
 62
     7
100
AcDbSpline
210
0.0
220
0.0
230
1.0
 70
     8
 71
     3
 72
    17
 73
    13
 74
     0
 42
0.0000000001
 43
0.0000000001
 40
0.0
 40
0.0
 40
0.0
 40
0.0
 40
1.0
 40
1.0
 40
1.0
 40
2.0
 40
2.0
 40
2.0
 40
3.0
 40
3.0
 40
3.0
 40
4.0
 40
4.0
 40
4.0
 40
4.0
 10
49.98695746527778
 20
94.77750515407985
 30
0.0
 10
51.03840060763888
 20
94.75028889973957
 30
0.0
 10
51.98201226128472
 20
94.77750515407985
 30
0.0
 10
52.92596842447916
 20
94.53462592230902
 30
0.0
 10
53.869580078125
 20
94.2920912000868
 30
0.0
 10
56.45788031684027
 20
93.86076524522569
 30
0.0
 10
57.07799750434027
 20
93.88763699001736
 30
0.0
 10
57.69811469184027
 20
93.91450873480902
 30
0.0
 10
60.25919867621527
 20
93.48318277994791
 30
0.0
 10
61.01436360677083
 20
93.18656005859374
 30
0.0
 10
61.76918402777777
 20
92.88993733723957
 30
0.0
 10
62.92845865885416
 20
92.4317396375868
 30
0.0
 10
63.71049533420138
 20
92.45861138237846
 30
0.0
  0
SPLINE
  5
CC
330
A
100
AcDbEntity
  8
LAYER_1
 62
     7
100
AcDbSpline
210
0.0
220
0.0
230
1.0
 70
     8
 71
     3
 72
    17
 73
    13
 74
     0
 42
0.0000000001
 43
0.0000000001
 40
0.0
 40
0.0
 40
0.0
 40
0.0
 40
1.0
 40
1.0
 40
1.0
 40
2.0
 40
2.0
 40
2.0
 40
3.0
 40
3.0
 40
3.0
 40
4.0
 40
4.0
 40
4.0
 40
4.0
 10
50.01382921006944
 20
95.6939005533854
 30
0.0
 10
50.63394639756944
 20
95.74798855251736
 30
0.0
 10
52.38646647135416
 20
95.31666259765625
 30
0.0
 10
52.89875217013888
 20
95.39762234157985
 30
0.0
 10
53.41103786892361
 20
95.47823757595485
 30
0.0
 10
55.89150661892361
 20
94.9931681315104
 30
0.0
 10
56.37692057291666
 20
94.93908013237846
 30
0.0
 10
56.86233452690972
 20
94.88533664279512
 30
0.0
 10
59.04618055555555
 20
94.34583468967013
 30
0.0
 10
60.070751953125
 20
94.31896294487846
 30
0.0
 10
61.09532335069444
 20
94.2920912000868
 30
0.0
 10
63.27916937934027
 20
93.8335489908854
 30
0.0
 10
63.60266384548611
 20
93.6719740125868
 30
0.0
  0
SPLINE
  5
CB
330
A
100
AcDbEntity
  8
LAYER_1
 62
     7
100
AcDbSpline
210
0.0
220
0.0
230
1.0
 70
     8
 71
     3
 72
    14
 73
    10
 74
     0
 42
0.0000000001
 43
0.0000000001
 40
0.0
 40
0.0
 40
0.0
 40
0.0
 40
1.0
 40
1.0
 40
1.0
 40
2.0
 40
2.0
 40
2.0
 40
3.0
 40
3.0
 40
3.0
 40
3.0
 10
49.93286946614583
 20
96.7725599500868
 30
0.0
 10
50.90369737413194
 20
96.63785671657985
 30
0.0
 10
52.60212944878472
 20
96.2334025065104
 30
0.0
 10
53.27633463541666
 20
96.3140177408854
 30
0.0
 10
53.95019531249999
 20
96.39497748480902
 30
0.0
 10
55.16355794270833
 20
96.12557101779512
 30
0.0
 10
55.99933810763888
 20
95.93677978515625
 30
0.0
 10
56.83511827256944
 20
95.74798855251736
 30
0.0
 10
60.66365288628472
 20
94.77750515407985
 30
0.0
 10
61.28411458333333
 20
95.15474310980902
 30
0.0
  0
SPLINE
  5
CA
330
A
100
AcDbEntity
  8
LAYER_1
 62
     7
100
AcDbSpline
210
0.0
220
0.0
230
1.0
 70
     8
 71
     3
 72
    14
 73
    10
 74
     0
 42
0.0000000001
 43
0.0000000001
 40
0.0
 40
0.0
 40
0.0
 40
0.0
 40
1.0
 40
1.0
 40
1.0
 40
2.0
 40
2.0
 40
2.0
 40
3.0
 40
3.0
 40
3.0
 40
3.0
 10
49.8791259765625
 20
97.90496283637152
 30
0.0
 10
50.71490614149305
 20
97.90496283637152
 30
0.0
 10
52.17080349392361
 20
97.55459662543402
 30
0.0
 10
52.62900119357639
 20
97.4736368815104
 30
0.0
 10
53.08754340277778
 20
97.3926771375868
 30
0.0
 10
54.81319173177083
 20
97.1229261610243
 30
0.0
 10
55.35234917534721
 20
96.98822292751736
 30
0.0
 10
55.89150661892361
 20
96.8535196940104
 30
0.0
 10
57.02390950520833
 20
96.44906548394097
 30
0.0
 10
57.590283203125
 20
96.71847195095485
 30
0.0
  0
SPLINE
  5
C9
330
A
100
AcDbEntity
  8
LAYER_1
 62
     7
100
AcDbSpline
210
0.0
220
0.0
230
1.0
 70
     8
 71
     3
 72
    11
 73
     7
 74
     0
 42
0.0000000001
 43
0.0000000001
 40
0.0
 40
0.0
 40
0.0
 40
0.0
 40
1.0
 40
1.0
 40
1.0
 40
2.0
 40
2.0
 40
2.0
 40
2.0
 10
49.93286946614583
 20
98.92953423394097
 30
0.0
 10
50.84960937499999
 20
99.01049397786457
 30
0.0
 10
51.71260579427083
 20
98.7138712565104
 30
0.0
 10
51.82043728298611
 20
98.7138712565104
 30
0.0
 10
51.92826877170138
 20
98.7138712565104
 30
0.0
 10
52.44055447048611
 20
98.49820827907985
 30
0.0
 10
53.06067165798611
 20
98.57882351345485
 30
0.0
  0
LINE
  5
C8
330
A
100
AcDbEntity
  8
LAYER_1
 62
     7
100
AcDbLine
 10
50.01382921006944
 20
91.83849419487846
 30
0.0
 11
63.65675184461805
 21
85.9608167860243
 31
0.0
  0
LINE
  5
C7
330
A
100
AcDbEntity
  8
LAYER_1
 62
     7
100
AcDbLine
 10
63.68362358940971
 20
94.2920912000868
 30
0.0
 11
78.29702962239583
 21
106.3978122287326
 31
0.0
  0
LINE
  5
C6
330
A
100
AcDbEntity
  8
LAYER_1
 62
     7
100
AcDbLine
 10
63.791455078125
 20
86.01456027560764
 30
0.0
 11
78.24294162326389
 21
98.03966606987846
 31
0.0
  0
LINE
  5
C5
330
A
100
AcDbEntity
  8
LAYER_1
 62
     7
100
AcDbLine
 10
63.8724148220486
 20
70.75416531032985
 30
0.0
 11
78.29702962239583
 21
83.80384250217013
 31
0.0
  0
LINE
  5
C4
330
A
100
AcDbEntity
  8
LAYER_1
 62
     7
100
AcDbLine
 10
63.791455078125
 20
63.77130126953124
 30
0.0
 11
78.24294162326389
 21
77.14412841796874
 31
0.0
  0
LWPOLYLINE
  5
BF
330
A
100
AcDbEntity
  8
LAYER_1
 62
     7
100
AcDbPolyline
 90
        3
 70
     0
 43
0.0
 10
50.20262044270833
 20
62.85456136067707
 10
63.73736707899305
 20
55.76352132161458
 10
76.35571831597221
 20
68.16620958116319
  0
LWPOLYLINE
  5
BA
330
A
100
AcDbEntity
  8
LAYER_1
 62
     7
100
AcDbPolyline
 90
        3
 70
     0
 43
0.0
 10
50.25636393229166
 20
56.22206353081597
 10
63.73736707899305
 20
48.8344007703993
 10
72.58092719184027
 20
57.83953586154514
  0
LWPOLYLINE
  5
B5
330
A
100
AcDbEntity
  8
LAYER_1
 62
     7
100
AcDbPolyline
 90
        3
 70
     0
 43
0.0
 10
50.31045193142361
 20
49.13102349175347
 10
63.791455078125
 20
41.36612277560764
 10
71.36756456163194
 20
49.42764621310764
  0
LWPOLYLINE
  5
B0
330
A
100
AcDbEntity
  8
LAYER_1
 62
     7
100
AcDbPolyline
 90
        3
 70
     0
 43
0.0
 10
50.41828342013888
 20
42.17468668619792
 10
63.791455078125
 20
34.08629150390625
 10
74.27935926649305
 20
45.35623236762152
  0
LWPOLYLINE
  5
AB
330
A
100
AcDbEntity
  8
LAYER_1
 62
     7
100
AcDbPolyline
 90
        3
 70
     0
 43
0.0
 10
50.44515516493055
 20
35.83881157769097
 10
63.791455078125
 20
27.58849690755208
 10
69.39938151041666
 20
33.89750027126736
  0
LWPOLYLINE
  5
A2
330
A
100
AcDbEntity
  8
LAYER_1
 62
     7
100
AcDbPolyline
 90
        7
 70
     0
 43
0.0
 10
50.01382921006944
 20
99.84627414279512
 10
63.71049533420138
 20
94.26521945529512
 10
63.81832682291666
 20
68.9479017469618
 10
62.71279568142361
 20
66.4674329969618
 10
64.65410698784721
 20
66.08985053168402
 10
63.71049533420138
 20
63.79817301432291
 10
63.89928656684027
 20
21.03661431206597
  0
LWPOLYLINE
  5
9D
330
A
100
AcDbEntity
  8
LAYER_1
 62
     7
100
AcDbPolyline
 90
        3
 70
     0
 43
0.0
 10
31.89538302951389
 20
107.6921346028646
 10
34.29523654513888
 20
108.4200832790799
 10
33.86391059027778
 20
109.1480319552951
  0
LINE
  5
9C
330
A
100
AcDbEntity
  8
LAYER_1
 62
     7
100
AcDbLine
 10
32.05730251736111
 20
107.3686401367187
 30
0.0
 11
48.34226888020833
 21
100.4391750759549
 31
0.0
  0
LINE
  5
9B
330
A
100
AcDbEntity
  8
LAYER_1
 62
     7
100
AcDbLine
 10
33.07153862847222
 20
113.3217651367187
 30
0.0
 11
52.71478407118055
 21
104.9929022894965
 31
0.0
  0
LINE
  5
9A
330
A
100
AcDbEntity
  8
LAYER_1
 62
     7
100
AcDbLine
 10
32.946826171875
 20
102.1648234049479
 30
0.0
 11
49.82503797743055
 21
94.66932915581596
 31
0.0
  0
LINE
  5
99
330
A
100
AcDbEntity
  8
LAYER_1
 62
     7
100
AcDbLine
 10
49.90599772135416
 20
89.22332221137152
 30
0.0
 11
36.47908257378472
 21
95.2625745985243
 31
0.0
  0
LINE
  5
98
330
A
100
AcDbEntity
  8
LAYER_1
 62
     7
100
AcDbLine
 10
50.01382921006944
 20
83.88480224609374
 30
0.0
 11
39.20208604600694
 21
88.8726114908854
 31
0.0
  0
LINE
  5
97
330
A
100
AcDbEntity
  8
LAYER_1
 62
     7
100
AcDbLine
 10
50.01382921006944
 20
78.92386474609374
 30
0.0
 11
42.57242296006944
 21
82.42890489366319
 31
0.0
  0
LINE
  5
96
330
A
100
AcDbEntity
  8
LAYER_1
 62
     7
100
AcDbLine
 10
38.66292860243055
 20
79.11265597873263
 30
0.0
 11
48.82768283420138
 21
74.04354248046874
 31
0.0
  0
LWPOLYLINE
  5
8D
330
A
100
AcDbEntity
  8
LAYER_1
 62
     7
100
AcDbPolyline
 90
        7
 70
     0
 43
0.0
 10
64.81602647569444
 20
110.4151380750868
 10
49.90599772135416
 20
99.84627414279512
 10
50.14853244357639
 20
75.63448757595485
 10
49.04334581163194
 20
73.18089057074653
 10
50.98465711805555
 20
72.23727891710068
 10
50.12166069878472
 20
70.78138156467013
 10
50.14853244357639
 20
67.57296413845485
  0
LINE
  5
8C
330
A
100
AcDbEntity
  8
LAYER_1
 62
     7
100
AcDbLine
 10
32.78525119357639
 20
117.5061781141493
 30
0.0
 11
59.72004123263888
 21
106.856354437934
 31
0.0
  0
LINE
  5
8B
330
A
100
AcDbEntity
  8
LAYER_1
 62
     7
100
AcDbLine
 10
32.73116319444444
 20
122.5749471028646
 30
0.0
 11
64.70819498697917
 21
110.6848890516493
 31
0.0
  0
LINE
  5
8A
330
A
100
AcDbEntity
  8
LAYER_1
 62
     7
100
AcDbLine
 10
64.84289822048611
 20
111.2781344943576
 30
0.0
 11
65.70555013020832
 21
111.0624715169271
 31
0.0
  0
LINE
  5
89
330
A
100
AcDbEntity
  8
LAYER_1
 62
     7
100
AcDbLine
 10
32.75837944878472
 20
127.7787638346354
 30
0.0
 11
69.26467827690972
 21
114.5402954101562
 31
0.0
  0
LINE
  5
88
330
A
100
AcDbEntity
  8
LAYER_1
 62
     7
100
AcDbLine
 10
32.75837944878472
 20
132.9822360568576
 30
0.0
 11
58.9114773220486
 21
123.9771009657118
 31
0.0
  0
LINE
  5
87
330
A
100
AcDbEntity
  8
LAYER_1
 62
     7
100
AcDbLine
 10
32.73116319444444
 20
138.6442504882812
 30
0.0
 11
58.88426106770833
 21
130.0973130967882
 31
0.0
  0
LINE
  5
86
330
A
100
AcDbEntity
  8
LAYER_1
 62
     7
100
AcDbLine
 10
95.16146104600693
 20
112.1542222764757
 30
0.0
 11
110.5431233723958
 21
125.3117309570312
 31
0.0
  0
LINE
  5
85
330
A
100
AcDbEntity
  8
LAYER_1
 62
     7
100
AcDbLine
 10
95.1883327907986
 20
105.9127427842882
 30
0.0
 11
109.8961344401042
 21
118.9755113389757
 31
0.0
  0
LWPOLYLINE
  5
80
330
A
100
AcDbEntity
  8
LAYER_1
 62
     7
100
AcDbPolyline
 90
        3
 70
     0
 43
0.0
 10
94.31224500868055
 20
99.63061116536457
 10
95.1480251736111
 20
99.30677218967013
 10
110.5431233723958
 20
113.3810207790799
  0
LWPOLYLINE
  5
7B
330
A
100
AcDbEntity
  8
LAYER_1
 62
     7
100
AcDbPolyline
 90
        3
 70
     0
 43
0.0
 10
94.31224500868055
 20
93.48318277994791
 10
95.1480251736111
 20
93.15968831380208
 10
110.0039659288194
 20
107.0720174153646
  0
LWPOLYLINE
  5
76
330
A
100
AcDbEntity
  8
LAYER_1
 62
     7
100
AcDbPolyline
 90
        3
 70
     0
 43
0.0
 10
94.28537326388889
 20
87.25513916015625
 10
95.1480251736111
 20
86.9313001844618
 10
108.35927734375
 20
99.73844265407985
  0
LWPOLYLINE
  5
71
330
A
100
AcDbEntity
  8
LAYER_1
 62
     7
100
AcDbPolyline
 90
        3
 70
     0
 43
0.0
 10
94.33911675347221
 20
81.02675103081596
 10
95.17489691840277
 20
80.67638481987846
 10
103.3173800998264
 20
88.92669949001736
  0
LWPOLYLINE
  5
6C
330
A
100
AcDbEntity
  8
LAYER_1
 62
     7
100
AcDbPolyline
 90
        3
 70
     0
 43
0.0
 10
94.31224500868055
 20
75.20316162109374
 10
95.1480251736111
 20
74.85245090060764
 10
102.6163031684028
 20
82.8602308485243
  0
LWPOLYLINE
  5
67
330
A
100
AcDbEntity
  8
LAYER_1
 62
     7
100
AcDbPolyline
 90
        3
 70
     0
 43
0.0
 10
94.33911675347221
 20
69.0288614908854
 10
95.20211317274304
 20
68.6781507703993
 10
101.3223253038194
 20
75.31099310980902
  0
LWPOLYLINE
  5
62
330
A
100
AcDbEntity
  8
LAYER_1
 62
     7
100
AcDbPolyline
 90
        3
 70
     0
 43
0.0
 10
94.28537326388889
 20
63.31275906032985
 10
95.22898491753472
 20
62.85456136067707
 10
105.6094021267361
 20
74.58304443359374
  0
LWPOLYLINE
  5
5D
330
A
100
AcDbEntity
  8
LAYER_1
 62
     7
100
AcDbPolyline
 90
        3
 70
     0
 43
0.0
 10
94.31224500868055
 20
57.92049560546874
 10
95.20211317274304
 20
57.54325764973958
 10
98.2486111111111
 20
60.94012179904513
  0
LINE
  5
5C
330
A
100
AcDbEntity
  8
LAYER_1
 62
     7
100
AcDbLine
 10
95.25585666232638
 20
51.26112603081597
 30
0.0
 11
99.4888454861111
 21
56.43772650824652
 31
0.0
  0
LWPOLYLINE
  5
57
330
A
100
AcDbEntity
  8
LAYER_1
 62
     7
100
AcDbPolyline
 90
        3
 70
     0
 43
0.0
 10
110.5431233723958
 20
131.795745171441
 10
95.1480251736111
 20
118.5848375108507
 10
95.25585666232638
 20
44.08912624782986
  0
SPLINE
  5
56
330
A
100
AcDbEntity
  8
LAYER_1
 62
     7
100
AcDbSpline
210
0.0
220
0.0
230
1.0
 70
     8
 71
     3
 72
    14
 73
    10
 74
     0
 42
0.0000000001
 43
0.0000000001
 40
0.0
 40
0.0
 40
0.0
 40
0.0
 40
1.0
 40
1.0
 40
1.0
 40
2.0
 40
2.0
 40
2.0
 40
3.0
 40
3.0
 40
3.0
 40
3.0
 10
102.3737684461806
 20
125.6217895507812
 30
0.0
 10
102.3737684461806
 20
125.6217895507812
 30
0.0
 10
95.42948947482638
 20
119.6748657226562
 30
0.0
 10
94.95923394097221
 20
119.3396579318576
 30
0.0
 10
94.20441351996527
 20
118.8005004882812
 30
0.0
 10
94.20441351996527
 20
118.6117092556424
 30
0.0
 10
94.23128526475693
 20
117.6408813476562
 30
0.0
 10
94.2581570095486
 20
116.6703979492187
 30
0.0
 10
94.2581570095486
 20
106.3978122287326
 30
0.0
 10
94.2581570095486
 20
106.3978122287326
 30
0.0
  0
LINE
  5
55
330
A
100
AcDbEntity
  8
LAYER_1
 62
     7
100
AcDbLine
 10
78.32390136718749
 20
106.4250284830729
 30
0.0
 11
79.15968153211804
 21
106.1011895073785
 31
0.0
  0
SPLINE
  5
54
330
A
100
AcDbEntity
  8
LAYER_1
 62
     7
100
AcDbSpline
210
0.0
220
0.0
230
1.0
 70
     8
 71
     3
 72
    26
 73
    22
 74
     0
 42
0.0000000001
 43
0.0000000001
 40
0.0
 40
0.0
 40
0.0
 40
0.0
 40
1.0
 40
1.0
 40
1.0
 40
2.0
 40
2.0
 40
2.0
 40
3.0
 40
3.0
 40
3.0
 40
4.0
 40
4.0
 40
4.0
 40
5.0
 40
5.0
 40
5.0
 40
6.0
 40
6.0
 40
6.0
 40
7.0
 40
7.0
 40
7.0
 40
7.0
 10
70.18141818576389
 20
115.1066691080729
 30
0.0
 10
70.18141818576389
 20
115.1066691080729
 30
0.0
 10
80.64245062934027
 20
122.6559068467882
 30
0.0
 10
80.64245062934027
 20
122.6559068467882
 30
0.0
 10
80.64245062934027
 20
122.6559068467882
 30
0.0
 10
81.154736328125
 20
122.493987358941
 30
0.0
 10
81.154736328125
 20
122.493987358941
 30
0.0
 10
81.154736328125
 20
122.493987358941
 30
0.0
 10
93.0179226345486
 20
118.6923244900174
 30
0.0
 10
93.0179226345486
 20
118.6923244900174
 30
0.0
 10
93.0179226345486
 20
118.6923244900174
 30
0.0
 10
93.93466254340277
 20
118.4229180230035
 30
0.0
 10
93.93466254340277
 20
118.4229180230035
 30
0.0
 10
93.93466254340277
 20
118.4229180230035
 30
0.0
 10
79.15968153211804
 20
106.1011895073785
 30
0.0
 10
79.15968153211804
 20
106.1011895073785
 30
0.0
 10
79.15968153211804
 20
106.1011895073785
 30
0.0
 10
79.21342502170138
 20
38.88565402560764
 30
0.0
 10
79.18655327690972
 20
38.40024007161458
 30
0.0
 10
79.15968153211804
 20
37.91482611762152
 30
0.0
 10
79.294384765625
 20
37.48350016276041
 30
0.0
 10
78.83618706597221
 20
37.24096544053819
 30
0.0
  0
LINE
  5
53
330
A
100
AcDbEntity
  8
LAYER_1
 62
     7
100
AcDbLine
 10
61.41881781684027
 20
129.0189982096354
 30
0.0
 11
80.13016493055555
 21
122.9256578233507
 31
0.0
  0
LINE
  5
52
330
A
100
AcDbEntity
  8
LAYER_1
 62
     7
100
AcDbLine
 10
60.09762369791666
 20
130.0163533528646
 30
0.0
 11
90.64528537326387
 21
120.0407348632812
 31
0.0
  0
SPLINE
  5
51
330
A
100
AcDbEntity
  8
LAYER_1
 62
     7
100
AcDbSpline
210
0.0
220
0.0
230
1.0
 70
     8
 71
     3
 72
    11
 73
     7
 74
     0
 42
0.0000000001
 43
0.0000000001
 40
0.0
 40
0.0
 40
0.0
 40
0.0
 40
1.0
 40
1.0
 40
1.0
 40
2.0
 40
2.0
 40
2.0
 40
2.0
 10
68.37704942491318
 20
134.405921766493
 30
0.0
 10
68.2407958984375
 20
134.2600219726562
 30
0.0
 10
68.30332438151041
 20
134.0652018229167
 30
0.0
 10
68.74446885850693
 20
133.9696004231771
 30
0.0
 10
69.174072265625
 20
133.8767550998264
 30
0.0
 10
69.60333116319444
 20
134.0252387152778
 30
0.0
 10
69.64139946831597
 20
134.2128241644965
 30
0.0
  0
SPLINE
  5
50
330
A
100
AcDbEntity
  8
LAYER_1
 62
     7
100
AcDbSpline
210
0.0
220
0.0
230
1.0
 70
    11
 71
     3
 72
    11
 73
     7
 74
     0
 42
0.0000000001
 43
0.0000000001
 40
0.0
 40
0.0
 40
0.0
 40
0.0
 40
1.0
 40
1.0
 40
1.0
 40
2.0
 40
2.0
 40
2.0
 40
2.0
 10
69.22437065972221
 20
134.7481920030382
 30
0.0
 10
68.51571451822916
 20
134.9480075412326
 30
0.0
 10
67.88353949652777
 20
134.3599297417535
 30
0.0
 10
68.76582845052083
 20
134.1687269422743
 30
0.0
 10
69.45346950954861
 20
134.0202433268229
 30
0.0
 10
70.14007703993055
 20
134.4894653320312
 30
0.0
 10
69.22437065972221
 20
134.7481920030382
 30
0.0
  0
SPLINE
  5
4F
330
A
100
AcDbEntity
  8
LAYER_1
 62
     7
100
AcDbSpline
210
0.0
220
0.0
230
1.0
 70
     8
 71
     3
 72
    11
 73
     7
 74
     0
 42
0.0000000001
 43
0.0000000001
 40
0.0
 40
0.0
 40
0.0
 40
0.0
 40
1.0
 40
1.0
 40
1.0
 40
2.0
 40
2.0
 40
2.0
 40
2.0
 10
74.91928575303818
 20
130.888134765625
 30
0.0
 10
74.7830322265625
 20
130.7422349717882
 30
0.0
 10
74.84556070963541
 20
130.5474148220486
 30
0.0
 10
75.28670518663193
 20
130.451813422309
 30
0.0
 10
75.7164808485243
 20
130.3589680989583
 30
0.0
 10
76.14573974609374
 20
130.507623969184
 30
0.0
 10
76.18380805121527
 20
130.6952094184028
 30
0.0
  0
SPLINE
  5
4E
330
A
100
AcDbEntity
  8
LAYER_1
 62
     7
100
AcDbSpline
210
0.0
220
0.0
230
1.0
 70
    11
 71
     3
 72
    11
 73
     7
 74
     0
 42
0.0000000001
 43
0.0000000001
 40
0.0
 40
0.0
 40
0.0
 40
0.0
 40
1.0
 40
1.0
 40
1.0
 40
2.0
 40
2.0
 40
2.0
 40
2.0
 10
75.7662624782986
 20
131.2304050021701
 30
0.0
 10
75.05795084635416
 20
131.4302205403646
 30
0.0
 10
74.42577582465277
 20
130.8421427408854
 30
0.0
 10
75.30806477864583
 20
130.6509399414063
 30
0.0
 10
75.9957058376736
 20
130.5024563259549
 30
0.0
 10
76.68231336805555
 20
130.9720228407118
 30
0.0
 10
75.7662624782986
 20
131.2304050021701
 30
0.0
  0
SPLINE
  5
4D
330
A
100
AcDbEntity
  8
LAYER_1
 62
     7
100
AcDbSpline
210
0.0
220
0.0
230
1.0
 70
     8
 71
     3
 72
    11
 73
     7
 74
     0
 42
0.0000000001
 43
0.0000000001
 40
0.0
 40
0.0
 40
0.0
 40
0.0
 40
1.0
 40
1.0
 40
1.0
 40
2.0
 40
2.0
 40
2.0
 40
2.0
 10
87.70816921657985
 20
127.0437527126736
 30
0.0
 10
87.57174343532985
 20
126.8976806640625
 30
0.0
 10
87.63427191840277
 20
126.7026882595486
 30
0.0
 10
88.07524414062499
 20
126.607086859809
 30
0.0
 10
88.50501980251735
 20
126.5145860460069
 30
0.0
 10
88.93445095486111
 20
126.6630696614583
 30
0.0
 10
88.97251925998263
 20
126.8506551106771
 30
0.0
  0
SPLINE
  5
4C
330
A
100
AcDbEntity
  8
LAYER_1
 62
     7
100
AcDbSpline
210
0.0
220
0.0
230
1.0
 70
    11
 71
     3
 72
    11
 73
     7
 74
     0
 42
0.0000000001
 43
0.0000000001
 40
0.0
 40
0.0
 40
0.0
 40
0.0
 40
1.0
 40
1.0
 40
1.0
 40
2.0
 40
2.0
 40
2.0
 40
2.0
 10
88.55514594184027
 20
127.3860229492187
 30
0.0
 10
87.84648980034721
 20
127.5858384874132
 30
0.0
 10
87.21465928819444
 20
126.997760687934
 30
0.0
 10
88.09694824218749
 20
126.8062133789062
 30
0.0
 10
88.78424479166665
 20
126.6580742730035
 30
0.0
 10
89.4708523220486
 20
127.1272962782118
 30
0.0
 10
88.55514594184027
 20
127.3860229492187
 30
0.0
  0
SPLINE
  5
4B
330
A
100
AcDbEntity
  8
LAYER_1
 62
     7
100
AcDbSpline
210
0.0
220
0.0
230
1.0
 70
     8
 71
     3
 72
    11
 73
     7
 74
     0
 42
0.0000000001
 43
0.0000000001
 40
0.0
 40
0.0
 40
0.0
 40
0.0
 40
1.0
 40
1.0
 40
1.0
 40
2.0
 40
2.0
 40
2.0
 40
2.0
 10
93.3433119032118
 20
126.6971761067708
 30
0.0
 10
93.2070583767361
 20
126.551276312934
 30
0.0
 10
93.26958685980902
 20
126.3564561631944
 30
0.0
 10
93.71073133680555
 20
126.2608547634548
 30
0.0
 10
94.13499484592013
 20
126.1692152235243
 30
0.0
 10
94.5589138454861
 20
126.3130479600694
 30
0.0
 10
94.60593939887151
 20
126.4973605685764
 30
0.0
  0
SPLINE
  5
4A
330
A
100
AcDbEntity
  8
LAYER_1
 62
     7
100
AcDbSpline
210
0.0
220
0.0
230
1.0
 70
    11
 71
     3
 72
    11
 73
     7
 74
     0
 42
0.0000000001
 43
0.0000000001
 40
0.0
 40
0.0
 40
0.0
 40
0.0
 40
1.0
 40
1.0
 40
1.0
 40
2.0
 40
2.0
 40
2.0
 40
2.0
 10
94.19028862847222
 20
127.039446343316
 30
0.0
 10
93.48163248697915
 20
127.2392618815104
 30
0.0
 10
92.84980197482638
 20
126.6511840820312
 30
0.0
 10
93.73209092881943
 20
126.4599812825521
 30
0.0
 10
94.4193874782986
 20
126.3114976671007
 30
0.0
 10
95.10633951822916
 20
126.7810641818576
 30
0.0
 10
94.19028862847222
 20
127.039446343316
 30
0.0
  0
SPLINE
  5
49
330
A
100
AcDbEntity
  8
LAYER_1
 62
     7
100
AcDbSpline
210
0.0
220
0.0
230
1.0
 70
     8
 71
     3
 72
    11
 73
     7
 74
     0
 42
0.0000000001
 43
0.0000000001
 40
0.0
 40
0.0
 40
0.0
 40
0.0
 40
1.0
 40
1.0
 40
1.0
 40
2.0
 40
2.0
 40
2.0
 40
2.0
 10
60.81110297309027
 20
125.3441148546007
 30
0.0
 10
61.05983886718749
 20
125.2092393663194
 30
0.0
 10
61.39160156249999
 20
125.441266547309
 30
0.0
 10
61.39160156249999
 20
125.904631890191
 30
0.0
 10
61.39160156249999
 20
126.3681694878472
 30
0.0
 10
61.05983886718749
 20
126.594684516059
 30
0.0
 10
60.81110297309027
 20
126.5116577148437
 30
0.0
  0
SPLINE
  5
48
330
A
100
AcDbEntity
  8
LAYER_1
 62
     7
100
AcDbSpline
210
0.0
220
0.0
230
1.0
 70
    11
 71
     3
 72
    11
 73
     7
 74
     0
 42
0.0000000001
 43
0.0000000001
 40
0.0
 40
0.0
 40
0.0
 40
0.0
 40
1.0
 40
1.0
 40
1.0
 40
2.0
 40
2.0
 40
2.0
 40
2.0
 10
60.29985080295138
 20
125.9855916341146
 30
0.0
 10
60.29985080295138
 20
124.9872029622396
 30
0.0
 10
61.14906684027778
 20
125.1363755967882
 30
0.0
 10
61.14906684027778
 20
125.8777601453993
 30
0.0
 10
61.14906684027778
 20
126.6191446940104
 30
0.0
 10
60.29985080295138
 20
126.754192437066
 30
0.0
 10
60.29985080295138
 20
125.9855916341146
 30
0.0
  0
SPLINE
  5
47
330
A
100
AcDbEntity
  8
LAYER_1
 62
     7
100
AcDbSpline
210
0.0
220
0.0
230
1.0
 70
     8
 71
     3
 72
    11
 73
     7
 74
     0
 42
0.0000000001
 43
0.0000000001
 40
0.0
 40
0.0
 40
0.0
 40
0.0
 40
1.0
 40
1.0
 40
1.0
 40
2.0
 40
2.0
 40
2.0
 40
2.0
 10
64.86477457682291
 20
122.1808281792535
 30
0.0
 10
65.09576822916667
 20
122.1384535047743
 30
0.0
 10
65.35208333333333
 20
122.3670355902778
 30
0.0
 10
65.35208333333333
 20
122.7744181315104
 30
0.0
 10
65.35208333333333
 20
123.2376112196181
 30
0.0
 10
65.02066514756943
 20
123.4639539930555
 30
0.0
 10
64.77192925347222
 20
123.3812717013889
 30
0.0
  0
SPLINE
  5
46
330
A
100
AcDbEntity
  8
LAYER_1
 62
     7
100
AcDbSpline
210
0.0
220
0.0
230
1.0
 70
    11
 71
     3
 72
    11
 73
     7
 74
     0
 42
0.0000000001
 43
0.0000000001
 40
0.0
 40
0.0
 40
0.0
 40
0.0
 40
1.0
 40
1.0
 40
1.0
 40
2.0
 40
2.0
 40
2.0
 40
2.0
 10
64.25998806423611
 20
122.855377875434
 30
0.0
 10
64.25998806423611
 20
121.8566446940104
 30
0.0
 10
65.10954861111111
 20
122.005817328559
 30
0.0
 10
65.10954861111111
 20
122.7472018771701
 30
0.0
 10
65.10954861111111
 20
123.4889309353299
 30
0.0
 10
64.25998806423611
 20
123.6236341688368
 30
0.0
 10
64.25998806423611
 20
122.855377875434
 30
0.0
  0
SPLINE
  5
45
330
A
100
AcDbEntity
  8
LAYER_1
 62
     7
100
AcDbSpline
210
0.0
220
0.0
230
1.0
 70
     8
 71
     3
 72
    11
 73
     7
 74
     0
 42
0.0000000001
 43
0.0000000001
 40
0.0
 40
0.0
 40
0.0
 40
0.0
 40
1.0
 40
1.0
 40
1.0
 40
2.0
 40
2.0
 40
2.0
 40
2.0
 10
62.29783393012152
 20
119.6044135199653
 30
0.0
 10
62.54656982421874
 20
119.4691935221354
 30
0.0
 10
62.87850477430555
 20
119.701220703125
 30
0.0
 10
62.87850477430555
 20
120.1647583007812
 30
0.0
 10
62.87850477430555
 20
120.6200276692708
 30
0.0
 10
62.55862765842014
 20
120.8465426974826
 30
0.0
 10
62.31144205729166
 20
120.7759182400174
 30
0.0
  0
SPLINE
  5
44
330
A
100
AcDbEntity
  8
LAYER_1
 62
     7
100
AcDbSpline
210
0.0
220
0.0
230
1.0
 70
    11
 71
     3
 72
    11
 73
     7
 74
     0
 42
0.0000000001
 43
0.0000000001
 40
0.0
 40
0.0
 40
0.0
 40
0.0
 40
1.0
 40
1.0
 40
1.0
 40
2.0
 40
2.0
 40
2.0
 40
2.0
 10
61.78640950520833
 20
120.2457180447048
 30
0.0
 10
61.78640950520833
 20
119.2473293728299
 30
0.0
 10
62.63597005208333
 20
119.3965020073785
 30
0.0
 10
62.63597005208333
 20
120.1378865559896
 30
0.0
 10
62.63597005208333
 20
120.8792711046007
 30
0.0
 10
61.78640950520833
 20
121.0143188476562
 30
0.0
 10
61.78640950520833
 20
120.2457180447048
 30
0.0
  0
LINE
  5
43
330
A
100
AcDbEntity
  8
LAYER_1
 62
     7
100
AcDbLine
 10
93.93466254340277
 20
118.4497897677951
 30
0.0
 11
94.33911675347221
 21
118.8273722330729
 31
0.0
  0
SPLINE
  5
42
330
A
100
AcDbEntity
  8
LAYER_1
 62
     7
100
AcDbSpline
210
0.0
220
0.0
230
1.0
 70
     8
 71
     3
 72
    14
 73
    10
 74
     0
 42
0.0000000001
 43
0.0000000001
 40
0.0
 40
0.0
 40
0.0
 40
0.0
 40
1.0
 40
1.0
 40
1.0
 40
2.0
 40
2.0
 40
2.0
 40
3.0
 40
3.0
 40
3.0
 40
3.0
 10
95.17489691840277
 20
116.6972696940104
 30
0.0
 10
95.60656738281249
 20
117.222991265191
 30
0.0
 10
95.94349772135416
 20
117.8837605794271
 30
0.0
 10
96.65801052517361
 20
118.5441853841146
 30
0.0
 10
97.37252332899304
 20
119.2046101888021
 30
0.0
 10
98.04638400607638
 20
120.1754380967882
 30
0.0
 10
98.57210557725693
 20
120.6877237955729
 30
0.0
 10
99.09782714843749
 20
121.2000094943576
 30
0.0
 10
100.1358344184028
 20
122.3995917426215
 30
0.0
 10
100.4055853949653
 20
122.9390936957465
 30
0.0
  0
SPLINE
  5
41
330
A
100
AcDbEntity
  8
LAYER_1
 62
     7
100
AcDbSpline
210
0.0
220
0.0
230
1.0
 70
     8
 71
     3
 72
     8
 73
     4
 74
     0
 42
0.0000000001
 43
0.0000000001
 40
0.0
 40
0.0
 40
0.0
 40
0.0
 40
1.0
 40
1.0
 40
1.0
 40
1.0
 10
102.2659369574653
 20
123.599518500434
 30
0.0
 10
102.5759955512153
 20
123.9230129665799
 30
0.0
 10
104.1803765190972
 20
126.1878187391493
 30
0.0
 10
104.4363471137153
 20
126.5113132052951
 30
0.0
  0
SPLINE
  5
40
330
A
100
AcDbEntity
  8
LAYER_1
 62
     7
100
AcDbSpline
210
0.0
220
0.0
230
1.0
 70
     8
 71
     3
 72
     8
 73
     4
 74
     0
 42
0.0000000001
 43
0.0000000001
 40
0.0
 40
0.0
 40
0.0
 40
0.0
 40
1.0
 40
1.0
 40
1.0
 40
1.0
 10
98.82842068142361
 20
119.1239949544271
 30
0.0
 10
98.97655978732638
 20
119.312786187066
 30
0.0
 10
101.7267795138889
 20
122.8581339518229
 30
0.0
 10
101.9558783637153
 20
123.1006686740451
 30
0.0
  0
SPLINE
  5
3F
330
A
100
AcDbEntity
  8
LAYER_1
 62
     7
100
AcDbSpline
210
0.0
220
0.0
230
1.0
 70
     8
 71
     3
 72
     8
 73
     4
 74
     0
 42
0.0000000001
 43
0.0000000001
 40
0.0
 40
0.0
 40
0.0
 40
0.0
 40
1.0
 40
1.0
 40
1.0
 40
1.0
 10
97.0083767361111
 20
117.1420315212674
 30
0.0
 10
97.18373209635416
 20
117.3039510091146
 30
0.0
 10
97.46691894531249
 20
117.6680976019965
 30
0.0
 10
97.65536566840277
 20
117.8162367078993
 30
0.0
  0
SPLINE
  5
3E
330
A
100
AcDbEntity
  8
LAYER_1
 62
     7
100
AcDbSpline
210
0.0
220
0.0
230
1.0
 70
     8
 71
     3
 72
     8
 73
     4
 74
     0
 42
0.0000000001
 43
0.0000000001
 40
0.0
 40
0.0
 40
0.0
 40
0.0
 40
1.0
 40
1.0
 40
1.0
 40
1.0
 10
95.1883327907986
 20
115.0391452365451
 30
0.0
 10
95.82223036024304
 20
115.7536580403646
 30
0.0
 10
96.55017903645833
 20
116.5219143337674
 30
0.0
 10
96.71175401475693
 20
116.7107055664062
 30
0.0
  0
SPLINE
  5
3D
330
A
100
AcDbEntity
  8
LAYER_1
 62
     7
100
AcDbSpline
210
0.0
220
0.0
230
1.0
 70
     8
 71
     3
 72
     8
 73
     4
 74
     0
 42
0.0000000001
 43
0.0000000001
 40
0.0
 40
0.0
 40
0.0
 40
0.0
 40
1.0
 40
1.0
 40
1.0
 40
1.0
 10
103.4389919704861
 20
120.5664564344618
 30
0.0
 10
103.6680908203125
 20
120.9033867730035
 30
0.0
 10
106.9440321180556
 20
125.2710788302951
 30
0.0
 10
107.5507134331597
 20
125.9587198893229
 30
0.0
  0
SPLINE
  5
3C
330
A
100
AcDbEntity
  8
LAYER_1
 62
     7
100
AcDbSpline
210
0.0
220
0.0
230
1.0
 70
     8
 71
     3
 72
    11
 73
     7
 74
     0
 42
0.0000000001
 43
0.0000000001
 40
0.0
 40
0.0
 40
0.0
 40
0.0
 40
1.0
 40
1.0
 40
1.0
 40
2.0
 40
2.0
 40
2.0
 40
2.0
 10
98.61275770399304
 20
115.4570353190104
 30
0.0
 10
98.89560004340277
 20
115.8077460394965
 30
0.0
 10
100.473109266493
 20
117.2502075195312
 30
0.0
 10
100.7156439887153
 20
117.5196139865451
 30
0.0
 10
100.9581787109375
 20
117.7893649631076
 30
0.0
 10
101.9017903645833
 20
118.6520168728299
 30
0.0
 10
102.0771457248264
 20
118.948639594184
 30
0.0
  0
SPLINE
  5
3B
330
A
100
AcDbEntity
  8
LAYER_1
 62
     7
100
AcDbSpline
210
0.0
220
0.0
230
1.0
 70
     8
 71
     3
 72
    20
 73
    16
 74
     0
 42
0.0000000001
 43
0.0000000001
 40
0.0
 40
0.0
 40
0.0
 40
0.0
 40
1.0
 40
1.0
 40
1.0
 40
2.0
 40
2.0
 40
2.0
 40
3.0
 40
3.0
 40
3.0
 40
4.0
 40
4.0
 40
4.0
 40
5.0
 40
5.0
 40
5.0
 40
5.0
 10
95.16146104600693
 20
113.731731499566
 30
0.0
 10
95.72783474392361
 20
114.1089694552951
 30
0.0
 10
96.10541720920138
 20
114.6749986436632
 30
0.0
 10
96.60392252604166
 20
115.0932332356771
 30
0.0
 10
97.10277235243055
 20
115.5111233181424
 30
0.0
 10
97.9788601345486
 20
116.5219143337674
 30
0.0
 10
98.42396647135416
 20
116.9938924153646
 30
0.0
 10
98.8687282986111
 20
117.4658704969618
 30
0.0
 10
100.0686550564236
 20
119.083342827691
 30
0.0
 10
100.783167860243
 20
119.7844197591146
 30
0.0
 10
101.4976806640625
 20
120.4854966905382
 30
0.0
 10
101.9424424913194
 20
121.3888007269965
 30
0.0
 10
102.4278564453125
 20
121.7794745551215
 30
0.0
 10
102.9129258897569
 20
122.1704928927951
 30
0.0
 10
106.0810356987847
 20
126.1878187391493
 30
0.0
 10
106.5257975260417
 20
126.7676283094618
 30
0.0
  0
SPLINE
  5
3A
330
A
100
AcDbEntity
  8
LAYER_1
 62
     7
100
AcDbSpline
210
0.0
220
0.0
230
1.0
 70
     8
 71
     3
 72
    11
 73
     7
 74
     0
 42
0.0000000001
 43
0.0000000001
 40
0.0
 40
0.0
 40
0.0
 40
0.0
 40
1.0
 40
1.0
 40
1.0
 40
2.0
 40
2.0
 40
2.0
 40
2.0
 10
100.6619004991319
 20
116.8185370551215
 30
0.0
 10
101.403285047743
 20
117.0342000325521
 30
0.0
 10
104.1397243923611
 20
118.382610405816
 30
0.0
 10
104.8004937065972
 20
118.638581000434
 30
0.0
 10
105.4609185112847
 20
118.8945515950521
 30
0.0
 10
107.7798122829861
 20
120.0810424804687
 30
0.0
 10
108.0089111328125
 20
120.1347859700521
 30
0.0
  0
SPLINE
  5
39
330
A
100
AcDbEntity
  8
LAYER_1
 62
     7
100
AcDbSpline
210
0.0
220
0.0
230
1.0
 70
     8
 71
     3
 72
    11
 73
     7
 74
     0
 42
0.0000000001
 43
0.0000000001
 40
0.0
 40
0.0
 40
0.0
 40
0.0
 40
1.0
 40
1.0
 40
1.0
 40
2.0
 40
2.0
 40
2.0
 40
2.0
 10
96.42891167534721
 20
113.2191012912326
 30
0.0
 10
97.08933648003472
 20
113.4347642686632
 30
0.0
 10
97.73632541232638
 20
113.812346733941
 30
0.0
 10
98.31613498263889
 20
114.0548814561632
 30
0.0
 10
98.89560004340277
 20
114.297760687934
 30
0.0
 10
100.5540690104167
 20
115.2548082139757
 30
0.0
 10
100.9988308376736
 20
115.4570353190104
 30
0.0
  0
SPLINE
  5
38
330
A
100
AcDbEntity
  8
LAYER_1
 62
     7
100
AcDbSpline
210
0.0
220
0.0
230
1.0
 70
     8
 71
     3
 72
    11
 73
     7
 74
     0
 42
0.0000000001
 43
0.0000000001
 40
0.0
 40
0.0
 40
0.0
 40
0.0
 40
1.0
 40
1.0
 40
1.0
 40
2.0
 40
2.0
 40
2.0
 40
2.0
 10
95.16146104600693
 20
111.3725301106771
 30
0.0
 10
95.52560763888889
 20
111.6150648328993
 30
0.0
 10
96.55017903645833
 20
112.1676581488715
 30
0.0
 10
96.94085286458332
 20
112.3564493815104
 30
0.0
 10
97.33187120225693
 20
112.5452406141493
 30
0.0
 10
98.66650119357638
 20
113.2056654188368
 30
0.0
 10
98.94968804253472
 20
113.3134969075521
 30
0.0
  0
SPLINE
  5
37
330
A
100
AcDbEntity
  8
LAYER_1
 62
     7
100
AcDbSpline
210
0.0
220
0.0
230
1.0
 70
     8
 71
     3
 72
     8
 73
     4
 74
     0
 42
0.0000000001
 43
0.0000000001
 40
0.0
 40
0.0
 40
0.0
 40
0.0
 40
1.0
 40
1.0
 40
1.0
 40
1.0
 10
99.08439127604166
 20
112.2217461480035
 30
0.0
 10
99.38101399739583
 20
112.3698852539062
 30
0.0
 10
100.9581787109375
 20
113.0034383138021
 30
0.0
 10
101.2413655598958
 20
113.1384860568576
 30
0.0
  0
SPLINE
  5
36
330
A
100
AcDbEntity
  8
LAYER_1
 62
     7
100
AcDbSpline
210
0.0
220
0.0
230
1.0
 70
     8
 71
     3
 72
    11
 73
     7
 74
     0
 42
0.0000000001
 43
0.0000000001
 40
0.0
 40
0.0
 40
0.0
 40
0.0
 40
1.0
 40
1.0
 40
1.0
 40
2.0
 40
2.0
 40
2.0
 40
2.0
 10
95.21554904513889
 20
110.1457316080729
 30
0.0
 10
95.4983913845486
 20
110.3207424587674
 30
0.0
 10
96.53639865451387
 20
110.8330281575521
 30
0.0
 10
96.79271375868055
 20
110.9408596462674
 30
0.0
 10
97.04902886284721
 20
111.0486911349826
 30
0.0
 10
98.27548285590277
 20
111.7228963216146
 30
0.0
 10
98.47770996093749
 20
111.8441636827257
 30
0.0
  0
SPLINE
  5
35
330
A
100
AcDbEntity
  8
LAYER_1
 62
     7
100
AcDbSpline
210
0.0
220
0.0
230
1.0
 70
     8
 71
     3
 72
    11
 73
     7
 74
     0
 42
0.0000000001
 43
0.0000000001
 40
0.0
 40
0.0
 40
0.0
 40
0.0
 40
1.0
 40
1.0
 40
1.0
 40
2.0
 40
2.0
 40
2.0
 40
2.0
 10
95.57935112847221
 20
108.9189331054687
 30
0.0
 10
95.98380533854166
 20
109.2961710611979
 30
0.0
 10
96.6983181423611
 20
109.5659220377604
 30
0.0
 10
97.0083767361111
 20
109.7278415256076
 30
0.0
 10
97.3184353298611
 20
109.8894165039062
 30
0.0
 10
99.89329969618055
 20
110.8736802842882
 30
0.0
 10
100.0145670572917
 20
111.021819390191
 30
0.0
  0
SPLINE
  5
34
330
A
100
AcDbEntity
  8
LAYER_1
 62
     7
100
AcDbSpline
210
0.0
220
0.0
230
1.0
 70
     8
 71
     3
 72
    11
 73
     7
 74
     0
 42
0.0000000001
 43
0.0000000001
 40
0.0
 40
0.0
 40
0.0
 40
0.0
 40
1.0
 40
1.0
 40
1.0
 40
2.0
 40
2.0
 40
2.0
 40
2.0
 10
95.1883327907986
 20
107.3955118815104
 30
0.0
 10
95.51217176649304
 20
107.5302151150174
 30
0.0
 10
95.80879448784721
 20
107.7055704752604
 30
0.0
 10
96.24012044270833
 20
107.8674899631076
 30
0.0
 10
96.67144639756944
 20
108.0290649414063
 30
0.0
 10
97.84415690104166
 20
108.5954386393229
 30
0.0
 10
98.14077962239583
 20
108.5547865125868
 30
0.0
  0
SPLINE
  5
33
330
A
100
AcDbEntity
  8
LAYER_1
 62
     7
100
AcDbSpline
210
0.0
220
0.0
230
1.0
 70
     8
 71
     3
 72
    11
 73
     7
 74
     0
 42
0.0000000001
 43
0.0000000001
 40
0.0
 40
0.0
 40
0.0
 40
0.0
 40
1.0
 40
1.0
 40
1.0
 40
2.0
 40
2.0
 40
2.0
 40
2.0
 10
95.1883327907986
 20
103.9039076063368
 30
0.0
 10
95.62000325520833
 20
104.3083618164063
 30
0.0
 10
96.37482367621527
 20
104.9419148763021
 30
0.0
 10
96.72518988715277
 20
105.2385375976563
 30
0.0
 10
97.07590060763889
 20
105.5351603190104
 30
0.0
 10
98.53179796006944
 20
106.8157023111979
 30
0.0
 10
98.73402506510416
 20
107.0448011610243
 30
0.0
  0
SPLINE
  5
32
330
A
100
AcDbEntity
  8
LAYER_1
 62
     7
100
AcDbSpline
210
0.0
220
0.0
230
1.0
 70
     8
 71
     3
 72
    11
 73
     7
 74
     0
 42
0.0000000001
 43
0.0000000001
 40
0.0
 40
0.0
 40
0.0
 40
0.0
 40
1.0
 40
1.0
 40
1.0
 40
2.0
 40
2.0
 40
2.0
 40
2.0
 10
95.17489691840277
 20
102.340178765191
 30
0.0
 10
95.41777615017361
 20
102.5020982530382
 30
0.0
 10
96.44234754774304
 20
103.270354546441
 30
0.0
 10
96.77927788628472
 20
103.580413140191
 30
0.0
 10
97.11620822482638
 20
103.890471733941
 30
0.0
 10
98.77433268229166
 20
105.2788452148437
 30
0.0
 10
98.92281629774304
 20
105.4542005750868
 30
0.0
  0
SPLINE
  5
31
330
A
100
AcDbEntity
  8
LAYER_1
 62
     7
100
AcDbSpline
210
0.0
220
0.0
230
1.0
 70
     8
 71
     3
 72
     8
 73
     4
 74
     0
 42
0.0000000001
 43
0.0000000001
 40
0.0
 40
0.0
 40
0.0
 40
0.0
 40
1.0
 40
1.0
 40
1.0
 40
1.0
 10
99.16535101996527
 20
104.1602227105035
 30
0.0
 10
99.38101399739583
 20
104.3217976888021
 30
0.0
 10
99.62389322916665
 20
104.4027574327257
 30
0.0
 10
99.89329969618055
 20
104.6993801540799
 30
0.0
  0
SPLINE
  5
30
330
A
100
AcDbEntity
  8
LAYER_1
 62
     7
100
AcDbSpline
210
0.0
220
0.0
230
1.0
 70
     8
 71
     3
 72
    11
 73
     7
 74
     0
 42
0.0000000001
 43
0.0000000001
 40
0.0
 40
0.0
 40
0.0
 40
0.0
 40
1.0
 40
1.0
 40
1.0
 40
2.0
 40
2.0
 40
2.0
 40
2.0
 10
95.1480251736111
 20
100.9786770290799
 30
0.0
 10
95.47151963975693
 20
101.2212117513021
 30
0.0
 10
96.28042805989583
 20
101.8144571940104
 30
0.0
 10
96.60392252604166
 20
102.0569919162326
 30
0.0
 10
96.92741699218749
 20
102.2998711480035
 30
0.0
 10
98.16765136718749
 20
103.2166110568576
 30
0.0
 10
98.27548285590277
 20
103.3513142903646
 30
0.0
  0
SPLINE
  5
2F
330
A
100
AcDbEntity
  8
LAYER_1
 62
     7
100
AcDbSpline
210
0.0
220
0.0
230
1.0
 70
     8
 71
     3
 72
    11
 73
     7
 74
     0
 42
0.0000000001
 43
0.0000000001
 40
0.0
 40
0.0
 40
0.0
 40
0.0
 40
1.0
 40
1.0
 40
1.0
 40
2.0
 40
2.0
 40
2.0
 40
2.0
 10
95.20211317274304
 20
96.3140177408854
 30
0.0
 10
95.55247938368055
 20
96.66472846137152
 30
0.0
 10
96.28042805989583
 20
97.15014241536457
 30
0.0
 10
96.87367350260416
 20
97.36546088324651
 30
0.0
 10
97.46691894531249
 20
97.58146837022568
 30
0.0
 10
99.05751953124999
 20
98.55195176866319
 30
0.0
 10
99.27318250868055
 20
98.74074300130208
 30
0.0
  0
SPLINE
  5
2E
330
A
100
AcDbEntity
  8
LAYER_1
 62
     7
100
AcDbSpline
210
0.0
220
0.0
230
1.0
 70
     8
 71
     3
 72
    11
 73
     7
 74
     0
 42
0.0000000001
 43
0.0000000001
 40
0.0
 40
0.0
 40
0.0
 40
0.0
 40
1.0
 40
1.0
 40
1.0
 40
2.0
 40
2.0
 40
2.0
 40
2.0
 10
95.20211317274304
 20
97.68929985894097
 30
0.0
 10
95.44464789496527
 20
97.82400309244791
 30
0.0
 10
96.57705078124999
 20
98.41724853515625
 30
0.0
 10
97.06246473524304
 20
98.76761474609374
 30
0.0
 10
97.54753417968749
 20
99.11832546657985
 30
0.0
 10
100.243665907118
 20
100.4663913302951
 30
0.0
 10
100.7562961154514
 20
100.7630140516493
 30
0.0
  0
SPLINE
  5
2D
330
A
100
AcDbEntity
  8
LAYER_1
 62
     7
100
AcDbSpline
210
0.0
220
0.0
230
1.0
 70
     8
 71
     3
 72
     8
 73
     4
 74
     0
 42
0.0000000001
 43
0.0000000001
 40
0.0
 40
0.0
 40
0.0
 40
0.0
 40
1.0
 40
1.0
 40
1.0
 40
1.0
 10
95.20211317274304
 20
98.3631605360243
 30
0.0
 10
95.79501410590277
 20
99.27990044487846
 30
0.0
 10
97.68258192274304
 20
100.2776000976563
 30
0.0
 10
98.65306532118055
 20
100.8977172851563
 30
0.0
  0
SPLINE
  5
2C
330
A
100
AcDbEntity
  8
LAYER_1
 62
     7
100
AcDbSpline
210
0.0
220
0.0
230
1.0
 70
     8
 71
     3
 72
    11
 73
     7
 74
     0
 42
0.0000000001
 43
0.0000000001
 40
0.0
 40
0.0
 40
0.0
 40
0.0
 40
1.0
 40
1.0
 40
1.0
 40
2.0
 40
2.0
 40
2.0
 40
2.0
 10
95.68718261718749
 20
89.03453097873263
 30
0.0
 10
95.82223036024304
 20
89.08827446831596
 30
0.0
 10
96.68488226996527
 20
89.81656765407985
 30
0.0
 10
97.19716796874999
 20
90.22067735460068
 30
0.0
 10
97.70945366753472
 20
90.62513156467013
 30
0.0
 10
98.54523383246527
 20
91.2724650065104
 30
0.0
 10
98.78776855468749
 20
91.5418714735243
 30
0.0
  0
SPLINE
  5
2B
330
A
100
AcDbEntity
  8
LAYER_1
 62
     7
100
AcDbSpline
210
0.0
220
0.0
230
1.0
 70
     8
 71
     3
 72
    14
 73
    10
 74
     0
 42
0.0000000001
 43
0.0000000001
 40
0.0
 40
0.0
 40
0.0
 40
0.0
 40
1.0
 40
1.0
 40
1.0
 40
2.0
 40
2.0
 40
2.0
 40
3.0
 40
3.0
 40
3.0
 40
3.0
 10
95.66031087239583
 20
90.27476535373263
 30
0.0
 10
95.87597384982638
 20
90.46355658637152
 30
0.0
 10
96.81958550347221
 20
91.62283121744791
 30
0.0
 10
97.27812771267361
 20
91.86536593967013
 30
0.0
 10
97.73632541232638
 20
92.10824517144097
 30
0.0
 10
98.59932183159721
 20
92.83619384765625
 30
0.0
 10
98.92281629774304
 20
93.1328165690104
 30
0.0
 10
99.24631076388889
 20
93.42909478081596
 30
0.0
 10
99.75859646267361
 20
93.77980550130208
 30
0.0
 10
99.94704318576387
 20
93.99546847873263
 30
0.0
  0
SPLINE
  5
2A
330
A
100
AcDbEntity
  8
LAYER_1
 62
     7
100
AcDbSpline
210
0.0
220
0.0
230
1.0
 70
     8
 71
     3
 72
    11
 73
     7
 74
     0
 42
0.0000000001
 43
0.0000000001
 40
0.0
 40
0.0
 40
0.0
 40
0.0
 40
1.0
 40
1.0
 40
1.0
 40
2.0
 40
2.0
 40
2.0
 40
2.0
 10
95.22898491753472
 20
91.40716824001736
 30
0.0
 10
95.44464789496527
 20
91.67657470703124
 30
0.0
 10
96.81958550347221
 20
92.97089708116319
 30
0.0
 10
97.25091145833332
 20
93.4022230360243
 30
0.0
 10
97.68258192274304
 20
93.8335489908854
 30
0.0
 10
98.14077962239583
 20
94.31896294487846
 30
0.0
 10
98.30269911024304
 20
94.39992268880208
 30
0.0
  0
SPLINE
  5
29
330
A
100
AcDbEntity
  8
LAYER_1
 62
     7
100
AcDbSpline
210
0.0
220
0.0
230
1.0
 70
     8
 71
     3
 72
    11
 73
     7
 74
     0
 42
0.0000000001
 43
0.0000000001
 40
0.0
 40
0.0
 40
0.0
 40
0.0
 40
1.0
 40
1.0
 40
1.0
 40
2.0
 40
2.0
 40
2.0
 40
2.0
 10
95.22898491753472
 20
95.04691162109374
 30
0.0
 10
95.68718261718749
 20
95.23570285373263
 30
0.0
 10
96.25355631510416
 20
95.45136583116319
 30
0.0
 10
96.65801052517361
 20
95.6939005533854
 30
0.0
 10
97.06246473524304
 20
95.93677978515625
 30
0.0
 10
97.70945366753472
 20
96.2334025065104
 30
0.0
 10
97.84415690104166
 20
96.34123399522568
 30
0.0
  0
LINE
  5
28
330
A
100
AcDbEntity
  8
LAYER_1
 62
     7
100
AcDbLine
 10
91.53515353732638
 20
52.44727240668402
 30
0.0
 11
95.20211317274304
 21
50.6947523328993
 31
0.0
  0
SPLINE
  5
27
330
A
100
AcDbEntity
  8
LAYER_1
 62
     7
100
AcDbSpline
210
0.0
220
0.0
230
1.0
 70
     8
 71
     3
 72
    11
 73
     7
 74
     0
 42
0.0000000001
 43
0.0000000001
 40
0.0
 40
0.0
 40
0.0
 40
0.0
 40
1.0
 40
1.0
 40
1.0
 40
2.0
 40
2.0
 40
2.0
 40
2.0
 10
87.36193712022569
 20
62.43701578776041
 30
0.0
 10
87.20708007812499
 20
62.26045464409722
 30
0.0
 10
86.99210611979166
 20
62.4523464626736
 30
0.0
 10
86.99210611979166
 20
63.02991672092013
 30
0.0
 10
86.99210611979166
 20
63.60283610026041
 30
0.0
 10
87.19743381076388
 20
63.84950493706597
 30
0.0
 10
87.35142957899305
 20
63.7235866970486
 30
0.0
  0
SPLINE
  5
26
330
A
100
AcDbEntity
  8
LAYER_1
 62
     7
100
AcDbSpline
210
0.0
220
0.0
230
1.0
 70
    11
 71
     3
 72
    11
 73
     7
 74
     0
 42
0.0000000001
 43
0.0000000001
 40
0.0
 40
0.0
 40
0.0
 40
0.0
 40
1.0
 40
1.0
 40
1.0
 40
2.0
 40
2.0
 40
2.0
 40
2.0
 10
87.81445041232638
 20
63.07022433810764
 30
0.0
 10
87.81445041232638
 20
62.15348442925347
 30
0.0
 10
87.28872884114583
 20
62.11317681206597
 30
0.0
 10
87.28872884114583
 20
63.01613633897569
 30
0.0
 10
87.28872884114583
 20
63.93287624782985
 30
0.0
 10
87.81445041232638
 20
64.0148695203993
 30
0.0
 10
87.81445041232638
 20
63.07022433810764
 30
0.0
  0
SPLINE
  5
25
330
A
100
AcDbEntity
  8
LAYER_1
 62
     7
100
AcDbSpline
210
0.0
220
0.0
230
1.0
 70
     8
 71
     3
 72
    11
 73
     7
 74
     0
 42
0.0000000001
 43
0.0000000001
 40
0.0
 40
0.0
 40
0.0
 40
0.0
 40
1.0
 40
1.0
 40
1.0
 40
2.0
 40
2.0
 40
2.0
 40
2.0
 10
80.74718153211805
 20
66.49826660156249
 30
0.0
 10
80.59301350911457
 20
66.33927544487847
 30
0.0
 10
80.38648003472221
 20
66.53461235894096
 30
0.0
 10
80.38648003472221
 20
67.10098605685764
 30
0.0
 10
80.38648003472221
 20
67.67390543619791
 30
0.0
 10
80.59180772569444
 20
67.92074652777777
 30
0.0
 10
80.7458034939236
 20
67.79465603298611
 30
0.0
  0
SPLINE
  5
24
330
A
100
AcDbEntity
  8
LAYER_1
 62
     7
100
AcDbSpline
210
0.0
220
0.0
230
1.0
 70
    11
 71
     3
 72
    11
 73
     7
 74
     0
 42
0.0000000001
 43
0.0000000001
 40
0.0
 40
0.0
 40
0.0
 40
0.0
 40
1.0
 40
1.0
 40
1.0
 40
2.0
 40
2.0
 40
2.0
 40
2.0
 10
81.20882432725693
 20
67.14163818359374
 30
0.0
 10
81.20882432725693
 20
66.22489827473957
 30
0.0
 10
80.68310275607638
 20
66.18424614800347
 30
0.0
 10
80.68310275607638
 20
67.0875501844618
 30
0.0
 10
80.68310275607638
 20
68.00429009331597
 30
0.0
 10
81.20882432725693
 20
68.0859388563368
 30
0.0
 10
81.20882432725693
 20
67.14163818359374
 30
0.0
  0
SPLINE
  5
23
330
A
100
AcDbEntity
  8
LAYER_1
 62
     7
100
AcDbSpline
210
0.0
220
0.0
230
1.0
 70
     8
 71
     3
 72
    11
 73
     7
 74
     0
 42
0.0000000001
 43
0.0000000001
 40
0.0
 40
0.0
 40
0.0
 40
0.0
 40
1.0
 40
1.0
 40
1.0
 40
2.0
 40
2.0
 40
2.0
 40
2.0
 10
80.84398871527777
 20
72.9445570203993
 30
0.0
 10
80.68878716362846
 20
72.69495985243054
 30
0.0
 10
80.44022352430555
 20
72.86979844835069
 30
0.0
 10
80.44022352430555
 20
73.49094916449653
 30
0.0
 10
80.44022352430555
 20
74.0638685438368
 30
0.0
 10
80.64555121527778
 20
74.31070963541666
 30
0.0
 10
80.79954698350694
 20
74.18461914062499
 30
0.0
  0
SPLINE
  5
22
330
A
100
AcDbEntity
  8
LAYER_1
 62
     7
100
AcDbSpline
210
0.0
220
0.0
230
1.0
 70
    11
 71
     3
 72
    11
 73
     7
 74
     0
 42
0.0000000001
 43
0.0000000001
 40
0.0
 40
0.0
 40
0.0
 40
0.0
 40
1.0
 40
1.0
 40
1.0
 40
2.0
 40
2.0
 40
2.0
 40
2.0
 10
81.26256781684027
 20
73.53125678168402
 30
0.0
 10
81.26256781684027
 20
72.61486138237846
 30
0.0
 10
80.73684624565972
 20
72.57420925564236
 30
0.0
 10
80.73684624565972
 20
73.47751329210068
 30
0.0
 10
80.73684624565972
 20
74.39425320095485
 30
0.0
 10
81.26256781684027
 20
74.47590196397569
 30
0.0
 10
81.26256781684027
 20
73.53125678168402
 30
0.0
  0
ENDSEC
  0
SECTION
  2
OBJECTS
  0
DICTIONARY
  5
19
330
0
100
AcDbDictionary
281
     1
  3
ACAD_COLOR
350
14C
  3
ACAD_GROUP
350
1A
  3
ACAD_LAYOUT
350
119
  3
ACAD_MATERIAL
350
14E
  3
ACAD_MLINESTYLE
350
1B
  3
ACAD_PLOTSETTINGS
350
11A
  3
ACAD_PLOTSTYLENAME
350
117
  3
ACDBHEADERROUNDTRIPXREC
350
14B
  0
DICTIONARY
  5
14C
102
{ACAD_REACTORS
330
19
102
}
330
19
100
AcDbDictionary
281
     1
  0
DICTIONARY
  5
1A
102
{ACAD_REACTORS
330
19
102
}
330
19
100
AcDbDictionary
281
     1
  0
DICTIONARY
  5
119
102
{ACAD_REACTORS
330
19
102
}
330
19
100
AcDbDictionary
281
     1
  3
Layout1
350
11C
  3
Model
350
11B
  0
DICTIONARY
  5
14E
102
{ACAD_REACTORS
330
19
102
}
330
19
100
AcDbDictionary
281
     1
  0
DICTIONARY
  5
1B
102
{ACAD_REACTORS
330
19
102
}
330
19
100
AcDbDictionary
281
     1
  3
STANDARD
350
1C
  0
DICTIONARY
  5
11A
102
{ACAD_REACTORS
330
19
102
}
330
19
100
AcDbDictionary
281
     1
  0
ACDBDICTIONARYWDFLT
  5
117
102
{ACAD_REACTORS
330
19
102
}
330
19
100
AcDbDictionary
281
     1
  3
Normal
350
118
100
AcDbDictionaryWithDefault
340
118
  0
DICTIONARY
  5
14B
102
{ACAD_REACTORS
330
19
102
}
330
19
100
AcDbDictionary
281
     1
  3
COLORDICT
350
14D
  3
MATERIALDICT
350
14F
  0
LAYOUT
  5
11C
102
{ACAD_REACTORS
330
119
102
}
102
{ACAD_XDICTIONARY
360
150
102
}
330
119
100
AcDbPlotSettings
  1

  2
Support Center HP LaserJet 4
  4

  6

 40
0.0
 41
0.0
 42
0.0
 43
0.0
 44
0.0
 45
0.0
 46
0.0
 47
0.0
 48
0.0
 49
0.0
140
0.0
141
0.0
142
1.0
143
1.0
 70
   688
 72
     0
 73
     0
 74
     5
  7

 75
    16
147
1.0
148
0.0
149
0.0
100
AcDbLayout
  1
Layout1
 70
     0
 71
     1
 10
0.0
 20
0.0
 11
12.0
 21
9.0
 12
0.0
 22
0.0
 32
0.0
 14
1.000000000000000E+20
 24
1.000000000000000E+20
 34
1.000000000000000E+20
 15
-1.000000000000000E+20
 25
-1.000000000000000E+20
 35
-1.000000000000000E+20
146
0.0
 13
0.0
 23
0.0
 33
0.0
 16
1.0
 26
0.0
 36
0.0
 17
0.0
 27
1.0
 37
0.0
 76
     0
330
B
  0
LAYOUT
  5
11B
102
{ACAD_REACTORS
330
119
102
}
102
{ACAD_XDICTIONARY
360
152
102
}
330
119
100
AcDbPlotSettings
  1

  2
Support Center HP LaserJet 4
  4

  6

 40
0.0
 41
0.0
 42
0.0
 43
0.0
 44
0.0
 45
0.0
 46
0.0
 47
0.0
 48
0.0
 49
0.0
140
0.0
141
0.0
142
1.0
143
1.0
 70
  1712
 72
     0
 73
     0
 74
     0
  7

 75
     0
147
1.0
148
0.0
149
0.0
100
AcDbLayout
  1
Model
 70
     1
 71
     0
 10
0.0
 20
0.0
 11
12.0
 21
9.0
 12
0.0
 22
0.0
 32
0.0
 14
0.0
 24
0.0
 34
0.0
 15
0.0
 25
0.0
 35
0.0
146
0.0
 13
0.0
 23
0.0
 33
0.0
 16
1.0
 26
0.0
 36
0.0
 17
0.0
 27
1.0
 37
0.0
 76
     0
330
A
  0
MLINESTYLE
  5
1C
102
{ACAD_REACTORS
330
1B
102
}
330
1B
100
AcDbMlineStyle
  2
STANDARD
 70
     0
  3

 62
     0
 51
90.0000000000002
 52
90.0000000000002
 71
     2
 49
0.5
 62
   256
  6
BYLAYER
 49
-0.5
 62
   256
  6
BYLAYER
  0
ACDBPLACEHOLDER
  5
118
102
{ACAD_REACTORS
330
117
102
}
330
117
  0
XRECORD
  5
14D
102
{ACAD_REACTORS
330
14B
102
}
330
14B
100
AcDbXrecord
340
14C
  0
XRECORD
  5
14F
102
{ACAD_REACTORS
330
14B
102
}
330
14B
100
AcDbXrecord
340
14E
  0
DICTIONARY
  5
150
330
11C
100
AcDbDictionary
280
     1
281
     1
  3
ACAD_XREC_ROUNDTRIP
360
151
  0
DICTIONARY
  5
152
330
11B
100
AcDbDictionary
280
     1
281
     1
  3
ACAD_XREC_ROUNDTRIP
360
153
  0
XRECORD
  5
151
102
{ACAD_REACTORS
330
150
102
}
330
150
100
AcDbXrecord
102
SHADEPLOT
 70
     0
102
SHADEPLOTRESLEVEL
 70
     0
102
SHADEPLOTCUSTOMDPI
 70
     0
  0
XRECORD
  5
153
102
{ACAD_REACTORS
330
152
102
}
330
152
100
AcDbXrecord
102
SHADEPLOT
 70
 31552
102
SHADEPLOTRESLEVEL
 70
 30752
102
SHADEPLOTCUSTOMDPI
 70
 31608
  0
ENDSEC
  0
EOF
