  0
SECTION
  2
HEADER
  9
$ACADVER
  1
AC1015
  9
$ACADMAINTVER
 70
     6
  9
$DWGCODEPAGE
  3
ASCII
  9
$INSBASE
 10
0.0
 20
0.0
 30
0.0
  9
$EXTMIN
 10
0.8989159999999999
 20
1.151707333333334
 30
0.0
  9
$EXTMAX
 10
10.67754219047618
 20
6.800471000000001
 30
0.0
  9
$LIMMIN
 10
0.0
 20
0.0
  9
$LIMMAX
 10
8.5
 20
11.0
  9
$ORTHOMODE
 70
     0
  9
$REGENMODE
 70
     0
  9
$FILLMODE
 70
     1
  9
$QTEXTMODE
 70
     0
  9
$MIRRTEXT
 70
     1
  9
$LTSCALE
 40
0.25
  9
$ATTMODE
 70
     1
  9
$TEXTSIZE
 40
0.18
  9
$TRACEWID
 40
0.05
  9
$TEXTSTYLE
  7
STANDARD
  9
$CLAYER
  8
0
  9
$CELTYPE
  6
ByLayer
  9
$CECOLOR
 62
   256
  9
$CELTSCALE
 40
1.0
  9
$DISPSILH
 70
     0
  9
$DIMSCALE
 40
1.0
  9
$DIMASZ
 40
0.125
  9
$DIMEXO
 40
0.0625
  9
$DIMDLI
 40
0.38
  9
$DIMRND
 40
0.0
  9
$DIMDLE
 40
0.0
  9
$DIMEXE
 40
0.075
  9
$DIMTP
 40
0.0
  9
$DIMTM
 40
0.0
  9
$DIMTXT
 40
0.1
  9
$DIMCEN
 40
0.09
  9
$DIMTSZ
 40
0.0
  9
$DIMTOL
 70
     0
  9
$DIMLIM
 70
     0
  9
$DIMTIH
 70
     0
  9
$DIMTOH
 70
     0
  9
$DIMSE1
 70
     0
  9
$DIMSE2
 70
     0
  9
$DIMTAD
 70
     1
  9
$DIMZIN
 70
     0
  9
$DIMBLK
  1

  9
$DIMASO
 70
     0
  9
$DIMSHO
 70
     1
  9
$DIMPOST
  1

  9
$DIMAPOST
  1

  9
$DIMALT
 70
     0
  9
$DIMALTD
 70
     2
  9
$DIMALTF
 40
25.4
  9
$DIMLFAC
 40
1.0
  9
$DIMTOFL
 70
     0
  9
$DIMTVP
 40
0.0
  9
$DIMTIX
 70
     0
  9
$DIMSOXD
 70
     0
  9
$DIMSAH
 70
     0
  9
$DIMBLK1
  1

  9
$DIMBLK2
  1

  9
$DIMSTYLE
  2
Standard
  9
$DIMCLRD
 70
     0
  9
$DIMCLRE
 70
     0
  9
$DIMCLRT
 70
     0
  9
$DIMTFAC
 40
1.0
  9
$DIMGAP
 40
0.09
  9
$DIMJUST
 70
     0
  9
$DIMSD1
 70
     0
  9
$DIMSD2
 70
     0
  9
$DIMTOLJ
 70
     1
  9
$DIMTZIN
 70
     0
  9
$DIMALTZ
 70
     0
  9
$DIMALTTZ
 70
     0
  9
$DIMUPT
 70
     0
  9
$DIMDEC
 70
     4
  9
$DIMTDEC
 70
     4
  9
$DIMALTU
 70
     2
  9
$DIMALTTD
 70
     2
  9
$DIMTXSTY
  7
STANDARD
  9
$DIMAUNIT
 70
     0
  9
$DIMADEC
 70
     0
  9
$DIMALTRND
 40
0.0
  9
$DIMAZIN
 70
     0
  9
$DIMDSEP
 70
    46
  9
$DIMATFIT
 70
     3
  9
$DIMFRAC
 70
     0
  9
$DIMLDRBLK
  1

  9
$DIMLUNIT
 70
     2
  9
$DIMLWD
 70
    -2
  9
$DIMLWE
 70
    -2
  9
$DIMTMOVE
 70
     0
  9
$LUNITS
 70
     2
  9
$LUPREC
 70
     4
  9
$SKETCHINC
 40
0.1
  9
$FILLETRAD
 40
0.03
  9
$AUNITS
 70
     0
  9
$AUPREC
 70
     0
  9
$MENU
  1
acad
  9
$ELEVATION
 40
0.0
  9
$PELEVATION
 40
0.0
  9
$THICKNESS
 40
0.0
  9
$LIMCHECK
 70
     0
  9
$CHAMFERA
 40
0.0
  9
$CHAMFERB
 40
0.0
  9
$CHAMFERC
 40
1.0
  9
$CHAMFERD
 40
0.0
  9
$SKPOLY
 70
     0
  9
$TDCREATE
 40
2453955.56182956
  9
$TDUCREATE
 40
2453955.895162894
  9
$TDUPDATE
 40
2453955.603496239
  9
$TDUUPDATE
 40
2453955.895162905
  9
$TDINDWG
 40
0.0000000116
  9
$TDUSRTIMER
 40
0.0000000116
  9
$USRTIMER
 70
     1
  9
$ANGBASE
 50
0.0
  9
$ANGDIR
 70
     0
  9
$PDMODE
 70
     0
  9
$PDSIZE
 40
0.0
  9
$PLINEWID
 40
0.0
  9
$SPLFRAME
 70
     0
  9
$SPLINETYPE
 70
     6
  9
$SPLINESEGS
 70
     8
  9
$HANDSEED
  5
724
  9
$SURFTAB1
 70
     6
  9
$SURFTAB2
 70
     6
  9
$SURFTYPE
 70
     6
  9
$SURFU
 70
     6
  9
$SURFV
 70
     6
  9
$UCSBASE
  2

  9
$UCSNAME
  2

  9
$UCSORG
 10
0.0
 20
0.0
 30
0.0
  9
$UCSXDIR
 10
1.0
 20
0.0
 30
0.0
  9
$UCSYDIR
 10
0.0
 20
1.0
 30
0.0
  9
$UCSORTHOREF
  2

  9
$UCSORTHOVIEW
 70
     0
  9
$UCSORGTOP
 10
0.0
 20
0.0
 30
0.0
  9
$UCSORGBOTTOM
 10
0.0
 20
0.0
 30
0.0
  9
$UCSORGLEFT
 10
0.0
 20
0.0
 30
0.0
  9
$UCSORGRIGHT
 10
0.0
 20
0.0
 30
0.0
  9
$UCSORGFRONT
 10
0.0
 20
0.0
 30
0.0
  9
$UCSORGBACK
 10
0.0
 20
0.0
 30
0.0
  9
$PUCSBASE
  2

  9
$PUCSNAME
  2

  9
$PUCSORG
 10
0.0
 20
0.0
 30
0.0
  9
$PUCSXDIR
 10
1.0
 20
0.0
 30
0.0
  9
$PUCSYDIR
 10
0.0
 20
1.0
 30
0.0
  9
$PUCSORTHOREF
  2

  9
$PUCSORTHOVIEW
 70
     0
  9
$PUCSORGTOP
 10
0.0
 20
0.0
 30
0.0
  9
$PUCSORGBOTTOM
 10
0.0
 20
0.0
 30
0.0
  9
$PUCSORGLEFT
 10
0.0
 20
0.0
 30
0.0
  9
$PUCSORGRIGHT
 10
0.0
 20
0.0
 30
0.0
  9
$PUCSORGFRONT
 10
0.0
 20
0.0
 30
0.0
  9
$PUCSORGBACK
 10
0.0
 20
0.0
 30
0.0
  9
$USERI1
 70
     0
  9
$USERI2
 70
     0
  9
$USERI3
 70
     0
  9
$USERI4
 70
     0
  9
$USERI5
 70
     0
  9
$USERR1
 40
0.0
  9
$USERR2
 40
0.0
  9
$USERR3
 40
0.0
  9
$USERR4
 40
0.0
  9
$USERR5
 40
0.0
  9
$WORLDVIEW
 70
     1
  9
$SHADEDGE
 70
     3
  9
$SHADEDIF
 70
    70
  9
$TILEMODE
 70
     1
  9
$MAXACTVP
 70
    16
  9
$PINSBASE
 10
0.0
 20
0.0
 30
0.0
  9
$PLIMCHECK
 70
     0
  9
$PEXTMIN
 10
1.000000000000000E+20
 20
1.000000000000000E+20
 30
1.000000000000000E+20
  9
$PEXTMAX
 10
-1.000000000000000E+20
 20
-1.000000000000000E+20
 30
-1.000000000000000E+20
  9
$PLIMMIN
 10
0.0
 20
0.0
  9
$PLIMMAX
 10
12.0
 20
9.0
  9
$UNITMODE
 70
     0
  9
$VISRETAIN
 70
     0
  9
$PLINEGEN
 70
     0
  9
$PSLTSCALE
 70
     1
  9
$TREEDEPTH
 70
  3020
  9
$CMLSTYLE
  2
Standard
  9
$CMLJUST
 70
     0
  9
$CMLSCALE
 40
1.0
  9
$PROXYGRAPHICS
 70
     1
  9
$MEASUREMENT
 70
     0
  9
$CELWEIGHT
370
    -1
  9
$ENDCAPS
280
     0
  9
$JOINSTYLE
280
     0
  9
$LWDISPLAY
290
     0
  9
$INSUNITS
 70
     1
  9
$HYPERLINKBASE
  1

  9
$STYLESHEET
  1

  9
$XEDIT
290
     1
  9
$CEPSNTYPE
380
     0
  9
$PSTYLEMODE
290
     0
  9
$FINGERPRINTGUID
  2
{FAEB1C30-E019-11D5-929B-00C0DF256EC4}
  9
$VERSIONGUID
  2
{FAEB1C32-E019-11D5-929B-00C0DF256EC4}
  9
$EXTNAMES
290
     1
  9
$PSVPSCALE
 40
0.0
  9
$OLESTARTUP
290
     0
  0
ENDSEC
  0
SECTION
  2
CLASSES
  0
CLASS
  1
ACDBDICTIONARYWDFLT
  2
AcDbDictionaryWithDefault
  3
AutoCAD 2000
 90
        0
280
     0
281
     0
  0
CLASS
  1
ACDBPLACEHOLDER
  2
AcDbPlaceHolder
  3
ObjectDBX Classes
 90
        0
280
     0
281
     0
  0
CLASS
  1
LAYOUT
  2
AcDbLayout
  3
ObjectDBX Classes
 90
        0
280
     0
281
     0
  0
ENDSEC
  0
SECTION
  2
TABLES
  0
TABLE
  2
VPORT
  5
8
330
0
100
AcDbSymbolTable
 70
     2
  0
VPORT
  5
1F
330
8
100
AcDbSymbolTableRecord
100
AcDbViewportTableRecord
  2
*ACTIVE
 70
     0
 10
0.0
 20
0.0
 11
1.0
 21
1.0
 12
7.212393215082802
 22
3.657398765962471
 13
0.0
 23
0.0
 14
1.0
 24
1.0
 15
0.0
 25
0.0
 16
0.0
 26
0.0
 36
1.0
 17
0.0
 27
0.0
 37
0.0
 40
7.388150624012699
 41
0.688367129135539
 42
50.0
 43
0.0
 44
0.0
 50
0.0
 51
0.0
 71
     0
 72
  2000
 73
     1
 74
     0
 75
     0
 76
     0
 77
     0
 78
     0
281
     0
 65
     1
110
0.0
120
0.0
130
0.0
111
1.0
121
0.0
131
0.0
112
0.0
122
1.0
132
0.0
 79
     0
146
0.0
  0
ENDTAB
  0
TABLE
  2
LTYPE
  5
5
330
0
100
AcDbSymbolTable
 70
     2
  0
LTYPE
  5
10
330
5
100
AcDbSymbolTableRecord
100
AcDbLinetypeTableRecord
  2
ByBlock
 70
     0
  3

 72
    65
 73
     0
 40
0.0
  0
LTYPE
  5
11
330
5
100
AcDbSymbolTableRecord
100
AcDbLinetypeTableRecord
  2
ByLayer
 70
     0
  3

 72
    65
 73
     0
 40
0.0
  0
LTYPE
  5
1B
330
5
100
AcDbSymbolTableRecord
100
AcDbLinetypeTableRecord
  2
CONTINUOUS
 70
     0
  3
Solid line
 72
    65
 73
     0
 40
0.0
  0
LTYPE
  5
1C
330
5
100
AcDbSymbolTableRecord
100
AcDbLinetypeTableRecord
  2
HIDDEN
 70
     0
  3
__ __ __ __ __ __ __ __ __ __ __ __ __ __ __ __
 72
    65
 73
     2
 40
0.375
 49
0.25
 74
     0
 49
-0.125
 74
     0
  0
ENDTAB
  0
TABLE
  2
LAYER
  5
2
330
0
100
AcDbSymbolTable
 70
     1
  0
LAYER
  5
1D
330
2
100
AcDbSymbolTableRecord
100
AcDbLayerTableRecord
  2
0
 70
     0
 62
     7
  6
CONTINUOUS
370
    -3
390
F
  0
ENDTAB
  0
TABLE
  2
STYLE
  5
3
330
0
100
AcDbSymbolTable
 70
     1
  0
STYLE
  5
22
330
3
100
AcDbSymbolTableRecord
100
AcDbTextStyleTableRecord
  2
STANDARD
 70
     0
 40
0.0
 41
1.0
 50
0.0
 71
     0
 42
0.18
  3
ROMANS.SHX
  4

  0
ENDTAB
  0
TABLE
  2
VIEW
  5
6
330
0
100
AcDbSymbolTable
 70
     1
  0
VIEW
  5
21
330
6
100
AcDbSymbolTableRecord
100
AcDbViewTableRecord
  2
1
 70
     0
 40
11.0
 10
7.225941000000001
 20
5.5
 41
14.451883
 11
0.0
 21
0.0
 31
1.0
 12
0.0
 22
0.0
 32
0.0
 42
50.0
 43
0.0
 44
0.0
 50
0.0
 71
     0
281
     0
 72
     0
  0
ENDTAB
  0
TABLE
  2
UCS
  5
7
330
0
100
AcDbSymbolTable
 70
     0
  0
ENDTAB
  0
TABLE
  2
APPID
  5
9
330
0
100
AcDbSymbolTable
 70
     1
  0
APPID
  5
20
330
9
100
AcDbSymbolTableRecord
100
AcDbRegAppTableRecord
  2
ACAD
 70
     0
  0
ENDTAB
  0
TABLE
  2
DIMSTYLE
  5
A
330
0
100
AcDbSymbolTable
 70
     1
100
AcDbDimStyleTable
  0
DIMSTYLE
105
23
330
A
100
AcDbSymbolTableRecord
100
AcDbDimStyleTableRecord
  2
Standard
 70
     0
  3

  4

340
22
  0
ENDTAB
  0
TABLE
  2
BLOCK_RECORD
  5
1
330
0
100
AcDbSymbolTable
 70
     0
  0
BLOCK_RECORD
  5
18
330
1
100
AcDbSymbolTableRecord
100
AcDbBlockTableRecord
  2
*Model_Space
340
19
  0
BLOCK_RECORD
  5
16
330
1
100
AcDbSymbolTableRecord
100
AcDbBlockTableRecord
  2
*Paper_Space
340
17
  0
ENDTAB
  0
ENDSEC
  0
SECTION
  2
BLOCKS
  0
BLOCK
  5
719
330
18
100
AcDbEntity
  8
0
100
AcDbBlockBegin
  2
*Model_Space
 70
     0
 10
0.0
 20
0.0
 30
0.0
  3
*Model_Space
  1

  4

  0
ENDBLK
  5
71A
330
18
100
AcDbEntity
  8
0
100
AcDbBlockEnd
  0
BLOCK
  5
717
330
16
100
AcDbEntity
 67
     1
  8
0
100
AcDbBlockBegin
  2
*Paper_Space
 70
     0
 10
0.0
 20
0.0
 30
0.0
  3
*Paper_Space
  1

  4

  0
ENDBLK
  5
718
330
16
100
AcDbEntity
 67
     1
  8
0
100
AcDbBlockEnd
  0
ENDSEC
  0
SECTION
  2
ENTITIES
  0
LINE
  5
24
330
18
100
AcDbEntity
  8
0
100
AcDbLine
 10
2.680665641073954
 20
2.067908220705677
 30
0.0
 11
9.792682367211796
 21
4.356188157660539
 31
0.0
  0
LINE
  5
25
330
18
100
AcDbEntity
  8
0
100
AcDbLine
 10
2.25556220022747
 20
3.744305614605108
 30
0.0
 11
2.98010420022747
 21
3.934950614605108
 31
0.0
  0
LINE
  5
26
330
18
100
AcDbEntity
  8
0
100
AcDbLine
 10
2.90403420022747
 20
2.767189614605108
 30
0.0
 11
3.00438920022747
 21
2.791621614605108
 31
0.0
  0
LINE
  5
27
330
18
100
AcDbEntity
  8
0
100
AcDbLine
 10
3.26897920022747
 20
2.856040614605108
 30
0.0
 11
3.19461620022747
 21
2.837935614605108
 31
0.0
  0
LINE
  5
28
330
18
100
AcDbEntity
  8
0
100
AcDbLine
 10
3.00438920022747
 20
2.791621614605108
 30
0.0
 11
3.06253120022747
 21
2.737276614605108
 31
0.0
  0
LINE
  5
29
330
18
100
AcDbEntity
  8
0
100
AcDbLine
 10
3.06253120022747
 20
2.737276614605108
 30
0.0
 11
3.16450120022747
 21
2.878986614605108
 31
0.0
  0
LINE
  5
2A
330
18
100
AcDbEntity
  8
0
100
AcDbLine
 10
3.16450120022747
 20
2.878986614605108
 30
0.0
 11
3.19461620022747
 21
2.837935614605108
 31
0.0
  0
LINE
  5
2B
330
18
100
AcDbEntity
  8
0
  6
HIDDEN
100
AcDbLine
 10
3.110958200227469
 20
2.848141614605108
 30
0.0
 11
3.110958200227469
 21
3.613009614605108
 31
0.0
  0
LINE
  5
2C
330
18
100
AcDbEntity
  8
0
  6
HIDDEN
100
AcDbLine
 10
3.04799520022747
 20
2.788530614605108
 30
0.0
 11
3.04799520022747
 21
3.610931614605108
 31
0.0
  0
LINE
  5
2D
330
18
100
AcDbEntity
  8
0
100
AcDbLine
 10
3.28652320022747
 20
3.301138614605108
 30
0.0
 11
3.28652320022747
 21
3.791079614605108
 31
0.0
  0
LINE
  5
2E
330
18
100
AcDbEntity
  8
0
100
AcDbLine
 10
3.28652320022747
 20
3.791079614605108
 30
0.0
 11
3.64881220022747
 21
3.877169614605108
 31
0.0
  0
LINE
  5
2F
330
18
100
AcDbEntity
  8
0
100
AcDbLine
 10
3.64881220022747
 20
3.877169614605108
 30
0.0
 11
3.64881220022747
 21
3.404665614605108
 31
0.0
  0
LINE
  5
30
330
18
100
AcDbEntity
  8
0
100
AcDbLine
 10
3.64881220022747
 20
3.877169614605108
 30
0.0
 11
3.59998920022747
 21
4.059048614605109
 31
0.0
  0
LINE
  5
31
330
18
100
AcDbEntity
  8
0
100
AcDbLine
 10
3.160488200227469
 20
5.696305614605109
 30
0.0
 11
2.85209520022747
 21
5.639191614605108
 31
0.0
  0
LINE
  5
32
330
18
100
AcDbEntity
  8
0
100
AcDbLine
 10
2.85209520022747
 20
5.639191614605108
 30
0.0
 11
3.18527420022747
 21
4.221805614605108
 31
0.0
  0
LINE
  5
33
330
18
100
AcDbEntity
  8
0
100
AcDbLine
 10
3.46766820022747
 20
3.834124614605108
 30
0.0
 11
3.42342520022747
 21
4.009956614605107
 31
0.0
  0
LINE
  5
34
330
18
100
AcDbEntity
  8
0
100
AcDbLine
 10
2.774528200227469
 20
5.472391614605108
 30
0.0
 11
3.03972720022747
 21
4.339117614605108
 31
0.0
  0
LINE
  5
35
330
18
100
AcDbEntity
  8
0
100
AcDbLine
 10
3.03972720022747
 20
4.307257614605108
 30
0.0
 11
2.63815420022747
 21
5.170365614605109
 31
0.0
  0
LINE
  5
36
330
18
100
AcDbEntity
  8
0
100
AcDbLine
 10
2.63815420022747
 20
5.170365614605109
 30
0.0
 11
2.63815420022747
 21
5.028196614605108
 31
0.0
  0
LINE
  5
37
330
18
100
AcDbEntity
  8
0
100
AcDbLine
 10
2.63815420022747
 20
4.719570614605109
 30
0.0
 11
2.97183920022747
 21
3.975372614605108
 31
0.0
  0
LINE
  5
38
330
18
100
AcDbEntity
  8
0
100
AcDbLine
 10
2.63815420022747
 20
4.871572614605109
 30
0.0
 11
2.685398200227469
 21
4.855631614605107
 31
0.0
  0
LINE
  5
39
330
18
100
AcDbEntity
  8
0
100
AcDbLine
 10
2.685398200227469
 20
4.855631614605107
 30
0.0
 11
2.587511200227469
 21
5.019877614605107
 31
0.0
  0
LINE
  5
3A
330
18
100
AcDbEntity
  8
0
100
AcDbLine
 10
2.587511200227469
 20
5.019877614605107
 30
0.0
 11
2.63815420022747
 21
5.028196614605108
 31
0.0
  0
LINE
  5
3B
330
18
100
AcDbEntity
  8
0
100
AcDbLine
 10
2.63815420022747
 20
4.871572614605109
 30
0.0
 11
2.63815420022747
 21
4.719570614605109
 31
0.0
  0
LINE
  5
3C
330
18
100
AcDbEntity
  8
0
100
AcDbLine
 10
2.63815420022747
 20
5.170365614605109
 30
0.0
 11
2.83530620022747
 21
5.212667614605108
 31
0.0
  0
LINE
  5
3D
330
18
100
AcDbEntity
  8
0
100
AcDbLine
 10
2.90050720022747
 20
4.934047614605108
 30
0.0
 11
2.77672320022747
 21
5.200097614605108
 31
0.0
  0
LINE
  5
3E
330
18
100
AcDbEntity
  8
0
100
AcDbLine
 10
2.85209520022747
 20
5.639191614605108
 30
0.0
 11
2.82711420022747
 21
5.585472614605108
 31
0.0
  0
LINE
  5
3F
330
18
100
AcDbEntity
  8
0
100
AcDbLine
 10
2.79100720022747
 20
5.507827614605109
 30
0.0
 11
2.822210200227469
 21
5.474395614605108
 31
0.0
  0
LINE
  5
40
330
18
100
AcDbEntity
  8
0
100
AcDbLine
 10
2.822210200227469
 20
5.474395614605108
 30
0.0
 11
2.80186820022747
 21
5.601182614605108
 31
0.0
  0
LINE
  5
41
330
18
100
AcDbEntity
  8
0
100
AcDbLine
 10
2.80186820022747
 20
5.601182614605108
 30
0.0
 11
2.82711420022747
 21
5.585472614605108
 31
0.0
  0
LINE
  5
42
330
18
100
AcDbEntity
  8
0
100
AcDbLine
 10
2.79100720022747
 20
5.507827614605109
 30
0.0
 11
2.774528200227469
 21
5.472391614605108
 31
0.0
  0
LINE
  5
43
330
18
100
AcDbEntity
  8
0
100
AcDbLine
 10
3.46766820022747
 20
3.834124614605108
 30
0.0
 11
3.46766820022747
 21
3.352902614605108
 31
0.0
  0
LINE
  5
44
330
18
100
AcDbEntity
  8
0
100
AcDbLine
 10
3.19461620022747
 20
2.837935614605108
 30
0.0
 11
3.26897920022747
 21
2.856040614605108
 31
0.0
  0
LINE
  5
45
330
18
100
AcDbEntity
  8
0
100
AcDbLine
 10
3.03972720022747
 20
4.357574614605108
 30
0.0
 11
3.13044520022747
 21
4.160715614605108
 31
0.0
  0
LINE
  5
46
330
18
100
AcDbEntity
  8
0
100
AcDbLine
 10
3.03972720022747
 20
4.357574614605108
 30
0.0
 11
3.03972720022747
 21
4.119660614605108
 31
0.0
  0
LINE
  5
47
330
18
100
AcDbEntity
  8
0
100
AcDbLine
 10
3.62800720022747
 20
3.954673614605108
 30
0.0
 11
3.68570320022747
 21
3.970346614605108
 31
0.0
  0
LINE
  5
48
330
18
100
AcDbEntity
  8
0
100
AcDbLine
 10
3.70478520022747
 20
4.003086614605108
 30
0.0
 11
3.65312220022747
 21
4.205268614605108
 31
0.0
  0
LINE
  5
49
330
18
100
AcDbEntity
  8
0
100
AcDbLine
 10
2.95833120022747
 20
4.041434614605109
 30
0.0
 11
3.00120120022747
 21
3.831773614605108
 31
0.0
  0
LINE
  5
4A
330
18
100
AcDbEntity
  8
0
100
AcDbLine
 10
2.97726420022747
 20
4.070275614605108
 30
0.0
 11
3.00568720022747
 21
3.914492614605108
 31
0.0
  0
ARC
  5
4B
330
18
100
AcDbEntity
  8
0
100
AcDbCircle
 10
2.89745320022747
 20
3.975229614605108
 30
0.0
 40
0.140167
100
AcDbArc
 50
333.209224
 51
47.47046099999999
  0
ARC
  5
4C
330
18
100
AcDbEntity
  8
0
100
AcDbCircle
 10
2.98611820022747
 20
4.071890614605108
 30
0.0
 40
0.009
100
AcDbArc
 50
47.47046099999999
 51
190.339842
  0
ARC
  5
4D
330
18
100
AcDbEntity
  8
0
100
AcDbCircle
 10
3.01454120022747
 20
3.916108614605108
 30
0.0
 40
0.009
100
AcDbArc
 50
190.339842
 51
333.209224
  0
LINE
  5
4E
330
18
100
AcDbEntity
  8
0
100
AcDbLine
 10
3.12393720022747
 20
3.929584614605108
 30
0.0
 11
3.01636720022747
 21
3.907295614605108
 31
0.0
  0
LINE
  5
4F
330
18
100
AcDbEntity
  8
0
  6
Continuous
100
AcDbLine
 10
3.110958200227469
 20
3.650410614605108
 30
0.0
 11
3.110958200227469
 21
3.827054614605108
 31
0.0
  0
LINE
  5
50
330
18
100
AcDbEntity
  8
0
  6
Continuous
100
AcDbLine
 10
3.04799520022747
 20
3.650410614605108
 30
0.0
 11
3.04799520022747
 21
3.813859614605108
 31
0.0
  0
POINT
  5
51
330
18
100
AcDbEntity
  8
0
100
AcDbPoint
 10
2.80893520022747
 20
2.492335614605108
 30
0.0
  0
POINT
  5
52
330
18
100
AcDbEntity
  8
0
100
AcDbPoint
 10
2.75771420022747
 20
2.267159614605108
 30
0.0
  0
POINT
  5
53
330
18
100
AcDbEntity
  8
0
100
AcDbPoint
 10
2.83691620022747
 20
2.263001614605108
 30
0.0
  0
POINT
  5
54
330
18
100
AcDbEntity
  8
0
100
AcDbPoint
 10
2.91670820022747
 20
2.330830614605108
 30
0.0
  0
POINT
  5
55
330
18
100
AcDbEntity
  8
0
100
AcDbPoint
 10
2.94245820022747
 20
2.411025614605108
 30
0.0
  0
POINT
  5
56
330
18
100
AcDbEntity
  8
0
100
AcDbPoint
 10
3.05427320022747
 20
2.355717614605108
 30
0.0
  0
POINT
  5
57
330
18
100
AcDbEntity
  8
0
100
AcDbPoint
 10
3.26013020022747
 20
2.612151614605108
 30
0.0
  0
POINT
  5
58
330
18
100
AcDbEntity
  8
0
100
AcDbPoint
 10
3.31172420022747
 20
2.541287614605108
 30
0.0
  0
POINT
  5
59
330
18
100
AcDbEntity
  8
0
100
AcDbPoint
 10
3.36761620022747
 20
2.517232614605108
 30
0.0
  0
POINT
  5
5A
330
18
100
AcDbEntity
  8
0
100
AcDbPoint
 10
3.39902820022747
 20
2.536263614605108
 30
0.0
  0
POINT
  5
5B
330
18
100
AcDbEntity
  8
0
100
AcDbPoint
 10
3.43286920022747
 20
2.618292614605108
 30
0.0
  0
POINT
  5
5C
330
18
100
AcDbEntity
  8
0
100
AcDbPoint
 10
3.40846220022747
 20
2.644282614605108
 30
0.0
  0
POINT
  5
5D
330
18
100
AcDbEntity
  8
0
100
AcDbPoint
 10
3.287669200227469
 20
2.485395614605108
 30
0.0
  0
POINT
  5
5E
330
18
100
AcDbEntity
  8
0
100
AcDbPoint
 10
3.33321220022747
 20
2.356916614605108
 30
0.0
  0
POINT
  5
5F
330
18
100
AcDbEntity
  8
0
100
AcDbPoint
 10
3.54387520022747
 20
2.332627614605108
 30
0.0
  0
POINT
  5
60
330
18
100
AcDbEntity
  8
0
100
AcDbPoint
 10
3.54445020022747
 20
2.408214614605108
 30
0.0
  0
POINT
  5
61
330
18
100
AcDbEntity
  8
0
100
AcDbPoint
 10
3.53949820022747
 20
2.513472614605108
 30
0.0
  0
POINT
  5
62
330
18
100
AcDbEntity
  8
0
100
AcDbPoint
 10
3.618040200227469
 20
2.453522614605108
 30
0.0
  0
POINT
  5
63
330
18
100
AcDbEntity
  8
0
100
AcDbPoint
 10
3.62270420022747
 20
2.624507614605108
 30
0.0
  0
POINT
  5
64
330
18
100
AcDbEntity
  8
0
100
AcDbPoint
 10
3.52598020022747
 20
2.727571614605108
 30
0.0
  0
POINT
  5
65
330
18
100
AcDbEntity
  8
0
100
AcDbPoint
 10
3.71111120022747
 20
2.781456614605108
 30
0.0
  0
POINT
  5
66
330
18
100
AcDbEntity
  8
0
100
AcDbPoint
 10
4.06203220022747
 20
2.574207614605108
 30
0.0
  0
POINT
  5
67
330
18
100
AcDbEntity
  8
0
100
AcDbPoint
 10
4.20118920022747
 20
2.647690614605108
 30
0.0
  0
POINT
  5
68
330
18
100
AcDbEntity
  8
0
100
AcDbPoint
 10
4.28215420022747
 20
2.861296614605108
 30
0.0
  0
POINT
  5
69
330
18
100
AcDbEntity
  8
0
100
AcDbPoint
 10
4.31791820022747
 20
2.914539614605108
 30
0.0
  0
POINT
  5
6A
330
18
100
AcDbEntity
  8
0
100
AcDbPoint
 10
4.36102720022747
 20
2.933620614605108
 30
0.0
  0
POINT
  5
6B
330
18
100
AcDbEntity
  8
0
100
AcDbPoint
 10
4.37745620022747
 20
2.879702614605108
 30
0.0
  0
POINT
  5
6C
330
18
100
AcDbEntity
  8
0
100
AcDbPoint
 10
3.059805
 20
2.63077
 30
0.0
  0
POINT
  5
6D
330
18
100
AcDbEntity
  8
0
100
AcDbPoint
 10
3.074515
 20
2.557948
 30
0.0
  0
POINT
  5
6E
330
18
100
AcDbEntity
  8
0
100
AcDbPoint
 10
3.176267
 20
2.541288
 30
0.0
  0
POINT
  5
6F
330
18
100
AcDbEntity
  8
0
100
AcDbPoint
 10
4.14235220022747
 20
3.356495614605108
 30
0.0
  0
POINT
  5
70
330
18
100
AcDbEntity
  8
0
100
AcDbPoint
 10
4.15070620022747
 20
3.297143614605108
 30
0.0
  0
POINT
  5
71
330
18
100
AcDbEntity
  8
0
100
AcDbPoint
 10
4.03438020022747
 20
3.355131614605108
 30
0.0
  0
POINT
  5
72
330
18
100
AcDbEntity
  8
0
100
AcDbPoint
 10
3.89096520022747
 20
3.225841614605108
 30
0.0
  0
POINT
  5
73
330
18
100
AcDbEntity
  8
0
100
AcDbPoint
 10
3.153986
 20
2.282044
 30
0.0
  0
POINT
  5
74
330
18
100
AcDbEntity
  8
0
100
AcDbPoint
 10
3.278916
 20
2.315875
 30
0.0
  0
POINT
  5
75
330
18
100
AcDbEntity
  8
0
100
AcDbPoint
 10
3.447966000000001
 20
2.342696
 30
0.0
  0
POINT
  5
76
330
18
100
AcDbEntity
  8
0
100
AcDbPoint
 10
3.466777
 20
2.362573
 30
0.0
  0
POINT
  5
77
330
18
100
AcDbEntity
  8
0
100
AcDbPoint
 10
3.516091
 20
2.612935
 30
0.0
  0
POINT
  5
78
330
18
100
AcDbEntity
  8
0
100
AcDbPoint
 10
3.64596
 20
2.544207
 30
0.0
  0
POINT
  5
79
330
18
100
AcDbEntity
  8
0
100
AcDbPoint
 10
3.759417
 20
2.525799
 30
0.0
  0
POINT
  5
7A
330
18
100
AcDbEntity
  8
0
100
AcDbPoint
 10
3.857908
 20
2.6396
 30
0.0
  0
POINT
  5
7B
330
18
100
AcDbEntity
  8
0
100
AcDbPoint
 10
3.923249
 20
2.719965
 30
0.0
  0
POINT
  5
7C
330
18
100
AcDbEntity
  8
0
100
AcDbPoint
 10
4.045919000000001
 20
2.860864
 30
0.0
  0
POINT
  5
7D
330
18
100
AcDbEntity
  8
0
100
AcDbPoint
 10
3.991633
 20
2.929917
 30
0.0
  0
POINT
  5
7E
330
18
100
AcDbEntity
  8
0
100
AcDbPoint
 10
4.246474
 20
2.885121
 30
0.0
  0
POINT
  5
7F
330
18
100
AcDbEntity
  8
0
100
AcDbPoint
 10
4.19939
 20
2.953305
 30
0.0
  0
POINT
  5
80
330
18
100
AcDbEntity
  8
0
100
AcDbPoint
 10
4.269666
 20
3.14167
 30
0.0
  0
POINT
  5
81
330
18
100
AcDbEntity
  8
0
100
AcDbPoint
 10
4.060378
 20
3.264945
 30
0.0
  0
POINT
  5
82
330
18
100
AcDbEntity
  8
0
100
AcDbPoint
 10
4.085921
 20
3.184071
 30
0.0
  0
LINE
  5
83
330
18
100
AcDbEntity
  8
0
100
AcDbLine
 10
3.35865220022747
 20
4.267377614605108
 30
0.0
 11
3.00629120022747
 21
5.667748614605108
 31
0.0
  0
LINE
  5
84
330
18
100
AcDbEntity
  8
0
100
AcDbLine
 10
3.24880820022747
 20
3.951525614605108
 30
0.0
 11
3.28652320022747
 21
3.791079614605108
 31
0.0
  0
LINE
  5
85
330
18
100
AcDbEntity
  8
0
100
AcDbLine
 10
3.03617420022747
 20
3.831423614605108
 30
0.0
 11
3.212097200227469
 21
3.921094614605108
 31
0.0
  0
ARC
  5
86
330
18
100
AcDbEntity
  8
0
100
AcDbCircle
 10
3.33980020022747
 20
3.898730614605108
 30
0.0
 40
0.1232
100
AcDbArc
 50
141.66943
 51
164.218877
  0
LINE
  5
87
330
18
100
AcDbEntity
  8
0
100
AcDbLine
 10
3.25247620022747
 20
3.981322614605108
 30
0.0
 11
3.60208720022747
 21
4.078078614605108
 31
0.0
  0
LINE
  5
88
330
18
100
AcDbEntity
  8
0
100
AcDbLine
 10
3.03991520022747
 20
3.813127614605108
 30
0.0
 11
3.23146120022747
 21
3.910761614605108
 31
0.0
  0
ARC
  5
89
330
18
100
AcDbEntity
  8
0
100
AcDbCircle
 10
3.33980020022747
 20
3.898730614605108
 30
0.0
 40
0.1052
100
AcDbArc
 50
143.386551
 51
169.888376
  0
LINE
  5
8A
330
18
100
AcDbEntity
  8
0
100
AcDbLine
 10
3.26018220022747
 20
3.964778614605108
 30
0.0
 11
3.59814720022747
 21
4.058311614605108
 31
0.0
  0
LINE
  5
8B
330
18
100
AcDbEntity
  8
0
100
AcDbLine
 10
3.237610200227469
 20
3.923714614605108
 30
0.0
 11
3.22531320022747
 21
3.862183614605108
 31
0.0
  0
ARC
  5
8C
330
18
100
AcDbEntity
  8
0
100
AcDbCircle
 10
3.02391320022747
 20
3.855479614605108
 30
0.0
 40
0.027
100
AcDbArc
 50
191.556254
 51
297.008603
  0
ARC
  5
8D
330
18
100
AcDbEntity
  8
0
100
AcDbCircle
 10
3.02765420022747
 20
3.837182614605108
 30
0.0
 40
0.027
100
AcDbArc
 50
191.556254
 51
297.008603
  0
LINE
  5
8E
330
18
100
AcDbEntity
  8
0
100
AcDbLine
 10
3.21135420022747
 20
3.848094614605108
 30
0.0
 11
3.03319220022747
 21
3.810756614605108
 31
0.0
  0
ARC
  5
8F
330
18
100
AcDbEntity
  8
0
100
AcDbCircle
 10
3.20766220022747
 20
3.865711614605108
 30
0.0
 40
0.018
100
AcDbArc
 50
281.836078
 51
348.698112
  0
ARC
  5
90
330
18
100
AcDbEntity
  8
0
100
AcDbCircle
 10
3.20392320022747
 20
3.937131614605108
 30
0.0
 40
0.018
100
AcDbArc
 50
297.008603
 51
344.218877
  0
ARC
  5
91
330
18
100
AcDbEntity
  8
0
100
AcDbCircle
 10
3.25727720022747
 20
3.963974614605108
 30
0.0
 40
0.018
100
AcDbArc
 50
105.469602
 51
141.66943
  0
ARC
  5
92
330
18
100
AcDbEntity
  8
0
100
AcDbCircle
 10
3.26258320022747
 20
3.956105614605108
 30
0.0
 40
0.009
100
AcDbArc
 50
105.469602
 51
143.386551
  0
ARC
  5
93
330
18
100
AcDbEntity
  8
0
100
AcDbCircle
 10
3.22737420022747
 20
3.918779614605108
 30
0.0
 40
0.009
100
AcDbArc
 50
297.008603
 51
349.888376
  0
LINE
  5
94
330
18
100
AcDbEntity
  8
0
100
AcDbLine
 10
3.21623920022747
 20
3.849886614605108
 30
0.0
 11
3.21029820022747
 21
3.528853614605108
 31
0.0
  0
LINE
  5
95
330
18
100
AcDbEntity
  8
0
100
AcDbLine
 10
3.21029820022747
 20
3.528853614605108
 30
0.0
 11
3.110958200227469
 21
3.772286614605108
 31
0.0
  0
LINE
  5
96
330
18
100
AcDbEntity
  8
0
100
AcDbLine
 10
3.12274120022747
 20
3.802022614605108
 30
0.0
 11
3.14996320022747
 21
3.749050614605108
 31
0.0
  0
LINE
  5
97
330
18
100
AcDbEntity
  8
0
100
AcDbLine
 10
3.156060200227469
 20
3.795867614605108
 30
0.0
 11
3.18328320022747
 21
3.742894614605108
 31
0.0
  0
LINE
  5
98
330
18
100
AcDbEntity
  8
0
100
AcDbLine
 10
3.17570920022747
 20
3.830144614605108
 30
0.0
 11
3.20293120022747
 21
3.777172614605108
 31
0.0
  0
LINE
  5
99
330
18
100
AcDbEntity
  8
0
100
AcDbLine
 10
3.17267520022747
 20
3.698757614605108
 30
0.0
 11
3.199897200227469
 21
3.645785614605108
 31
0.0
  0
LINE
  5
9A
330
18
100
AcDbEntity
  8
0
100
AcDbLine
 10
3.28652320022747
 20
3.301138614605108
 30
0.0
 11
3.110958200227469
 21
3.682877614605108
 31
0.0
  0
LINE
  5
9B
330
18
100
AcDbEntity
  8
0
100
AcDbLine
 10
3.28652320022747
 20
3.301138614605108
 30
0.0
 11
3.21075420022747
 21
3.553527614605108
 31
0.0
  0
LINE
  5
9C
330
18
100
AcDbEntity
  8
0
100
AcDbLine
 10
3.06062020022747
 20
4.228270614605108
 30
0.0
 11
3.08638520022747
 21
4.190366614605108
 31
0.0
  0
LINE
  5
9D
330
18
100
AcDbEntity
  8
0
100
AcDbLine
 10
3.13166320022747
 20
4.059018614605108
 30
0.0
 11
3.18211720022747
 21
4.215234614605109
 31
0.0
  0
LINE
  5
9E
330
18
100
AcDbEntity
  8
0
100
AcDbLine
 10
3.20207120022747
 20
4.233319614605108
 30
0.0
 11
3.54064620022747
 21
4.306964614605108
 31
0.0
  0
LINE
  5
9F
330
18
100
AcDbEntity
  8
0
100
AcDbLine
 10
3.60443920022747
 20
4.069319614605108
 30
0.0
 11
3.54064620022747
 21
4.306964614605108
 31
0.0
  0
ARC
  5
A0
330
18
100
AcDbEntity
  8
0
100
AcDbCircle
 10
3.67862520022747
 20
3.996402614605108
 30
0.0
 40
0.027
100
AcDbArc
 50
285.197748
 51
14.333813
  0
LINE
  5
A1
330
18
100
AcDbEntity
  8
0
100
AcDbLine
 10
3.61928020022747
 20
4.048908614605108
 30
0.0
 11
3.68785420022747
 21
4.005111614605108
 31
0.0
  0
LINE
  5
A2
330
18
100
AcDbEntity
  8
0
100
AcDbLine
 10
3.53383720022747
 20
4.305483614605108
 30
0.0
 11
3.160488200227469
 21
5.696305614605109
 31
0.0
  0
ARC
  5
A3
330
18
100
AcDbEntity
  8
0
100
AcDbCircle
 10
3.59574720022747
 20
4.066985614605107
 30
0.0
 40
0.009
100
AcDbArc
 50
285.469602
 51
15.026106
  0
LINE
  5
A4
330
18
100
AcDbEntity
  8
0
  6
Continuous
100
AcDbLine
 10
3.110958200227469
 20
4.113878614605108
 30
0.0
 11
3.110958200227469
 21
4.145179614605108
 31
0.0
  0
LINE
  5
A5
330
18
100
AcDbEntity
  8
0
  6
Continuous
100
AcDbLine
 10
3.04799520022747
 20
4.113878614605108
 30
0.0
 11
3.04799520022747
 21
4.145179614605108
 31
0.0
  0
ARC
  5
A6
330
18
100
AcDbEntity
  8
0
100
AcDbCircle
 10
2.91966020022747
 20
3.977884614605108
 30
0.0
 40
0.226998
100
AcDbArc
 50
353.724383
 51
21.804528
  0
ARC
  5
A7
330
18
100
AcDbEntity
  8
0
100
AcDbCircle
 10
3.11845920022747
 20
3.956022614605108
 30
0.0
 40
0.027
100
AcDbArc
 50
281.706109
 51
353.724383
  0
ARC
  5
A8
330
18
100
AcDbEntity
  8
0
100
AcDbCircle
 10
2.91966020022747
 20
3.977884614605108
 30
0.0
 40
0.190998
100
AcDbArc
 50
353.690057
 51
17.757363
  0
ARC
  5
A9
330
18
100
AcDbEntity
  8
0
100
AcDbCircle
 10
2.89745320022747
 20
3.975229614605108
 30
0.0
 40
0.176167
100
AcDbArc
 50
7.141018999999999
 51
19.553287
  0
LINE
  5
AA
330
18
100
AcDbEntity
  8
0
100
AcDbLine
 10
3.07732420022747
 20
3.956659614605108
 30
0.0
 11
3.07225420022747
 21
3.997129614605108
 31
0.0
  0
ARC
  5
AB
330
18
100
AcDbEntity
  8
0
100
AcDbCircle
 10
3.09339920022747
 20
3.958673614605108
 30
0.0
 40
0.0162
100
AcDbArc
 50
187.141019
 51
353.690057
  0
LINE
  5
AC
330
18
100
AcDbEntity
  8
0
100
AcDbLine
 10
3.06128220022747
 20
4.084132614605108
 30
0.0
 11
3.06128220022747
 21
4.047387614605109
 31
0.0
  0
LINE
  5
AD
330
18
100
AcDbEntity
  8
0
100
AcDbLine
 10
3.09767120022747
 20
4.084132614605108
 30
0.0
 11
3.09767120022747
 21
4.047387614605109
 31
0.0
  0
LINE
  5
AE
330
18
100
AcDbEntity
  8
0
100
AcDbLine
 10
3.12598820022747
 20
4.111895614605109
 30
0.0
 11
3.12598820022747
 21
4.075150614605108
 31
0.0
  0
LINE
  5
AF
330
18
100
AcDbEntity
  8
0
100
AcDbLine
 10
3.06128220022747
 20
4.084132614605108
 30
0.0
 11
3.09767120022747
 21
4.084132614605108
 31
0.0
  0
LINE
  5
B0
330
18
100
AcDbEntity
  8
0
100
AcDbLine
 10
3.09767120022747
 20
4.084132614605108
 30
0.0
 11
3.12598820022747
 21
4.111895614605109
 31
0.0
  0
LINE
  5
B1
330
18
100
AcDbEntity
  8
0
100
AcDbLine
 10
3.06128220022747
 20
4.047387614605109
 30
0.0
 11
3.09767120022747
 21
4.047387614605109
 31
0.0
  0
LINE
  5
B2
330
18
100
AcDbEntity
  8
0
100
AcDbLine
 10
3.09767120022747
 20
4.047387614605109
 30
0.0
 11
3.12598820022747
 21
4.075150614605108
 31
0.0
  0
LINE
  5
B3
330
18
100
AcDbEntity
  8
0
100
AcDbLine
 10
3.06128220022747
 20
4.047387614605109
 30
0.0
 11
3.03296520022747
 21
4.075150614605108
 31
0.0
  0
LINE
  5
B4
330
18
100
AcDbEntity
  8
0
100
AcDbLine
 10
3.06128220022747
 20
4.084132614605108
 30
0.0
 11
3.03296520022747
 21
4.111895614605109
 31
0.0
  0
LINE
  5
B5
330
18
100
AcDbEntity
  8
0
100
AcDbLine
 10
3.03296520022747
 20
4.111895614605109
 30
0.0
 11
3.03296520022747
 21
4.075150614605108
 31
0.0
  0
LINE
  5
B6
330
18
100
AcDbEntity
  8
0
100
AcDbLine
 10
3.03296520022747
 20
4.111895614605109
 30
0.0
 11
3.04799520022747
 21
4.129154614605108
 31
0.0
  0
LINE
  5
B7
330
18
100
AcDbEntity
  8
0
100
AcDbLine
 10
3.12598820022747
 20
4.111895614605109
 30
0.0
 11
3.110958200227469
 21
4.129154614605108
 31
0.0
  0
ARC
  5
B8
330
18
100
AcDbEntity
  8
0
100
AcDbCircle
 10
3.19377720022747
 20
4.050516614605108
 30
0.0
 40
0.127102
100
AcDbArc
 50
101.152683
 51
130.744474
  0
ARC
  5
B9
330
18
100
AcDbEntity
  8
0
100
AcDbCircle
 10
3.20781020022747
 20
4.206935614605108
 30
0.0
 40
0.027
100
AcDbArc
 50
102.271601
 51
162.100742
  0
LINE
  5
BA
330
18
100
AcDbEntity
  8
0
100
AcDbLine
 10
2.96703820022747
 20
4.067192614605108
 30
0.0
 11
2.98020320022747
 21
4.078673614605108
 31
0.0
  0
LINE
  5
BB
330
18
100
AcDbEntity
  8
0
100
AcDbLine
 10
2.98020320022747
 20
4.078673614605108
 30
0.0
 11
3.03296520022747
 21
4.109368614605108
 31
0.0
  0
ARC
  5
BC
330
18
100
AcDbEntity
  8
0
100
AcDbCircle
 10
2.98478320022747
 20
4.046843614605107
 30
0.0
 40
0.027
100
AcDbArc
 50
131.090249
 51
191.556254
  0
LINE
  5
BD
330
18
100
AcDbEntity
  8
0
  6
Continuous
100
AcDbLine
 10
3.60840720022747
 20
4.244314614605107
 30
0.0
 11
3.60840720022747
 21
4.275616614605108
 31
0.0
  0
LINE
  5
BE
330
18
100
AcDbEntity
  8
0
100
AcDbLine
 10
3.62343720022747
 20
4.242331614605108
 30
0.0
 11
3.60840720022747
 21
4.259590614605108
 31
0.0
  0
LINE
  5
BF
330
18
100
AcDbEntity
  8
0
100
AcDbLine
 10
3.59512020022747
 20
4.214568614605108
 30
0.0
 11
3.62343720022747
 21
4.242331614605108
 31
0.0
  0
LINE
  5
C0
330
18
100
AcDbEntity
  8
0
100
AcDbLine
 10
3.59512020022747
 20
4.177823614605108
 30
0.0
 11
3.62343720022747
 21
4.205586614605108
 31
0.0
  0
LINE
  5
C1
330
18
100
AcDbEntity
  8
0
100
AcDbLine
 10
3.62343720022747
 20
4.242331614605108
 30
0.0
 11
3.62343720022747
 21
4.205586614605108
 31
0.0
  0
LINE
  5
C2
330
18
100
AcDbEntity
  8
0
100
AcDbLine
 10
3.59512020022747
 20
4.214568614605108
 30
0.0
 11
3.59512020022747
 21
4.177823614605108
 31
0.0
  0
LINE
  5
C3
330
18
100
AcDbEntity
  8
0
100
AcDbLine
 10
3.57531220022747
 20
4.177823614605108
 30
0.0
 11
3.59512020022747
 21
4.177823614605108
 31
0.0
  0
LINE
  5
C4
330
18
100
AcDbEntity
  8
0
100
AcDbLine
 10
3.56544920022747
 20
4.214568614605108
 30
0.0
 11
3.59512020022747
 21
4.214568614605108
 31
0.0
  0
LINE
  5
C5
330
18
100
AcDbEntity
  8
0
  6
HIDDEN
100
AcDbLine
 10
3.60840720022747
 20
2.978578614605108
 30
0.0
 11
3.60840720022747
 21
3.949634614605108
 31
0.0
  0
LINE
  5
C6
330
18
100
AcDbEntity
  8
0
  6
HIDDEN
100
AcDbLine
 10
3.54544420022747
 20
2.918966614605108
 30
0.0
 11
3.54544420022747
 21
3.930255614605108
 31
0.0
  0
LINE
  5
C7
330
18
100
AcDbEntity
  8
0
100
AcDbLine
 10
3.69206520022747
 20
2.968371614605108
 30
0.0
 11
3.76642820022747
 21
2.986476614605108
 31
0.0
  0
LINE
  5
C8
330
18
100
AcDbEntity
  8
0
100
AcDbLine
 10
3.40148320022747
 20
2.897625614605108
 30
0.0
 11
3.50183820022747
 21
2.922058614605108
 31
0.0
  0
LINE
  5
C9
330
18
100
AcDbEntity
  8
0
100
AcDbLine
 10
3.76642820022747
 20
2.986476614605108
 30
0.0
 11
3.69206520022747
 21
2.968371614605108
 31
0.0
  0
LINE
  5
CA
330
18
100
AcDbEntity
  8
0
100
AcDbLine
 10
3.66195020022747
 20
3.009422614605108
 30
0.0
 11
3.69206520022747
 21
2.968371614605108
 31
0.0
  0
LINE
  5
CB
330
18
100
AcDbEntity
  8
0
100
AcDbLine
 10
3.55998020022747
 20
2.867712614605108
 30
0.0
 11
3.66195020022747
 21
3.009422614605108
 31
0.0
  0
LINE
  5
CC
330
18
100
AcDbEntity
  8
0
100
AcDbLine
 10
3.50183820022747
 20
2.922058614605108
 30
0.0
 11
3.55998020022747
 21
2.867712614605108
 31
0.0
  0
LINE
  5
CD
330
18
100
AcDbEntity
  8
0
100
AcDbLine
 10
3.64428820022747
 20
4.219292614605108
 30
0.0
 11
3.62384220022747
 21
4.236396614605107
 31
0.0
  0
ARC
  5
CE
330
18
100
AcDbEntity
  8
0
100
AcDbCircle
 10
3.62696320022747
 20
4.198583614605107
 30
0.0
 40
0.027
100
AcDbArc
 50
14.333813
 51
50.084276
  0
LINE
  5
CF
330
18
100
AcDbEntity
  8
0
100
AcDbLine
 10
3.59814720022747
 20
4.058311614605108
 30
0.0
 11
3.66038820022747
 21
4.075766614605108
 31
0.0
  0
ARC
  5
D0
330
18
100
AcDbEntity
  8
0
100
AcDbCircle
 10
3.34528520022747
 20
4.089355614605108
 30
0.0
 40
0.315397
100
AcDbArc
 50
357.530513
 51
26.338323
  0
ARC
  5
D1
330
18
100
AcDbEntity
  8
0
100
AcDbCircle
 10
3.31157520022747
 20
4.076489614605108
 30
0.0
 40
0.315397
100
AcDbArc
 50
5.421978
 51
17.897323
  0
ARC
  5
D2
330
18
100
AcDbEntity
  8
0
100
AcDbCircle
 10
3.28767320022747
 20
4.077714614605108
 30
0.0
 40
0.315397
100
AcDbArc
 50
15.516672
 51
15.904391
  0
LINE
  5
D3
330
18
100
AcDbEntity
  8
0
100
AcDbLine
 10
3.60747420022747
 20
4.104821614605108
 30
0.0
 11
3.59157520022747
 21
4.162089614605108
 31
0.0
  0
ARC
  5
D4
330
18
100
AcDbEntity
  8
0
100
AcDbCircle
 10
3.61639520022747
 20
4.107061614605108
 30
0.0
 40
0.009198
100
AcDbArc
 50
194.096233
 51
16.259874
  0
LINE
  5
D5
330
18
100
AcDbEntity
  8
0
100
AcDbLine
 10
3.682795358439384
 20
4.089143370743906
 30
0.0
 11
4.812799
 21
4.386476
 31
0.0
  0
LINE
  5
D6
330
18
100
AcDbEntity
  8
0
100
AcDbLine
 10
5.327852
 20
5.654018
 30
0.0
 11
5.327852
 21
5.590097
 31
0.0
  0
LINE
  5
D7
330
18
100
AcDbEntity
  8
0
100
AcDbLine
 10
5.327852
 20
5.320171
 30
0.0
 11
6.247082
 21
4.534086
 31
0.0
  0
LINE
  5
D8
330
18
100
AcDbEntity
  8
0
100
AcDbLine
 10
5.698208999999999
 20
5.948951
 30
0.0
 11
5.736141
 21
6.0116
 31
0.0
  0
LINE
  5
D9
330
18
100
AcDbEntity
  8
0
100
AcDbLine
 10
5.823296
 20
6.155548000000001
 30
0.0
 11
6.042674
 21
6.196983
 31
0.0
  0
LINE
  5
DA
330
18
100
AcDbEntity
  8
0
100
AcDbLine
 10
6.042674
 20
6.196983
 30
0.0
 11
6.327491
 21
5.688138
 31
0.0
  0
LINE
  5
DB
330
18
100
AcDbEntity
  8
0
100
AcDbLine
 10
7.347536999999999
 20
3.86576
 30
0.0
 11
7.254362
 21
3.56212
 31
0.0
  0
LINE
  5
DC
330
18
100
AcDbEntity
  8
0
100
AcDbLine
 10
7.098628
 20
3.786406
 30
0.0
 11
7.347536999999999
 21
3.86576
 31
0.0
  0
LINE
  5
DD
330
18
100
AcDbEntity
  8
0
100
AcDbLine
 10
7.098628
 20
3.786406
 30
0.0
 11
6.405722
 21
5.073594
 31
0.0
  0
LINE
  5
DE
330
18
100
AcDbEntity
  8
0
100
AcDbLine
 10
5.932985
 20
6.176265
 30
0.0
 11
6.290276
 21
5.525384
 31
0.0
  0
LINE
  5
DF
330
18
100
AcDbEntity
  8
0
100
AcDbLine
 10
5.327852
 20
5.654018
 30
0.0
 11
5.601106
 21
5.721779
 31
0.0
  0
LINE
  5
E0
330
18
100
AcDbEntity
  8
0
100
AcDbLine
 10
5.601106
 20
5.721779
 30
0.0
 11
6.1711
 21
5.249206
 31
0.0
  0
LINE
  5
E1
330
18
100
AcDbEntity
  8
0
100
AcDbLine
 10
5.327852
 20
5.654018
 30
0.0
 11
6.062524
 21
5.044912999999999
 31
0.0
  0
LINE
  5
E2
330
18
100
AcDbEntity
  8
0
100
AcDbLine
 10
5.464479
 20
5.687898000000001
 30
0.0
 11
6.247082
 21
5.039055
 31
0.0
  0
LINE
  5
E3
330
18
100
AcDbEntity
  8
0
100
AcDbLine
 10
7.005453
 20
3.482766
 30
0.0
 11
7.254362
 21
3.56212
 31
0.0
  0
LINE
  5
E4
330
18
100
AcDbEntity
  8
0
100
AcDbLine
 10
7.223083
 20
3.826083
 30
0.0
 11
7.129907000000001
 21
3.522443
 31
0.0
  0
LINE
  5
E5
330
18
100
AcDbEntity
  8
0
100
AcDbLine
 10
7.005453
 20
3.482766
 30
0.0
 11
7.098628
 21
3.786406
 31
0.0
  0
LINE
  5
E6
330
18
100
AcDbEntity
  8
0
100
AcDbLine
 10
7.005453
 20
3.482766
 30
0.0
 11
6.442416000000001
 21
4.508958
 31
0.0
  0
LINE
  5
E7
330
18
100
AcDbEntity
  8
0
100
AcDbLine
 10
6.329940000000001
 20
5.667701999999999
 30
0.0
 11
6.248074
 21
5.373954
 31
0.0
  0
LINE
  5
E8
330
18
100
AcDbEntity
  8
0
100
AcDbLine
 10
6.247082
 20
5.366706
 30
0.0
 11
6.247082
 21
4.864273000000001
 31
0.0
  0
LINE
  5
E9
330
18
100
AcDbEntity
  8
0
100
AcDbLine
 10
6.343611
 20
4.735174
 30
0.0
 11
6.343611
 21
4.792685
 31
0.0
  0
LINE
  5
EA
330
18
100
AcDbEntity
  8
0
100
AcDbLine
 10
6.355704
 20
5.182029
 30
0.0
 11
6.407481
 21
5.557943
 31
0.0
  0
LINE
  5
EB
330
18
100
AcDbEntity
  8
0
  6
HIDDEN
100
AcDbLine
 10
6.469692
 20
5.443338
 30
0.0
 11
6.469692
 21
5.193963
 31
0.0
  0
LINE
  5
EC
330
18
100
AcDbEntity
  8
0
100
AcDbLine
 10
6.062524
 20
5.137980000000001
 30
0.0
 11
6.062524
 21
4.80501
 31
0.0
  0
LINE
  5
ED
330
18
100
AcDbEntity
  8
0
100
AcDbLine
 10
6.062524
 20
4.80501
 30
0.0
 11
6.247082
 21
4.642764
 31
0.0
  0
LINE
  5
EE
330
18
100
AcDbEntity
  8
0
100
AcDbLine
 10
6.442416000000001
 20
4.471047
 30
0.0
 11
6.442416000000001
 21
4.83103
 31
0.0
  0
LINE
  5
EF
330
18
100
AcDbEntity
  8
0
100
AcDbLine
 10
6.442416000000001
 20
4.83103
 30
0.0
 11
6.355286
 21
4.901431
 31
0.0
  0
LINE
  5
F0
330
18
100
AcDbEntity
  8
0
100
AcDbLine
 10
5.327852
 20
5.590097
 30
0.0
 11
5.277004
 21
5.55122
 31
0.0
  0
LINE
  5
F1
330
18
100
AcDbEntity
  8
0
100
AcDbLine
 10
5.277004
 20
5.55122
 30
0.0
 11
5.385437000000001
 21
5.445507
 31
0.0
  0
LINE
  5
F2
330
18
100
AcDbEntity
  8
0
100
AcDbLine
 10
5.385437000000001
 20
5.445507
 30
0.0
 11
5.327852
 21
5.433562
 31
0.0
  0
LINE
  5
F3
330
18
100
AcDbEntity
  8
0
100
AcDbLine
 10
5.327852
 20
5.433562
 30
0.0
 11
5.327852
 21
5.320171
 31
0.0
  0
LINE
  5
F4
330
18
100
AcDbEntity
  8
0
100
AcDbLine
 10
5.997339
 20
5.393269
 30
0.0
 11
5.698208999999999
 21
5.948951
 31
0.0
  0
LINE
  5
F5
330
18
100
AcDbEntity
  8
0
100
AcDbLine
 10
5.791106
 20
6.102382
 30
0.0
 11
5.737966
 21
6.120088
 31
0.0
  0
LINE
  5
F6
330
18
100
AcDbEntity
  8
0
100
AcDbLine
 10
5.737966
 20
6.120088
 30
0.0
 11
5.774488
 21
5.99697
 31
0.0
  0
LINE
  5
F7
330
18
100
AcDbEntity
  8
0
100
AcDbLine
 10
5.774488
 20
5.99697
 30
0.0
 11
5.736141
 21
6.0116
 31
0.0
  0
LINE
  5
F8
330
18
100
AcDbEntity
  8
0
100
AcDbLine
 10
5.791106
 20
6.102382
 30
0.0
 11
5.823296
 21
6.155548000000001
 31
0.0
  0
LINE
  5
F9
330
18
100
AcDbEntity
  8
0
  6
HIDDEN
100
AcDbLine
 10
6.386508999999999
 20
4.289043
 30
0.0
 11
6.453339
 21
4.232642
 31
0.0
  0
LINE
  5
FA
330
18
100
AcDbEntity
  8
0
100
AcDbLine
 10
5.635936
 20
3.062061
 30
0.0
 11
5.202918
 21
4.054001
 31
0.0
  0
LINE
  5
FB
330
18
100
AcDbEntity
  8
0
100
AcDbLine
 10
4.498156
 20
5.668447000000001
 30
0.0
 11
4.529824
 21
5.731749
 31
0.0
  0
LINE
  5
FC
330
18
100
AcDbEntity
  8
0
100
AcDbLine
 10
4.617704
 20
5.907413
 30
0.0
 11
4.762507
 21
5.923333
 31
0.0
  0
LINE
  5
FD
330
18
100
AcDbEntity
  8
0
100
AcDbLine
 10
4.762507
 20
5.923333
 30
0.0
 11
5.046154000000001
 21
5.315608
 31
0.0
  0
LINE
  5
FE
330
18
100
AcDbEntity
  8
0
100
AcDbLine
 10
5.938607
 20
3.403494
 30
0.0
 11
5.834544
 21
3.120503
 31
0.0
  0
LINE
  5
FF
330
18
100
AcDbEntity
  8
0
100
AcDbLine
 10
5.834544
 20
3.120503
 30
0.0
 11
5.635936
 21
3.062061
 31
0.0
  0
LINE
  5
100
330
18
100
AcDbEntity
  8
0
100
AcDbLine
 10
5.938607
 20
3.403494
 30
0.0
 11
5.739998
 21
3.345052
 31
0.0
  0
LINE
  5
101
330
18
100
AcDbEntity
  8
0
100
AcDbLine
 10
5.635936
 20
3.062061
 30
0.0
 11
5.739998
 21
3.345052
 31
0.0
  0
LINE
  5
102
330
18
100
AcDbEntity
  8
0
100
AcDbLine
 10
5.739998
 20
3.345052
 30
0.0
 11
5.081083000000001
 21
4.84945
 31
0.0
  0
LINE
  5
103
330
18
100
AcDbEntity
  8
0
100
AcDbLine
 10
4.172726
 20
5.388104
 30
0.0
 11
4.172726
 21
5.309844
 31
0.0
  0
LINE
  5
104
330
18
100
AcDbEntity
  8
0
100
AcDbLine
 10
4.172726
 20
5.063298000000001
 30
0.0
 11
4.939757
 21
4.252229
 31
0.0
  0
LINE
  5
105
330
18
100
AcDbEntity
  8
0
100
AcDbLine
 10
4.172726
 20
5.388104
 30
0.0
 11
4.34526
 21
5.441935
 31
0.0
  0
LINE
  5
106
330
18
100
AcDbEntity
  8
0
100
AcDbLine
 10
4.172726
 20
5.388104
 30
0.0
 11
4.789555
 21
4.735861
 31
0.0
  0
LINE
  5
107
330
18
100
AcDbEntity
  8
0
100
AcDbLine
 10
4.34526
 20
5.441935
 30
0.0
 11
4.812896
 21
4.94745
 31
0.0
  0
LINE
  5
108
330
18
100
AcDbEntity
  8
0
100
AcDbLine
 10
4.789555
 20
4.864361
 30
0.0
 11
4.789555
 21
4.479233
 31
0.0
  0
LINE
  5
109
330
18
100
AcDbEntity
  8
0
100
AcDbLine
 10
4.789555
 20
4.479233
 30
0.0
 11
4.953383000000001
 21
4.310701
 31
0.0
  0
LINE
  5
10A
330
18
100
AcDbEntity
  8
0
100
AcDbLine
 10
5.225954
 20
4.030304
 30
0.0
 11
5.225954
 21
4.455941999999999
 31
0.0
  0
LINE
  5
10B
330
18
100
AcDbEntity
  8
0
100
AcDbLine
 10
5.225954
 20
4.455941999999999
 30
0.0
 11
5.081083000000001
 21
4.591524
 31
0.0
  0
LINE
  5
10C
330
18
100
AcDbEntity
  8
0
100
AcDbLine
 10
4.890345
 20
4.770033
 30
0.0
 11
4.498156
 21
5.668447000000001
 31
0.0
  0
LINE
  5
10D
330
18
100
AcDbEntity
  8
0
100
AcDbLine
 10
5.406857
 20
4.542788
 30
0.0
 11
6.041601
 21
4.709805
 31
0.0
  0
LINE
  5
10E
330
18
100
AcDbEntity
  8
0
100
AcDbLine
 10
4.172726
 20
5.309844
 30
0.0
 11
4.12089
 21
5.305997000000001
 31
0.0
  0
LINE
  5
10F
330
18
100
AcDbEntity
  8
0
100
AcDbLine
 10
4.12089
 20
5.305997000000001
 30
0.0
 11
4.220078
 21
5.151204
 31
0.0
  0
LINE
  5
110
330
18
100
AcDbEntity
  8
0
100
AcDbLine
 10
4.220078
 20
5.151204
 30
0.0
 11
4.172726
 21
5.137912
 31
0.0
  0
LINE
  5
111
330
18
100
AcDbEntity
  8
0
100
AcDbLine
 10
4.172726
 20
5.137912
 30
0.0
 11
4.172726
 21
5.063298000000001
 31
0.0
  0
LINE
  5
112
330
18
100
AcDbEntity
  8
0
100
AcDbLine
 10
6.67535
 20
6.382366
 30
0.0
 11
6.415528
 21
6.329959
 31
0.0
  0
LINE
  5
113
330
18
100
AcDbEntity
  8
0
100
AcDbLine
 10
6.415528
 20
6.329959
 30
0.0
 11
6.415528
 21
6.209366
 31
0.0
  0
LINE
  5
114
330
18
100
AcDbEntity
  8
0
100
AcDbLine
 10
6.415528
 20
5.940314
 30
0.0
 11
7.678721
 21
5.077753
 31
0.0
  0
LINE
  5
115
330
18
100
AcDbEntity
  8
0
100
AcDbLine
 10
8.217136999999999
 20
4.710101
 30
0.0
 11
8.217136999999999
 21
5.168064
 31
0.0
  0
LINE
  5
116
330
18
100
AcDbEntity
  8
0
100
AcDbLine
 10
8.516800999999999
 20
5.253695
 30
0.0
 11
8.065517999999999
 21
5.904544000000001
 31
0.0
  0
LINE
  5
117
330
18
100
AcDbEntity
  8
0
100
AcDbLine
 10
7.508986999999999
 20
6.707186
 30
0.0
 11
7.26175
 21
6.657533
 31
0.0
  0
LINE
  5
118
330
18
100
AcDbEntity
  8
0
100
AcDbLine
 10
7.26175
 20
6.657533
 30
0.0
 11
7.238744000000001
 21
6.602749
 31
0.0
  0
LINE
  5
119
330
18
100
AcDbEntity
  8
0
100
AcDbLine
 10
7.26175
 20
6.657533
 30
0.0
 11
7.80892
 21
5.804483
 31
0.0
  0
LINE
  5
11A
330
18
100
AcDbEntity
  8
0
100
AcDbLine
 10
8.366969000000001
 20
5.21088
 30
0.0
 11
8.018639
 21
5.733047
 31
0.0
  0
LINE
  5
11B
330
18
100
AcDbEntity
  8
0
100
AcDbLine
 10
7.140614
 20
6.36907
 30
0.0
 11
7.635882000000001
 21
5.607021
 31
0.0
  0
LINE
  5
11C
330
18
100
AcDbEntity
  8
0
100
AcDbLine
 10
7.515192999999999
 20
5.630152
 30
0.0
 11
6.415528
 21
6.329959
 31
0.0
  0
LINE
  5
11D
330
18
100
AcDbEntity
  8
0
100
AcDbLine
 10
7.574700999999999
 20
5.701158
 30
0.0
 11
6.545439
 21
6.356163
 31
0.0
  0
LINE
  5
11E
330
18
100
AcDbEntity
  8
0
100
AcDbLine
 10
7.454032000000001
 20
5.886826999999999
 30
0.0
 11
6.67535
 21
6.382366
 31
0.0
  0
LINE
  5
11F
330
18
100
AcDbEntity
  8
0
100
AcDbLine
 10
7.921800999999999
 20
4.870628
 30
0.0
 11
7.735581
 21
4.836888
 31
0.0
  0
LINE
  5
120
330
18
100
AcDbEntity
  8
0
100
AcDbLine
 10
7.921800999999999
 20
4.870628
 30
0.0
 11
7.966738
 21
4.947614
 31
0.0
  0
LINE
  5
121
330
18
100
AcDbEntity
  8
0
100
AcDbLine
 10
7.966738
 20
4.947614
 30
0.0
 11
7.966738
 21
5.166637000000001
 31
0.0
  0
LINE
  5
122
330
18
100
AcDbEntity
  8
0
100
AcDbLine
 10
7.971759
 20
5.561544000000001
 30
0.0
 11
8.065625000000001
 21
5.904935
 31
0.0
  0
LINE
  5
123
330
18
100
AcDbEntity
  8
0
  6
HIDDEN
100
AcDbLine
 10
7.949585000000001
 20
6.061895
 30
0.0
 11
7.401225999999999
 21
5.968077
 31
0.0
  0
LINE
  5
124
330
18
100
AcDbEntity
  8
0
  6
HIDDEN
100
AcDbLine
 10
7.265713000000001
 20
5.944891999999999
 30
0.0
 11
7.279822
 21
5.802781
 31
0.0
  0
LINE
  5
125
330
18
100
AcDbEntity
  8
0
  6
HIDDEN
100
AcDbLine
 10
7.279822
 20
5.802781
 30
0.0
 11
7.816699000000001
 21
5.876175
 31
0.0
  0
LINE
  5
126
330
18
100
AcDbEntity
  8
0
100
AcDbLine
 10
7.238744000000001
 20
6.602749
 30
0.0
 11
7.191832000000001
 21
6.595145
 31
0.0
  0
LINE
  5
127
330
18
100
AcDbEntity
  8
0
100
AcDbLine
 10
7.191832000000001
 20
6.595145
 30
0.0
 11
7.235630000000001
 21
6.454061
 31
0.0
  0
LINE
  5
128
330
18
100
AcDbEntity
  8
0
100
AcDbLine
 10
7.235630000000001
 20
6.454061
 30
0.0
 11
7.180822
 21
6.464817
 31
0.0
  0
LINE
  5
129
330
18
100
AcDbEntity
  8
0
100
AcDbLine
 10
7.180822
 20
6.464817
 30
0.0
 11
7.140614
 21
6.36907
 31
0.0
  0
LINE
  5
12A
330
18
100
AcDbEntity
  8
0
100
AcDbLine
 10
6.415528
 20
6.209366
 30
0.0
 11
6.362992
 21
6.201059
 31
0.0
  0
LINE
  5
12B
330
18
100
AcDbEntity
  8
0
100
AcDbLine
 10
6.362992
 20
6.201059
 30
0.0
 11
6.458836
 21
6.093493
 31
0.0
  0
LINE
  5
12C
330
18
100
AcDbEntity
  8
0
100
AcDbLine
 10
6.458836
 20
6.093493
 30
0.0
 11
6.415528
 21
6.076188
 31
0.0
  0
LINE
  5
12D
330
18
100
AcDbEntity
  8
0
100
AcDbLine
 10
6.415528
 20
6.076188
 30
0.0
 11
6.415528
 21
5.940314
 31
0.0
  0
LINE
  5
12E
330
18
100
AcDbEntity
  8
0
100
AcDbLine
 10
4.58009
 20
5.832226
 30
0.0
 11
4.52353
 21
5.835923
 31
0.0
  0
LINE
  5
12F
330
18
100
AcDbEntity
  8
0
100
AcDbLine
 10
4.52353
 20
5.835923
 30
0.0
 11
4.570777
 21
5.729947
 31
0.0
  0
LINE
  5
130
330
18
100
AcDbEntity
  8
0
100
AcDbLine
 10
4.570777
 20
5.729947
 30
0.0
 11
4.529824
 21
5.731749
 31
0.0
  0
LINE
  5
131
330
18
100
AcDbEntity
  8
0
100
AcDbLine
 10
4.58009
 20
5.832226
 30
0.0
 11
4.617704
 21
5.907413
 31
0.0
  0
LINE
  5
132
330
18
100
AcDbEntity
  8
0
100
AcDbLine
 10
9.794955999999999
 20
5.176697
 30
0.0
 11
9.744442999999999
 21
5.205273999999999
 31
0.0
  0
LINE
  5
133
330
18
100
AcDbEntity
  8
0
100
AcDbLine
 10
9.744442999999999
 20
5.205273999999999
 30
0.0
 11
9.708335
 21
5.232112999999999
 31
0.0
  0
LINE
  5
134
330
18
100
AcDbEntity
  8
0
100
AcDbLine
 10
9.708335
 20
5.232112999999999
 30
0.0
 11
9.665858999999999
 21
5.275122
 31
0.0
  0
LINE
  5
135
330
18
100
AcDbEntity
  8
0
100
AcDbLine
 10
9.665858999999999
 20
5.275122
 30
0.0
 11
9.654045
 21
5.302066
 31
0.0
  0
LINE
  5
136
330
18
100
AcDbEntity
  8
0
100
AcDbLine
 10
9.654045
 20
5.302066
 30
0.0
 11
9.546787
 21
5.343896
 31
0.0
  0
LINE
  5
137
330
18
100
AcDbEntity
  8
0
100
AcDbLine
 10
9.499811000000001
 20
5.386886
 30
0.0
 11
9.47274
 21
5.404766
 31
0.0
  0
LINE
  5
138
330
18
100
AcDbEntity
  8
0
100
AcDbLine
 10
9.47274
 20
5.404766
 30
0.0
 11
9.436628000000001
 21
5.432505
 31
0.0
  0
LINE
  5
139
330
18
100
AcDbEntity
  8
0
100
AcDbLine
 10
9.436628000000001
 20
5.432505
 30
0.0
 11
9.387976
 21
5.446693
 31
0.0
  0
LINE
  5
13A
330
18
100
AcDbEntity
  8
0
100
AcDbLine
 10
9.387976
 20
5.446693
 30
0.0
 11
9.342901
 21
5.466295
 31
0.0
  0
LINE
  5
13B
330
18
100
AcDbEntity
  8
0
100
AcDbLine
 10
9.342901
 20
5.466295
 30
0.0
 11
9.250067
 21
5.501888999999999
 31
0.0
  0
LINE
  5
13C
330
18
100
AcDbEntity
  8
0
100
AcDbLine
 10
9.250067
 20
5.501888999999999
 30
0.0
 11
9.219488999999999
 21
5.498158
 31
0.0
  0
LINE
  5
13D
330
18
100
AcDbEntity
  8
0
100
AcDbLine
 10
9.219488999999999
 20
5.498158
 30
0.0
 11
9.206803000000001
 21
5.5188
 31
0.0
  0
LINE
  5
13E
330
18
100
AcDbEntity
  8
0
100
AcDbLine
 10
9.206803000000001
 20
5.5188
 30
0.0
 11
9.156367
 21
5.529380999999999
 31
0.0
  0
LINE
  5
13F
330
18
100
AcDbEntity
  8
0
100
AcDbLine
 10
9.080173
 20
5.509332
 30
0.0
 11
9.156367
 21
5.529380999999999
 31
0.0
  0
LINE
  5
140
330
18
100
AcDbEntity
  8
0
100
AcDbLine
 10
9.797793420443085
 20
5.16178604956519
 30
0.0
 11
8.516800999999999
 21
4.795733
 31
0.0
  0
LINE
  5
141
330
18
100
AcDbEntity
  8
0
100
AcDbLine
 10
6.587551
 20
4.244434
 30
0.0
 11
5.668665
 21
3.981855
 31
0.0
  0
ARC
  5
142
330
18
100
AcDbEntity
  8
0
100
AcDbCircle
 10
5.14128
 20
3.378001
 30
0.0
 40
0.618404
100
AcDbArc
 50
330.678387
 51
357.466607
  0
ARC
  5
143
330
18
100
AcDbEntity
  8
0
100
AcDbCircle
 10
5.193493
 20
3.314207
 30
0.0
 40
0.618404
100
AcDbArc
 50
340.018208
 51
4.765262
  0
ARC
  5
144
330
18
100
AcDbEntity
  8
0
100
AcDbCircle
 10
5.251508
 20
3.354804
 30
0.0
 40
0.618404
100
AcDbArc
 50
337.375134
 51
2.621597
  0
LINE
  5
145
330
18
100
AcDbEntity
  8
0
100
AcDbLine
 10
5.919611
 20
3.397904
 30
0.0
 11
5.919604
 21
3.351817
 31
0.0
  0
LINE
  5
146
330
18
100
AcDbEntity
  8
0
100
AcDbLine
 10
5.282575
 20
3.871527
 30
0.0
 11
2.58136920022747
 21
3.099635614605107
 31
0.0
  0
LINE
  5
147
330
18
100
AcDbEntity
  8
0
100
AcDbLine
 10
8.516800999999999
 20
5.253695
 30
0.0
 11
8.516800999999999
 21
4.795733
 31
0.0
  0
LINE
  5
148
330
18
100
AcDbEntity
  8
0
100
AcDbLine
 10
8.516800999999999
 20
4.795733
 30
0.0
 11
8.217136999999999
 21
4.710101
 31
0.0
  0
LINE
  5
149
330
18
100
AcDbEntity
  8
0
100
AcDbLine
 10
8.217136999999999
 20
4.710101
 30
0.0
 11
7.060011
 21
4.379443
 31
0.0
  0
LINE
  5
14A
330
18
100
AcDbEntity
  8
0
100
AcDbLine
 10
8.516800999999999
 20
5.253695
 30
0.0
 11
8.217136999999999
 21
5.168064
 31
0.0
  0
LINE
  5
14B
330
18
100
AcDbEntity
  8
0
100
AcDbLine
 10
8.453823
 20
5.344523000000001
 30
0.0
 11
9.080173
 21
5.509332
 31
0.0
  0
LINE
  5
14C
330
18
100
AcDbEntity
  8
0
100
AcDbLine
 10
8.366969000000001
 20
5.21088
 30
0.0
 11
8.366969000000001
 21
4.752917
 31
0.0
  0
LINE
  5
14D
330
18
100
AcDbEntity
  8
0
100
AcDbLine
 10
7.938971
 20
4.900044
 30
0.0
 11
8.217136999999999
 21
4.710101
 31
0.0
  0
LINE
  5
14E
330
18
100
AcDbEntity
  8
0
100
AcDbLine
 10
4.880477
 20
4.436437000000001
 30
0.0
 11
4.937941
 21
4.375818
 31
0.0
  0
LINE
  5
14F
330
18
100
AcDbEntity
  8
0
100
AcDbLine
 10
5.120753
 20
4.221514
 30
0.0
 11
5.094729
 21
4.248766000000001
 31
0.0
  0
LINE
  5
150
330
18
100
AcDbEntity
  8
0
100
AcDbLine
 10
4.867462000000001
 20
4.533562
 30
0.0
 11
4.937137
 21
4.4629
 31
0.0
  0
LINE
  5
151
330
18
100
AcDbEntity
  8
0
100
AcDbLine
 10
5.136547
 20
4.315163
 30
0.0
 11
5.09432
 21
4.358359
 31
0.0
  0
LINE
  5
152
330
18
100
AcDbEntity
  8
0
100
AcDbLine
 10
4.873304
 20
4.639766000000001
 30
0.0
 11
4.933661
 21
4.578546
 31
0.0
  0
LINE
  5
153
330
18
100
AcDbEntity
  8
0
100
AcDbLine
 10
5.139659
 20
4.428554
 30
0.0
 11
5.102215
 21
4.465784999999999
 31
0.0
  0
LINE
  5
154
330
18
100
AcDbEntity
  8
0
100
AcDbLine
 10
4.871917
 20
4.753137000000001
 30
0.0
 11
4.928648
 21
4.695572
 31
0.0
  0
LINE
  5
155
330
18
100
AcDbEntity
  8
0
100
AcDbLine
 10
5.147581
 20
4.154669999999999
 30
0.0
 11
5.176962000000001
 21
4.123675
 31
0.0
  0
LINE
  5
156
330
18
100
AcDbEntity
  8
0
100
AcDbLine
 10
5.094682
 20
4.210473
 30
0.0
 11
5.108655000000001
 21
4.195732
 31
0.0
  0
LINE
  5
157
330
18
100
AcDbEntity
  8
0
100
AcDbLine
 10
4.901789
 20
4.450812
 30
0.0
 11
4.831508
 21
4.524409
 31
0.0
  0
LINE
  5
158
330
18
100
AcDbEntity
  8
0
100
AcDbLine
 10
5.127503
 20
4.269837
 30
0.0
 11
5.182874
 21
4.213682
 31
0.0
  0
LINE
  5
159
330
18
100
AcDbEntity
  8
0
100
AcDbLine
 10
4.882085
 20
4.575466000000001
 30
0.0
 11
4.823834
 21
4.635054
 31
0.0
  0
LINE
  5
15A
330
18
100
AcDbEntity
  8
0
100
AcDbLine
 10
5.136871
 20
4.372431
 30
0.0
 11
5.186909
 21
4.321678
 31
0.0
  0
LINE
  5
15B
330
18
100
AcDbEntity
  8
0
100
AcDbLine
 10
4.965228
 20
4.490415000000001
 30
0.0
 11
4.932359
 21
4.524038
 31
0.0
  0
LINE
  5
15C
330
18
100
AcDbEntity
  8
0
100
AcDbLine
 10
5.07212
 20
4.438108000000001
 30
0.0
 11
5.10432
 21
4.405447000000001
 31
0.0
  0
LINE
  5
15D
330
18
100
AcDbEntity
  8
0
100
AcDbLine
 10
4.946558000000001
 20
4.620559
 30
0.0
 11
4.920383999999999
 21
4.646585
 31
0.0
  0
LINE
  5
15E
330
18
100
AcDbEntity
  8
0
100
AcDbLine
 10
4.885637
 20
4.681135
 30
0.0
 11
4.829696
 21
4.736758999999999
 31
0.0
  0
LINE
  5
15F
330
18
100
AcDbEntity
  8
0
100
AcDbLine
 10
5.144846
 20
4.476197
 30
0.0
 11
5.1801
 21
4.440425
 31
0.0
  0
LINE
  5
160
330
18
100
AcDbEntity
  8
0
100
AcDbLine
 10
4.953383000000001
 20
5.096176
 30
0.0
 11
4.953383000000001
 21
4.531514
 31
0.0
  0
LINE
  5
161
330
18
100
AcDbEntity
  8
0
  6
HIDDEN
100
AcDbLine
 10
4.953383000000001
 20
4.165902
 30
0.0
 11
4.953383000000001
 21
3.757763
 31
0.0
  0
ARC
  5
162
330
18
100
AcDbEntity
  8
0
  6
HIDDEN
100
AcDbCircle
 10
4.926487
 20
3.560145
 30
0.0
 40
0.09931
100
AcDbArc
 50
59.723188
 51
78.591655
  0
ARC
  5
163
330
18
100
AcDbEntity
  8
0
  6
HIDDEN
100
AcDbCircle
 10
5.011069
 20
3.705025
 30
0.0
 40
0.068453
100
AcDbArc
 50
239.723188
 51
308.75128
  0
LINE
  5
164
330
18
100
AcDbEntity
  8
0
  6
HIDDEN
100
AcDbLine
 10
4.91086
 20
3.660766
 30
0.0
 11
4.933308
 21
3.65922
 31
0.0
  0
LINE
  5
165
330
18
100
AcDbEntity
  8
0
  6
HIDDEN
100
AcDbLine
 10
4.877706
 20
3.704407
 30
0.0
 11
4.887031
 21
3.683141
 31
0.0
  0
ARC
  5
166
330
18
100
AcDbEntity
  8
0
  6
HIDDEN
100
AcDbCircle
 10
4.917445
 20
3.757763
 30
0.0
 40
0.035938
100
AcDbArc
 50
277.483243
 51
327.951815
  0
LINE
  5
167
330
18
100
AcDbEntity
  8
0
  6
HIDDEN
100
AcDbLine
 10
4.911396
 20
3.720721
 30
0.0
 11
4.872778
 21
3.715648
 31
0.0
  0
LINE
  5
168
330
18
100
AcDbEntity
  8
0
100
AcDbLine
 10
4.956112
 20
5.108004
 30
0.0
 11
5.045959
 21
5.29236
 31
0.0
  0
LINE
  5
169
330
18
100
AcDbEntity
  8
0
100
AcDbLine
 10
5.14018
 20
5.128354
 30
0.0
 11
5.072997
 21
4.871169
 31
0.0
  0
LINE
  5
16A
330
18
100
AcDbEntity
  8
0
100
AcDbLine
 10
5.07212
 20
4.864345
 30
0.0
 11
5.07212
 21
4.443455999999999
 31
0.0
  0
LINE
  5
16B
330
18
100
AcDbEntity
  8
0
100
AcDbLine
 10
5.07212
 20
4.10065
 30
0.0
 11
4.953383000000001
 21
4.193781
 31
0.0
  0
LINE
  5
16C
330
18
100
AcDbEntity
  8
0
100
AcDbLine
 10
4.953383000000001
 20
4.711037
 30
0.0
 11
4.789555
 21
4.864361
 31
0.0
  0
ARC
  5
16D
330
18
100
AcDbEntity
  8
0
100
AcDbCircle
 10
4.980383
 20
5.096176
 30
0.0
 40
0.027
100
AcDbArc
 50
154.01764
 51
180.0
  0
LINE
  5
16E
330
18
100
AcDbEntity
  8
0
100
AcDbLine
 10
5.065592
 20
5.302854
 30
0.0
 11
5.138523
 21
5.146597
 31
0.0
  0
LINE
  5
16F
330
18
100
AcDbEntity
  8
0
  6
HIDDEN
100
AcDbLine
 10
5.041699
 20
5.318429
 30
0.0
 11
4.915366000000001
 21
5.321111
 31
0.0
  0
LINE
  5
170
330
18
100
AcDbEntity
  8
0
  6
HIDDEN
100
AcDbLine
 10
4.915366000000001
 20
5.321111
 30
0.0
 11
4.880012000000001
 21
5.172488
 31
0.0
  0
LINE
  5
171
330
18
100
AcDbEntity
  8
0
  6
HIDDEN
100
AcDbLine
 10
4.880012000000001
 20
5.172488
 30
0.0
 11
4.961048
 21
5.160239
 31
0.0
  0
ARC
  5
172
330
18
100
AcDbEntity
  8
0
100
AcDbCircle
 10
5.114057
 20
5.135178
 30
0.0
 40
0.027
100
AcDbArc
 50
345.360054
 51
25.020167
  0
ARC
  5
173
330
18
100
AcDbEntity
  8
0
100
AcDbCircle
 10
5.041126
 20
5.291435
 30
0.0
 40
0.027
100
AcDbArc
 50
25.020167
 51
88.783869
  0
LINE
  5
174
330
18
100
AcDbEntity
  8
0
100
AcDbLine
 10
5.137802
 20
5.119249
 30
0.0
 11
5.938607
 21
3.403494
 31
0.0
  0
ARC
  5
175
330
18
100
AcDbEntity
  8
0
100
AcDbCircle
 10
5.021687
 20
5.304189
 30
0.0
 40
0.027
100
AcDbArc
 50
334.01764
 51
25.020167
  0
LINE
  5
176
330
18
100
AcDbEntity
  8
0
100
AcDbLine
 10
5.057385
 20
4.903557
 30
0.0
 11
4.97907
 21
5.082362
 31
0.0
  0
LINE
  5
177
330
18
100
AcDbEntity
  8
0
100
AcDbLine
 10
4.962288
 20
5.120677
 30
0.0
 11
4.617704
 21
5.907413
 31
0.0
  0
LINE
  5
178
330
18
100
AcDbEntity
  8
0
100
AcDbLine
 10
5.07212
 20
4.385946
 30
0.0
 11
5.058816
 21
4.395812
 31
0.0
  0
LINE
  5
179
330
18
100
AcDbEntity
  8
0
100
AcDbLine
 10
5.058816
 20
4.395812
 30
0.0
 11
5.058816
 21
4.453322
 31
0.0
  0
LINE
  5
17A
330
18
100
AcDbEntity
  8
0
100
AcDbLine
 10
5.07212
 20
4.443455999999999
 30
0.0
 11
5.058816
 21
4.453322
 31
0.0
  0
LINE
  5
17B
330
18
100
AcDbEntity
  8
0
100
AcDbLine
 10
5.07212
 20
4.385946
 30
0.0
 11
5.07212
 21
4.10065
 31
0.0
  0
LINE
  5
17C
330
18
100
AcDbEntity
  8
0
100
AcDbLine
 10
5.081083000000001
 20
4.898657
 30
0.0
 11
5.081083000000001
 21
4.451593
 31
0.0
  0
LINE
  5
17D
330
18
100
AcDbEntity
  8
0
100
AcDbLine
 10
5.067779
 20
4.403949
 30
0.0
 11
5.067779
 21
4.446675
 31
0.0
  0
LINE
  5
17E
330
18
100
AcDbEntity
  8
0
100
AcDbLine
 10
5.081083000000001
 20
4.394082
 30
0.0
 11
5.081083000000001
 21
4.108787
 31
0.0
  0
LINE
  5
17F
330
18
100
AcDbEntity
  8
0
100
AcDbLine
 10
5.081083000000001
 20
4.108787
 30
0.0
 11
5.07212
 21
4.10065
 31
0.0
  0
LINE
  5
180
330
18
100
AcDbEntity
  8
0
100
AcDbLine
 10
5.081083000000001
 20
4.179334
 30
0.0
 11
5.225954
 21
4.030304
 31
0.0
  0
LINE
  5
181
330
18
100
AcDbEntity
  8
0
100
AcDbLine
 10
5.081083000000001
 20
4.394082
 30
0.0
 11
5.067779
 21
4.403949
 31
0.0
  0
LINE
  5
182
330
18
100
AcDbEntity
  8
0
100
AcDbLine
 10
5.067779
 20
4.403949
 30
0.0
 11
5.058816
 21
4.395812
 31
0.0
  0
LINE
  5
183
330
18
100
AcDbEntity
  8
0
100
AcDbLine
 10
5.081083000000001
 20
4.394082
 30
0.0
 11
5.07212
 21
4.385946
 31
0.0
  0
LINE
  5
184
330
18
100
AcDbEntity
  8
0
100
AcDbLine
 10
5.081083000000001
 20
4.451593
 30
0.0
 11
5.07212
 21
4.443455999999999
 31
0.0
  0
ARC
  5
185
330
18
100
AcDbEntity
  8
0
100
AcDbCircle
 10
5.108083000000001
 20
4.898657
 30
0.0
 40
0.027
100
AcDbArc
 50
165.360054
 51
180.0
  0
ARC
  5
186
330
18
100
AcDbEntity
  8
0
100
AcDbCircle
 10
5.09912
 20
4.864345
 30
0.0
 40
0.027
100
AcDbArc
 50
165.360054
 51
180.0
  0
LINE
  5
187
330
18
100
AcDbEntity
  8
0
100
AcDbLine
 10
4.965228
 20
4.46522
 30
0.0
 11
4.965228
 21
4.52273
 31
0.0
  0
LINE
  5
188
330
18
100
AcDbEntity
  8
0
100
AcDbLine
 10
4.965228
 20
4.46522
 30
0.0
 11
4.953383000000001
 21
4.474004
 31
0.0
  0
LINE
  5
189
330
18
100
AcDbEntity
  8
0
100
AcDbLine
 10
4.965228
 20
4.52273
 30
0.0
 11
4.953383000000001
 21
4.531514
 31
0.0
  0
LINE
  5
18A
330
18
100
AcDbEntity
  8
0
100
AcDbLine
 10
4.953383000000001
 20
4.474004
 30
0.0
 11
4.953383000000001
 21
4.193781
 31
0.0
  0
LINE
  5
18B
330
18
100
AcDbEntity
  8
0
100
AcDbLine
 10
4.965228
 20
4.484756
 30
0.0
 11
4.953383000000001
 21
4.474004
 31
0.0
  0
LINE
  5
18C
330
18
100
AcDbEntity
  8
0
  6
HIDDEN
100
AcDbLine
 10
4.938044000000001
 20
3.685005
 30
0.0
 11
5.006463
 21
3.67478
 31
0.0
  0
LINE
  5
18D
330
18
100
AcDbEntity
  8
0
  6
HIDDEN
100
AcDbLine
 10
5.001434
 20
3.717656
 30
0.0
 11
5.001434
 21
3.757991000000001
 31
0.0
  0
LINE
  5
18E
330
18
100
AcDbEntity
  8
0
  6
HIDDEN
100
AcDbLine
 10
4.991229
 20
3.708737
 30
0.0
 11
4.966324
 21
3.712103
 31
0.0
  0
ARC
  5
18F
330
18
100
AcDbEntity
  8
0
  6
HIDDEN
100
AcDbCircle
 10
4.992433999999999
 20
3.717656
 30
0.0
 40
0.009
100
AcDbArc
 50
262.302849
 51
0.0
  0
ARC
  5
190
330
18
100
AcDbEntity
  8
0
  6
HIDDEN
100
AcDbCircle
 10
5.022314
 20
3.767725
 30
0.0
 40
0.02091
100
AcDbArc
 50
58.973333
 51
183.078996
  0
ARC
  5
191
330
18
100
AcDbEntity
  8
0
  6
HIDDEN
100
AcDbCircle
 10
5.028453
 20
3.777932
 30
0.0
 40
0.009
100
AcDbArc
 50
0.0
 51
58.973333
  0
ARC
  5
192
330
18
100
AcDbEntity
  8
0
  6
HIDDEN
100
AcDbCircle
 10
4.955374
 20
3.686936
 30
0.0
 40
0.026452
100
AcDbArc
 50
85.671188
 51
127.838347
  0
ARC
  5
193
330
18
100
AcDbEntity
  8
0
  6
HIDDEN
100
AcDbCircle
 10
4.939374
 20
3.693906
 30
0.0
 40
0.009
100
AcDbArc
 50
156.460454
 51
261.500159
  0
LINE
  5
194
330
18
100
AcDbEntity
  8
0
  6
HIDDEN
100
AcDbLine
 10
5.037453
 20
3.715518
 30
0.0
 11
5.037453
 21
3.765815
 31
0.0
  0
ARC
  5
195
330
18
100
AcDbEntity
  8
0
  6
HIDDEN
100
AcDbCircle
 10
5.010453
 20
3.701483
 30
0.0
 40
0.027
100
AcDbArc
 50
284.981895
 51
0.0
  0
LINE
  5
196
330
18
100
AcDbEntity
  8
0
  6
HIDDEN
100
AcDbLine
 10
5.073651
 20
3.678635
 30
0.0
 11
5.073651
 21
4.089026000000001
 31
0.0
  0
LINE
  5
197
330
18
100
AcDbEntity
  8
0
  6
HIDDEN
100
AcDbLine
 10
4.891913
 20
3.672006
 30
0.0
 11
4.896405000000001
 21
3.661761
 31
0.0
  0
TEXT
  5
198
330
18
100
AcDbEntity
  8
0
100
AcDbText
 10
4.867230333333334
 20
3.379296
 30
0.0
 40
0.1
  1
4"
 41
0.8
 72
     1
 11
4.933897
 21
3.379296
 31
0.0
100
AcDbText
  0
TEXT
  5
199
330
18
100
AcDbEntity
  8
0
100
AcDbText
 10
4.575801761904762
 20
3.197153
 30
0.0
 40
0.1
  1
EMBEDMENT
 41
0.8
 72
     1
 11
4.933897
 21
3.197153
 31
0.0
100
AcDbText
  0
SOLID
  5
19A
330
18
100
AcDbEntity
  8
0
100
AcDbTrace
 10
4.724231
 20
3.627945
 30
0.0
 11
4.737371
 21
3.592823
 31
0.0
 12
4.836168
 22
3.649804
 32
0.0
 13
4.836168
 23
3.649804
 33
0.0
  0
LINE
  5
19B
330
18
100
AcDbEntity
  8
0
100
AcDbLine
 10
4.730801000000001
 20
3.610384
 30
0.0
 11
4.554287
 21
3.544346
 31
0.0
  0
LINE
  5
19C
330
18
100
AcDbEntity
  8
0
100
AcDbLine
 10
4.823642
 20
3.423896
 30
0.0
 11
4.580775
 21
3.413685
 31
0.0
  0
ARC
  5
19D
330
18
100
AcDbEntity
  8
0
100
AcDbCircle
 10
4.577939
 20
3.481125
 30
0.0
 40
0.0675
100
AcDbArc
 50
110.512019
 51
272.407401
  0
TEXT
  5
19E
330
18
100
AcDbEntity
  8
0
100
AcDbText
 10
5.988070761904762
 20
3.621504
 30
0.0
 40
0.1
  1
EMBEDMENT
 41
0.8
 72
     1
 11
6.346166
 21
3.621504
 31
0.0
100
AcDbText
  0
LINE
  5
19F
330
18
100
AcDbEntity
  8
0
100
AcDbLine
 10
6.203941
 20
3.848246
 30
0.0
 11
6.003865
 21
3.839834
 31
0.0
  0
TEXT
  5
1A0
330
18
100
AcDbEntity
  8
0
100
AcDbText
 10
6.279499333333334
 20
3.803647
 30
0.0
 40
0.1
  1
4"
 41
0.8
 72
     1
 11
6.346166
 21
3.803647
 31
0.0
100
AcDbText
  0
LINE
  5
1A1
330
18
100
AcDbEntity
  8
0
  6
HIDDEN
100
AcDbLine
 10
6.374879
 20
4.066612999999999
 30
0.0
 11
6.374879
 21
5.063812
 31
0.0
  0
LINE
  5
1A2
330
18
100
AcDbEntity
  8
0
  6
HIDDEN
100
AcDbLine
 10
6.386508999999999
 20
4.289043
 30
0.0
 11
6.386508999999999
 21
5.038567
 31
0.0
  0
ARC
  5
1A3
330
18
100
AcDbEntity
  8
0
  6
HIDDEN
100
AcDbCircle
 10
6.329879
 20
4.066612999999999
 30
0.0
 40
0.045
100
AcDbArc
 50
267.285385
 51
0.0
  0
LINE
  5
1A4
330
18
100
AcDbEntity
  8
0
  6
HIDDEN
100
AcDbLine
 10
6.15428
 20
4.097283
 30
0.0
 11
6.164969999999999
 21
4.122523999999999
 31
0.0
  0
LINE
  5
1A5
330
18
100
AcDbEntity
  8
0
  6
HIDDEN
100
AcDbLine
 10
6.247082
 20
4.481897
 30
0.0
 11
6.247082
 21
4.111447
 31
0.0
  0
ARC
  5
1A6
330
18
100
AcDbEntity
  8
0
  6
HIDDEN
100
AcDbCircle
 10
6.155482
 20
4.027101999999999
 30
0.0
 40
0.070191
100
AcDbArc
 50
11.400981
 51
79.533198
  0
LINE
  5
1A7
330
18
100
AcDbEntity
  8
0
  6
HIDDEN
100
AcDbLine
 10
6.239088
 20
4.025868
 30
0.0
 11
6.327748000000001
 21
4.021664
 31
0.0
  0
LINE
  5
1A8
330
18
100
AcDbEntity
  8
0
  6
HIDDEN
100
AcDbLine
 10
6.185915000000001
 20
4.116673000000001
 30
0.0
 11
6.221753
 21
4.106663
 31
0.0
  0
ARC
  5
1A9
330
18
100
AcDbEntity
  8
0
  6
HIDDEN
100
AcDbCircle
 10
6.238082
 20
4.111447
 30
0.0
 40
0.009
100
AcDbArc
 50
254.394393
 51
0.0
  0
LINE
  5
1AA
330
18
100
AcDbEntity
  8
0
  6
HIDDEN
100
AcDbLine
 10
6.226001
 20
4.097123000000001
 30
0.0
 11
6.231765
 21
4.096718
 31
0.0
  0
ARC
  5
1AB
330
18
100
AcDbEntity
  8
0
  6
HIDDEN
100
AcDbCircle
 10
6.314743
 20
4.147945
 30
0.0
 40
0.030185
100
AcDbArc
 50
88.324027
 51
90.538578
  0
ARC
  5
1AC
330
18
100
AcDbEntity
  8
0
  6
HIDDEN
100
AcDbCircle
 10
6.315363
 20
4.169121
 30
0.0
 40
0.009
100
AcDbArc
 50
0.0
 51
88.324027
  0
ARC
  5
1AD
330
18
100
AcDbEntity
  8
0
  6
HIDDEN
100
AcDbCircle
 10
6.275705
 20
4.102651
 30
0.0
 40
0.009
100
AcDbArc
 50
265.978428
 51
0.0
  0
ARC
  5
1AE
330
18
100
AcDbEntity
  8
0
  6
HIDDEN
100
AcDbCircle
 10
6.22537
 20
4.088145
 30
0.0
 40
0.009
100
AcDbArc
 50
85.97842800000001
 51
209.326708
  0
LINE
  5
1AF
330
18
100
AcDbEntity
  8
0
  6
HIDDEN
100
AcDbLine
 10
6.259166000000001
 20
4.065608
 30
0.0
 11
6.289274
 21
4.063491
 31
0.0
  0
ARC
  5
1B0
330
18
100
AcDbEntity
  8
0
  6
HIDDEN
100
AcDbCircle
 10
6.247705000000001
 20
4.100693
 30
0.0
 40
0.034619
100
AcDbArc
 50
226.842316
 51
274.954034
  0
LINE
  5
1B1
330
18
100
AcDbEntity
  8
0
  6
HIDDEN
100
AcDbLine
 10
6.243698
 20
4.095879
 30
0.0
 11
6.265585
 21
4.09434
 31
0.0
  0
LINE
  5
1B2
330
18
100
AcDbEntity
  8
0
  6
HIDDEN
100
AcDbLine
 10
6.284705000000001
 20
4.11453
 30
0.0
 11
6.284705000000001
 21
4.141405000000001
 31
0.0
  0
ARC
  5
1B3
330
18
100
AcDbEntity
  8
0
  6
HIDDEN
100
AcDbCircle
 10
6.314743
 20
4.147945
 30
0.0
 40
0.030185
100
AcDbArc
 50
120.663269
 51
174.328483
  0
LINE
  5
1B4
330
18
100
AcDbEntity
  8
0
  6
HIDDEN
100
AcDbLine
 10
6.324363
 20
4.098242
 30
0.0
 11
6.324363
 21
4.169121
 31
0.0
  0
ARC
  5
1B5
330
18
100
AcDbEntity
  8
0
  6
HIDDEN
100
AcDbCircle
 10
6.297363
 20
4.089989
 30
0.0
 40
0.027
100
AcDbArc
 50
273.553771
 51
0.0
  0
LINE
  5
1B6
330
18
100
AcDbEntity
  8
0
100
AcDbLine
 10
6.117982
 20
4.796287
 30
0.0
 11
6.178508
 21
4.748212000000001
 31
0.0
  0
LINE
  5
1B7
330
18
100
AcDbEntity
  8
0
100
AcDbLine
 10
6.420298000000001
 20
4.592427
 30
0.0
 11
6.387593
 21
4.618761
 31
0.0
  0
LINE
  5
1B8
330
18
100
AcDbEntity
  8
0
100
AcDbLine
 10
6.106782
 20
4.889819999999999
 30
0.0
 11
6.159559
 21
4.846586
 31
0.0
  0
LINE
  5
1B9
330
18
100
AcDbEntity
  8
0
100
AcDbLine
 10
6.15536
 20
4.892728
 30
0.0
 11
6.209537999999999
 21
4.84887
 31
0.0
  0
LINE
  5
1BA
330
18
100
AcDbEntity
  8
0
100
AcDbLine
 10
6.106399
 20
4.9789
 30
0.0
 11
6.150376000000001
 21
4.941875
 31
0.0
  0
LINE
  5
1BB
330
18
100
AcDbEntity
  8
0
100
AcDbLine
 10
6.155004
 20
4.97551
 30
0.0
 11
6.204775
 21
4.934971
 31
0.0
  0
LINE
  5
1BC
330
18
100
AcDbEntity
  8
0
100
AcDbLine
 10
6.234276
 20
4.955155
 30
0.0
 11
6.204959
 21
4.977303
 31
0.0
  0
LINE
  5
1BD
330
18
100
AcDbEntity
  8
0
100
AcDbLine
 10
6.148067
 20
5.020283
 30
0.0
 11
6.105182
 21
5.052680000000001
 31
0.0
  0
LINE
  5
1BE
330
18
100
AcDbEntity
  8
0
100
AcDbLine
 10
6.207569
 20
4.893721
 30
0.0
 11
6.23825
 21
4.86789
 31
0.0
  0
LINE
  5
1BF
330
18
100
AcDbEntity
  8
0
100
AcDbLine
 10
6.220737000000001
 20
4.753108999999999
 30
0.0
 11
6.155735
 21
4.805447
 31
0.0
  0
LINE
  5
1C0
330
18
100
AcDbEntity
  8
0
100
AcDbLine
 10
6.220653
 20
4.714737
 30
0.0
 11
6.247082
 21
4.693744000000001
 31
0.0
  0
LINE
  5
1C1
330
18
100
AcDbEntity
  8
0
100
AcDbLine
 10
6.205455000000001
 20
4.808989
 30
0.0
 11
6.236814
 21
4.7833
 31
0.0
  0
LINE
  5
1C2
330
18
100
AcDbEntity
  8
0
100
AcDbLine
 10
6.377463
 20
4.794317
 30
0.0
 11
6.413257
 21
4.765162999999999
 31
0.0
  0
LINE
  5
1C3
330
18
100
AcDbEntity
  8
0
100
AcDbLine
 10
6.768097999999999
 20
4.900965
 30
0.0
 11
7.612311999999999
 21
5.1231
 31
0.0
  0
LINE
  5
1C4
330
18
100
AcDbEntity
  8
0
100
AcDbLine
 10
6.349446
 20
5.674153
 30
0.0
 11
6.410655
 21
5.564799
 31
0.0
  0
ARC
  5
1C5
330
18
100
AcDbEntity
  8
0
100
AcDbCircle
 10
6.3809
 20
5.562679
 30
0.0
 40
0.027
100
AcDbArc
 50
349.896193
 51
29.237197
  0
ARC
  5
1C6
330
18
100
AcDbEntity
  8
0
100
AcDbCircle
 10
6.303931
 20
5.674951
 30
0.0
 40
0.027
100
AcDbArc
 50
344.427127
 51
29.237197
  0
LINE
  5
1C7
330
18
100
AcDbEntity
  8
0
  6
HIDDEN
100
AcDbLine
 10
6.297716
 20
5.686980999999999
 30
0.0
 11
6.324926000000001
 21
5.687949
 31
0.0
  0
ARC
  5
1C8
330
18
100
AcDbEntity
  8
0
100
AcDbCircle
 10
6.325886
 20
5.660966
 30
0.0
 40
0.027
100
AcDbArc
 50
29.237197
 51
92.036232
  0
LINE
  5
1C9
330
18
100
AcDbEntity
  8
0
  6
HIDDEN
100
AcDbLine
 10
6.295058999999999
 20
5.677072
 30
0.0
 11
6.291796
 21
5.598774
 31
0.0
  0
LINE
  5
1CA
330
18
100
AcDbEntity
  8
0
100
AcDbLine
 10
6.291796
 20
5.598774
 30
0.0
 11
6.301702
 21
5.597017
 31
0.0
  0
ARC
  5
1CB
330
18
100
AcDbEntity
  8
0
100
AcDbCircle
 10
6.274082
 20
5.366706
 30
0.0
 40
0.027
100
AcDbArc
 50
164.427127
 51
180.0
  0
LINE
  5
1CC
330
18
100
AcDbEntity
  8
0
100
AcDbLine
 10
6.247745
 20
5.367063
 30
0.0
 11
5.823296
 21
6.155548000000001
 31
0.0
  0
LINE
  5
1CD
330
18
100
AcDbEntity
  8
0
100
AcDbLine
 10
6.337515
 20
5.2003
 30
0.0
 11
6.270861
 21
5.324121
 31
0.0
  0
LINE
  5
1CE
330
18
100
AcDbEntity
  8
0
100
AcDbLine
 10
6.40446
 20
5.575867
 30
0.0
 11
6.466252
 21
5.465471
 31
0.0
  0
ARC
  5
1CF
330
18
100
AcDbEntity
  8
0
100
AcDbCircle
 10
6.442692
 20
5.452283
 30
0.0
 40
0.027
100
AcDbArc
 50
0.0
 51
29.237197
  0
ARC
  5
1D0
330
18
100
AcDbEntity
  8
0
100
AcDbCircle
 10
6.442692
 20
5.452499
 30
0.0
 40
0.027
100
AcDbArc
 50
0.0
 51
76.675887
  0
LINE
  5
1D1
330
18
100
AcDbEntity
  8
0
100
AcDbLine
 10
6.469692
 20
5.434087
 30
0.0
 11
6.643622
 21
5.12335
 31
0.0
  0
LINE
  5
1D2
330
18
100
AcDbEntity
  8
0
100
AcDbLine
 10
6.170824
 20
5.272519
 30
0.0
 11
6.247082
 21
5.258474
 31
0.0
  0
LINE
  5
1D3
330
18
100
AcDbEntity
  8
0
100
AcDbLine
 10
6.170824
 20
5.272519
 30
0.0
 11
6.172234
 21
5.153749
 31
0.0
  0
LINE
  5
1D4
330
18
100
AcDbEntity
  8
0
100
AcDbLine
 10
6.172234
 20
5.153749
 30
0.0
 11
6.247082
 21
5.134266
 31
0.0
  0
LINE
  5
1D5
330
18
100
AcDbEntity
  8
0
100
AcDbLine
 10
6.355286
 20
4.42634
 30
0.0
 11
6.355286
 21
4.726516999999999
 31
0.0
  0
LINE
  5
1D6
330
18
100
AcDbEntity
  8
0
100
AcDbLine
 10
6.355286
 20
4.547643
 30
0.0
 11
6.442416000000001
 21
4.471047
 31
0.0
  0
LINE
  5
1D7
330
18
100
AcDbEntity
  8
0
100
AcDbLine
 10
6.247082
 20
4.988858000000001
 30
0.0
 11
6.062524
 21
5.137980000000001
 31
0.0
  0
SOLID
  5
1D8
330
18
100
AcDbEntity
  8
0
100
AcDbTrace
 10
6.053733
 20
4.020589
 30
0.0
 11
6.063744
 21
3.98445
 31
0.0
 12
6.167155999999999
 22
4.032551
 32
0.0
 13
6.167155999999999
 23
4.032551
 33
0.0
  0
LINE
  5
1D9
330
18
100
AcDbEntity
  8
0
100
AcDbLine
 10
6.058739
 20
4.00252
 30
0.0
 11
5.98162
 21
3.981158
 31
0.0
  0
ARC
  5
1DA
330
18
100
AcDbEntity
  8
0
100
AcDbCircle
 10
6.000841
 20
3.911771
 30
0.0
 40
0.072
100
AcDbArc
 50
105.482574
 51
272.407401
  0
LINE
  5
1DB
330
18
100
AcDbEntity
  8
0
  6
HIDDEN
100
AcDbLine
 10
6.490639
 20
4.347079
 30
0.0
 11
6.525785
 21
4.334633
 31
0.0
  0
LINE
  5
1DC
330
18
100
AcDbEntity
  8
0
100
AcDbLine
 10
6.258927
 20
4.817515
 30
0.0
 11
6.247082
 21
4.806763
 31
0.0
  0
LINE
  5
1DD
330
18
100
AcDbEntity
  8
0
100
AcDbLine
 10
6.258927
 20
4.855489
 30
0.0
 11
6.247082
 21
4.864273000000001
 31
0.0
  0
LINE
  5
1DE
330
18
100
AcDbEntity
  8
0
100
AcDbLine
 10
6.258927
 20
4.797978
 30
0.0
 11
6.247082
 21
4.806763
 31
0.0
  0
LINE
  5
1DF
330
18
100
AcDbEntity
  8
0
100
AcDbLine
 10
6.258927
 20
4.797978
 30
0.0
 11
6.258927
 21
4.855489
 31
0.0
  0
LINE
  5
1E0
330
18
100
AcDbEntity
  8
0
100
AcDbLine
 10
6.355286
 20
4.784027
 30
0.0
 11
6.343611
 21
4.792685
 31
0.0
  0
LINE
  5
1E1
330
18
100
AcDbEntity
  8
0
100
AcDbLine
 10
6.355286
 20
4.726516999999999
 30
0.0
 11
6.343611
 21
4.735174
 31
0.0
  0
LINE
  5
1E2
330
18
100
AcDbEntity
  8
0
100
AcDbLine
 10
6.355286
 20
4.784027
 30
0.0
 11
6.355286
 21
5.177292
 31
0.0
  0
LINE
  5
1E3
330
18
100
AcDbEntity
  8
0
100
AcDbLine
 10
6.247082
 20
4.806763
 30
0.0
 11
6.247082
 21
4.505307
 31
0.0
  0
LINE
  5
1E4
330
18
100
AcDbEntity
  8
0
100
AcDbLine
 10
6.362703
 20
4.79076
 30
0.0
 11
6.362703
 21
5.173081
 31
0.0
  0
LINE
  5
1E5
330
18
100
AcDbEntity
  8
0
100
AcDbLine
 10
6.362703
 20
4.433073
 30
0.0
 11
6.362703
 21
4.73325
 31
0.0
  0
LINE
  5
1E6
330
18
100
AcDbEntity
  8
0
100
AcDbLine
 10
6.351028
 20
4.741908000000001
 30
0.0
 11
6.351028
 21
4.787184
 31
0.0
  0
LINE
  5
1E7
330
18
100
AcDbEntity
  8
0
100
AcDbLine
 10
6.362703
 20
4.73325
 30
0.0
 11
6.351028
 21
4.741908000000001
 31
0.0
  0
LINE
  5
1E8
330
18
100
AcDbEntity
  8
0
100
AcDbLine
 10
6.362703
 20
4.79076
 30
0.0
 11
6.355286
 21
4.784027
 31
0.0
  0
LINE
  5
1E9
330
18
100
AcDbEntity
  8
0
100
AcDbLine
 10
6.351028
 20
4.741908000000001
 30
0.0
 11
6.343611
 21
4.735174
 31
0.0
  0
LINE
  5
1EA
330
18
100
AcDbEntity
  8
0
100
AcDbLine
 10
6.362703
 20
4.73325
 30
0.0
 11
6.355286
 21
4.726516999999999
 31
0.0
  0
LINE
  5
1EB
330
18
100
AcDbEntity
  8
0
100
AcDbLine
 10
6.247082
 20
4.505307
 30
0.0
 11
6.355286
 21
4.42634
 31
0.0
  0
LINE
  5
1EC
330
18
100
AcDbEntity
  8
0
100
AcDbLine
 10
6.355286
 20
4.42634
 30
0.0
 11
6.362703
 21
4.433073
 31
0.0
  0
LINE
  5
1ED
330
18
100
AcDbEntity
  8
0
100
AcDbLine
 10
6.36376
 20
4.434309
 30
0.0
 11
6.586235
 21
4.244058
 31
0.0
  0
ARC
  5
1EE
330
18
100
AcDbEntity
  8
0
100
AcDbCircle
 10
6.382286
 20
5.177292
 30
0.0
 40
0.027
100
AcDbArc
 50
169.896193
 51
180.0
  0
LINE
  5
1EF
330
18
100
AcDbEntity
  8
0
100
AcDbLine
 10
6.363121
 20
5.177818
 30
0.0
 11
6.413676000000001
 21
5.546875
 31
0.0
  0
ARC
  5
1F0
330
18
100
AcDbEntity
  8
0
100
AcDbCircle
 10
6.389703
 20
5.173081
 30
0.0
 40
0.027
100
AcDbArc
 50
169.896193
 51
180.0
  0
ARC
  5
1F1
330
18
100
AcDbEntity
  8
0
100
AcDbCircle
 10
6.387095
 20
5.551611
 30
0.0
 40
0.027
100
AcDbArc
 50
349.896193
 51
29.237197
  0
ARC
  5
1F2
330
18
100
AcDbEntity
  8
0
100
AcDbCircle
 10
6.442692
 20
5.443338
 30
0.0
 40
0.027
100
AcDbArc
 50
0.0
 51
76.675887
  0
LINE
  5
1F3
330
18
100
AcDbEntity
  8
0
100
AcDbLine
 10
6.404532
 20
5.480123000000001
 30
0.0
 11
6.448915
 21
5.469612000000001
 31
0.0
  0
LINE
  5
1F4
330
18
100
AcDbEntity
  8
0
100
AcDbLine
 10
6.405748
 20
5.488995
 30
0.0
 11
6.448915
 21
5.478772
 31
0.0
  0
LINE
  5
1F5
330
18
100
AcDbEntity
  8
0
100
AcDbLine
 10
6.386676000000001
 20
5.349772
 30
0.0
 11
6.472926
 21
5.19265
 31
0.0
  0
LINE
  5
1F6
330
18
100
AcDbEntity
  8
0
100
AcDbLine
 10
6.469692
 20
5.443338
 30
0.0
 11
6.469692
 21
5.452499
 31
0.0
  0
LINE
  5
1F7
330
18
100
AcDbEntity
  8
0
  6
HIDDEN
100
AcDbLine
 10
6.759085000000001
 20
4.935264
 30
0.0
 11
6.759085000000001
 21
3.97657
 31
0.0
  0
LINE
  5
1F8
330
18
100
AcDbEntity
  8
0
  6
HIDDEN
100
AcDbLine
 10
6.778389999999999
 20
3.973091
 30
0.0
 11
6.853725999999999
 21
4.031004
 31
0.0
  0
ARC
  5
1F9
330
18
100
AcDbEntity
  8
0
  6
HIDDEN
100
AcDbCircle
 10
6.781662
 20
4.124748
 30
0.0
 40
0.118242
100
AcDbArc
 50
307.550269
 51
332.820804
  0
ARC
  5
1FA
330
18
100
AcDbEntity
  8
0
  6
HIDDEN
100
AcDbCircle
 10
6.873225
 20
4.116132
 30
0.0
 40
0.047394
100
AcDbArc
 50
204.353438
 51
286.7043220000001
  0
ARC
  5
1FB
330
18
100
AcDbEntity
  8
0
  6
HIDDEN
100
AcDbCircle
 10
6.791564
 20
4.079169
 30
0.0
 40
0.042243
100
AcDbArc
 50
24.353438
 51
140.250256
  0
LINE
  5
1FC
330
18
100
AcDbEntity
  8
0
  6
HIDDEN
100
AcDbLine
 10
6.776366
 20
4.025272
 30
0.0
 11
6.792508
 21
4.037939
 31
0.0
  0
ARC
  5
1FD
330
18
100
AcDbEntity
  8
0
  6
HIDDEN
100
AcDbCircle
 10
6.777897
 20
4.056558
 30
0.0
 40
0.023668
100
AcDbArc
 50
308.121305
 51
94.28289100000002
  0
ARC
  5
1FE
330
18
100
AcDbEntity
  8
0
  6
HIDDEN
100
AcDbCircle
 10
6.61014
 20
3.928905
 30
0.0
 40
0.125082
100
AcDbArc
 50
25.043497
 51
52.323322
  0
ARC
  5
1FF
330
18
100
AcDbEntity
  8
0
  6
HIDDEN
100
AcDbCircle
 10
6.692092
 20
4.035028
 30
0.0
 40
0.009
100
AcDbArc
 50
180.0
 51
232.323322
  0
LINE
  5
200
330
18
100
AcDbEntity
  8
0
100
AcDbLine
 10
6.362703
 20
5.091414
 30
0.0
 11
6.742417999999999
 21
4.934124
 31
0.0
  0
LINE
  5
201
330
18
100
AcDbEntity
  8
0
100
AcDbLine
 10
6.362703
 20
5.105815
 30
0.0
 11
6.742417999999999
 21
4.948525
 31
0.0
  0
LINE
  5
202
330
18
100
AcDbEntity
  8
0
100
AcDbLine
 10
6.370831
 20
5.234099
 30
0.0
 11
6.653127000000001
 21
5.119491
 31
0.0
  0
LINE
  5
203
330
18
100
AcDbEntity
  8
0
100
AcDbLine
 10
6.666530000000001
 20
5.107662
 30
0.0
 11
6.755646000000001
 21
4.948451
 31
0.0
  0
ARC
  5
204
330
18
100
AcDbEntity
  8
0
100
AcDbCircle
 10
6.64297
 20
5.094474
 30
0.0
 40
0.027
100
AcDbArc
 50
29.237197
 51
67.90349999999999
  0
ARC
  5
205
330
18
100
AcDbEntity
  8
0
100
AcDbCircle
 10
6.732085000000001
 20
4.909179
 30
0.0
 40
0.027
100
AcDbArc
 50
0.0
 51
67.49913199999999
  0
ARC
  5
206
330
18
100
AcDbEntity
  8
0
100
AcDbCircle
 10
6.732085000000001
 20
4.92358
 30
0.0
 40
0.027
100
AcDbArc
 50
0.0
 51
67.49913199999999
  0
ARC
  5
207
330
18
100
AcDbEntity
  8
0
100
AcDbCircle
 10
6.732085000000001
 20
4.935264
 30
0.0
 40
0.027
100
AcDbArc
 50
0.0
 51
29.237197
  0
LINE
  5
208
330
18
100
AcDbEntity
  8
0
100
AcDbLine
 10
6.762447
 20
4.911061
 30
0.0
 11
7.347536999999999
 21
3.86576
 31
0.0
  0
LINE
  5
209
330
18
100
AcDbEntity
  8
0
  6
HIDDEN
100
AcDbLine
 10
6.683092
 20
4.943584
 30
0.0
 11
6.683092
 21
4.035028
 31
0.0
  0
LINE
  5
20A
330
18
100
AcDbEntity
  8
0
  6
HIDDEN
100
AcDbLine
 10
6.469692
 20
5.047096
 30
0.0
 11
6.469692
 21
4.249796
 31
0.0
  0
LINE
  5
20B
330
18
100
AcDbEntity
  8
0
100
AcDbLine
 10
6.577292999999999
 20
5.002524
 30
0.0
 11
7.223083
 21
3.826083
 31
0.0
  0
LINE
  5
20C
330
18
100
AcDbEntity
  8
0
100
AcDbLine
 10
7.783374
 20
5.464814
 30
0.0
 11
7.783374
 21
5.238718
 31
0.0
  0
LINE
  5
20D
330
18
100
AcDbEntity
  8
0
100
AcDbLine
 10
7.934957000000001
 20
5.233242
 30
0.0
 11
7.934957000000001
 21
5.370108
 31
0.0
  0
LINE
  5
20E
330
18
100
AcDbEntity
  8
0
100
AcDbLine
 10
7.934957000000001
 20
5.370108
 30
0.0
 11
7.783374
 21
5.464814
 31
0.0
  0
LINE
  5
20F
330
18
100
AcDbEntity
  8
0
100
AcDbLine
 10
7.780071
 20
5.225777
 30
0.0
 11
7.625158
 21
4.942121
 31
0.0
  0
ARC
  5
210
330
18
100
AcDbEntity
  8
0
100
AcDbCircle
 10
7.640955
 20
4.933493
 30
0.0
 40
0.018
100
AcDbArc
 50
151.359739
 51
235.254301
  0
LINE
  5
211
330
18
100
AcDbEntity
  8
0
100
AcDbLine
 10
7.630696
 20
4.918703
 30
0.0
 11
7.718903999999999
 21
4.857521
 31
0.0
  0
ARC
  5
212
330
18
100
AcDbEntity
  8
0
100
AcDbCircle
 10
7.729163000000001
 20
4.872311
 30
0.0
 40
0.018
100
AcDbArc
 50
235.254301
 51
326.994361
  0
LINE
  5
213
330
18
100
AcDbEntity
  8
0
100
AcDbLine
 10
7.744258
 20
4.862506
 30
0.0
 11
7.945109
 21
5.171723
 31
0.0
  0
LINE
  5
214
330
18
100
AcDbEntity
  8
0
100
AcDbLine
 10
7.780071
 20
5.263331
 30
0.0
 11
7.609360000000001
 21
4.950748
 31
0.0
  0
ARC
  5
215
330
18
100
AcDbEntity
  8
0
100
AcDbCircle
 10
7.640955
 20
4.933493
 30
0.0
 40
0.036
100
AcDbArc
 50
151.359739
 51
235.254301
  0
LINE
  5
216
330
18
100
AcDbEntity
  8
0
100
AcDbLine
 10
7.620438
 20
4.903912999999999
 30
0.0
 11
7.708645
 21
4.842731
 31
0.0
  0
ARC
  5
217
330
18
100
AcDbEntity
  8
0
100
AcDbCircle
 10
7.729163000000001
 20
4.872311
 30
0.0
 40
0.036
100
AcDbArc
 50
235.254301
 51
326.994361
  0
LINE
  5
218
330
18
100
AcDbEntity
  8
0
100
AcDbLine
 10
7.759353
 20
4.852701000000001
 30
0.0
 11
7.968480000000001
 21
5.176178
 31
0.0
  0
ARC
  5
219
330
18
100
AcDbEntity
  8
0
100
AcDbCircle
 10
7.756374
 20
5.276272000000001
 30
0.0
 40
0.027
100
AcDbArc
 50
331.359739
 51
0.0
  0
ARC
  5
21A
330
18
100
AcDbEntity
  8
0
100
AcDbCircle
 10
7.756374
 20
5.238718
 30
0.0
 40
0.027
100
AcDbArc
 50
331.359739
 51
0.0
  0
LINE
  5
21B
330
18
100
AcDbEntity
  8
0
100
AcDbLine
 10
7.953447
 20
5.237164
 30
0.0
 11
7.953447
 21
5.559622
 31
0.0
  0
LINE
  5
21C
330
18
100
AcDbEntity
  8
0
100
AcDbLine
 10
7.953447
 20
5.380045
 30
0.0
 11
7.801864999999999
 21
5.474751
 31
0.0
  0
LINE
  5
21D
330
18
100
AcDbEntity
  8
0
100
AcDbLine
 10
7.953447
 20
5.380045
 30
0.0
 11
7.934957000000001
 21
5.370108
 31
0.0
  0
LINE
  5
21E
330
18
100
AcDbEntity
  8
0
100
AcDbLine
 10
7.801864999999999
 20
5.474751
 30
0.0
 11
7.783374
 21
5.464814
 31
0.0
  0
LINE
  5
21F
330
18
100
AcDbEntity
  8
0
  6
HIDDEN
100
AcDbLine
 10
7.832791
 20
4.279916
 30
0.0
 11
7.832791
 21
4.854501
 31
0.0
  0
LINE
  5
220
330
18
100
AcDbEntity
  8
0
  6
HIDDEN
100
AcDbLine
 10
7.769828
 20
4.220305000000001
 30
0.0
 11
7.769828
 21
4.843093
 31
0.0
  0
LINE
  5
221
330
18
100
AcDbEntity
  8
0
100
AcDbLine
 10
7.916449000000001
 20
4.26971
 30
0.0
 11
7.990811999999999
 21
4.287815
 31
0.0
  0
LINE
  5
222
330
18
100
AcDbEntity
  8
0
100
AcDbLine
 10
7.625867
 20
4.198963
 30
0.0
 11
7.726222
 21
4.223396
 31
0.0
  0
LINE
  5
223
330
18
100
AcDbEntity
  8
0
100
AcDbLine
 10
7.990811999999999
 20
4.287815
 30
0.0
 11
7.916449000000001
 21
4.26971
 31
0.0
  0
LINE
  5
224
330
18
100
AcDbEntity
  8
0
100
AcDbLine
 10
7.886335000000001
 20
4.310761
 30
0.0
 11
7.916449000000001
 21
4.26971
 31
0.0
  0
LINE
  5
225
330
18
100
AcDbEntity
  8
0
100
AcDbLine
 10
7.784364
 20
4.169051000000001
 30
0.0
 11
7.886335000000001
 21
4.310761
 31
0.0
  0
LINE
  5
226
330
18
100
AcDbEntity
  8
0
100
AcDbLine
 10
7.726222
 20
4.223396
 30
0.0
 11
7.784364
 21
4.169051000000001
 31
0.0
  0
LINE
  5
227
330
18
100
AcDbEntity
  8
0
  6
Continuous
100
AcDbLine
 10
7.832791
 20
4.998806
 30
0.0
 11
7.832791
 21
5.019926
 31
0.0
  0
LINE
  5
228
330
18
100
AcDbEntity
  8
0
  6
Continuous
100
AcDbLine
 10
7.769828
 20
4.988624
 30
0.0
 11
7.769828
 21
5.019926
 31
0.0
  0
LINE
  5
229
330
18
100
AcDbEntity
  8
0
100
AcDbLine
 10
7.834686000000001
 20
5.001723999999999
 30
0.0
 11
7.832791
 21
5.0039
 31
0.0
  0
LINE
  5
22A
330
18
100
AcDbEntity
  8
0
100
AcDbLine
 10
7.754797999999999
 20
4.986641000000001
 30
0.0
 11
7.769828
 21
5.0039
 31
0.0
  0
LINE
  5
22B
330
18
100
AcDbEntity
  8
0
100
AcDbLine
 10
7.754797999999999
 20
4.986641000000001
 30
0.0
 11
7.754797999999999
 21
4.949896
 31
0.0
  0
LINE
  5
22C
330
18
100
AcDbEntity
  8
0
100
AcDbLine
 10
7.783115
 20
4.958878
 30
0.0
 11
7.754797999999999
 21
4.986641000000001
 31
0.0
  0
LINE
  5
22D
330
18
100
AcDbEntity
  8
0
100
AcDbLine
 10
7.783038
 20
4.922209
 30
0.0
 11
7.754797999999999
 21
4.949896
 31
0.0
  0
LINE
  5
22E
330
18
100
AcDbEntity
  8
0
100
AcDbLine
 10
7.783115
 20
4.958878
 30
0.0
 11
7.783115
 21
4.922329
 31
0.0
  0
LINE
  5
22F
330
18
100
AcDbEntity
  8
0
100
AcDbLine
 10
7.783115
 20
4.958878
 30
0.0
 11
7.806856
 21
4.958878
 31
0.0
  0
LINE
  5
230
330
18
100
AcDbEntity
  8
0
100
AcDbLine
 10
7.742249
 20
4.984134
 30
0.0
 11
7.638023
 21
4.948592
 31
0.0
  0
LINE
  5
231
330
18
100
AcDbEntity
  8
0
100
AcDbLine
 10
7.82561
 20
5.059177
 30
0.0
 11
7.910272999999999
 21
5.118091000000001
 31
0.0
  0
LINE
  5
232
330
18
100
AcDbEntity
  8
0
100
AcDbLine
 10
7.788253999999999
 20
5.166995
 30
0.0
 11
7.788253999999999
 21
5.066236
 31
0.0
  0
LINE
  5
233
330
18
100
AcDbEntity
  8
0
100
AcDbLine
 10
7.864455
 20
5.267788
 30
0.0
 11
7.844922
 21
5.25915
 31
0.0
  0
LINE
  5
234
330
18
100
AcDbEntity
  8
0
100
AcDbLine
 10
7.835284
 20
5.355356
 30
0.0
 11
7.813575999999999
 21
5.346161
 31
0.0
  0
LINE
  5
235
330
18
100
AcDbEntity
  8
0
100
AcDbLine
 10
7.970803
 20
5.224183999999999
 30
0.0
 11
7.970803
 21
5.554425
 31
0.0
  0
ARC
  5
236
330
18
100
AcDbEntity
  8
0
100
AcDbCircle
 10
7.961957000000001
 20
5.233242
 30
0.0
 40
0.027
100
AcDbArc
 50
180.0
 51
221.700206
  0
ARC
  5
237
330
18
100
AcDbEntity
  8
0
100
AcDbCircle
 10
7.914919
 20
5.191333
 30
0.0
 40
0.036
100
AcDbArc
 50
326.994361
 51
41.700206
  0
LINE
  5
238
330
18
100
AcDbEntity
  8
0
100
AcDbLine
 10
7.959053999999999
 20
5.217871
 30
0.0
 11
7.965196000000001
 21
5.208195
 31
0.0
  0
ARC
  5
239
330
18
100
AcDbEntity
  8
0
100
AcDbCircle
 10
7.989447
 20
5.237164
 30
0.0
 40
0.036
100
AcDbArc
 50
180.0
 51
212.407316
  0
ARC
  5
23A
330
18
100
AcDbEntity
  8
0
100
AcDbCircle
 10
7.934803
 20
5.188901
 30
0.0
 40
0.036
100
AcDbArc
 50
339.304179
 51
32.40731599999999
  0
ARC
  5
23B
330
18
100
AcDbEntity
  8
0
100
AcDbCircle
 10
7.993738000000001
 20
5.166637000000001
 30
0.0
 40
0.027
100
AcDbArc
 50
159.304179
 51
180.0
  0
LINE
  5
23C
330
18
100
AcDbEntity
  8
0
100
AcDbLine
 10
7.970803
 20
5.224183999999999
 30
0.0
 11
7.959053999999999
 21
5.217871
 31
0.0
  0
LINE
  5
23D
330
18
100
AcDbEntity
  8
0
100
AcDbLine
 10
7.954403
 20
5.566741
 30
0.0
 11
8.052158
 21
5.924357
 31
0.0
  0
ARC
  5
23E
330
18
100
AcDbEntity
  8
0
100
AcDbCircle
 10
7.980447
 20
5.559622
 30
0.0
 40
0.027
100
AcDbArc
 50
164.711542
 51
180.0
  0
ARC
  5
23F
330
18
100
AcDbEntity
  8
0
100
AcDbCircle
 10
7.997803
 20
5.554425
 30
0.0
 40
0.027
100
AcDbArc
 50
164.711542
 51
180.0
  0
LINE
  5
240
330
18
100
AcDbEntity
  8
0
100
AcDbLine
 10
7.969747999999999
 20
5.553748000000001
 30
0.0
 11
7.970803
 21
5.552103
 31
0.0
  0
LINE
  5
241
330
18
100
AcDbEntity
  8
0
100
AcDbLine
 10
8.061769
 20
5.927439
 30
0.0
 11
7.976325999999999
 21
6.050666000000001
 31
0.0
  0
ARC
  5
242
330
18
100
AcDbEntity
  8
0
100
AcDbCircle
 10
8.026114
 20
5.931477
 30
0.0
 40
0.027
100
AcDbArc
 50
344.711542
 51
34.736465
  0
ARC
  5
243
330
18
100
AcDbEntity
  8
0
100
AcDbCircle
 10
8.039581
 20
5.912054
 30
0.0
 40
0.027
100
AcDbArc
 50
344.711542
 51
34.736465
  0
ARC
  5
244
330
18
100
AcDbEntity
  8
0
100
AcDbCircle
 10
7.954138
 20
6.035281
 30
0.0
 40
0.027
100
AcDbArc
 50
34.736465
 51
99.70864300000001
  0
LINE
  5
245
330
18
100
AcDbEntity
  8
0
100
AcDbLine
 10
7.960094000000001
 20
6.061616000000001
 30
0.0
 11
7.811411
 21
5.811015
 31
0.0
  0
LINE
  5
246
330
18
100
AcDbEntity
  8
0
100
AcDbLine
 10
7.80818
 20
5.798208
 30
0.0
 11
7.80818
 21
5.470805
 31
0.0
  0
ARC
  5
247
330
18
100
AcDbEntity
  8
0
100
AcDbCircle
 10
7.83518
 20
5.798208
 30
0.0
 40
0.027
100
AcDbArc
 50
151.684445
 51
180.0
  0
LINE
  5
248
330
18
100
AcDbEntity
  8
0
100
AcDbLine
 10
7.515192999999999
 20
5.682318
 30
0.0
 11
7.515192999999999
 21
5.344868
 31
0.0
  0
LINE
  5
249
330
18
100
AcDbEntity
  8
0
100
AcDbLine
 10
7.515192999999999
 20
5.344868
 30
0.0
 11
7.746936
 21
5.202659
 31
0.0
  0
LINE
  5
24A
330
18
100
AcDbEntity
  8
0
100
AcDbLine
 10
7.515192999999999
 20
5.682318
 30
0.0
 11
7.80818
 21
5.499528
 31
0.0
  0
LINE
  5
24B
330
18
100
AcDbEntity
  8
0
  6
Continuous
100
AcDbLine
 10
7.401225999999999
 20
5.968077
 30
0.0
 11
7.342219999999999
 21
5.957982
 31
0.0
  0
LINE
  5
24C
330
18
100
AcDbEntity
  8
0
  6
HIDDEN
100
AcDbLine
 10
7.342219999999999
 20
5.957982
 30
0.0
 11
7.265713000000001
 21
5.944891999999999
 31
0.0
  0
LINE
  5
24D
330
18
100
AcDbEntity
  8
0
100
AcDbLine
 10
7.553294
 20
5.610496
 30
0.0
 11
7.625255
 21
5.567214
 31
0.0
  0
LINE
  5
24E
330
18
100
AcDbEntity
  8
0
100
AcDbLine
 10
7.769989
 20
5.438662
 30
0.0
 11
7.725944
 21
5.465398
 31
0.0
  0
LINE
  5
24F
330
18
100
AcDbEntity
  8
0
100
AcDbLine
 10
7.544586
 20
5.542972
 30
0.0
 11
7.599591
 21
5.507511
 31
0.0
  0
LINE
  5
250
330
18
100
AcDbEntity
  8
0
100
AcDbLine
 10
7.783374
 20
5.351366000000001
 30
0.0
 11
7.721736
 21
5.393944
 31
0.0
  0
LINE
  5
251
330
18
100
AcDbEntity
  8
0
100
AcDbLine
 10
7.55667
 20
5.453042
 30
0.0
 11
7.622413000000001
 21
5.409505
 31
0.0
  0
LINE
  5
252
330
18
100
AcDbEntity
  8
0
100
AcDbLine
 10
7.768025
 20
5.267688
 30
0.0
 11
7.707635000000001
 21
5.307574
 31
0.0
  0
LINE
  5
253
330
18
100
AcDbEntity
  8
0
100
AcDbLine
 10
7.555257000000001
 20
5.363054
 30
0.0
 11
7.614995
 21
5.323994
 31
0.0
  0
LINE
  5
254
330
18
100
AcDbEntity
  8
0
100
AcDbLine
 10
7.66137
 20
5.293672
 30
0.0
 11
7.735728999999999
 21
5.245053
 31
0.0
  0
LINE
  5
255
330
18
100
AcDbEntity
  8
0
100
AcDbLine
 10
7.66557
 20
5.335357
 30
0.0
 11
7.608303
 21
5.373180000000001
 31
0.0
  0
LINE
  5
256
330
18
100
AcDbEntity
  8
0
100
AcDbLine
 10
7.672774
 20
5.376156
 30
0.0
 11
7.728124
 21
5.339502
 31
0.0
  0
LINE
  5
257
330
18
100
AcDbEntity
  8
0
100
AcDbLine
 10
7.672060000000001
 20
5.428259
 30
0.0
 11
7.612388
 21
5.469478
 31
0.0
  0
LINE
  5
258
330
18
100
AcDbEntity
  8
0
100
AcDbLine
 10
7.762745
 20
5.402327
 30
0.0
 11
7.783374
 21
5.389027
 31
0.0
  0
LINE
  5
259
330
18
100
AcDbEntity
  8
0
100
AcDbLine
 10
7.674034
 20
5.459518
 30
0.0
 11
7.720769000000001
 21
5.429387999999999
 31
0.0
  0
LINE
  5
25A
330
18
100
AcDbEntity
  8
0
100
AcDbLine
 10
7.674747999999999
 20
5.496474
 30
0.0
 11
7.602185
 21
5.54052
 31
0.0
  0
LINE
  5
25B
330
18
100
AcDbEntity
  8
0
100
AcDbLine
 10
7.681445
 20
5.533418
 30
0.0
 11
7.725605000000001
 21
5.506857
 31
0.0
  0
LINE
  5
25C
330
18
100
AcDbEntity
  8
0
100
AcDbLine
 10
7.970803
 20
5.552103
 30
0.0
 11
8.217136999999999
 21
5.168064
 31
0.0
  0
LINE
  5
25D
330
18
100
AcDbEntity
  8
0
100
AcDbLine
 10
7.849127
 20
5.741798999999999
 30
0.0
 11
7.929541
 21
5.616432
 31
0.0
  0
LINE
  5
25E
330
18
100
AcDbEntity
  8
0
100
AcDbLine
 10
7.956202
 20
6.062202
 30
0.0
 11
7.508986999999999
 21
6.707186
 31
0.0
  0
LINE
  5
25F
330
18
100
AcDbEntity
  8
0
100
AcDbLine
 10
7.884477
 20
5.934165
 30
0.0
 11
7.385368
 21
6.682359
 31
0.0
  0
LINE
  5
260
330
18
100
AcDbEntity
  8
0
100
AcDbLine
 10
8.217136999999999
 20
4.710101
 30
0.0
 11
7.966738
 21
5.100101
 31
0.0
  0
LINE
  5
261
330
18
100
AcDbEntity
  8
0
100
AcDbLine
 10
7.177845
 20
3.537726
 30
0.0
 11
7.177845
 21
3.584668
 31
0.0
  0
LINE
  5
262
330
18
100
AcDbEntity
  8
0
100
AcDbLine
 10
7.177845
 20
3.584668
 30
0.0
 11
7.181863000000001
 21
3.632861
 31
0.0
  0
LINE
  5
263
330
18
100
AcDbEntity
  8
0
100
AcDbLine
 10
7.181863000000001
 20
3.632861
 30
0.0
 11
7.197933
 21
3.694442
 31
0.0
  0
LINE
  5
264
330
18
100
AcDbEntity
  8
0
100
AcDbLine
 10
7.197933
 20
3.694442
 30
0.0
 11
7.21802
 21
3.749329
 31
0.0
  0
LINE
  5
265
330
18
100
AcDbEntity
  8
0
100
AcDbLine
 10
7.21802
 20
3.749329
 30
0.0
 11
7.252838000000001
 21
3.80957
 31
0.0
  0
LINE
  5
266
330
18
100
AcDbEntity
  8
0
100
AcDbLine
 10
7.252838000000001
 20
3.80957
 30
0.0
 11
7.254038
 21
3.835951
 31
0.0
  0
LINE
  5
267
330
18
100
AcDbEntity
  8
0
100
AcDbLine
 10
7.203228
 20
3.545818
 30
0.0
 11
7.20195
 21
3.559232
 31
0.0
  0
LINE
  5
268
330
18
100
AcDbEntity
  8
0
100
AcDbLine
 10
7.20195
 20
3.559232
 30
0.0
 11
7.200611
 21
3.598055
 31
0.0
  0
LINE
  5
269
330
18
100
AcDbEntity
  8
0
100
AcDbLine
 10
7.200611
 20
3.598055
 30
0.0
 11
7.215341
 21
3.639555
 31
0.0
  0
LINE
  5
26A
330
18
100
AcDbEntity
  8
0
100
AcDbLine
 10
7.215341
 20
3.639555
 30
0.0
 11
7.226055000000001
 21
3.671683
 31
0.0
  0
LINE
  5
26B
330
18
100
AcDbEntity
  8
0
100
AcDbLine
 10
7.226055000000001
 20
3.671683
 30
0.0
 11
7.234089999999999
 21
3.714522
 31
0.0
  0
LINE
  5
26C
330
18
100
AcDbEntity
  8
0
100
AcDbLine
 10
7.234089999999999
 20
3.714522
 30
0.0
 11
7.254177
 21
3.756021
 31
0.0
  0
LINE
  5
26D
330
18
100
AcDbEntity
  8
0
100
AcDbLine
 10
7.254177
 20
3.756021
 30
0.0
 11
7.268908000000001
 21
3.77878
 31
0.0
  0
LINE
  5
26E
330
18
100
AcDbEntity
  8
0
100
AcDbLine
 10
7.268908000000001
 20
3.77878
 30
0.0
 11
7.275475
 21
3.842786
 31
0.0
  0
LINE
  5
26F
330
18
100
AcDbEntity
  8
0
100
AcDbLine
 10
7.237049000000001
 20
3.556601
 30
0.0
 11
7.236768
 21
3.57262
 31
0.0
  0
LINE
  5
270
330
18
100
AcDbEntity
  8
0
100
AcDbLine
 10
7.236768
 20
3.57262
 30
0.0
 11
7.238107
 21
3.599394
 31
0.0
  0
LINE
  5
271
330
18
100
AcDbEntity
  8
0
100
AcDbLine
 10
7.238107
 20
3.599394
 30
0.0
 11
7.252838000000001
 21
3.647587
 31
0.0
  0
LINE
  5
272
330
18
100
AcDbEntity
  8
0
100
AcDbLine
 10
7.252838000000001
 20
3.647587
 30
0.0
 11
7.26623
 21
3.6757
 31
0.0
  0
LINE
  5
273
330
18
100
AcDbEntity
  8
0
100
AcDbLine
 10
7.26623
 20
3.6757
 30
0.0
 11
7.278281
 21
3.717199
 31
0.0
  0
LINE
  5
274
330
18
100
AcDbEntity
  8
0
100
AcDbLine
 10
7.278281
 20
3.717199
 30
0.0
 11
7.29569
 21
3.77744
 31
0.0
  0
LINE
  5
275
330
18
100
AcDbEntity
  8
0
100
AcDbLine
 10
7.29569
 20
3.77744
 30
0.0
 11
7.306403
 21
3.816264
 31
0.0
  0
LINE
  5
276
330
18
100
AcDbEntity
  8
0
100
AcDbLine
 10
7.306403
 20
3.816264
 30
0.0
 11
7.309811
 21
3.853733
 31
0.0
  0
LINE
  5
277
330
18
100
AcDbEntity
  8
0
100
AcDbLine
 10
7.10397
 20
3.514174
 30
0.0
 11
7.10955
 21
3.527103
 31
0.0
  0
LINE
  5
278
330
18
100
AcDbEntity
  8
0
100
AcDbLine
 10
7.10955
 20
3.527103
 30
0.0
 11
7.121600999999999
 21
3.564587
 31
0.0
  0
LINE
  5
279
330
18
100
AcDbEntity
  8
0
100
AcDbLine
 10
7.121600999999999
 20
3.564587
 30
0.0
 11
7.14035
 21
3.611442
 31
0.0
  0
LINE
  5
27A
330
18
100
AcDbEntity
  8
0
100
AcDbLine
 10
7.14035
 20
3.611442
 30
0.0
 11
7.149724000000001
 21
3.65428
 31
0.0
  0
LINE
  5
27B
330
18
100
AcDbEntity
  8
0
100
AcDbLine
 10
7.149724000000001
 20
3.65428
 30
0.0
 11
7.161776
 21
3.701134
 31
0.0
  0
LINE
  5
27C
330
18
100
AcDbEntity
  8
0
100
AcDbLine
 10
7.161776
 20
3.701134
 30
0.0
 11
7.185881
 21
3.764054
 31
0.0
  0
LINE
  5
27D
330
18
100
AcDbEntity
  8
0
100
AcDbLine
 10
7.185881
 20
3.764054
 30
0.0
 11
7.188559
 21
3.813585
 31
0.0
  0
LINE
  5
27E
330
18
100
AcDbEntity
  8
0
100
AcDbLine
 10
7.188559
 20
3.813585
 30
0.0
 11
7.188346000000001
 21
3.815008
 31
0.0
  0
LINE
  5
27F
330
18
100
AcDbEntity
  8
0
100
AcDbLine
 10
7.074544
 20
3.504793
 30
0.0
 11
7.082766
 21
3.527103
 31
0.0
  0
LINE
  5
280
330
18
100
AcDbEntity
  8
0
100
AcDbLine
 10
7.082766
 20
3.527103
 30
0.0
 11
7.110888
 21
3.606086
 31
0.0
  0
LINE
  5
281
330
18
100
AcDbEntity
  8
0
100
AcDbLine
 10
7.110888
 20
3.606086
 30
0.0
 11
7.126958
 21
3.65428
 31
0.0
  0
LINE
  5
282
330
18
100
AcDbEntity
  8
0
100
AcDbLine
 10
7.126958
 20
3.65428
 30
0.0
 11
7.137671000000001
 21
3.707828
 31
0.0
  0
LINE
  5
283
330
18
100
AcDbEntity
  8
0
100
AcDbLine
 10
7.137671000000001
 20
3.707828
 30
0.0
 11
7.148385
 21
3.752005000000001
 31
0.0
  0
LINE
  5
284
330
18
100
AcDbEntity
  8
0
100
AcDbLine
 10
7.148385
 20
3.752005000000001
 30
0.0
 11
7.151551
 21
3.803278
 31
0.0
  0
LINE
  5
285
330
18
100
AcDbEntity
  8
0
100
AcDbLine
 10
7.034696
 20
3.492089
 30
0.0
 11
7.041253
 21
3.501668
 31
0.0
  0
LINE
  5
286
330
18
100
AcDbEntity
  8
0
100
AcDbLine
 10
7.041253
 20
3.501668
 30
0.0
 11
7.049288000000001
 21
3.521749
 31
0.0
  0
LINE
  5
287
330
18
100
AcDbEntity
  8
0
100
AcDbLine
 10
7.049288000000001
 20
3.521749
 30
0.0
 11
7.073392999999999
 21
3.583329
 31
0.0
  0
LINE
  5
288
330
18
100
AcDbEntity
  8
0
100
AcDbLine
 10
7.073392999999999
 20
3.583329
 30
0.0
 11
7.082766
 21
3.627506
 31
0.0
  0
LINE
  5
289
330
18
100
AcDbEntity
  8
0
100
AcDbLine
 10
7.082766
 20
3.627506
 30
0.0
 11
7.090801
 21
3.674361
 31
0.0
  0
LINE
  5
28A
330
18
100
AcDbEntity
  8
0
100
AcDbLine
 10
7.090801
 20
3.674361
 30
0.0
 11
7.112228
 21
3.729247
 31
0.0
  0
LINE
  5
28B
330
18
100
AcDbEntity
  8
0
100
AcDbLine
 10
7.112228
 20
3.729247
 30
0.0
 11
7.110721000000001
 21
3.790261
 31
0.0
  0
ARC
  5
28C
330
18
100
AcDbEntity
  8
0
100
AcDbCircle
 10
3.06724620022747
 20
4.080604614605107
 30
0.0
 40
0.042862
100
AcDbArc
 50
180.0
 51
205.196495
  0
ARC
  5
28D
330
18
100
AcDbEntity
  8
0
100
AcDbCircle
 10
3.07316720022747
 20
4.083390614605108
 30
0.0
 40
0.049406
100
AcDbArc
 50
205.196495
 51
228.639683
  0
ARC
  5
28E
330
18
100
AcDbEntity
  8
0
100
AcDbCircle
 10
3.07699320022747
 20
4.087735614605108
 30
0.0
 40
0.055195
100
AcDbArc
 50
228.639683
 51
249.964664
  0
ARC
  5
28F
330
18
100
AcDbEntity
  8
0
100
AcDbCircle
 10
3.07947620022747
 20
4.094546614605108
 30
0.0
 40
0.062445
100
AcDbArc
 50
249.964664
 51
270.0
  0
ARC
  5
290
330
18
100
AcDbEntity
  8
0
100
AcDbCircle
 10
3.07947620022747
 20
4.094546614605108
 30
0.0
 40
0.062445
100
AcDbArc
 50
270.0
 51
290.035336
  0
ARC
  5
291
330
18
100
AcDbEntity
  8
0
100
AcDbCircle
 10
3.08196020022747
 20
4.087735614605108
 30
0.0
 40
0.055195
100
AcDbArc
 50
290.035336
 51
311.360317
  0
ARC
  5
292
330
18
100
AcDbEntity
  8
0
100
AcDbCircle
 10
3.08578620022747
 20
4.083390614605108
 30
0.0
 40
0.049406
100
AcDbArc
 50
311.360317
 51
334.803505
  0
ARC
  5
293
330
18
100
AcDbEntity
  8
0
100
AcDbCircle
 10
3.09170720022747
 20
4.080604614605107
 30
0.0
 40
0.042862
100
AcDbArc
 50
334.803505
 51
0.0
  0
ARC
  5
294
330
18
100
AcDbEntity
  8
0
100
AcDbCircle
 10
3.09170720022747
 20
4.080604614605107
 30
0.0
 40
0.042862
100
AcDbArc
 50
0.0
 51
25.196495
  0
ARC
  5
295
330
18
100
AcDbEntity
  8
0
100
AcDbCircle
 10
3.08578620022747
 20
4.077818614605108
 30
0.0
 40
0.049406
100
AcDbArc
 50
25.196495
 51
35.539298
  0
ARC
  5
296
330
18
100
AcDbEntity
  8
0
100
AcDbCircle
 10
3.07316720022747
 20
4.077818614605108
 30
0.0
 40
0.049406
100
AcDbArc
 50
144.460702
 51
154.803505
  0
ARC
  5
297
330
18
100
AcDbEntity
  8
0
100
AcDbCircle
 10
3.06724620022747
 20
4.080604614605107
 30
0.0
 40
0.042862
100
AcDbArc
 50
154.803505
 51
180.0
  0
ARC
  5
298
330
18
100
AcDbEntity
  8
0
100
AcDbCircle
 10
3.05767620022747
 20
4.129186614605108
 30
0.0
 40
0.009681
100
AcDbArc
 50
180.0
 51
217.398605
  0
ARC
  5
299
330
18
100
AcDbEntity
  8
0
100
AcDbCircle
 10
3.06804520022747
 20
4.137114614605108
 30
0.0
 40
0.022734
100
AcDbArc
 50
217.398605
 51
241.551334
  0
ARC
  5
29A
330
18
100
AcDbEntity
  8
0
100
AcDbCircle
 10
3.07494020022747
 20
4.149840614605107
 30
0.0
 40
0.037207
100
AcDbArc
 50
241.551334
 51
257.351287
  0
ARC
  5
29B
330
18
100
AcDbEntity
  8
0
100
AcDbCircle
 10
3.07947620022747
 20
4.170053614605108
 30
0.0
 40
0.057924
100
AcDbArc
 50
257.351287
 51
270.0
  0
ARC
  5
29C
330
18
100
AcDbEntity
  8
0
100
AcDbCircle
 10
3.07947620022747
 20
4.170053614605108
 30
0.0
 40
0.057924
100
AcDbArc
 50
270.0
 51
282.648713
  0
ARC
  5
29D
330
18
100
AcDbEntity
  8
0
100
AcDbCircle
 10
3.08401320022747
 20
4.149840614605107
 30
0.0
 40
0.037207
100
AcDbArc
 50
282.648713
 51
298.448666
  0
ARC
  5
29E
330
18
100
AcDbEntity
  8
0
100
AcDbCircle
 10
3.09090820022747
 20
4.137114614605108
 30
0.0
 40
0.022734
100
AcDbArc
 50
298.448666
 51
322.601395
  0
ARC
  5
29F
330
18
100
AcDbEntity
  8
0
100
AcDbCircle
 10
3.10127720022747
 20
4.129186614605108
 30
0.0
 40
0.009681
100
AcDbArc
 50
322.601395
 51
0.0
  0
ARC
  5
2A0
330
18
100
AcDbEntity
  8
0
100
AcDbCircle
 10
3.05767620022747
 20
4.113878614605108
 30
0.0
 40
0.009681
100
AcDbArc
 50
180.0
 51
217.398605
  0
ARC
  5
2A1
330
18
100
AcDbEntity
  8
0
100
AcDbCircle
 10
3.06804520022747
 20
4.121805614605108
 30
0.0
 40
0.022734
100
AcDbArc
 50
217.398605
 51
241.551334
  0
ARC
  5
2A2
330
18
100
AcDbEntity
  8
0
100
AcDbCircle
 10
3.07494020022747
 20
4.134531614605107
 30
0.0
 40
0.037207
100
AcDbArc
 50
241.551334
 51
257.351287
  0
ARC
  5
2A3
330
18
100
AcDbEntity
  8
0
100
AcDbCircle
 10
3.07947620022747
 20
4.154745614605108
 30
0.0
 40
0.057924
100
AcDbArc
 50
257.351287
 51
270.0
  0
ARC
  5
2A4
330
18
100
AcDbEntity
  8
0
100
AcDbCircle
 10
3.07947620022747
 20
4.154745614605108
 30
0.0
 40
0.057924
100
AcDbArc
 50
270.0
 51
282.648713
  0
ARC
  5
2A5
330
18
100
AcDbEntity
  8
0
100
AcDbCircle
 10
3.08401320022747
 20
4.134531614605107
 30
0.0
 40
0.037207
100
AcDbArc
 50
282.648713
 51
298.448666
  0
ARC
  5
2A6
330
18
100
AcDbEntity
  8
0
100
AcDbCircle
 10
3.09090820022747
 20
4.121805614605108
 30
0.0
 40
0.022734
100
AcDbArc
 50
298.448666
 51
322.601395
  0
ARC
  5
2A7
330
18
100
AcDbEntity
  8
0
100
AcDbCircle
 10
3.10127720022747
 20
4.113878614605108
 30
0.0
 40
0.009681
100
AcDbArc
 50
322.601395
 51
0.0
  0
ARC
  5
2A8
330
18
100
AcDbEntity
  8
0
100
AcDbCircle
 10
3.05767620022747
 20
4.145179614605108
 30
0.0
 40
0.009681
100
AcDbArc
 50
180.0
 51
217.398605
  0
ARC
  5
2A9
330
18
100
AcDbEntity
  8
0
100
AcDbCircle
 10
3.06804520022747
 20
4.153107614605108
 30
0.0
 40
0.022734
100
AcDbArc
 50
217.398605
 51
241.551334
  0
ARC
  5
2AA
330
18
100
AcDbEntity
  8
0
100
AcDbCircle
 10
3.07494020022747
 20
4.165833614605107
 30
0.0
 40
0.037207
100
AcDbArc
 50
241.551334
 51
257.351287
  0
ARC
  5
2AB
330
18
100
AcDbEntity
  8
0
100
AcDbCircle
 10
3.07947620022747
 20
4.186047614605108
 30
0.0
 40
0.057924
100
AcDbArc
 50
257.351287
 51
270.0
  0
ARC
  5
2AC
330
18
100
AcDbEntity
  8
0
100
AcDbCircle
 10
3.07947620022747
 20
4.186047614605108
 30
0.0
 40
0.057924
100
AcDbArc
 50
270.0
 51
282.648713
  0
ARC
  5
2AD
330
18
100
AcDbEntity
  8
0
100
AcDbCircle
 10
3.08401320022747
 20
4.165833614605107
 30
0.0
 40
0.037207
100
AcDbArc
 50
282.648713
 51
298.448666
  0
ARC
  5
2AE
330
18
100
AcDbEntity
  8
0
100
AcDbCircle
 10
3.09090820022747
 20
4.153107614605108
 30
0.0
 40
0.022734
100
AcDbArc
 50
298.448666
 51
322.601395
  0
ARC
  5
2AF
330
18
100
AcDbEntity
  8
0
100
AcDbCircle
 10
3.10127720022747
 20
4.145179614605108
 30
0.0
 40
0.009681
100
AcDbArc
 50
322.601395
 51
0.0
  0
ARC
  5
2B0
330
18
100
AcDbEntity
  8
0
100
AcDbCircle
 10
3.10127720022747
 20
4.145179614605108
 30
0.0
 40
0.009681
100
AcDbArc
 50
0.0
 51
37.398605
  0
ARC
  5
2B1
330
18
100
AcDbEntity
  8
0
100
AcDbCircle
 10
3.09090820022747
 20
4.137252614605108
 30
0.0
 40
0.022734
100
AcDbArc
 50
37.398605
 51
61.551334
  0
ARC
  5
2B2
330
18
100
AcDbEntity
  8
0
100
AcDbCircle
 10
3.08401320022747
 20
4.124526614605108
 30
0.0
 40
0.037207
100
AcDbArc
 50
61.551334
 51
77.351287
  0
ARC
  5
2B3
330
18
100
AcDbEntity
  8
0
100
AcDbCircle
 10
3.07947620022747
 20
4.104312614605108
 30
0.0
 40
0.057924
100
AcDbArc
 50
77.351287
 51
90.0
  0
ARC
  5
2B4
330
18
100
AcDbEntity
  8
0
100
AcDbCircle
 10
3.07947620022747
 20
4.104312614605108
 30
0.0
 40
0.057924
100
AcDbArc
 50
90.0
 51
102.648713
  0
ARC
  5
2B5
330
18
100
AcDbEntity
  8
0
100
AcDbCircle
 10
3.07494020022747
 20
4.124526614605108
 30
0.0
 40
0.037207
100
AcDbArc
 50
102.648713
 51
118.448666
  0
ARC
  5
2B6
330
18
100
AcDbEntity
  8
0
100
AcDbCircle
 10
3.06804520022747
 20
4.137252614605108
 30
0.0
 40
0.022734
100
AcDbArc
 50
118.448666
 51
142.601395
  0
ARC
  5
2B7
330
18
100
AcDbEntity
  8
0
100
AcDbCircle
 10
3.05767620022747
 20
4.145179614605108
 30
0.0
 40
0.009681
100
AcDbArc
 50
142.601395
 51
180.0
  0
ARC
  5
2B8
330
18
100
AcDbEntity
  8
0
100
AcDbCircle
 10
3.18358120022747
 20
4.065060614605107
 30
0.0
 40
0.004584
100
AcDbArc
 50
77.44205500000001
 51
109.365192
  0
ARC
  5
2B9
330
18
100
AcDbEntity
  8
0
100
AcDbCircle
 10
3.18462320022747
 20
4.062097614605108
 30
0.0
 40
0.007725
100
AcDbArc
 50
109.365192
 51
133.82358
  0
ARC
  5
2BA
330
18
100
AcDbEntity
  8
0
100
AcDbCircle
 10
3.18681420022747
 20
4.059813614605108
 30
0.0
 40
0.01089
100
AcDbArc
 50
133.82358
 51
152.044744
  0
ARC
  5
2BB
330
18
100
AcDbEntity
  8
0
100
AcDbCircle
 10
3.19063420022747
 20
4.057786614605108
 30
0.0
 40
0.015214
100
AcDbArc
 50
152.044744
 51
167.442055
  0
ARC
  5
2BC
330
18
100
AcDbEntity
  8
0
100
AcDbCircle
 10
3.19063420022747
 20
4.057786614605108
 30
0.0
 40
0.015214
100
AcDbArc
 50
167.442055
 51
182.839366
  0
ARC
  5
2BD
330
18
100
AcDbEntity
  8
0
100
AcDbCircle
 10
3.18631520022747
 20
4.057572614605109
 30
0.0
 40
0.01089
100
AcDbArc
 50
182.839366
 51
201.060531
  0
ARC
  5
2BE
330
18
100
AcDbEntity
  8
0
100
AcDbCircle
 10
3.18336220022747
 20
4.056435614605108
 30
0.0
 40
0.007725
100
AcDbArc
 50
201.060531
 51
225.518918
  0
ARC
  5
2BF
330
18
100
AcDbEntity
  8
0
100
AcDbCircle
 10
3.18116120022747
 20
4.054193614605108
 30
0.0
 40
0.004584
100
AcDbArc
 50
225.518918
 51
257.442055
  0
ARC
  5
2C0
330
18
100
AcDbEntity
  8
0
100
AcDbCircle
 10
3.18116120022747
 20
4.054193614605108
 30
0.0
 40
0.004584
100
AcDbArc
 50
257.442055
 51
289.365192
  0
ARC
  5
2C1
330
18
100
AcDbEntity
  8
0
100
AcDbCircle
 10
3.18011920022747
 20
4.057157614605108
 30
0.0
 40
0.007725
100
AcDbArc
 50
289.365192
 51
313.82358
  0
ARC
  5
2C2
330
18
100
AcDbEntity
  8
0
100
AcDbCircle
 10
3.17792820022747
 20
4.059441614605108
 30
0.0
 40
0.01089
100
AcDbArc
 50
313.82358
 51
332.044744
  0
ARC
  5
2C3
330
18
100
AcDbEntity
  8
0
100
AcDbCircle
 10
3.17410820022747
 20
4.061467614605108
 30
0.0
 40
0.015214
100
AcDbArc
 50
332.044744
 51
347.442055
  0
ARC
  5
2C4
330
18
100
AcDbEntity
  8
0
100
AcDbCircle
 10
3.17410820022747
 20
4.061467614605108
 30
0.0
 40
0.015214
100
AcDbArc
 50
347.442055
 51
2.839366000000001
  0
ARC
  5
2C5
330
18
100
AcDbEntity
  8
0
100
AcDbCircle
 10
3.17842720022747
 20
4.061682614605108
 30
0.0
 40
0.01089
100
AcDbArc
 50
2.839366000000001
 51
21.060531
  0
ARC
  5
2C6
330
18
100
AcDbEntity
  8
0
100
AcDbCircle
 10
3.18138020022747
 20
4.062819614605107
 30
0.0
 40
0.007725
100
AcDbArc
 50
21.060531
 51
45.518918
  0
ARC
  5
2C7
330
18
100
AcDbEntity
  8
0
100
AcDbCircle
 10
3.18358120022747
 20
4.065060614605107
 30
0.0
 40
0.004584
100
AcDbArc
 50
45.518918
 51
77.44205500000001
  0
ARC
  5
2C8
330
18
100
AcDbEntity
  8
0
100
AcDbCircle
 10
3.57692620022747
 20
4.224982614605108
 30
0.0
 40
0.062445
100
AcDbArc
 50
272.273153
 51
290.035336
  0
ARC
  5
2C9
330
18
100
AcDbEntity
  8
0
100
AcDbCircle
 10
3.57940920022747
 20
4.218171614605108
 30
0.0
 40
0.055195
100
AcDbArc
 50
290.035336
 51
311.360317
  0
ARC
  5
2CA
330
18
100
AcDbEntity
  8
0
100
AcDbCircle
 10
3.58323520022747
 20
4.213826614605108
 30
0.0
 40
0.049406
100
AcDbArc
 50
311.360317
 51
334.803505
  0
ARC
  5
2CB
330
18
100
AcDbEntity
  8
0
100
AcDbCircle
 10
3.58915620022747
 20
4.211040614605108
 30
0.0
 40
0.042862
100
AcDbArc
 50
334.803505
 51
0.0
  0
ARC
  5
2CC
330
18
100
AcDbEntity
  8
0
100
AcDbCircle
 10
3.58915620022747
 20
4.211040614605108
 30
0.0
 40
0.042862
100
AcDbArc
 50
0.0
 51
25.196495
  0
ARC
  5
2CD
330
18
100
AcDbEntity
  8
0
100
AcDbCircle
 10
3.58323520022747
 20
4.208254614605108
 30
0.0
 40
0.049406
100
AcDbArc
 50
25.196495
 51
35.539298
  0
ARC
  5
2CE
330
18
100
AcDbEntity
  8
0
100
AcDbCircle
 10
3.56549420022747
 20
4.283543614605108
 30
0.0
 40
0.022734
100
AcDbArc
 50
232.974966
 51
241.551334
  0
ARC
  5
2CF
330
18
100
AcDbEntity
  8
0
100
AcDbCircle
 10
3.57238920022747
 20
4.296269614605109
 30
0.0
 40
0.037207
100
AcDbArc
 50
241.551334
 51
257.351287
  0
ARC
  5
2D0
330
18
100
AcDbEntity
  8
0
100
AcDbCircle
 10
3.57692620022747
 20
4.316483614605108
 30
0.0
 40
0.057924
100
AcDbArc
 50
257.351287
 51
270.0
  0
ARC
  5
2D1
330
18
100
AcDbEntity
  8
0
100
AcDbCircle
 10
3.57692620022747
 20
4.316483614605108
 30
0.0
 40
0.057924
100
AcDbArc
 50
270.0
 51
282.648713
  0
ARC
  5
2D2
330
18
100
AcDbEntity
  8
0
100
AcDbCircle
 10
3.58146220022747
 20
4.296269614605109
 30
0.0
 40
0.037207
100
AcDbArc
 50
282.648713
 51
298.448666
  0
ARC
  5
2D3
330
18
100
AcDbEntity
  8
0
100
AcDbCircle
 10
3.58835720022747
 20
4.283543614605108
 30
0.0
 40
0.022734
100
AcDbArc
 50
298.448666
 51
322.601395
  0
ARC
  5
2D4
330
18
100
AcDbEntity
  8
0
100
AcDbCircle
 10
3.59872620022747
 20
4.275616614605108
 30
0.0
 40
0.009681
100
AcDbArc
 50
322.601395
 51
0.0
  0
ARC
  5
2D5
330
18
100
AcDbEntity
  8
0
100
AcDbCircle
 10
3.59872620022747
 20
4.275616614605108
 30
0.0
 40
0.009681
100
AcDbArc
 50
0.0
 51
37.398605
  0
ARC
  5
2D6
330
18
100
AcDbEntity
  8
0
100
AcDbCircle
 10
3.58835720022747
 20
4.267688614605108
 30
0.0
 40
0.022734
100
AcDbArc
 50
37.398605
 51
61.551334
  0
ARC
  5
2D7
330
18
100
AcDbEntity
  8
0
100
AcDbCircle
 10
3.58146220022747
 20
4.254962614605108
 30
0.0
 40
0.037207
100
AcDbArc
 50
61.551334
 51
77.351287
  0
ARC
  5
2D8
330
18
100
AcDbEntity
  8
0
100
AcDbCircle
 10
3.57692620022747
 20
4.234749614605107
 30
0.0
 40
0.057924
100
AcDbArc
 50
77.351287
 51
90.0
  0
ARC
  5
2D9
330
18
100
AcDbEntity
  8
0
100
AcDbCircle
 10
3.57692620022747
 20
4.234749614605107
 30
0.0
 40
0.057924
100
AcDbArc
 50
90.0
 51
102.648713
  0
ARC
  5
2DA
330
18
100
AcDbEntity
  8
0
100
AcDbCircle
 10
3.57238920022747
 20
4.254962614605108
 30
0.0
 40
0.037207
100
AcDbArc
 50
102.648713
 51
118.448666
  0
ARC
  5
2DB
330
18
100
AcDbEntity
  8
0
100
AcDbCircle
 10
3.56549420022747
 20
4.267688614605108
 30
0.0
 40
0.022734
100
AcDbArc
 50
118.448666
 51
142.452747
  0
ARC
  5
2DC
330
18
100
AcDbEntity
  8
0
100
AcDbCircle
 10
3.57238920022747
 20
4.280276614605108
 30
0.0
 40
0.037207
100
AcDbArc
 50
245.38219
 51
257.351287
  0
ARC
  5
2DD
330
18
100
AcDbEntity
  8
0
100
AcDbCircle
 10
3.57692620022747
 20
4.300490614605108
 30
0.0
 40
0.057924
100
AcDbArc
 50
257.351287
 51
270.0
  0
ARC
  5
2DE
330
18
100
AcDbEntity
  8
0
100
AcDbCircle
 10
3.57692620022747
 20
4.300490614605108
 30
0.0
 40
0.057924
100
AcDbArc
 50
270.0
 51
282.648713
  0
ARC
  5
2DF
330
18
100
AcDbEntity
  8
0
100
AcDbCircle
 10
3.58146220022747
 20
4.280276614605108
 30
0.0
 40
0.037207
100
AcDbArc
 50
282.648713
 51
298.448666
  0
ARC
  5
2E0
330
18
100
AcDbEntity
  8
0
100
AcDbCircle
 10
3.58835720022747
 20
4.267550614605108
 30
0.0
 40
0.022734
100
AcDbArc
 50
298.448666
 51
322.601395
  0
ARC
  5
2E1
330
18
100
AcDbEntity
  8
0
100
AcDbCircle
 10
3.59872620022747
 20
4.259622614605108
 30
0.0
 40
0.009681
100
AcDbArc
 50
322.601395
 51
0.0
  0
ARC
  5
2E2
330
18
100
AcDbEntity
  8
0
100
AcDbCircle
 10
3.57238920022747
 20
4.264967614605108
 30
0.0
 40
0.037207
100
AcDbArc
 50
252.929619
 51
257.351287
  0
ARC
  5
2E3
330
18
100
AcDbEntity
  8
0
100
AcDbCircle
 10
3.57692620022747
 20
4.285181614605108
 30
0.0
 40
0.057924
100
AcDbArc
 50
257.351287
 51
270.0
  0
ARC
  5
2E4
330
18
100
AcDbEntity
  8
0
100
AcDbCircle
 10
3.57692620022747
 20
4.285181614605108
 30
0.0
 40
0.057924
100
AcDbArc
 50
270.0
 51
282.648713
  0
ARC
  5
2E5
330
18
100
AcDbEntity
  8
0
100
AcDbCircle
 10
3.58146220022747
 20
4.264967614605108
 30
0.0
 40
0.037207
100
AcDbArc
 50
282.648713
 51
298.448666
  0
ARC
  5
2E6
330
18
100
AcDbEntity
  8
0
100
AcDbCircle
 10
3.58835720022747
 20
4.252242614605107
 30
0.0
 40
0.022734
100
AcDbArc
 50
298.448666
 51
322.601395
  0
ARC
  5
2E7
330
18
100
AcDbEntity
  8
0
100
AcDbCircle
 10
3.59872620022747
 20
4.244314614605107
 30
0.0
 40
0.009681
100
AcDbArc
 50
322.601395
 51
0.0
  0
ARC
  5
2E8
330
18
100
AcDbEntity
  8
0
100
AcDbCircle
 10
5.003066000000001
 20
5.27616
 30
0.0
 40
0.014801
100
AcDbArc
 50
139.431237
 51
159.495466
  0
ARC
  5
2E9
330
18
100
AcDbEntity
  8
0
100
AcDbCircle
 10
5.001474
 20
5.276755000000001
 30
0.0
 40
0.013101
100
AcDbArc
 50
159.495466
 51
180.836053
  0
ARC
  5
2EA
330
18
100
AcDbEntity
  8
0
100
AcDbCircle
 10
5.000115
 20
5.276735
 30
0.0
 40
0.011743
100
AcDbArc
 50
180.836053
 51
204.269284
  0
ARC
  5
2EB
330
18
100
AcDbEntity
  8
0
100
AcDbCircle
 10
4.998715
 20
5.276104
 30
0.0
 40
0.010206
100
AcDbArc
 50
204.269284
 51
229.431237
  0
ARC
  5
2EC
330
18
100
AcDbEntity
  8
0
100
AcDbCircle
 10
4.9981
 20
5.280411
 30
0.0
 40
0.014801
100
AcDbArc
 50
319.431237
 51
339.495466
  0
ARC
  5
2ED
330
18
100
AcDbEntity
  8
0
100
AcDbCircle
 10
4.999692
 20
5.279816
 30
0.0
 40
0.013101
100
AcDbArc
 50
339.495466
 51
0.8360530000000001
  0
ARC
  5
2EE
330
18
100
AcDbEntity
  8
0
100
AcDbCircle
 10
5.00105
 20
5.279836
 30
0.0
 40
0.011743
100
AcDbArc
 50
0.8360530000000001
 51
24.269284
  0
ARC
  5
2EF
330
18
100
AcDbEntity
  8
0
100
AcDbCircle
 10
5.002451000000001
 20
5.280467
 30
0.0
 40
0.010206
100
AcDbArc
 50
24.269284
 51
49.431237
  0
ARC
  5
2F0
330
18
100
AcDbEntity
  8
0
100
AcDbCircle
 10
5.002451000000001
 20
5.280467
 30
0.0
 40
0.010206
100
AcDbArc
 50
49.431237
 51
74.593191
  0
ARC
  5
2F1
330
18
100
AcDbEntity
  8
0
100
AcDbCircle
 10
5.002043000000001
 20
5.278986
 30
0.0
 40
0.011743
100
AcDbArc
 50
74.593191
 51
95.50529899999999
  0
ARC
  5
2F2
330
18
100
AcDbEntity
  8
0
100
AcDbCircle
 10
5.093151
 20
5.121884
 30
0.0
 40
0.007854
100
AcDbArc
 50
230.216062
 51
259.919634
  0
ARC
  5
2F3
330
18
100
AcDbEntity
  8
0
100
AcDbCircle
 10
5.093813
 20
5.125608000000001
 30
0.0
 40
0.011636
100
AcDbArc
 50
259.919634
 51
284.233092
  0
ARC
  5
2F4
330
18
100
AcDbEntity
  8
0
100
AcDbCircle
 10
5.092915000000001
 20
5.129149
 30
0.0
 40
0.01529
100
AcDbArc
 50
284.233092
 51
303.477102
  0
ARC
  5
2F5
330
18
100
AcDbEntity
  8
0
100
AcDbCircle
 10
5.090227
 20
5.133214
 30
0.0
 40
0.020163
100
AcDbArc
 50
303.477102
 51
320.216062
  0
ARC
  5
2F6
330
18
100
AcDbEntity
  8
0
100
AcDbCircle
 10
5.090227
 20
5.133214
 30
0.0
 40
0.020163
100
AcDbArc
 50
320.216062
 51
336.955021
  0
ARC
  5
2F7
330
18
100
AcDbEntity
  8
0
100
AcDbCircle
 10
5.094711
 20
5.131306
 30
0.0
 40
0.01529
100
AcDbArc
 50
336.955021
 51
356.199032
  0
ARC
  5
2F8
330
18
100
AcDbEntity
  8
0
100
AcDbCircle
 10
5.098357
 20
5.131064
 30
0.0
 40
0.011636
100
AcDbArc
 50
356.199032
 51
20.51249
  0
ARC
  5
2F9
330
18
100
AcDbEntity
  8
0
100
AcDbCircle
 10
5.101899
 20
5.132389
 30
0.0
 40
0.007854
100
AcDbArc
 50
20.51249
 51
50.216062
  0
ARC
  5
2FA
330
18
100
AcDbEntity
  8
0
100
AcDbCircle
 10
5.101899
 20
5.132389
 30
0.0
 40
0.007854
100
AcDbArc
 50
50.216062
 51
79.919634
  0
ARC
  5
2FB
330
18
100
AcDbEntity
  8
0
100
AcDbCircle
 10
5.101237
 20
5.128666
 30
0.0
 40
0.011636
100
AcDbArc
 50
79.919634
 51
104.233092
  0
ARC
  5
2FC
330
18
100
AcDbEntity
  8
0
100
AcDbCircle
 10
5.102135
 20
5.125124
 30
0.0
 40
0.01529
100
AcDbArc
 50
104.233092
 51
123.477102
  0
ARC
  5
2FD
330
18
100
AcDbEntity
  8
0
100
AcDbCircle
 10
5.104823000000001
 20
5.12106
 30
0.0
 40
0.020163
100
AcDbArc
 50
123.477102
 51
140.216062
  0
ARC
  5
2FE
330
18
100
AcDbEntity
  8
0
100
AcDbCircle
 10
5.104823000000001
 20
5.12106
 30
0.0
 40
0.020163
100
AcDbArc
 50
140.216062
 51
156.955021
  0
ARC
  5
2FF
330
18
100
AcDbEntity
  8
0
100
AcDbCircle
 10
5.100339
 20
5.122967
 30
0.0
 40
0.01529
100
AcDbArc
 50
156.955021
 51
176.199032
  0
ARC
  5
300
330
18
100
AcDbEntity
  8
0
100
AcDbCircle
 10
5.096693
 20
5.123208999999999
 30
0.0
 40
0.011636
100
AcDbArc
 50
176.199032
 51
200.51249
  0
ARC
  5
301
330
18
100
AcDbEntity
  8
0
100
AcDbCircle
 10
5.093151
 20
5.121884
 30
0.0
 40
0.007854
100
AcDbArc
 50
200.51249
 51
230.216062
  0
ARC
  5
302
330
18
100
AcDbEntity
  8
0
100
AcDbCircle
 10
4.943325
 20
5.204889
 30
0.0
 40
0.013101
100
AcDbArc
 50
339.495466
 51
0.8360530000000001
  0
ARC
  5
303
330
18
100
AcDbEntity
  8
0
100
AcDbCircle
 10
4.944684
 20
5.204908000000001
 30
0.0
 40
0.011743
100
AcDbArc
 50
0.8360530000000001
 51
24.269284
  0
ARC
  5
304
330
18
100
AcDbEntity
  8
0
100
AcDbCircle
 10
4.946084
 20
5.20554
 30
0.0
 40
0.010206
100
AcDbArc
 50
24.269284
 51
49.431237
  0
ARC
  5
305
330
18
100
AcDbEntity
  8
0
100
AcDbCircle
 10
4.946084
 20
5.20554
 30
0.0
 40
0.010206
100
AcDbArc
 50
49.431237
 51
74.593191
  0
ARC
  5
306
330
18
100
AcDbEntity
  8
0
100
AcDbCircle
 10
4.945676000000001
 20
5.204059
 30
0.0
 40
0.011743
100
AcDbArc
 50
74.593191
 51
98.026421
  0
ARC
  5
307
330
18
100
AcDbEntity
  8
0
100
AcDbCircle
 10
4.946699
 20
5.201232
 30
0.0
 40
0.014801
100
AcDbArc
 50
139.431237
 51
159.495466
  0
ARC
  5
308
330
18
100
AcDbEntity
  8
0
100
AcDbCircle
 10
4.945107
 20
5.201828
 30
0.0
 40
0.013101
100
AcDbArc
 50
159.495466
 51
180.836053
  0
ARC
  5
309
330
18
100
AcDbEntity
  8
0
100
AcDbCircle
 10
4.943749
 20
5.201808
 30
0.0
 40
0.011743
100
AcDbArc
 50
180.836053
 51
204.269284
  0
ARC
  5
30A
330
18
100
AcDbEntity
  8
0
100
AcDbCircle
 10
4.942348
 20
5.201176
 30
0.0
 40
0.010206
100
AcDbArc
 50
204.269284
 51
229.431237
  0
ARC
  5
30B
330
18
100
AcDbEntity
  8
0
100
AcDbCircle
 10
4.998715
 20
5.276104
 30
0.0
 40
0.010206
100
AcDbArc
 50
229.431237
 51
254.593191
  0
ARC
  5
30C
330
18
100
AcDbEntity
  8
0
100
AcDbCircle
 10
4.999123
 20
5.277585
 30
0.0
 40
0.011743
100
AcDbArc
 50
254.593191
 51
266.729506
  0
ARC
  5
30D
330
18
100
AcDbEntity
  8
0
100
AcDbCircle
 10
5.056711
 20
5.223353
 30
0.0
 40
0.007854
100
AcDbArc
 50
230.216062
 51
259.919634
  0
ARC
  5
30E
330
18
100
AcDbEntity
  8
0
100
AcDbCircle
 10
5.057373
 20
5.227077
 30
0.0
 40
0.011636
100
AcDbArc
 50
259.919634
 51
284.233092
  0
ARC
  5
30F
330
18
100
AcDbEntity
  8
0
100
AcDbCircle
 10
5.056474
 20
5.230618
 30
0.0
 40
0.01529
100
AcDbArc
 50
284.233092
 51
303.477102
  0
ARC
  5
310
330
18
100
AcDbEntity
  8
0
100
AcDbCircle
 10
5.053786
 20
5.234683
 30
0.0
 40
0.020163
100
AcDbArc
 50
303.477102
 51
320.216062
  0
ARC
  5
311
330
18
100
AcDbEntity
  8
0
100
AcDbCircle
 10
5.053786
 20
5.234683
 30
0.0
 40
0.020163
100
AcDbArc
 50
320.216062
 51
336.955021
  0
ARC
  5
312
330
18
100
AcDbEntity
  8
0
100
AcDbCircle
 10
5.058269999999999
 20
5.232775
 30
0.0
 40
0.01529
100
AcDbArc
 50
336.955021
 51
356.199032
  0
ARC
  5
313
330
18
100
AcDbEntity
  8
0
100
AcDbCircle
 10
5.061916
 20
5.232533
 30
0.0
 40
0.011636
100
AcDbArc
 50
356.199032
 51
20.51249
  0
ARC
  5
314
330
18
100
AcDbEntity
  8
0
100
AcDbCircle
 10
5.065458000000001
 20
5.233858000000001
 30
0.0
 40
0.007854
100
AcDbArc
 50
20.51249
 51
50.216062
  0
ARC
  5
315
330
18
100
AcDbEntity
  8
0
100
AcDbCircle
 10
5.065458000000001
 20
5.233858000000001
 30
0.0
 40
0.007854
100
AcDbArc
 50
50.216062
 51
79.919634
  0
ARC
  5
316
330
18
100
AcDbEntity
  8
0
100
AcDbCircle
 10
5.064796
 20
5.230135
 30
0.0
 40
0.011636
100
AcDbArc
 50
79.919634
 51
104.233092
  0
ARC
  5
317
330
18
100
AcDbEntity
  8
0
100
AcDbCircle
 10
5.065695
 20
5.226593
 30
0.0
 40
0.01529
100
AcDbArc
 50
104.233092
 51
123.477102
  0
ARC
  5
318
330
18
100
AcDbEntity
  8
0
100
AcDbCircle
 10
5.068382
 20
5.222529
 30
0.0
 40
0.020163
100
AcDbArc
 50
123.477102
 51
140.216062
  0
ARC
  5
319
330
18
100
AcDbEntity
  8
0
100
AcDbCircle
 10
5.068382
 20
5.222529
 30
0.0
 40
0.020163
100
AcDbArc
 50
140.216062
 51
156.955021
  0
ARC
  5
31A
330
18
100
AcDbEntity
  8
0
100
AcDbCircle
 10
5.063899
 20
5.224436
 30
0.0
 40
0.01529
100
AcDbArc
 50
156.955021
 51
176.199032
  0
ARC
  5
31B
330
18
100
AcDbEntity
  8
0
100
AcDbCircle
 10
5.060252999999999
 20
5.224678
 30
0.0
 40
0.011636
100
AcDbArc
 50
176.199032
 51
200.51249
  0
ARC
  5
31C
330
18
100
AcDbEntity
  8
0
100
AcDbCircle
 10
5.056711
 20
5.223353
 30
0.0
 40
0.007854
100
AcDbArc
 50
200.51249
 51
230.216062
  0
ARC
  5
31D
330
18
100
AcDbEntity
  8
0
100
AcDbCircle
 10
4.942348
 20
5.201176
 30
0.0
 40
0.010206
100
AcDbArc
 50
229.431237
 51
254.593191
  0
ARC
  5
31E
330
18
100
AcDbEntity
  8
0
100
AcDbCircle
 10
4.942757
 20
5.202658
 30
0.0
 40
0.011743
100
AcDbArc
 50
254.593191
 51
276.526059
  0
ARC
  5
31F
330
18
100
AcDbEntity
  8
0
100
AcDbCircle
 10
5.014961
 20
5.097199
 30
0.0
 40
0.007854
100
AcDbArc
 50
230.216062
 51
259.919634
  0
ARC
  5
320
330
18
100
AcDbEntity
  8
0
100
AcDbCircle
 10
5.015623000000001
 20
5.100922
 30
0.0
 40
0.011636
100
AcDbArc
 50
259.919634
 51
284.233092
  0
ARC
  5
321
330
18
100
AcDbEntity
  8
0
100
AcDbCircle
 10
5.014725
 20
5.104464
 30
0.0
 40
0.01529
100
AcDbArc
 50
284.233092
 51
303.477102
  0
ARC
  5
322
330
18
100
AcDbEntity
  8
0
100
AcDbCircle
 10
5.012037
 20
5.108528
 30
0.0
 40
0.020163
100
AcDbArc
 50
303.477102
 51
320.216062
  0
ARC
  5
323
330
18
100
AcDbEntity
  8
0
100
AcDbCircle
 10
5.012037
 20
5.108528
 30
0.0
 40
0.020163
100
AcDbArc
 50
320.216062
 51
336.955021
  0
ARC
  5
324
330
18
100
AcDbEntity
  8
0
100
AcDbCircle
 10
5.016521
 20
5.106621
 30
0.0
 40
0.01529
100
AcDbArc
 50
336.955021
 51
356.199032
  0
ARC
  5
325
330
18
100
AcDbEntity
  8
0
100
AcDbCircle
 10
5.020167
 20
5.106379
 30
0.0
 40
0.011636
100
AcDbArc
 50
356.199032
 51
20.51249
  0
ARC
  5
326
330
18
100
AcDbEntity
  8
0
100
AcDbCircle
 10
5.023708999999999
 20
5.107704
 30
0.0
 40
0.007854
100
AcDbArc
 50
20.51249
 51
50.216062
  0
ARC
  5
327
330
18
100
AcDbEntity
  8
0
100
AcDbCircle
 10
5.023708999999999
 20
5.107704
 30
0.0
 40
0.007854
100
AcDbArc
 50
50.216062
 51
79.919634
  0
ARC
  5
328
330
18
100
AcDbEntity
  8
0
100
AcDbCircle
 10
5.023047
 20
5.10398
 30
0.0
 40
0.011636
100
AcDbArc
 50
79.919634
 51
104.233092
  0
ARC
  5
329
330
18
100
AcDbEntity
  8
0
100
AcDbCircle
 10
5.023944999999999
 20
5.100439
 30
0.0
 40
0.01529
100
AcDbArc
 50
104.233092
 51
123.477102
  0
ARC
  5
32A
330
18
100
AcDbEntity
  8
0
100
AcDbCircle
 10
5.026633
 20
5.096374
 30
0.0
 40
0.020163
100
AcDbArc
 50
123.477102
 51
140.216062
  0
ARC
  5
32B
330
18
100
AcDbEntity
  8
0
100
AcDbCircle
 10
5.026633
 20
5.096374
 30
0.0
 40
0.020163
100
AcDbArc
 50
140.216062
 51
156.955021
  0
ARC
  5
32C
330
18
100
AcDbEntity
  8
0
100
AcDbCircle
 10
5.022149
 20
5.098282
 30
0.0
 40
0.01529
100
AcDbArc
 50
156.955021
 51
176.199032
  0
ARC
  5
32D
330
18
100
AcDbEntity
  8
0
100
AcDbCircle
 10
5.018503
 20
5.098523999999999
 30
0.0
 40
0.011636
100
AcDbArc
 50
176.199032
 51
200.51249
  0
ARC
  5
32E
330
18
100
AcDbEntity
  8
0
100
AcDbCircle
 10
5.014961
 20
5.097199
 30
0.0
 40
0.007854
100
AcDbArc
 50
200.51249
 51
230.216062
  0
ARC
  5
32F
330
18
100
AcDbEntity
  8
0
100
AcDbCircle
 10
5.055944
 20
4.983098
 30
0.0
 40
0.007854
100
AcDbArc
 50
230.216062
 51
259.919634
  0
ARC
  5
330
330
18
100
AcDbEntity
  8
0
100
AcDbCircle
 10
5.056606
 20
4.986821
 30
0.0
 40
0.011636
100
AcDbArc
 50
259.919634
 51
284.233092
  0
ARC
  5
331
330
18
100
AcDbEntity
  8
0
100
AcDbCircle
 10
5.055707
 20
4.990362999999999
 30
0.0
 40
0.01529
100
AcDbArc
 50
284.233092
 51
303.477102
  0
ARC
  5
332
330
18
100
AcDbEntity
  8
0
100
AcDbCircle
 10
5.05302
 20
4.994427
 30
0.0
 40
0.020163
100
AcDbArc
 50
303.477102
 51
320.216062
  0
ARC
  5
333
330
18
100
AcDbEntity
  8
0
100
AcDbCircle
 10
5.05302
 20
4.994427
 30
0.0
 40
0.020163
100
AcDbArc
 50
320.216062
 51
336.955021
  0
ARC
  5
334
330
18
100
AcDbEntity
  8
0
100
AcDbCircle
 10
5.057503
 20
4.99252
 30
0.0
 40
0.01529
100
AcDbArc
 50
336.955021
 51
356.199032
  0
ARC
  5
335
330
18
100
AcDbEntity
  8
0
100
AcDbCircle
 10
5.061149
 20
4.992278
 30
0.0
 40
0.011636
100
AcDbArc
 50
356.199032
 51
20.51249
  0
ARC
  5
336
330
18
100
AcDbEntity
  8
0
100
AcDbCircle
 10
5.064691000000001
 20
4.993603
 30
0.0
 40
0.007854
100
AcDbArc
 50
20.51249
 51
50.216062
  0
ARC
  5
337
330
18
100
AcDbEntity
  8
0
100
AcDbCircle
 10
5.064691000000001
 20
4.993603
 30
0.0
 40
0.007854
100
AcDbArc
 50
50.216062
 51
79.919634
  0
ARC
  5
338
330
18
100
AcDbEntity
  8
0
100
AcDbCircle
 10
5.064029
 20
4.989879
 30
0.0
 40
0.011636
100
AcDbArc
 50
79.919634
 51
104.233092
  0
ARC
  5
339
330
18
100
AcDbEntity
  8
0
100
AcDbCircle
 10
5.064928
 20
4.986338
 30
0.0
 40
0.01529
100
AcDbArc
 50
104.233092
 51
123.477102
  0
ARC
  5
33A
330
18
100
AcDbEntity
  8
0
100
AcDbCircle
 10
5.067616
 20
4.982273
 30
0.0
 40
0.020163
100
AcDbArc
 50
123.477102
 51
140.216062
  0
ARC
  5
33B
330
18
100
AcDbEntity
  8
0
100
AcDbCircle
 10
5.067616
 20
4.982273
 30
0.0
 40
0.020163
100
AcDbArc
 50
140.216062
 51
156.955021
  0
ARC
  5
33C
330
18
100
AcDbEntity
  8
0
100
AcDbCircle
 10
5.063132
 20
4.984181
 30
0.0
 40
0.01529
100
AcDbArc
 50
156.955021
 51
176.199032
  0
ARC
  5
33D
330
18
100
AcDbEntity
  8
0
100
AcDbCircle
 10
5.059486
 20
4.984423000000001
 30
0.0
 40
0.011636
100
AcDbArc
 50
176.199032
 51
200.51249
  0
ARC
  5
33E
330
18
100
AcDbEntity
  8
0
100
AcDbCircle
 10
5.055944
 20
4.983098
 30
0.0
 40
0.007854
100
AcDbArc
 50
200.51249
 51
230.216062
  0
ARC
  5
33F
330
18
100
AcDbEntity
  8
0
100
AcDbCircle
 10
5.010073
 20
4.809145
 30
0.0
 40
0.010829
100
AcDbArc
 50
108.68127
 51
142.97076
  0
ARC
  5
340
330
18
100
AcDbEntity
  8
0
100
AcDbCircle
 10
5.018205
 20
4.803011
 30
0.0
 40
0.021015
100
AcDbArc
 50
142.97076
 51
167.404527
  0
ARC
  5
341
330
18
100
AcDbEntity
  8
0
100
AcDbCircle
 10
5.028656
 20
4.800675
 30
0.0
 40
0.031724
100
AcDbArc
 50
167.404527
 51
184.55794
  0
ARC
  5
342
330
18
100
AcDbEntity
  8
0
100
AcDbCircle
 10
5.043569000000001
 20
4.801864
 30
0.0
 40
0.046684
100
AcDbArc
 50
184.55794
 51
198.68127
  0
ARC
  5
343
330
18
100
AcDbEntity
  8
0
100
AcDbCircle
 10
5.043569000000001
 20
4.801864
 30
0.0
 40
0.046684
100
AcDbArc
 50
198.68127
 51
212.8046
  0
ARC
  5
344
330
18
100
AcDbEntity
  8
0
100
AcDbCircle
 10
5.030995
 20
4.793759
 30
0.0
 40
0.031724
100
AcDbArc
 50
212.8046
 51
229.958013
  0
ARC
  5
345
330
18
100
AcDbEntity
  8
0
100
AcDbCircle
 10
5.024105000000001
 20
4.785561
 30
0.0
 40
0.021015
100
AcDbArc
 50
229.958013
 51
254.39178
  0
ARC
  5
346
330
18
100
AcDbEntity
  8
0
100
AcDbCircle
 10
5.021364
 20
4.775751000000001
 30
0.0
 40
0.010829
100
AcDbArc
 50
254.39178
 51
288.68127
  0
ARC
  5
347
330
18
100
AcDbEntity
  8
0
100
AcDbCircle
 10
5.021364
 20
4.775751000000001
 30
0.0
 40
0.010829
100
AcDbArc
 50
288.68127
 51
322.97076
  0
ARC
  5
348
330
18
100
AcDbEntity
  8
0
100
AcDbCircle
 10
5.013233000000001
 20
4.781885
 30
0.0
 40
0.021015
100
AcDbArc
 50
322.97076
 51
347.404527
  0
ARC
  5
349
330
18
100
AcDbEntity
  8
0
100
AcDbCircle
 10
5.002782
 20
4.78422
 30
0.0
 40
0.031724
100
AcDbArc
 50
347.404527
 51
4.55794
  0
ARC
  5
34A
330
18
100
AcDbEntity
  8
0
100
AcDbCircle
 10
4.987869
 20
4.783030999999999
 30
0.0
 40
0.046684
100
AcDbArc
 50
4.55794
 51
18.68127
  0
ARC
  5
34B
330
18
100
AcDbEntity
  8
0
100
AcDbCircle
 10
4.987869
 20
4.783030999999999
 30
0.0
 40
0.046684
100
AcDbArc
 50
18.68127
 51
32.8046
  0
ARC
  5
34C
330
18
100
AcDbEntity
  8
0
100
AcDbCircle
 10
5.000443
 20
4.791136
 30
0.0
 40
0.031724
100
AcDbArc
 50
32.8046
 51
49.958013
  0
ARC
  5
34D
330
18
100
AcDbEntity
  8
0
100
AcDbCircle
 10
5.007333
 20
4.799335
 30
0.0
 40
0.021015
100
AcDbArc
 50
49.958013
 51
74.39178000000001
  0
ARC
  5
34E
330
18
100
AcDbEntity
  8
0
100
AcDbCircle
 10
5.010073
 20
4.809145
 30
0.0
 40
0.010829
100
AcDbArc
 50
74.39178000000001
 51
108.68127
  0
ARC
  5
34F
330
18
100
AcDbEntity
  8
0
100
AcDbCircle
 10
4.985869999999999
 20
4.912708
 30
0.0
 40
0.005414
100
AcDbArc
 50
108.68127
 51
142.97076
  0
ARC
  5
350
330
18
100
AcDbEntity
  8
0
100
AcDbCircle
 10
4.989936
 20
4.909641000000001
 30
0.0
 40
0.010507
100
AcDbArc
 50
142.97076
 51
167.404527
  0
ARC
  5
351
330
18
100
AcDbEntity
  8
0
100
AcDbCircle
 10
4.995162000000001
 20
4.908473000000001
 30
0.0
 40
0.015862
100
AcDbArc
 50
167.404527
 51
184.55794
  0
ARC
  5
352
330
18
100
AcDbEntity
  8
0
100
AcDbCircle
 10
5.002618
 20
4.909066999999999
 30
0.0
 40
0.023342
100
AcDbArc
 50
184.55794
 51
198.68127
  0
ARC
  5
353
330
18
100
AcDbEntity
  8
0
100
AcDbCircle
 10
5.002618
 20
4.909066999999999
 30
0.0
 40
0.023342
100
AcDbArc
 50
198.68127
 51
212.8046
  0
ARC
  5
354
330
18
100
AcDbEntity
  8
0
100
AcDbCircle
 10
4.996331
 20
4.905015000000001
 30
0.0
 40
0.015862
100
AcDbArc
 50
212.8046
 51
229.958013
  0
ARC
  5
355
330
18
100
AcDbEntity
  8
0
100
AcDbCircle
 10
4.992886
 20
4.900916000000001
 30
0.0
 40
0.010507
100
AcDbArc
 50
229.958013
 51
254.39178
  0
ARC
  5
356
330
18
100
AcDbEntity
  8
0
100
AcDbCircle
 10
4.991516000000001
 20
4.896011
 30
0.0
 40
0.005414
100
AcDbArc
 50
254.39178
 51
288.68127
  0
ARC
  5
357
330
18
100
AcDbEntity
  8
0
100
AcDbCircle
 10
4.991516000000001
 20
4.896011
 30
0.0
 40
0.005414
100
AcDbArc
 50
288.68127
 51
322.97076
  0
ARC
  5
358
330
18
100
AcDbEntity
  8
0
100
AcDbCircle
 10
4.98745
 20
4.899078
 30
0.0
 40
0.010507
100
AcDbArc
 50
322.97076
 51
347.404527
  0
ARC
  5
359
330
18
100
AcDbEntity
  8
0
100
AcDbCircle
 10
4.982224
 20
4.900245
 30
0.0
 40
0.015862
100
AcDbArc
 50
347.404527
 51
4.55794
  0
ARC
  5
35A
330
18
100
AcDbEntity
  8
0
100
AcDbCircle
 10
4.974768
 20
4.899651
 30
0.0
 40
0.023342
100
AcDbArc
 50
4.55794
 51
18.68127
  0
ARC
  5
35B
330
18
100
AcDbEntity
  8
0
100
AcDbCircle
 10
4.974768
 20
4.899651
 30
0.0
 40
0.023342
100
AcDbArc
 50
18.68127
 51
32.8046
  0
ARC
  5
35C
330
18
100
AcDbEntity
  8
0
100
AcDbCircle
 10
4.981055000000001
 20
4.903703
 30
0.0
 40
0.015862
100
AcDbArc
 50
32.8046
 51
49.958013
  0
ARC
  5
35D
330
18
100
AcDbEntity
  8
0
100
AcDbCircle
 10
4.9845
 20
4.907803
 30
0.0
 40
0.010507
100
AcDbArc
 50
49.958013
 51
74.39178000000001
  0
ARC
  5
35E
330
18
100
AcDbEntity
  8
0
100
AcDbCircle
 10
4.985869999999999
 20
4.912708
 30
0.0
 40
0.005414
100
AcDbArc
 50
74.39178000000001
 51
108.68127
  0
ARC
  5
35F
330
18
100
AcDbEntity
  8
0
100
AcDbCircle
 10
5.033538
 20
4.708653
 30
0.0
 40
0.005414
100
AcDbArc
 50
108.68127
 51
142.97076
  0
ARC
  5
360
330
18
100
AcDbEntity
  8
0
100
AcDbCircle
 10
5.037604
 20
4.705586
 30
0.0
 40
0.010507
100
AcDbArc
 50
142.97076
 51
167.404527
  0
ARC
  5
361
330
18
100
AcDbEntity
  8
0
100
AcDbCircle
 10
5.04283
 20
4.704419000000001
 30
0.0
 40
0.015862
100
AcDbArc
 50
167.404527
 51
184.55794
  0
ARC
  5
362
330
18
100
AcDbEntity
  8
0
100
AcDbCircle
 10
5.050286
 20
4.705013
 30
0.0
 40
0.023342
100
AcDbArc
 50
184.55794
 51
198.68127
  0
ARC
  5
363
330
18
100
AcDbEntity
  8
0
100
AcDbCircle
 10
5.050286
 20
4.705013
 30
0.0
 40
0.023342
100
AcDbArc
 50
198.68127
 51
212.8046
  0
ARC
  5
364
330
18
100
AcDbEntity
  8
0
100
AcDbCircle
 10
5.043999
 20
4.700961
 30
0.0
 40
0.015862
100
AcDbArc
 50
212.8046
 51
229.958013
  0
ARC
  5
365
330
18
100
AcDbEntity
  8
0
100
AcDbCircle
 10
5.040554
 20
4.696861
 30
0.0
 40
0.010507
100
AcDbArc
 50
229.958013
 51
254.39178
  0
ARC
  5
366
330
18
100
AcDbEntity
  8
0
100
AcDbCircle
 10
5.039184
 20
4.691955999999999
 30
0.0
 40
0.005414
100
AcDbArc
 50
254.39178
 51
288.68127
  0
ARC
  5
367
330
18
100
AcDbEntity
  8
0
100
AcDbCircle
 10
5.039184
 20
4.691955999999999
 30
0.0
 40
0.005414
100
AcDbArc
 50
288.68127
 51
322.97076
  0
ARC
  5
368
330
18
100
AcDbEntity
  8
0
100
AcDbCircle
 10
5.035118
 20
4.695023
 30
0.0
 40
0.010507
100
AcDbArc
 50
322.97076
 51
347.404527
  0
ARC
  5
369
330
18
100
AcDbEntity
  8
0
100
AcDbCircle
 10
5.029892
 20
4.696191000000001
 30
0.0
 40
0.015862
100
AcDbArc
 50
347.404527
 51
4.55794
  0
ARC
  5
36A
330
18
100
AcDbEntity
  8
0
100
AcDbCircle
 10
5.022436
 20
4.695597
 30
0.0
 40
0.023342
100
AcDbArc
 50
4.55794
 51
18.68127
  0
ARC
  5
36B
330
18
100
AcDbEntity
  8
0
100
AcDbCircle
 10
5.022436
 20
4.695597
 30
0.0
 40
0.023342
100
AcDbArc
 50
18.68127
 51
32.8046
  0
ARC
  5
36C
330
18
100
AcDbEntity
  8
0
100
AcDbCircle
 10
5.028723
 20
4.699649
 30
0.0
 40
0.015862
100
AcDbArc
 50
32.8046
 51
49.958013
  0
ARC
  5
36D
330
18
100
AcDbEntity
  8
0
100
AcDbCircle
 10
5.032168
 20
4.703748
 30
0.0
 40
0.010507
100
AcDbArc
 50
49.958013
 51
74.39178000000001
  0
ARC
  5
36E
330
18
100
AcDbEntity
  8
0
100
AcDbCircle
 10
5.033538
 20
4.708653
 30
0.0
 40
0.005414
100
AcDbArc
 50
74.39178000000001
 51
108.68127
  0
ARC
  5
36F
330
18
100
AcDbEntity
  8
0
100
AcDbCircle
 10
4.985869999999999
 20
4.674248
 30
0.0
 40
0.005414
100
AcDbArc
 50
108.68127
 51
142.97076
  0
ARC
  5
370
330
18
100
AcDbEntity
  8
0
100
AcDbCircle
 10
4.989936
 20
4.671181
 30
0.0
 40
0.010507
100
AcDbArc
 50
142.97076
 51
167.404527
  0
ARC
  5
371
330
18
100
AcDbEntity
  8
0
100
AcDbCircle
 10
4.995162000000001
 20
4.670014
 30
0.0
 40
0.015862
100
AcDbArc
 50
167.404527
 51
184.55794
  0
ARC
  5
372
330
18
100
AcDbEntity
  8
0
100
AcDbCircle
 10
5.002618
 20
4.670608000000001
 30
0.0
 40
0.023342
100
AcDbArc
 50
184.55794
 51
198.68127
  0
ARC
  5
373
330
18
100
AcDbEntity
  8
0
100
AcDbCircle
 10
5.002618
 20
4.670608000000001
 30
0.0
 40
0.023342
100
AcDbArc
 50
198.68127
 51
212.8046
  0
ARC
  5
374
330
18
100
AcDbEntity
  8
0
100
AcDbCircle
 10
4.996331
 20
4.666555000000001
 30
0.0
 40
0.015862
100
AcDbArc
 50
212.8046
 51
229.958013
  0
ARC
  5
375
330
18
100
AcDbEntity
  8
0
100
AcDbCircle
 10
4.992886
 20
4.662456
 30
0.0
 40
0.010507
100
AcDbArc
 50
229.958013
 51
254.39178
  0
ARC
  5
376
330
18
100
AcDbEntity
  8
0
100
AcDbCircle
 10
4.991516000000001
 20
4.657551
 30
0.0
 40
0.005414
100
AcDbArc
 50
254.39178
 51
288.68127
  0
ARC
  5
377
330
18
100
AcDbEntity
  8
0
100
AcDbCircle
 10
4.991516000000001
 20
4.657551
 30
0.0
 40
0.005414
100
AcDbArc
 50
288.68127
 51
322.97076
  0
ARC
  5
378
330
18
100
AcDbEntity
  8
0
100
AcDbCircle
 10
4.98745
 20
4.660618
 30
0.0
 40
0.010507
100
AcDbArc
 50
322.97076
 51
347.404527
  0
ARC
  5
379
330
18
100
AcDbEntity
  8
0
100
AcDbCircle
 10
4.982224
 20
4.661786
 30
0.0
 40
0.015862
100
AcDbArc
 50
347.404527
 51
4.55794
  0
ARC
  5
37A
330
18
100
AcDbEntity
  8
0
100
AcDbCircle
 10
4.974768
 20
4.661191000000001
 30
0.0
 40
0.023342
100
AcDbArc
 50
4.55794
 51
18.68127
  0
ARC
  5
37B
330
18
100
AcDbEntity
  8
0
100
AcDbCircle
 10
4.974768
 20
4.661191000000001
 30
0.0
 40
0.023342
100
AcDbArc
 50
18.68127
 51
32.8046
  0
ARC
  5
37C
330
18
100
AcDbEntity
  8
0
100
AcDbCircle
 10
4.981055000000001
 20
4.665244
 30
0.0
 40
0.015862
100
AcDbArc
 50
32.8046
 51
49.958013
  0
ARC
  5
37D
330
18
100
AcDbEntity
  8
0
100
AcDbCircle
 10
4.9845
 20
4.669343000000001
 30
0.0
 40
0.010507
100
AcDbArc
 50
49.958013
 51
74.39178000000001
  0
ARC
  5
37E
330
18
100
AcDbEntity
  8
0
100
AcDbCircle
 10
4.985869999999999
 20
4.674248
 30
0.0
 40
0.005414
100
AcDbArc
 50
74.39178000000001
 51
108.68127
  0
ARC
  5
37F
330
18
100
AcDbEntity
  8
0
100
AcDbCircle
 10
5.027044
 20
4.544858000000001
 30
0.0
 40
0.005414
100
AcDbArc
 50
108.68127
 51
142.97076
  0
ARC
  5
380
330
18
100
AcDbEntity
  8
0
100
AcDbCircle
 10
5.03111
 20
4.541791
 30
0.0
 40
0.010507
100
AcDbArc
 50
142.97076
 51
167.404527
  0
ARC
  5
381
330
18
100
AcDbEntity
  8
0
100
AcDbCircle
 10
5.036335
 20
4.540624
 30
0.0
 40
0.015862
100
AcDbArc
 50
167.404527
 51
184.55794
  0
ARC
  5
382
330
18
100
AcDbEntity
  8
0
100
AcDbCircle
 10
5.043792
 20
4.541218
 30
0.0
 40
0.023342
100
AcDbArc
 50
184.55794
 51
198.68127
  0
ARC
  5
383
330
18
100
AcDbEntity
  8
0
100
AcDbCircle
 10
5.043792
 20
4.541218
 30
0.0
 40
0.023342
100
AcDbArc
 50
198.68127
 51
212.8046
  0
ARC
  5
384
330
18
100
AcDbEntity
  8
0
100
AcDbCircle
 10
5.037504
 20
4.537166
 30
0.0
 40
0.015862
100
AcDbArc
 50
212.8046
 51
229.958013
  0
ARC
  5
385
330
18
100
AcDbEntity
  8
0
100
AcDbCircle
 10
5.03406
 20
4.533066000000001
 30
0.0
 40
0.010507
100
AcDbArc
 50
229.958013
 51
254.39178
  0
ARC
  5
386
330
18
100
AcDbEntity
  8
0
100
AcDbCircle
 10
5.032689
 20
4.528161
 30
0.0
 40
0.005414
100
AcDbArc
 50
254.39178
 51
288.68127
  0
ARC
  5
387
330
18
100
AcDbEntity
  8
0
100
AcDbCircle
 10
5.032689
 20
4.528161
 30
0.0
 40
0.005414
100
AcDbArc
 50
288.68127
 51
322.97076
  0
ARC
  5
388
330
18
100
AcDbEntity
  8
0
100
AcDbCircle
 10
5.028624
 20
4.531228
 30
0.0
 40
0.010507
100
AcDbArc
 50
322.97076
 51
347.404527
  0
ARC
  5
389
330
18
100
AcDbEntity
  8
0
100
AcDbCircle
 10
5.023398
 20
4.532396
 30
0.0
 40
0.015862
100
AcDbArc
 50
347.404527
 51
4.55794
  0
ARC
  5
38A
330
18
100
AcDbEntity
  8
0
100
AcDbCircle
 10
5.015942
 20
4.531802
 30
0.0
 40
0.023342
100
AcDbArc
 50
4.55794
 51
18.68127
  0
ARC
  5
38B
330
18
100
AcDbEntity
  8
0
100
AcDbCircle
 10
5.015942
 20
4.531802
 30
0.0
 40
0.023342
100
AcDbArc
 50
18.68127
 51
32.8046
  0
ARC
  5
38C
330
18
100
AcDbEntity
  8
0
100
AcDbCircle
 10
5.022229
 20
4.535854000000001
 30
0.0
 40
0.015862
100
AcDbArc
 50
32.8046
 51
49.958013
  0
ARC
  5
38D
330
18
100
AcDbEntity
  8
0
100
AcDbCircle
 10
5.025674
 20
4.539953
 30
0.0
 40
0.010507
100
AcDbArc
 50
49.958013
 51
74.39178000000001
  0
ARC
  5
38E
330
18
100
AcDbEntity
  8
0
100
AcDbCircle
 10
5.027044
 20
4.544858000000001
 30
0.0
 40
0.005414
100
AcDbArc
 50
74.39178000000001
 51
108.68127
  0
ARC
  5
38F
330
18
100
AcDbEntity
  8
0
100
AcDbCircle
 10
4.985869999999999
 20
4.391655999999999
 30
0.0
 40
0.005414
100
AcDbArc
 50
108.68127
 51
142.97076
  0
ARC
  5
390
330
18
100
AcDbEntity
  8
0
100
AcDbCircle
 10
4.989936
 20
4.388589
 30
0.0
 40
0.010507
100
AcDbArc
 50
142.97076
 51
167.404527
  0
ARC
  5
391
330
18
100
AcDbEntity
  8
0
100
AcDbCircle
 10
4.995162000000001
 20
4.387421
 30
0.0
 40
0.015862
100
AcDbArc
 50
167.404527
 51
184.55794
  0
ARC
  5
392
330
18
100
AcDbEntity
  8
0
100
AcDbCircle
 10
5.002618
 20
4.388016
 30
0.0
 40
0.023342
100
AcDbArc
 50
184.55794
 51
198.68127
  0
ARC
  5
393
330
18
100
AcDbEntity
  8
0
100
AcDbCircle
 10
5.002618
 20
4.388016
 30
0.0
 40
0.023342
100
AcDbArc
 50
198.68127
 51
212.8046
  0
ARC
  5
394
330
18
100
AcDbEntity
  8
0
100
AcDbCircle
 10
4.996331
 20
4.383963
 30
0.0
 40
0.015862
100
AcDbArc
 50
212.8046
 51
229.958013
  0
ARC
  5
395
330
18
100
AcDbEntity
  8
0
100
AcDbCircle
 10
4.992886
 20
4.379864
 30
0.0
 40
0.010507
100
AcDbArc
 50
229.958013
 51
254.39178
  0
ARC
  5
396
330
18
100
AcDbEntity
  8
0
100
AcDbCircle
 10
4.991516000000001
 20
4.374959
 30
0.0
 40
0.005414
100
AcDbArc
 50
254.39178
 51
288.68127
  0
ARC
  5
397
330
18
100
AcDbEntity
  8
0
100
AcDbCircle
 10
4.991516000000001
 20
4.374959
 30
0.0
 40
0.005414
100
AcDbArc
 50
288.68127
 51
322.97076
  0
ARC
  5
398
330
18
100
AcDbEntity
  8
0
100
AcDbCircle
 10
4.98745
 20
4.378026
 30
0.0
 40
0.010507
100
AcDbArc
 50
322.97076
 51
347.404527
  0
ARC
  5
399
330
18
100
AcDbEntity
  8
0
100
AcDbCircle
 10
4.982224
 20
4.379193
 30
0.0
 40
0.015862
100
AcDbArc
 50
347.404527
 51
4.55794
  0
ARC
  5
39A
330
18
100
AcDbEntity
  8
0
100
AcDbCircle
 10
4.974768
 20
4.378599
 30
0.0
 40
0.023342
100
AcDbArc
 50
4.55794
 51
18.68127
  0
ARC
  5
39B
330
18
100
AcDbEntity
  8
0
100
AcDbCircle
 10
4.974768
 20
4.378599
 30
0.0
 40
0.023342
100
AcDbArc
 50
18.68127
 51
32.8046
  0
ARC
  5
39C
330
18
100
AcDbEntity
  8
0
100
AcDbCircle
 10
4.981055000000001
 20
4.382651
 30
0.0
 40
0.015862
100
AcDbArc
 50
32.8046
 51
49.958013
  0
ARC
  5
39D
330
18
100
AcDbEntity
  8
0
100
AcDbCircle
 10
4.9845
 20
4.386751
 30
0.0
 40
0.010507
100
AcDbArc
 50
49.958013
 51
74.39178000000001
  0
ARC
  5
39E
330
18
100
AcDbEntity
  8
0
100
AcDbCircle
 10
4.985869999999999
 20
4.391655999999999
 30
0.0
 40
0.005414
100
AcDbArc
 50
74.39178000000001
 51
108.68127
  0
ARC
  5
39F
330
18
100
AcDbEntity
  8
0
100
AcDbCircle
 10
7.789078999999999
 20
4.95535
 30
0.0
 40
0.042862
100
AcDbArc
 50
180.0
 51
205.196495
  0
ARC
  5
3A0
330
18
100
AcDbEntity
  8
0
100
AcDbCircle
 10
7.795
 20
4.958136
 30
0.0
 40
0.049406
100
AcDbArc
 50
205.196495
 51
228.639683
  0
ARC
  5
3A1
330
18
100
AcDbEntity
  8
0
100
AcDbCircle
 10
7.798825999999999
 20
4.962481
 30
0.0
 40
0.055195
100
AcDbArc
 50
228.639683
 51
246.059842
  0
LINE
  5
3A2
330
18
100
AcDbEntity
  8
0
100
AcDbLine
 10
8.494128
 20
4.789254
 30
0.0
 11
8.499495
 21
4.840216000000001
 31
0.0
  0
LINE
  5
3A3
330
18
100
AcDbEntity
  8
0
100
AcDbLine
 10
8.499495
 20
4.840216000000001
 30
0.0
 11
8.502684
 21
4.910348
 31
0.0
  0
LINE
  5
3A4
330
18
100
AcDbEntity
  8
0
100
AcDbLine
 10
8.502684
 20
4.910348
 30
0.0
 11
8.509061000000001
 21
4.977291999999999
 31
0.0
  0
LINE
  5
3A5
330
18
100
AcDbEntity
  8
0
100
AcDbLine
 10
8.509061000000001
 20
4.977291999999999
 30
0.0
 11
8.502684
 21
5.044237
 31
0.0
  0
LINE
  5
3A6
330
18
100
AcDbEntity
  8
0
100
AcDbLine
 10
8.502684
 20
5.044237
 30
0.0
 11
8.493116000000001
 21
5.095243
 31
0.0
  0
LINE
  5
3A7
330
18
100
AcDbEntity
  8
0
100
AcDbLine
 10
8.493116000000001
 20
5.095243
 30
0.0
 11
8.483549999999999
 21
5.152623
 31
0.0
  0
LINE
  5
3A8
330
18
100
AcDbEntity
  8
0
100
AcDbLine
 10
8.483549999999999
 20
5.152623
 30
0.0
 11
8.480361
 21
5.213191999999999
 31
0.0
  0
LINE
  5
3A9
330
18
100
AcDbEntity
  8
0
100
AcDbLine
 10
8.480361
 20
5.213191999999999
 30
0.0
 11
8.489444000000001
 21
5.245878
 31
0.0
  0
LINE
  5
3AA
330
18
100
AcDbEntity
  8
0
100
AcDbLine
 10
8.448497
 20
4.776214
 30
0.0
 11
8.448472000000001
 21
4.776459
 31
0.0
  0
LINE
  5
3AB
330
18
100
AcDbEntity
  8
0
100
AcDbLine
 10
8.448472000000001
 20
4.776459
 30
0.0
 11
8.448472000000001
 21
4.811525
 31
0.0
  0
LINE
  5
3AC
330
18
100
AcDbEntity
  8
0
100
AcDbLine
 10
8.448472000000001
 20
4.811525
 30
0.0
 11
8.45485
 21
4.852967
 31
0.0
  0
LINE
  5
3AD
330
18
100
AcDbEntity
  8
0
100
AcDbLine
 10
8.45485
 20
4.852967
 30
0.0
 11
8.458039999999999
 21
4.900785
 31
0.0
  0
LINE
  5
3AE
330
18
100
AcDbEntity
  8
0
100
AcDbLine
 10
8.458039999999999
 20
4.900785
 30
0.0
 11
8.45485
 21
4.929476
 31
0.0
  0
LINE
  5
3AF
330
18
100
AcDbEntity
  8
0
100
AcDbLine
 10
8.45485
 20
4.929476
 30
0.0
 11
8.464416999999999
 21
4.990044
 31
0.0
  0
LINE
  5
3B0
330
18
100
AcDbEntity
  8
0
100
AcDbLine
 10
8.464416999999999
 20
4.990044
 30
0.0
 11
8.458039999999999
 21
5.050612
 31
0.0
  0
LINE
  5
3B1
330
18
100
AcDbEntity
  8
0
100
AcDbLine
 10
8.458039999999999
 20
5.050612
 30
0.0
 11
8.458039999999999
 21
5.114369
 31
0.0
  0
LINE
  5
3B2
330
18
100
AcDbEntity
  8
0
100
AcDbLine
 10
8.458039999999999
 20
5.114369
 30
0.0
 11
8.45485
 21
5.184501
 31
0.0
  0
LINE
  5
3B3
330
18
100
AcDbEntity
  8
0
100
AcDbLine
 10
8.45485
 20
5.184501
 30
0.0
 11
8.45485
 21
5.213191999999999
 31
0.0
  0
LINE
  5
3B4
330
18
100
AcDbEntity
  8
0
100
AcDbLine
 10
8.45485
 20
5.213191999999999
 30
0.0
 11
8.450085000000001
 21
5.234630999999999
 31
0.0
  0
LINE
  5
3B5
330
18
100
AcDbEntity
  8
0
100
AcDbLine
 10
8.394803999999999
 20
4.760871
 30
0.0
 11
8.394261999999999
 21
4.770084
 31
0.0
  0
LINE
  5
3B6
330
18
100
AcDbEntity
  8
0
100
AcDbLine
 10
8.394261999999999
 20
4.770084
 30
0.0
 11
8.407017
 21
4.83384
 31
0.0
  0
LINE
  5
3B7
330
18
100
AcDbEntity
  8
0
100
AcDbLine
 10
8.407017
 20
4.83384
 30
0.0
 11
8.403828000000001
 21
4.875282
 31
0.0
  0
LINE
  5
3B8
330
18
100
AcDbEntity
  8
0
100
AcDbLine
 10
8.403828000000001
 20
4.875282
 30
0.0
 11
8.403828000000001
 21
4.932663
 31
0.0
  0
LINE
  5
3B9
330
18
100
AcDbEntity
  8
0
100
AcDbLine
 10
8.403828000000001
 20
4.932663
 30
0.0
 11
8.413394
 21
5.018733999999999
 31
0.0
  0
LINE
  5
3BA
330
18
100
AcDbEntity
  8
0
100
AcDbLine
 10
8.413394
 20
5.018733999999999
 30
0.0
 11
8.403828000000001
 21
5.088866
 31
0.0
  0
LINE
  5
3BB
330
18
100
AcDbEntity
  8
0
100
AcDbLine
 10
8.403828000000001
 20
5.088866
 30
0.0
 11
8.403828000000001
 21
5.146247
 31
0.0
  0
LINE
  5
3BC
330
18
100
AcDbEntity
  8
0
100
AcDbLine
 10
8.403828000000001
 20
5.146247
 30
0.0
 11
8.407017
 21
5.206816000000001
 31
0.0
  0
LINE
  5
3BD
330
18
100
AcDbEntity
  8
0
100
AcDbLine
 10
8.407017
 20
5.206816000000001
 30
0.0
 11
8.402296
 21
5.220975
 31
0.0
  0
LINE
  5
3BE
330
18
100
AcDbEntity
  8
0
100
AcDbLine
 10
8.339047000000001
 20
4.744937999999999
 30
0.0
 11
8.346428
 21
4.789211
 31
0.0
  0
LINE
  5
3BF
330
18
100
AcDbEntity
  8
0
100
AcDbLine
 10
8.346428
 20
4.789211
 30
0.0
 11
8.346428
 21
4.846592
 31
0.0
  0
LINE
  5
3C0
330
18
100
AcDbEntity
  8
0
100
AcDbLine
 10
8.346428
 20
4.846592
 30
0.0
 11
8.352805
 21
4.923099
 31
0.0
  0
LINE
  5
3C1
330
18
100
AcDbEntity
  8
0
100
AcDbLine
 10
8.352805
 20
4.923099
 30
0.0
 11
8.352805
 21
4.999607
 31
0.0
  0
LINE
  5
3C2
330
18
100
AcDbEntity
  8
0
100
AcDbLine
 10
8.352805
 20
4.999607
 30
0.0
 11
8.346428
 21
5.072927
 31
0.0
  0
LINE
  5
3C3
330
18
100
AcDbEntity
  8
0
100
AcDbLine
 10
8.346428
 20
5.072927
 30
0.0
 11
8.349616000000001
 21
5.111181
 31
0.0
  0
LINE
  5
3C4
330
18
100
AcDbEntity
  8
0
100
AcDbLine
 10
8.349616000000001
 20
5.111181
 30
0.0
 11
8.343239000000001
 21
5.162186
 31
0.0
  0
LINE
  5
3C5
330
18
100
AcDbEntity
  8
0
100
AcDbLine
 10
8.343239000000001
 20
5.162186
 30
0.0
 11
8.336905
 21
5.202289
 31
0.0
  0
LINE
  5
3C6
330
18
100
AcDbEntity
  8
0
100
AcDbLine
 10
8.306355999999999
 20
4.735596
 30
0.0
 11
8.314539
 21
4.795586
 31
0.0
  0
LINE
  5
3C7
330
18
100
AcDbEntity
  8
0
100
AcDbLine
 10
8.314539
 20
4.795586
 30
0.0
 11
8.314539
 21
4.865719
 31
0.0
  0
LINE
  5
3C8
330
18
100
AcDbEntity
  8
0
100
AcDbLine
 10
8.314539
 20
4.865719
 30
0.0
 11
8.311349999999999
 21
4.926287
 31
0.0
  0
LINE
  5
3C9
330
18
100
AcDbEntity
  8
0
100
AcDbLine
 10
8.311349999999999
 20
4.926287
 30
0.0
 11
8.314539
 21
5.002795
 31
0.0
  0
LINE
  5
3CA
330
18
100
AcDbEntity
  8
0
100
AcDbLine
 10
8.314539
 20
5.002795
 30
0.0
 11
8.304971999999999
 21
5.076115
 31
0.0
  0
LINE
  5
3CB
330
18
100
AcDbEntity
  8
0
100
AcDbLine
 10
8.304971999999999
 20
5.076115
 30
0.0
 11
8.292216999999999
 21
5.136684
 31
0.0
  0
LINE
  5
3CC
330
18
100
AcDbEntity
  8
0
100
AcDbLine
 10
8.292216999999999
 20
5.136684
 30
0.0
 11
8.280564999999999
 21
5.186189
 31
0.0
  0
LINE
  5
3CD
330
18
100
AcDbEntity
  8
0
100
AcDbLine
 10
8.259063000000001
 20
4.722082
 30
0.0
 11
8.269895
 21
4.750957
 31
0.0
  0
LINE
  5
3CE
330
18
100
AcDbEntity
  8
0
100
AcDbLine
 10
8.269895
 20
4.750957
 30
0.0
 11
8.263517
 21
4.824277
 31
0.0
  0
LINE
  5
3CF
330
18
100
AcDbEntity
  8
0
100
AcDbLine
 10
8.263517
 20
4.824277
 30
0.0
 11
8.269895
 21
4.923099
 31
0.0
  0
LINE
  5
3D0
330
18
100
AcDbEntity
  8
0
100
AcDbLine
 10
8.269895
 20
4.923099
 30
0.0
 11
8.266705999999999
 21
4.996419
 31
0.0
  0
LINE
  5
3D1
330
18
100
AcDbEntity
  8
0
100
AcDbLine
 10
8.266705999999999
 20
4.996419
 30
0.0
 11
8.247572
 21
5.063364
 31
0.0
  0
LINE
  5
3D2
330
18
100
AcDbEntity
  8
0
100
AcDbLine
 10
8.247572
 20
5.063364
 30
0.0
 11
8.241194
 21
5.146247
 31
0.0
  0
LINE
  5
3D3
330
18
100
AcDbEntity
  8
0
100
AcDbLine
 10
8.241194
 20
5.146247
 30
0.0
 11
8.235764999999999
 21
5.173387
 31
0.0
  0
ARC
  5
3D4
330
18
100
AcDbEntity
  8
0
100
AcDbCircle
 10
6.337014
 20
5.626101
 30
0.0
 40
0.009021
100
AcDbArc
 50
101.069332
 51
129.762965
  0
ARC
  5
3D5
330
18
100
AcDbEntity
  8
0
100
AcDbCircle
 10
6.339314
 20
5.623336
 30
0.0
 40
0.012617
100
AcDbArc
 50
129.762965
 51
153.951764
  0
ARC
  5
3D6
330
18
100
AcDbEntity
  8
0
100
AcDbCircle
 10
6.342376
 20
5.62184
 30
0.0
 40
0.016024
100
AcDbArc
 50
153.951764
 51
173.664848
  0
ARC
  5
3D7
330
18
100
AcDbEntity
  8
0
100
AcDbCircle
 10
6.346837
 20
5.621345
 30
0.0
 40
0.020512
100
AcDbArc
 50
173.664848
 51
191.069332
  0
ARC
  5
3D8
330
18
100
AcDbEntity
  8
0
100
AcDbCircle
 10
6.346837
 20
5.621345
 30
0.0
 40
0.020512
100
AcDbArc
 50
191.069332
 51
208.473817
  0
ARC
  5
3D9
330
18
100
AcDbEntity
  8
0
100
AcDbCircle
 10
6.342891000000001
 20
5.619205
 30
0.0
 40
0.016024
100
AcDbArc
 50
208.473817
 51
228.186901
  0
ARC
  5
3DA
330
18
100
AcDbEntity
  8
0
100
AcDbCircle
 10
6.340619
 20
5.616665
 30
0.0
 40
0.012617
100
AcDbArc
 50
228.186901
 51
252.3756990000001
  0
ARC
  5
3DB
330
18
100
AcDbEntity
  8
0
100
AcDbCircle
 10
6.339531
 20
5.613238
 30
0.0
 40
0.009021
100
AcDbArc
 50
252.3756990000001
 51
281.069332
  0
ARC
  5
3DC
330
18
100
AcDbEntity
  8
0
100
AcDbCircle
 10
6.339531
 20
5.613238
 30
0.0
 40
0.009021
100
AcDbArc
 50
281.069332
 51
309.762965
  0
ARC
  5
3DD
330
18
100
AcDbEntity
  8
0
100
AcDbCircle
 10
6.33723
 20
5.616002
 30
0.0
 40
0.012617
100
AcDbArc
 50
309.762965
 51
333.951764
  0
ARC
  5
3DE
330
18
100
AcDbEntity
  8
0
100
AcDbCircle
 10
6.334169
 20
5.617499
 30
0.0
 40
0.016024
100
AcDbArc
 50
333.951764
 51
353.664848
  0
ARC
  5
3DF
330
18
100
AcDbEntity
  8
0
100
AcDbCircle
 10
6.329708
 20
5.617994
 30
0.0
 40
0.020512
100
AcDbArc
 50
353.664848
 51
11.069332
  0
ARC
  5
3E0
330
18
100
AcDbEntity
  8
0
100
AcDbCircle
 10
6.329708
 20
5.617994
 30
0.0
 40
0.020512
100
AcDbArc
 50
11.069332
 51
28.473817
  0
ARC
  5
3E1
330
18
100
AcDbEntity
  8
0
100
AcDbCircle
 10
6.333653
 20
5.620133999999999
 30
0.0
 40
0.016024
100
AcDbArc
 50
28.473817
 51
48.186901
  0
ARC
  5
3E2
330
18
100
AcDbEntity
  8
0
100
AcDbCircle
 10
6.335925
 20
5.622673000000001
 30
0.0
 40
0.012617
100
AcDbArc
 50
48.186901
 51
72.375699
  0
ARC
  5
3E3
330
18
100
AcDbEntity
  8
0
100
AcDbCircle
 10
6.337014
 20
5.626101
 30
0.0
 40
0.009021
100
AcDbArc
 50
72.375699
 51
101.069332
  0
ARC
  5
3E4
330
18
100
AcDbEntity
  8
0
100
AcDbCircle
 10
6.592085000000001
 20
5.119123
 30
0.0
 40
0.007234
100
AcDbArc
 50
111.616943
 51
138.883345
  0
ARC
  5
3E5
330
18
100
AcDbEntity
  8
0
100
AcDbCircle
 10
6.593671000000001
 20
5.117739
 30
0.0
 40
0.009339
100
AcDbArc
 50
138.883345
 51
162.828797
  0
ARC
  5
3E6
330
18
100
AcDbEntity
  8
0
100
AcDbCircle
 10
6.595525
 20
5.117166
 30
0.0
 40
0.011279
100
AcDbArc
 50
162.828797
 51
183.204591
  0
ARC
  5
3E7
330
18
100
AcDbEntity
  8
0
100
AcDbCircle
 10
6.598028
 20
5.117306
 30
0.0
 40
0.013786
100
AcDbArc
 50
183.204591
 51
201.616943
  0
ARC
  5
3E8
330
18
100
AcDbEntity
  8
0
100
AcDbCircle
 10
6.598028
 20
5.117306
 30
0.0
 40
0.013786
100
AcDbArc
 50
201.616943
 51
220.029295
  0
ARC
  5
3E9
330
18
100
AcDbEntity
  8
0
100
AcDbCircle
 10
6.596108
 20
5.115694
 30
0.0
 40
0.011279
100
AcDbArc
 50
220.029295
 51
240.405089
  0
ARC
  5
3EA
330
18
100
AcDbEntity
  8
0
100
AcDbCircle
 10
6.59515
 20
5.114007
 30
0.0
 40
0.009339
100
AcDbArc
 50
240.405089
 51
264.350542
  0
ARC
  5
3EB
330
18
100
AcDbEntity
  8
0
100
AcDbCircle
 10
6.594942999999999
 20
5.111912
 30
0.0
 40
0.007234
100
AcDbArc
 50
264.350542
 51
291.616943
  0
ARC
  5
3EC
330
18
100
AcDbEntity
  8
0
100
AcDbCircle
 10
6.594942999999999
 20
5.111912
 30
0.0
 40
0.007234
100
AcDbArc
 50
291.616943
 51
318.883345
  0
ARC
  5
3ED
330
18
100
AcDbEntity
  8
0
100
AcDbCircle
 10
6.593357000000001
 20
5.113296
 30
0.0
 40
0.009339
100
AcDbArc
 50
318.883345
 51
342.828797
  0
ARC
  5
3EE
330
18
100
AcDbEntity
  8
0
100
AcDbCircle
 10
6.591502999999999
 20
5.113869
 30
0.0
 40
0.011279
100
AcDbArc
 50
342.828797
 51
3.204591
  0
ARC
  5
3EF
330
18
100
AcDbEntity
  8
0
100
AcDbCircle
 10
6.589
 20
5.113729
 30
0.0
 40
0.013786
100
AcDbArc
 50
3.204591
 51
21.616943
  0
ARC
  5
3F0
330
18
100
AcDbEntity
  8
0
100
AcDbCircle
 10
6.589
 20
5.113729
 30
0.0
 40
0.013786
100
AcDbArc
 50
21.616943
 51
40.029295
  0
ARC
  5
3F1
330
18
100
AcDbEntity
  8
0
100
AcDbCircle
 10
6.59092
 20
5.115341
 30
0.0
 40
0.011279
100
AcDbArc
 50
40.029295
 51
60.405089
  0
ARC
  5
3F2
330
18
100
AcDbEntity
  8
0
100
AcDbCircle
 10
6.591878
 20
5.117028
 30
0.0
 40
0.009339
100
AcDbArc
 50
60.405089
 51
84.350542
  0
ARC
  5
3F3
330
18
100
AcDbEntity
  8
0
100
AcDbCircle
 10
6.592085000000001
 20
5.119123
 30
0.0
 40
0.007234
100
AcDbArc
 50
84.350542
 51
111.616943
  0
ARC
  5
3F4
330
18
100
AcDbEntity
  8
0
100
AcDbCircle
 10
6.326752
 20
5.292223
 30
0.0
 40
0.009021
100
AcDbArc
 50
101.069332
 51
129.762965
  0
ARC
  5
3F5
330
18
100
AcDbEntity
  8
0
100
AcDbCircle
 10
6.329052
 20
5.289459
 30
0.0
 40
0.012617
100
AcDbArc
 50
129.762965
 51
153.951764
  0
ARC
  5
3F6
330
18
100
AcDbEntity
  8
0
100
AcDbCircle
 10
6.332113
 20
5.287963
 30
0.0
 40
0.016024
100
AcDbArc
 50
153.951764
 51
173.664848
  0
ARC
  5
3F7
330
18
100
AcDbEntity
  8
0
100
AcDbCircle
 10
6.336574
 20
5.287467
 30
0.0
 40
0.020512
100
AcDbArc
 50
173.664848
 51
191.069332
  0
ARC
  5
3F8
330
18
100
AcDbEntity
  8
0
100
AcDbCircle
 10
6.336574
 20
5.287467
 30
0.0
 40
0.020512
100
AcDbArc
 50
191.069332
 51
208.473817
  0
ARC
  5
3F9
330
18
100
AcDbEntity
  8
0
100
AcDbCircle
 10
6.332629
 20
5.285328
 30
0.0
 40
0.016024
100
AcDbArc
 50
208.473817
 51
228.186901
  0
ARC
  5
3FA
330
18
100
AcDbEntity
  8
0
100
AcDbCircle
 10
6.330357
 20
5.282788
 30
0.0
 40
0.012617
100
AcDbArc
 50
228.186901
 51
252.3756990000001
  0
ARC
  5
3FB
330
18
100
AcDbEntity
  8
0
100
AcDbCircle
 10
6.329268
 20
5.279361
 30
0.0
 40
0.009021
100
AcDbArc
 50
252.3756990000001
 51
281.069332
  0
ARC
  5
3FC
330
18
100
AcDbEntity
  8
0
100
AcDbCircle
 10
6.329268
 20
5.279361
 30
0.0
 40
0.009021
100
AcDbArc
 50
281.069332
 51
309.762965
  0
ARC
  5
3FD
330
18
100
AcDbEntity
  8
0
100
AcDbCircle
 10
6.326968
 20
5.282125
 30
0.0
 40
0.012617
100
AcDbArc
 50
309.762965
 51
333.951764
  0
ARC
  5
3FE
330
18
100
AcDbEntity
  8
0
100
AcDbCircle
 10
6.323907
 20
5.283621
 30
0.0
 40
0.016024
100
AcDbArc
 50
333.951764
 51
353.664848
  0
ARC
  5
3FF
330
18
100
AcDbEntity
  8
0
100
AcDbCircle
 10
6.319446
 20
5.284116
 30
0.0
 40
0.020512
100
AcDbArc
 50
353.664848
 51
11.069332
  0
ARC
  5
400
330
18
100
AcDbEntity
  8
0
100
AcDbCircle
 10
6.319446
 20
5.284116
 30
0.0
 40
0.020512
100
AcDbArc
 50
11.069332
 51
28.473817
  0
ARC
  5
401
330
18
100
AcDbEntity
  8
0
100
AcDbCircle
 10
6.323391
 20
5.286256
 30
0.0
 40
0.016024
100
AcDbArc
 50
28.473817
 51
48.186901
  0
ARC
  5
402
330
18
100
AcDbEntity
  8
0
100
AcDbCircle
 10
6.325663
 20
5.288796
 30
0.0
 40
0.012617
100
AcDbArc
 50
48.186901
 51
72.375699
  0
ARC
  5
403
330
18
100
AcDbEntity
  8
0
100
AcDbCircle
 10
6.326752
 20
5.292223
 30
0.0
 40
0.009021
100
AcDbArc
 50
72.375699
 51
101.069332
  0
ARC
  5
404
330
18
100
AcDbEntity
  8
0
100
AcDbCircle
 10
6.375042
 20
5.571375
 30
0.0
 40
0.009021
100
AcDbArc
 50
101.069332
 51
129.762965
  0
ARC
  5
405
330
18
100
AcDbEntity
  8
0
100
AcDbCircle
 10
6.377342
 20
5.568611
 30
0.0
 40
0.012617
100
AcDbArc
 50
129.762965
 51
153.951764
  0
ARC
  5
406
330
18
100
AcDbEntity
  8
0
100
AcDbCircle
 10
6.380403
 20
5.567115
 30
0.0
 40
0.016024
100
AcDbArc
 50
153.951764
 51
173.664848
  0
ARC
  5
407
330
18
100
AcDbEntity
  8
0
100
AcDbCircle
 10
6.384864
 20
5.566619
 30
0.0
 40
0.020512
100
AcDbArc
 50
173.664848
 51
191.069332
  0
ARC
  5
408
330
18
100
AcDbEntity
  8
0
100
AcDbCircle
 10
6.384864
 20
5.566619
 30
0.0
 40
0.020512
100
AcDbArc
 50
191.069332
 51
208.473817
  0
ARC
  5
409
330
18
100
AcDbEntity
  8
0
100
AcDbCircle
 10
6.380919000000001
 20
5.564479
 30
0.0
 40
0.016024
100
AcDbArc
 50
208.473817
 51
228.186901
  0
ARC
  5
40A
330
18
100
AcDbEntity
  8
0
100
AcDbCircle
 10
6.378647
 20
5.56194
 30
0.0
 40
0.012617
100
AcDbArc
 50
228.186901
 51
252.3756990000001
  0
ARC
  5
40B
330
18
100
AcDbEntity
  8
0
100
AcDbCircle
 10
6.377558000000001
 20
5.558512
 30
0.0
 40
0.009021
100
AcDbArc
 50
252.3756990000001
 51
281.069332
  0
ARC
  5
40C
330
18
100
AcDbEntity
  8
0
100
AcDbCircle
 10
6.377558000000001
 20
5.558512
 30
0.0
 40
0.009021
100
AcDbArc
 50
281.069332
 51
309.762965
  0
ARC
  5
40D
330
18
100
AcDbEntity
  8
0
100
AcDbCircle
 10
6.375258000000001
 20
5.561277
 30
0.0
 40
0.012617
100
AcDbArc
 50
309.762965
 51
333.951764
  0
ARC
  5
40E
330
18
100
AcDbEntity
  8
0
100
AcDbCircle
 10
6.372197
 20
5.562773
 30
0.0
 40
0.016024
100
AcDbArc
 50
333.951764
 51
353.664848
  0
ARC
  5
40F
330
18
100
AcDbEntity
  8
0
100
AcDbCircle
 10
6.367736
 20
5.563268
 30
0.0
 40
0.020512
100
AcDbArc
 50
353.664848
 51
11.069332
  0
ARC
  5
410
330
18
100
AcDbEntity
  8
0
100
AcDbCircle
 10
6.367736
 20
5.563268
 30
0.0
 40
0.020512
100
AcDbArc
 50
11.069332
 51
28.473817
  0
ARC
  5
411
330
18
100
AcDbEntity
  8
0
100
AcDbCircle
 10
6.371681
 20
5.565408000000001
 30
0.0
 40
0.016024
100
AcDbArc
 50
28.473817
 51
48.186901
  0
ARC
  5
412
330
18
100
AcDbEntity
  8
0
100
AcDbCircle
 10
6.373953
 20
5.567948
 30
0.0
 40
0.012617
100
AcDbArc
 50
48.186901
 51
72.375699
  0
ARC
  5
413
330
18
100
AcDbEntity
  8
0
100
AcDbCircle
 10
6.375042
 20
5.571375
 30
0.0
 40
0.009021
100
AcDbArc
 50
72.375699
 51
101.069332
  0
ARC
  5
414
330
18
100
AcDbEntity
  8
0
100
AcDbCircle
 10
6.341375
 20
5.529077
 30
0.0
 40
0.018041
100
AcDbArc
 50
101.069332
 51
129.762965
  0
ARC
  5
415
330
18
100
AcDbEntity
  8
0
100
AcDbCircle
 10
6.345975
 20
5.523548
 30
0.0
 40
0.025233
100
AcDbArc
 50
129.762965
 51
153.951764
  0
ARC
  5
416
330
18
100
AcDbEntity
  8
0
100
AcDbCircle
 10
6.352098000000001
 20
5.520556
 30
0.0
 40
0.032048
100
AcDbArc
 50
153.951764
 51
173.664848
  0
ARC
  5
417
330
18
100
AcDbEntity
  8
0
100
AcDbCircle
 10
6.361019000000001
 20
5.519565
 30
0.0
 40
0.041025
100
AcDbArc
 50
173.664848
 51
191.069332
  0
ARC
  5
418
330
18
100
AcDbEntity
  8
0
100
AcDbCircle
 10
6.361019000000001
 20
5.519565
 30
0.0
 40
0.041025
100
AcDbArc
 50
191.069332
 51
208.473817
  0
ARC
  5
419
330
18
100
AcDbEntity
  8
0
100
AcDbCircle
 10
6.353129
 20
5.515286
 30
0.0
 40
0.032048
100
AcDbArc
 50
208.473817
 51
228.186901
  0
ARC
  5
41A
330
18
100
AcDbEntity
  8
0
100
AcDbCircle
 10
6.348585
 20
5.510206
 30
0.0
 40
0.025233
100
AcDbArc
 50
228.186901
 51
252.3756990000001
  0
ARC
  5
41B
330
18
100
AcDbEntity
  8
0
100
AcDbCircle
 10
6.346407
 20
5.503351
 30
0.0
 40
0.018041
100
AcDbArc
 50
252.3756990000001
 51
281.069332
  0
ARC
  5
41C
330
18
100
AcDbEntity
  8
0
100
AcDbCircle
 10
6.346407
 20
5.503351
 30
0.0
 40
0.018041
100
AcDbArc
 50
281.069332
 51
309.762965
  0
ARC
  5
41D
330
18
100
AcDbEntity
  8
0
100
AcDbCircle
 10
6.341807
 20
5.50888
 30
0.0
 40
0.025233
100
AcDbArc
 50
309.762965
 51
333.951764
  0
ARC
  5
41E
330
18
100
AcDbEntity
  8
0
100
AcDbCircle
 10
6.335684
 20
5.511873000000001
 30
0.0
 40
0.032048
100
AcDbArc
 50
333.951764
 51
353.664848
  0
ARC
  5
41F
330
18
100
AcDbEntity
  8
0
100
AcDbCircle
 10
6.326763
 20
5.512862999999999
 30
0.0
 40
0.041025
100
AcDbArc
 50
353.664848
 51
11.069332
  0
ARC
  5
420
330
18
100
AcDbEntity
  8
0
100
AcDbCircle
 10
6.326763
 20
5.512862999999999
 30
0.0
 40
0.041025
100
AcDbArc
 50
11.069332
 51
28.473817
  0
ARC
  5
421
330
18
100
AcDbEntity
  8
0
100
AcDbCircle
 10
6.334653
 20
5.517143
 30
0.0
 40
0.032048
100
AcDbArc
 50
28.473817
 51
48.186901
  0
ARC
  5
422
330
18
100
AcDbEntity
  8
0
100
AcDbCircle
 10
6.339197
 20
5.522222
 30
0.0
 40
0.025233
100
AcDbArc
 50
48.186901
 51
72.375699
  0
ARC
  5
423
330
18
100
AcDbEntity
  8
0
100
AcDbCircle
 10
6.341375
 20
5.529077
 30
0.0
 40
0.018041
100
AcDbArc
 50
72.375699
 51
101.069332
  0
ARC
  5
424
330
18
100
AcDbEntity
  8
0
100
AcDbCircle
 10
6.307955000000001
 20
5.478405
 30
0.0
 40
0.009021
100
AcDbArc
 50
101.069332
 51
129.762965
  0
ARC
  5
425
330
18
100
AcDbEntity
  8
0
100
AcDbCircle
 10
6.310255000000001
 20
5.475641
 30
0.0
 40
0.012617
100
AcDbArc
 50
129.762965
 51
153.951764
  0
ARC
  5
426
330
18
100
AcDbEntity
  8
0
100
AcDbCircle
 10
6.313317
 20
5.474145
 30
0.0
 40
0.016024
100
AcDbArc
 50
153.951764
 51
173.664848
  0
ARC
  5
427
330
18
100
AcDbEntity
  8
0
100
AcDbCircle
 10
6.317777
 20
5.473649
 30
0.0
 40
0.020512
100
AcDbArc
 50
173.664848
 51
191.069332
  0
ARC
  5
428
330
18
100
AcDbEntity
  8
0
100
AcDbCircle
 10
6.317777
 20
5.473649
 30
0.0
 40
0.020512
100
AcDbArc
 50
191.069332
 51
208.473817
  0
ARC
  5
429
330
18
100
AcDbEntity
  8
0
100
AcDbCircle
 10
6.313832
 20
5.471509999999999
 30
0.0
 40
0.016024
100
AcDbArc
 50
208.473817
 51
228.186901
  0
ARC
  5
42A
330
18
100
AcDbEntity
  8
0
100
AcDbCircle
 10
6.31156
 20
5.46897
 30
0.0
 40
0.012617
100
AcDbArc
 50
228.186901
 51
252.3756990000001
  0
ARC
  5
42B
330
18
100
AcDbEntity
  8
0
100
AcDbCircle
 10
6.310471
 20
5.465543
 30
0.0
 40
0.009021
100
AcDbArc
 50
252.3756990000001
 51
281.069332
  0
ARC
  5
42C
330
18
100
AcDbEntity
  8
0
100
AcDbCircle
 10
6.310471
 20
5.465543
 30
0.0
 40
0.009021
100
AcDbArc
 50
281.069332
 51
309.762965
  0
ARC
  5
42D
330
18
100
AcDbEntity
  8
0
100
AcDbCircle
 10
6.308171
 20
5.468307
 30
0.0
 40
0.012617
100
AcDbArc
 50
309.762965
 51
333.951764
  0
ARC
  5
42E
330
18
100
AcDbEntity
  8
0
100
AcDbCircle
 10
6.30511
 20
5.469803
 30
0.0
 40
0.016024
100
AcDbArc
 50
333.951764
 51
353.664848
  0
ARC
  5
42F
330
18
100
AcDbEntity
  8
0
100
AcDbCircle
 10
6.300649
 20
5.470298000000001
 30
0.0
 40
0.020512
100
AcDbArc
 50
353.664848
 51
11.069332
  0
ARC
  5
430
330
18
100
AcDbEntity
  8
0
100
AcDbCircle
 10
6.300649
 20
5.470298000000001
 30
0.0
 40
0.020512
100
AcDbArc
 50
11.069332
 51
28.473817
  0
ARC
  5
431
330
18
100
AcDbEntity
  8
0
100
AcDbCircle
 10
6.304594
 20
5.472438
 30
0.0
 40
0.016024
100
AcDbArc
 50
28.473817
 51
48.186901
  0
ARC
  5
432
330
18
100
AcDbEntity
  8
0
100
AcDbCircle
 10
6.306866
 20
5.474978
 30
0.0
 40
0.012617
100
AcDbArc
 50
48.186901
 51
72.375699
  0
ARC
  5
433
330
18
100
AcDbEntity
  8
0
100
AcDbCircle
 10
6.307955000000001
 20
5.478405
 30
0.0
 40
0.009021
100
AcDbArc
 50
72.375699
 51
101.069332
  0
ARC
  5
434
330
18
100
AcDbEntity
  8
0
100
AcDbCircle
 10
6.331324
 20
5.498486
 30
0.0
 40
0.041025
100
AcDbArc
 50
28.19353900000001
 51
28.473817
  0
ARC
  5
435
330
18
100
AcDbEntity
  8
0
100
AcDbCircle
 10
6.339214
 20
5.502765
 30
0.0
 40
0.032048
100
AcDbArc
 50
28.473817
 51
48.186901
  0
ARC
  5
436
330
18
100
AcDbEntity
  8
0
100
AcDbCircle
 10
6.343758
 20
5.507845
 30
0.0
 40
0.025233
100
AcDbArc
 50
48.186901
 51
72.375699
  0
ARC
  5
437
330
18
100
AcDbEntity
  8
0
100
AcDbCircle
 10
6.345936
 20
5.514699
 30
0.0
 40
0.018041
100
AcDbArc
 50
72.375699
 51
101.069332
  0
ARC
  5
438
330
18
100
AcDbEntity
  8
0
100
AcDbCircle
 10
6.345936
 20
5.514699
 30
0.0
 40
0.018041
100
AcDbArc
 50
101.069332
 51
129.762965
  0
ARC
  5
439
330
18
100
AcDbEntity
  8
0
100
AcDbCircle
 10
6.350536
 20
5.509171
 30
0.0
 40
0.025233
100
AcDbArc
 50
129.762965
 51
153.951764
  0
ARC
  5
43A
330
18
100
AcDbEntity
  8
0
100
AcDbCircle
 10
6.356659
 20
5.506178
 30
0.0
 40
0.032048
100
AcDbArc
 50
153.951764
 51
173.664848
  0
ARC
  5
43B
330
18
100
AcDbEntity
  8
0
100
AcDbCircle
 10
6.365580000000001
 20
5.505188
 30
0.0
 40
0.041025
100
AcDbArc
 50
173.664848
 51
187.007153
  0
ARC
  5
43C
330
18
100
AcDbEntity
  8
0
100
AcDbCircle
 10
6.341615
 20
5.393066999999999
 30
0.0
 40
0.009021
100
AcDbArc
 50
101.069332
 51
129.762965
  0
ARC
  5
43D
330
18
100
AcDbEntity
  8
0
100
AcDbCircle
 10
6.343915
 20
5.390303
 30
0.0
 40
0.012617
100
AcDbArc
 50
129.762965
 51
153.951764
  0
ARC
  5
43E
330
18
100
AcDbEntity
  8
0
100
AcDbCircle
 10
6.346977
 20
5.388806
 30
0.0
 40
0.016024
100
AcDbArc
 50
153.951764
 51
173.664848
  0
ARC
  5
43F
330
18
100
AcDbEntity
  8
0
100
AcDbCircle
 10
6.351438
 20
5.388311
 30
0.0
 40
0.020512
100
AcDbArc
 50
173.664848
 51
191.069332
  0
ARC
  5
440
330
18
100
AcDbEntity
  8
0
100
AcDbCircle
 10
6.351438
 20
5.388311
 30
0.0
 40
0.020512
100
AcDbArc
 50
191.069332
 51
208.473817
  0
ARC
  5
441
330
18
100
AcDbEntity
  8
0
100
AcDbCircle
 10
6.347492
 20
5.386171
 30
0.0
 40
0.016024
100
AcDbArc
 50
208.473817
 51
228.186901
  0
ARC
  5
442
330
18
100
AcDbEntity
  8
0
100
AcDbCircle
 10
6.345219999999999
 20
5.383632
 30
0.0
 40
0.012617
100
AcDbArc
 50
228.186901
 51
252.3756990000001
  0
ARC
  5
443
330
18
100
AcDbEntity
  8
0
100
AcDbCircle
 10
6.344132
 20
5.380204
 30
0.0
 40
0.009021
100
AcDbArc
 50
252.3756990000001
 51
281.069332
  0
ARC
  5
444
330
18
100
AcDbEntity
  8
0
100
AcDbCircle
 10
6.344132
 20
5.380204
 30
0.0
 40
0.009021
100
AcDbArc
 50
281.069332
 51
309.762965
  0
ARC
  5
445
330
18
100
AcDbEntity
  8
0
100
AcDbCircle
 10
6.341832
 20
5.382969
 30
0.0
 40
0.012617
100
AcDbArc
 50
309.762965
 51
333.951764
  0
ARC
  5
446
330
18
100
AcDbEntity
  8
0
100
AcDbCircle
 10
6.338769999999999
 20
5.384465000000001
 30
0.0
 40
0.016024
100
AcDbArc
 50
333.951764
 51
353.664848
  0
ARC
  5
447
330
18
100
AcDbEntity
  8
0
100
AcDbCircle
 10
6.334308999999999
 20
5.38496
 30
0.0
 40
0.020512
100
AcDbArc
 50
353.664848
 51
11.069332
  0
ARC
  5
448
330
18
100
AcDbEntity
  8
0
100
AcDbCircle
 10
6.334308999999999
 20
5.38496
 30
0.0
 40
0.020512
100
AcDbArc
 50
11.069332
 51
28.473817
  0
ARC
  5
449
330
18
100
AcDbEntity
  8
0
100
AcDbCircle
 10
6.338255
 20
5.3871
 30
0.0
 40
0.016024
100
AcDbArc
 50
28.473817
 51
48.186901
  0
ARC
  5
44A
330
18
100
AcDbEntity
  8
0
100
AcDbCircle
 10
6.340526000000001
 20
5.38964
 30
0.0
 40
0.012617
100
AcDbArc
 50
48.186901
 51
72.375699
  0
ARC
  5
44B
330
18
100
AcDbEntity
  8
0
100
AcDbCircle
 10
6.341615
 20
5.393066999999999
 30
0.0
 40
0.009021
100
AcDbArc
 50
72.375699
 51
101.069332
  0
ARC
  5
44C
330
18
100
AcDbEntity
  8
0
100
AcDbCircle
 10
6.420230999999999
 20
5.116585
 30
0.0
 40
0.007234
100
AcDbArc
 50
111.616943
 51
138.883345
  0
ARC
  5
44D
330
18
100
AcDbEntity
  8
0
100
AcDbCircle
 10
6.421817
 20
5.115201
 30
0.0
 40
0.009339
100
AcDbArc
 50
138.883345
 51
162.828797
  0
ARC
  5
44E
330
18
100
AcDbEntity
  8
0
100
AcDbCircle
 10
6.42367
 20
5.114628
 30
0.0
 40
0.011279
100
AcDbArc
 50
162.828797
 51
183.204591
  0
ARC
  5
44F
330
18
100
AcDbEntity
  8
0
100
AcDbCircle
 10
6.426173
 20
5.114768
 30
0.0
 40
0.013786
100
AcDbArc
 50
183.204591
 51
201.616943
  0
ARC
  5
450
330
18
100
AcDbEntity
  8
0
100
AcDbCircle
 10
6.426173
 20
5.114768
 30
0.0
 40
0.013786
100
AcDbArc
 50
201.616943
 51
220.029295
  0
ARC
  5
451
330
18
100
AcDbEntity
  8
0
100
AcDbCircle
 10
6.424254
 20
5.113155
 30
0.0
 40
0.011279
100
AcDbArc
 50
220.029295
 51
240.405089
  0
ARC
  5
452
330
18
100
AcDbEntity
  8
0
100
AcDbCircle
 10
6.423295
 20
5.111468
 30
0.0
 40
0.009339
100
AcDbArc
 50
240.405089
 51
264.350542
  0
ARC
  5
453
330
18
100
AcDbEntity
  8
0
100
AcDbCircle
 10
6.423088
 20
5.109374
 30
0.0
 40
0.007234
100
AcDbArc
 50
264.350542
 51
291.616943
  0
ARC
  5
454
330
18
100
AcDbEntity
  8
0
100
AcDbCircle
 10
6.423088
 20
5.109374
 30
0.0
 40
0.007234
100
AcDbArc
 50
291.616943
 51
318.883345
  0
ARC
  5
455
330
18
100
AcDbEntity
  8
0
100
AcDbCircle
 10
6.421501999999999
 20
5.110758000000001
 30
0.0
 40
0.009339
100
AcDbArc
 50
318.883345
 51
342.828797
  0
ARC
  5
456
330
18
100
AcDbEntity
  8
0
100
AcDbCircle
 10
6.419649
 20
5.111331
 30
0.0
 40
0.011279
100
AcDbArc
 50
342.828797
 51
3.204591
  0
ARC
  5
457
330
18
100
AcDbEntity
  8
0
100
AcDbCircle
 10
6.417146
 20
5.111191000000001
 30
0.0
 40
0.013786
100
AcDbArc
 50
3.204591
 51
21.616943
  0
ARC
  5
458
330
18
100
AcDbEntity
  8
0
100
AcDbCircle
 10
6.417146
 20
5.111191000000001
 30
0.0
 40
0.013786
100
AcDbArc
 50
21.616943
 51
40.029295
  0
ARC
  5
459
330
18
100
AcDbEntity
  8
0
100
AcDbCircle
 10
6.419065
 20
5.112803
 30
0.0
 40
0.011279
100
AcDbArc
 50
40.029295
 51
60.405089
  0
ARC
  5
45A
330
18
100
AcDbEntity
  8
0
100
AcDbCircle
 10
6.420023000000001
 20
5.11449
 30
0.0
 40
0.009339
100
AcDbArc
 50
60.405089
 51
84.350542
  0
ARC
  5
45B
330
18
100
AcDbEntity
  8
0
100
AcDbCircle
 10
6.420230999999999
 20
5.116585
 30
0.0
 40
0.007234
100
AcDbArc
 50
84.350542
 51
111.616943
  0
ARC
  5
45C
330
18
100
AcDbEntity
  8
0
100
AcDbCircle
 10
6.208486
 20
5.240129000000001
 30
0.0
 40
0.007553
100
AcDbArc
 50
103.338214
 51
134.576049
  0
ARC
  5
45D
330
18
100
AcDbEntity
  8
0
100
AcDbCircle
 10
6.211768
 20
5.236799
 30
0.0
 40
0.012228
100
AcDbArc
 50
134.576049
 51
159.007883
  0
ARC
  5
45E
330
18
100
AcDbEntity
  8
0
100
AcDbCircle
 10
6.216108999999999
 20
5.235133
 30
0.0
 40
0.016878
100
AcDbArc
 50
159.007883
 51
177.543133
  0
ARC
  5
45F
330
18
100
AcDbEntity
  8
0
100
AcDbCircle
 10
6.222412
 20
5.234863
 30
0.0
 40
0.023187
100
AcDbArc
 50
177.543133
 51
193.338214
  0
ARC
  5
460
330
18
100
AcDbEntity
  8
0
100
AcDbCircle
 10
6.222412
 20
5.234863
 30
0.0
 40
0.023187
100
AcDbArc
 50
193.338214
 51
209.133295
  0
ARC
  5
461
330
18
100
AcDbEntity
  8
0
100
AcDbCircle
 10
6.216901999999999
 20
5.231791
 30
0.0
 40
0.016878
100
AcDbArc
 50
209.133295
 51
227.668545
  0
ARC
  5
462
330
18
100
AcDbEntity
  8
0
100
AcDbCircle
 10
6.213769999999999
 20
5.228354
 30
0.0
 40
0.012228
100
AcDbArc
 50
227.668545
 51
252.10038
  0
ARC
  5
463
330
18
100
AcDbEntity
  8
0
100
AcDbCircle
 10
6.212333
 20
5.223905
 30
0.0
 40
0.007553
100
AcDbArc
 50
252.10038
 51
283.338214
  0
ARC
  5
464
330
18
100
AcDbEntity
  8
0
100
AcDbCircle
 10
6.212333
 20
5.223905
 30
0.0
 40
0.007553
100
AcDbArc
 50
283.338214
 51
314.576049
  0
ARC
  5
465
330
18
100
AcDbEntity
  8
0
100
AcDbCircle
 10
6.209052
 20
5.227235
 30
0.0
 40
0.012228
100
AcDbArc
 50
314.576049
 51
339.007883
  0
ARC
  5
466
330
18
100
AcDbEntity
  8
0
100
AcDbCircle
 10
6.20471
 20
5.228901000000001
 30
0.0
 40
0.016878
100
AcDbArc
 50
339.007883
 51
357.543133
  0
ARC
  5
467
330
18
100
AcDbEntity
  8
0
100
AcDbCircle
 10
6.198408000000001
 20
5.229171
 30
0.0
 40
0.023187
100
AcDbArc
 50
357.543133
 51
13.338214
  0
ARC
  5
468
330
18
100
AcDbEntity
  8
0
100
AcDbCircle
 10
6.198408000000001
 20
5.229171
 30
0.0
 40
0.023187
100
AcDbArc
 50
13.338214
 51
29.133295
  0
ARC
  5
469
330
18
100
AcDbEntity
  8
0
100
AcDbCircle
 10
6.203918
 20
5.232243
 30
0.0
 40
0.016878
100
AcDbArc
 50
29.133295
 51
47.668545
  0
ARC
  5
46A
330
18
100
AcDbEntity
  8
0
100
AcDbCircle
 10
6.207049
 20
5.23568
 30
0.0
 40
0.012228
100
AcDbArc
 50
47.668545
 51
72.10038
  0
ARC
  5
46B
330
18
100
AcDbEntity
  8
0
100
AcDbCircle
 10
6.208486
 20
5.240129000000001
 30
0.0
 40
0.007553
100
AcDbArc
 50
72.10038
 51
103.338214
  0
ARC
  5
46C
330
18
100
AcDbEntity
  8
0
100
AcDbCircle
 10
6.270612
 20
5.175639
 30
0.0
 40
0.004332
100
AcDbArc
 50
108.68127
 51
142.97076
  0
ARC
  5
46D
330
18
100
AcDbEntity
  8
0
100
AcDbCircle
 10
6.273865
 20
5.173185
 30
0.0
 40
0.008406
100
AcDbArc
 50
142.97076
 51
167.404527
  0
ARC
  5
46E
330
18
100
AcDbEntity
  8
0
100
AcDbCircle
 10
6.278045
 20
5.172251
 30
0.0
 40
0.012689
100
AcDbArc
 50
167.404527
 51
184.55794
  0
ARC
  5
46F
330
18
100
AcDbEntity
  8
0
100
AcDbCircle
 10
6.284009999999999
 20
5.172727
 30
0.0
 40
0.018673
100
AcDbArc
 50
184.55794
 51
198.68127
  0
ARC
  5
470
330
18
100
AcDbEntity
  8
0
100
AcDbCircle
 10
6.284009999999999
 20
5.172727
 30
0.0
 40
0.018673
100
AcDbArc
 50
198.68127
 51
212.8046
  0
ARC
  5
471
330
18
100
AcDbEntity
  8
0
100
AcDbCircle
 10
6.278980000000001
 20
5.169485
 30
0.0
 40
0.012689
100
AcDbArc
 50
212.8046
 51
229.958013
  0
ARC
  5
472
330
18
100
AcDbEntity
  8
0
100
AcDbCircle
 10
6.276225
 20
5.166205000000001
 30
0.0
 40
0.008406
100
AcDbArc
 50
229.958013
 51
254.39178
  0
ARC
  5
473
330
18
100
AcDbEntity
  8
0
100
AcDbCircle
 10
6.275128
 20
5.162281
 30
0.0
 40
0.004332
100
AcDbArc
 50
254.39178
 51
288.68127
  0
ARC
  5
474
330
18
100
AcDbEntity
  8
0
100
AcDbCircle
 10
6.275128
 20
5.162281
 30
0.0
 40
0.004332
100
AcDbArc
 50
288.68127
 51
322.97076
  0
ARC
  5
475
330
18
100
AcDbEntity
  8
0
100
AcDbCircle
 10
6.271876
 20
5.164735
 30
0.0
 40
0.008406
100
AcDbArc
 50
322.97076
 51
347.404527
  0
ARC
  5
476
330
18
100
AcDbEntity
  8
0
100
AcDbCircle
 10
6.267695
 20
5.165669
 30
0.0
 40
0.012689
100
AcDbArc
 50
347.404527
 51
4.55794
  0
ARC
  5
477
330
18
100
AcDbEntity
  8
0
100
AcDbCircle
 10
6.26173
 20
5.165194000000001
 30
0.0
 40
0.018673
100
AcDbArc
 50
4.55794
 51
18.68127
  0
ARC
  5
478
330
18
100
AcDbEntity
  8
0
100
AcDbCircle
 10
6.26173
 20
5.165194000000001
 30
0.0
 40
0.018673
100
AcDbArc
 50
18.68127
 51
32.8046
  0
ARC
  5
479
330
18
100
AcDbEntity
  8
0
100
AcDbCircle
 10
6.26676
 20
5.168436
 30
0.0
 40
0.012689
100
AcDbArc
 50
32.8046
 51
49.958013
  0
ARC
  5
47A
330
18
100
AcDbEntity
  8
0
100
AcDbCircle
 10
6.269516
 20
5.171715
 30
0.0
 40
0.008406
100
AcDbArc
 50
49.958013
 51
74.39178000000001
  0
ARC
  5
47B
330
18
100
AcDbEntity
  8
0
100
AcDbCircle
 10
6.270612
 20
5.175639
 30
0.0
 40
0.004332
100
AcDbArc
 50
74.39178000000001
 51
108.68127
  0
ARC
  5
47C
330
18
100
AcDbEntity
  8
0
100
AcDbCircle
 10
6.232948
 20
5.177478
 30
0.0
 40
0.016878
100
AcDbArc
 50
33.126343
 51
47.668545
  0
ARC
  5
47D
330
18
100
AcDbEntity
  8
0
100
AcDbCircle
 10
6.236079
 20
5.180916000000001
 30
0.0
 40
0.012228
100
AcDbArc
 50
47.668545
 51
72.10038
  0
ARC
  5
47E
330
18
100
AcDbEntity
  8
0
100
AcDbCircle
 10
6.237516
 20
5.185365
 30
0.0
 40
0.007553
100
AcDbArc
 50
72.10038
 51
103.338214
  0
ARC
  5
47F
330
18
100
AcDbEntity
  8
0
100
AcDbCircle
 10
6.237516
 20
5.185365
 30
0.0
 40
0.007553
100
AcDbArc
 50
103.338214
 51
134.576049
  0
ARC
  5
480
330
18
100
AcDbEntity
  8
0
100
AcDbCircle
 10
6.240798000000001
 20
5.182035
 30
0.0
 40
0.012228
100
AcDbArc
 50
134.576049
 51
159.007883
  0
ARC
  5
481
330
18
100
AcDbEntity
  8
0
100
AcDbCircle
 10
6.245139
 20
5.180369000000001
 30
0.0
 40
0.016878
100
AcDbArc
 50
159.007883
 51
177.543133
  0
ARC
  5
482
330
18
100
AcDbEntity
  8
0
100
AcDbCircle
 10
6.251442
 20
5.180098
 30
0.0
 40
0.023187
100
AcDbArc
 50
177.543133
 51
193.338214
  0
ARC
  5
483
330
18
100
AcDbEntity
  8
0
100
AcDbCircle
 10
6.251442
 20
5.180098
 30
0.0
 40
0.023187
100
AcDbArc
 50
193.338214
 51
209.133295
  0
ARC
  5
484
330
18
100
AcDbEntity
  8
0
100
AcDbCircle
 10
6.245931
 20
5.177027
 30
0.0
 40
0.016878
100
AcDbArc
 50
209.133295
 51
227.668545
  0
ARC
  5
485
330
18
100
AcDbEntity
  8
0
100
AcDbCircle
 10
6.2428
 20
5.17359
 30
0.0
 40
0.012228
100
AcDbArc
 50
227.668545
 51
252.10038
  0
ARC
  5
486
330
18
100
AcDbEntity
  8
0
100
AcDbCircle
 10
6.241363
 20
5.169141000000001
 30
0.0
 40
0.007553
100
AcDbArc
 50
252.10038
 51
283.338214
  0
ARC
  5
487
330
18
100
AcDbEntity
  8
0
100
AcDbCircle
 10
6.241363
 20
5.169141000000001
 30
0.0
 40
0.007553
100
AcDbArc
 50
283.338214
 51
314.576049
  0
ARC
  5
488
330
18
100
AcDbEntity
  8
0
100
AcDbCircle
 10
6.238081
 20
5.172471
 30
0.0
 40
0.012228
100
AcDbArc
 50
314.576049
 51
317.400609
  0
ARC
  5
489
330
18
100
AcDbEntity
  8
0
100
AcDbCircle
 10
6.451449
 20
5.180606
 30
0.0
 40
0.007234
100
AcDbArc
 50
111.616943
 51
138.883345
  0
ARC
  5
48A
330
18
100
AcDbEntity
  8
0
100
AcDbCircle
 10
6.453035
 20
5.179222
 30
0.0
 40
0.009339
100
AcDbArc
 50
138.883345
 51
162.828797
  0
ARC
  5
48B
330
18
100
AcDbEntity
  8
0
100
AcDbCircle
 10
6.454889
 20
5.178649
 30
0.0
 40
0.011279
100
AcDbArc
 50
162.828797
 51
183.204591
  0
ARC
  5
48C
330
18
100
AcDbEntity
  8
0
100
AcDbCircle
 10
6.457392
 20
5.178789
 30
0.0
 40
0.013786
100
AcDbArc
 50
183.204591
 51
201.616943
  0
ARC
  5
48D
330
18
100
AcDbEntity
  8
0
100
AcDbCircle
 10
6.457392
 20
5.178789
 30
0.0
 40
0.013786
100
AcDbArc
 50
201.616943
 51
220.029295
  0
ARC
  5
48E
330
18
100
AcDbEntity
  8
0
100
AcDbCircle
 10
6.455472
 20
5.177177
 30
0.0
 40
0.011279
100
AcDbArc
 50
220.029295
 51
240.405089
  0
ARC
  5
48F
330
18
100
AcDbEntity
  8
0
100
AcDbCircle
 10
6.454514
 20
5.17549
 30
0.0
 40
0.009339
100
AcDbArc
 50
240.405089
 51
264.350542
  0
ARC
  5
490
330
18
100
AcDbEntity
  8
0
100
AcDbCircle
 10
6.454307
 20
5.173394999999999
 30
0.0
 40
0.007234
100
AcDbArc
 50
264.350542
 51
291.616943
  0
ARC
  5
491
330
18
100
AcDbEntity
  8
0
100
AcDbCircle
 10
6.454307
 20
5.173394999999999
 30
0.0
 40
0.007234
100
AcDbArc
 50
291.616943
 51
318.883345
  0
ARC
  5
492
330
18
100
AcDbEntity
  8
0
100
AcDbCircle
 10
6.452721
 20
5.174779
 30
0.0
 40
0.009339
100
AcDbArc
 50
318.883345
 51
342.828797
  0
ARC
  5
493
330
18
100
AcDbEntity
  8
0
100
AcDbCircle
 10
6.450867
 20
5.175351999999999
 30
0.0
 40
0.011279
100
AcDbArc
 50
342.828797
 51
3.204591
  0
ARC
  5
494
330
18
100
AcDbEntity
  8
0
100
AcDbCircle
 10
6.448364
 20
5.175212
 30
0.0
 40
0.013786
100
AcDbArc
 50
3.204591
 51
21.616943
  0
ARC
  5
495
330
18
100
AcDbEntity
  8
0
100
AcDbCircle
 10
6.448364
 20
5.175212
 30
0.0
 40
0.013786
100
AcDbArc
 50
21.616943
 51
40.029295
  0
ARC
  5
496
330
18
100
AcDbEntity
  8
0
100
AcDbCircle
 10
6.450284
 20
5.176824
 30
0.0
 40
0.011279
100
AcDbArc
 50
40.029295
 51
60.405089
  0
ARC
  5
497
330
18
100
AcDbEntity
  8
0
100
AcDbCircle
 10
6.451242
 20
5.178511
 30
0.0
 40
0.009339
100
AcDbArc
 50
60.405089
 51
84.350542
  0
ARC
  5
498
330
18
100
AcDbEntity
  8
0
100
AcDbCircle
 10
6.451449
 20
5.180606
 30
0.0
 40
0.007234
100
AcDbArc
 50
84.350542
 51
111.616943
  0
ARC
  5
499
330
18
100
AcDbEntity
  8
0
100
AcDbCircle
 10
6.299551
 20
5.107094999999999
 30
0.0
 40
0.021015
100
AcDbArc
 50
155.559731
 51
167.404527
  0
ARC
  5
49A
330
18
100
AcDbEntity
  8
0
100
AcDbCircle
 10
6.310003
 20
5.104759
 30
0.0
 40
0.031724
100
AcDbArc
 50
167.404527
 51
184.55794
  0
ARC
  5
49B
330
18
100
AcDbEntity
  8
0
100
AcDbCircle
 10
6.324915
 20
5.105948000000001
 30
0.0
 40
0.046684
100
AcDbArc
 50
184.55794
 51
198.68127
  0
ARC
  5
49C
330
18
100
AcDbEntity
  8
0
100
AcDbCircle
 10
6.324915
 20
5.105948000000001
 30
0.0
 40
0.046684
100
AcDbArc
 50
198.68127
 51
212.8046
  0
ARC
  5
49D
330
18
100
AcDbEntity
  8
0
100
AcDbCircle
 10
6.312341
 20
5.097843
 30
0.0
 40
0.031724
100
AcDbArc
 50
212.8046
 51
229.958013
  0
ARC
  5
49E
330
18
100
AcDbEntity
  8
0
100
AcDbCircle
 10
6.305451000000001
 20
5.089645
 30
0.0
 40
0.021015
100
AcDbArc
 50
229.958013
 51
254.39178
  0
ARC
  5
49F
330
18
100
AcDbEntity
  8
0
100
AcDbCircle
 10
6.302711
 20
5.079835
 30
0.0
 40
0.010829
100
AcDbArc
 50
254.39178
 51
283.487858
  0
ARC
  5
4A0
330
18
100
AcDbEntity
  8
0
100
AcDbCircle
 10
6.282946
 20
5.105258999999999
 30
0.0
 40
0.010829
100
AcDbArc
 50
108.68127
 51
142.97076
  0
ARC
  5
4A1
330
18
100
AcDbEntity
  8
0
100
AcDbCircle
 10
6.291077
 20
5.099125
 30
0.0
 40
0.021015
100
AcDbArc
 50
142.97076
 51
167.404527
  0
ARC
  5
4A2
330
18
100
AcDbEntity
  8
0
100
AcDbCircle
 10
6.301528
 20
5.09679
 30
0.0
 40
0.031724
100
AcDbArc
 50
167.404527
 51
184.55794
  0
ARC
  5
4A3
330
18
100
AcDbEntity
  8
0
100
AcDbCircle
 10
6.316441
 20
5.097978
 30
0.0
 40
0.046684
100
AcDbArc
 50
184.55794
 51
198.68127
  0
ARC
  5
4A4
330
18
100
AcDbEntity
  8
0
100
AcDbCircle
 10
6.316441
 20
5.097978
 30
0.0
 40
0.046684
100
AcDbArc
 50
198.68127
 51
212.8046
  0
ARC
  5
4A5
330
18
100
AcDbEntity
  8
0
100
AcDbCircle
 10
6.303866999999999
 20
5.089874
 30
0.0
 40
0.031724
100
AcDbArc
 50
212.8046
 51
229.958013
  0
ARC
  5
4A6
330
18
100
AcDbEntity
  8
0
100
AcDbCircle
 10
6.296977
 20
5.081675
 30
0.0
 40
0.021015
100
AcDbArc
 50
229.958013
 51
254.39178
  0
ARC
  5
4A7
330
18
100
AcDbEntity
  8
0
100
AcDbCircle
 10
6.294237
 20
5.071865
 30
0.0
 40
0.010829
100
AcDbArc
 50
254.39178
 51
288.68127
  0
ARC
  5
4A8
330
18
100
AcDbEntity
  8
0
100
AcDbCircle
 10
6.294237
 20
5.071865
 30
0.0
 40
0.010829
100
AcDbArc
 50
288.68127
 51
322.97076
  0
ARC
  5
4A9
330
18
100
AcDbEntity
  8
0
100
AcDbCircle
 10
6.286105
 20
5.077999
 30
0.0
 40
0.021015
100
AcDbArc
 50
322.97076
 51
347.404527
  0
ARC
  5
4AA
330
18
100
AcDbEntity
  8
0
100
AcDbCircle
 10
6.275654
 20
5.080334
 30
0.0
 40
0.031724
100
AcDbArc
 50
347.404527
 51
4.55794
  0
ARC
  5
4AB
330
18
100
AcDbEntity
  8
0
100
AcDbCircle
 10
6.260741
 20
5.079145
 30
0.0
 40
0.046684
100
AcDbArc
 50
4.55794
 51
18.68127
  0
ARC
  5
4AC
330
18
100
AcDbEntity
  8
0
100
AcDbCircle
 10
6.260741
 20
5.079145
 30
0.0
 40
0.046684
100
AcDbArc
 50
18.68127
 51
32.8046
  0
ARC
  5
4AD
330
18
100
AcDbEntity
  8
0
100
AcDbCircle
 10
6.273315
 20
5.08725
 30
0.0
 40
0.031724
100
AcDbArc
 50
32.8046
 51
49.958013
  0
ARC
  5
4AE
330
18
100
AcDbEntity
  8
0
100
AcDbCircle
 10
6.280205000000001
 20
5.095449
 30
0.0
 40
0.021015
100
AcDbArc
 50
49.958013
 51
74.39178000000001
  0
ARC
  5
4AF
330
18
100
AcDbEntity
  8
0
100
AcDbCircle
 10
6.282946
 20
5.105258999999999
 30
0.0
 40
0.010829
100
AcDbArc
 50
74.39178000000001
 51
108.68127
  0
ARC
  5
4B0
330
18
100
AcDbEntity
  8
0
100
AcDbCircle
 10
6.31516
 20
5.003943
 30
0.0
 40
0.004332
100
AcDbArc
 50
108.68127
 51
142.97076
  0
ARC
  5
4B1
330
18
100
AcDbEntity
  8
0
100
AcDbCircle
 10
6.318412
 20
5.001489
 30
0.0
 40
0.008406
100
AcDbArc
 50
142.97076
 51
167.404527
  0
ARC
  5
4B2
330
18
100
AcDbEntity
  8
0
100
AcDbCircle
 10
6.322593
 20
5.000555
 30
0.0
 40
0.012689
100
AcDbArc
 50
167.404527
 51
184.55794
  0
ARC
  5
4B3
330
18
100
AcDbEntity
  8
0
100
AcDbCircle
 10
6.328558
 20
5.001030999999999
 30
0.0
 40
0.018673
100
AcDbArc
 50
184.55794
 51
198.68127
  0
ARC
  5
4B4
330
18
100
AcDbEntity
  8
0
100
AcDbCircle
 10
6.328558
 20
5.001030999999999
 30
0.0
 40
0.018673
100
AcDbArc
 50
198.68127
 51
212.8046
  0
ARC
  5
4B5
330
18
100
AcDbEntity
  8
0
100
AcDbCircle
 10
6.323528
 20
4.997789
 30
0.0
 40
0.012689
100
AcDbArc
 50
212.8046
 51
229.958013
  0
ARC
  5
4B6
330
18
100
AcDbEntity
  8
0
100
AcDbCircle
 10
6.320772
 20
4.994509
 30
0.0
 40
0.008406
100
AcDbArc
 50
229.958013
 51
254.39178
  0
ARC
  5
4B7
330
18
100
AcDbEntity
  8
0
100
AcDbCircle
 10
6.319676
 20
4.990585
 30
0.0
 40
0.004332
100
AcDbArc
 50
254.39178
 51
288.68127
  0
ARC
  5
4B8
330
18
100
AcDbEntity
  8
0
100
AcDbCircle
 10
6.319676
 20
4.990585
 30
0.0
 40
0.004332
100
AcDbArc
 50
288.68127
 51
322.97076
  0
ARC
  5
4B9
330
18
100
AcDbEntity
  8
0
100
AcDbCircle
 10
6.316423
 20
4.993039
 30
0.0
 40
0.008406
100
AcDbArc
 50
322.97076
 51
347.404527
  0
ARC
  5
4BA
330
18
100
AcDbEntity
  8
0
100
AcDbCircle
 10
6.312243
 20
4.993973
 30
0.0
 40
0.012689
100
AcDbArc
 50
347.404527
 51
4.55794
  0
ARC
  5
4BB
330
18
100
AcDbEntity
  8
0
100
AcDbCircle
 10
6.306278
 20
4.993498000000001
 30
0.0
 40
0.018673
100
AcDbArc
 50
4.55794
 51
18.68127
  0
ARC
  5
4BC
330
18
100
AcDbEntity
  8
0
100
AcDbCircle
 10
6.306278
 20
4.993498000000001
 30
0.0
 40
0.018673
100
AcDbArc
 50
18.68127
 51
32.8046
  0
ARC
  5
4BD
330
18
100
AcDbEntity
  8
0
100
AcDbCircle
 10
6.311308
 20
4.996739
 30
0.0
 40
0.012689
100
AcDbArc
 50
32.8046
 51
49.958013
  0
ARC
  5
4BE
330
18
100
AcDbEntity
  8
0
100
AcDbCircle
 10
6.314063
 20
5.000019
 30
0.0
 40
0.008406
100
AcDbArc
 50
49.958013
 51
74.39178000000001
  0
ARC
  5
4BF
330
18
100
AcDbEntity
  8
0
100
AcDbCircle
 10
6.31516
 20
5.003943
 30
0.0
 40
0.004332
100
AcDbArc
 50
74.39178000000001
 51
108.68127
  0
ARC
  5
4C0
330
18
100
AcDbEntity
  8
0
100
AcDbCircle
 10
6.489639
 20
5.088089
 30
0.0
 40
0.007234
100
AcDbArc
 50
111.616943
 51
138.883345
  0
ARC
  5
4C1
330
18
100
AcDbEntity
  8
0
100
AcDbCircle
 10
6.491225
 20
5.086705
 30
0.0
 40
0.009339
100
AcDbArc
 50
138.883345
 51
162.828797
  0
ARC
  5
4C2
330
18
100
AcDbEntity
  8
0
100
AcDbCircle
 10
6.493079
 20
5.086132
 30
0.0
 40
0.011279
100
AcDbArc
 50
162.828797
 51
183.204591
  0
ARC
  5
4C3
330
18
100
AcDbEntity
  8
0
100
AcDbCircle
 10
6.495582
 20
5.086272
 30
0.0
 40
0.013786
100
AcDbArc
 50
183.204591
 51
201.616943
  0
ARC
  5
4C4
330
18
100
AcDbEntity
  8
0
100
AcDbCircle
 10
6.495582
 20
5.086272
 30
0.0
 40
0.013786
100
AcDbArc
 50
201.616943
 51
220.029295
  0
ARC
  5
4C5
330
18
100
AcDbEntity
  8
0
100
AcDbCircle
 10
6.493662000000001
 20
5.08466
 30
0.0
 40
0.011279
100
AcDbArc
 50
220.029295
 51
240.405089
  0
ARC
  5
4C6
330
18
100
AcDbEntity
  8
0
100
AcDbCircle
 10
6.492704
 20
5.082973
 30
0.0
 40
0.009339
100
AcDbArc
 50
240.405089
 51
264.350542
  0
ARC
  5
4C7
330
18
100
AcDbEntity
  8
0
100
AcDbCircle
 10
6.492497
 20
5.080878
 30
0.0
 40
0.007234
100
AcDbArc
 50
264.350542
 51
291.616943
  0
ARC
  5
4C8
330
18
100
AcDbEntity
  8
0
100
AcDbCircle
 10
6.492497
 20
5.080878
 30
0.0
 40
0.007234
100
AcDbArc
 50
291.616943
 51
318.883345
  0
ARC
  5
4C9
330
18
100
AcDbEntity
  8
0
100
AcDbCircle
 10
6.490911
 20
5.082262
 30
0.0
 40
0.009339
100
AcDbArc
 50
318.883345
 51
342.828797
  0
ARC
  5
4CA
330
18
100
AcDbEntity
  8
0
100
AcDbCircle
 10
6.489057
 20
5.082835
 30
0.0
 40
0.011279
100
AcDbArc
 50
342.828797
 51
3.204591
  0
ARC
  5
4CB
330
18
100
AcDbEntity
  8
0
100
AcDbCircle
 10
6.486554
 20
5.082694999999999
 30
0.0
 40
0.013786
100
AcDbArc
 50
3.204591
 51
21.616943
  0
ARC
  5
4CC
330
18
100
AcDbEntity
  8
0
100
AcDbCircle
 10
6.486554
 20
5.082694999999999
 30
0.0
 40
0.013786
100
AcDbArc
 50
21.616943
 51
40.029295
  0
ARC
  5
4CD
330
18
100
AcDbEntity
  8
0
100
AcDbCircle
 10
6.488474
 20
5.084307
 30
0.0
 40
0.011279
100
AcDbArc
 50
40.029295
 51
60.405089
  0
ARC
  5
4CE
330
18
100
AcDbEntity
  8
0
100
AcDbCircle
 10
6.489432
 20
5.085994
 30
0.0
 40
0.009339
100
AcDbArc
 50
60.405089
 51
84.350542
  0
ARC
  5
4CF
330
18
100
AcDbEntity
  8
0
100
AcDbCircle
 10
6.489639
 20
5.088089
 30
0.0
 40
0.007234
100
AcDbArc
 50
84.350542
 51
111.616943
  0
ARC
  5
4D0
330
18
100
AcDbEntity
  8
0
100
AcDbCircle
 10
6.615821
 20
5.040041
 30
0.0
 40
0.007234
100
AcDbArc
 50
111.616943
 51
138.883345
  0
ARC
  5
4D1
330
18
100
AcDbEntity
  8
0
100
AcDbCircle
 10
6.617407000000001
 20
5.038657
 30
0.0
 40
0.009339
100
AcDbArc
 50
138.883345
 51
162.828797
  0
ARC
  5
4D2
330
18
100
AcDbEntity
  8
0
100
AcDbCircle
 10
6.619260000000001
 20
5.038084
 30
0.0
 40
0.011279
100
AcDbArc
 50
162.828797
 51
183.204591
  0
ARC
  5
4D3
330
18
100
AcDbEntity
  8
0
100
AcDbCircle
 10
6.621763000000001
 20
5.038224
 30
0.0
 40
0.013786
100
AcDbArc
 50
183.204591
 51
201.616943
  0
ARC
  5
4D4
330
18
100
AcDbEntity
  8
0
100
AcDbCircle
 10
6.621763000000001
 20
5.038224
 30
0.0
 40
0.013786
100
AcDbArc
 50
201.616943
 51
220.029295
  0
ARC
  5
4D5
330
18
100
AcDbEntity
  8
0
100
AcDbCircle
 10
6.619844000000001
 20
5.036612
 30
0.0
 40
0.011279
100
AcDbArc
 50
220.029295
 51
240.405089
  0
ARC
  5
4D6
330
18
100
AcDbEntity
  8
0
100
AcDbCircle
 10
6.618885000000001
 20
5.034925
 30
0.0
 40
0.009339
100
AcDbArc
 50
240.405089
 51
264.350542
  0
ARC
  5
4D7
330
18
100
AcDbEntity
  8
0
100
AcDbCircle
 10
6.618678
 20
5.032830000000001
 30
0.0
 40
0.007234
100
AcDbArc
 50
264.350542
 51
291.616943
  0
ARC
  5
4D8
330
18
100
AcDbEntity
  8
0
100
AcDbCircle
 10
6.618678
 20
5.032830000000001
 30
0.0
 40
0.007234
100
AcDbArc
 50
291.616943
 51
318.883345
  0
ARC
  5
4D9
330
18
100
AcDbEntity
  8
0
100
AcDbCircle
 10
6.617092
 20
5.034214
 30
0.0
 40
0.009339
100
AcDbArc
 50
318.883345
 51
342.828797
  0
ARC
  5
4DA
330
18
100
AcDbEntity
  8
0
100
AcDbCircle
 10
6.615239
 20
5.034787000000001
 30
0.0
 40
0.011279
100
AcDbArc
 50
342.828797
 51
3.204591
  0
ARC
  5
4DB
330
18
100
AcDbEntity
  8
0
100
AcDbCircle
 10
6.612736
 20
5.034647000000001
 30
0.0
 40
0.013786
100
AcDbArc
 50
3.204591
 51
21.616943
  0
ARC
  5
4DC
330
18
100
AcDbEntity
  8
0
100
AcDbCircle
 10
6.612736
 20
5.034647000000001
 30
0.0
 40
0.013786
100
AcDbArc
 50
21.616943
 51
40.029295
  0
ARC
  5
4DD
330
18
100
AcDbEntity
  8
0
100
AcDbCircle
 10
6.614655
 20
5.036258999999999
 30
0.0
 40
0.011279
100
AcDbArc
 50
40.029295
 51
60.405089
  0
ARC
  5
4DE
330
18
100
AcDbEntity
  8
0
100
AcDbCircle
 10
6.615613000000001
 20
5.037946
 30
0.0
 40
0.009339
100
AcDbArc
 50
60.405089
 51
84.350542
  0
ARC
  5
4DF
330
18
100
AcDbEntity
  8
0
100
AcDbCircle
 10
6.615821
 20
5.040041
 30
0.0
 40
0.007234
100
AcDbArc
 50
84.350542
 51
111.616943
  0
ARC
  5
4E0
330
18
100
AcDbEntity
  8
0
100
AcDbCircle
 10
6.646864999999999
 20
5.044272
 30
0.0
 40
0.027571
100
AcDbArc
 50
26.154201
 51
40.029295
  0
ARC
  5
4E1
330
18
100
AcDbEntity
  8
0
100
AcDbCircle
 10
6.650703999999999
 20
5.047497
 30
0.0
 40
0.022557
100
AcDbArc
 50
40.029295
 51
60.405089
  0
ARC
  5
4E2
330
18
100
AcDbEntity
  8
0
100
AcDbCircle
 10
6.652621000000001
 20
5.050871
 30
0.0
 40
0.018677
100
AcDbArc
 50
60.405089
 51
84.350542
  0
ARC
  5
4E3
330
18
100
AcDbEntity
  8
0
100
AcDbCircle
 10
6.653035000000001
 20
5.055061
 30
0.0
 40
0.014467
100
AcDbArc
 50
84.350542
 51
111.616943
  0
ARC
  5
4E4
330
18
100
AcDbEntity
  8
0
100
AcDbCircle
 10
6.653035000000001
 20
5.055061
 30
0.0
 40
0.014467
100
AcDbArc
 50
111.616943
 51
138.883345
  0
ARC
  5
4E5
330
18
100
AcDbEntity
  8
0
100
AcDbCircle
 10
6.656207000000001
 20
5.052292
 30
0.0
 40
0.018677
100
AcDbArc
 50
138.883345
 51
162.828797
  0
ARC
  5
4E6
330
18
100
AcDbEntity
  8
0
100
AcDbCircle
 10
6.659914
 20
5.051147
 30
0.0
 40
0.022557
100
AcDbArc
 50
162.828797
 51
175.900391
  0
ARC
  5
4E7
330
18
100
AcDbEntity
  8
0
100
AcDbCircle
 10
6.650278
 20
5.068546
 30
0.0
 40
0.014467
100
AcDbArc
 50
111.616943
 51
138.883345
  0
ARC
  5
4E8
330
18
100
AcDbEntity
  8
0
100
AcDbCircle
 10
6.653449
 20
5.065778
 30
0.0
 40
0.018677
100
AcDbArc
 50
138.883345
 51
162.828797
  0
ARC
  5
4E9
330
18
100
AcDbEntity
  8
0
100
AcDbCircle
 10
6.657157000000001
 20
5.064632
 30
0.0
 40
0.022557
100
AcDbArc
 50
162.828797
 51
183.204591
  0
ARC
  5
4EA
330
18
100
AcDbEntity
  8
0
100
AcDbCircle
 10
6.662163000000001
 20
5.064912000000001
 30
0.0
 40
0.027571
100
AcDbArc
 50
183.204591
 51
201.616943
  0
ARC
  5
4EB
330
18
100
AcDbEntity
  8
0
100
AcDbCircle
 10
6.662163000000001
 20
5.064912000000001
 30
0.0
 40
0.027571
100
AcDbArc
 50
201.616943
 51
220.029295
  0
ARC
  5
4EC
330
18
100
AcDbEntity
  8
0
100
AcDbCircle
 10
6.658322999999999
 20
5.061687
 30
0.0
 40
0.022557
100
AcDbArc
 50
220.029295
 51
240.405089
  0
ARC
  5
4ED
330
18
100
AcDbEntity
  8
0
100
AcDbCircle
 10
6.656407000000001
 20
5.058313
 30
0.0
 40
0.018677
100
AcDbArc
 50
240.405089
 51
264.350542
  0
ARC
  5
4EE
330
18
100
AcDbEntity
  8
0
100
AcDbCircle
 10
6.655993
 20
5.054124
 30
0.0
 40
0.014467
100
AcDbArc
 50
264.350542
 51
291.616943
  0
ARC
  5
4EF
330
18
100
AcDbEntity
  8
0
100
AcDbCircle
 10
6.655993
 20
5.054124
 30
0.0
 40
0.014467
100
AcDbArc
 50
291.616943
 51
318.883345
  0
ARC
  5
4F0
330
18
100
AcDbEntity
  8
0
100
AcDbCircle
 10
6.652821
 20
5.056892
 30
0.0
 40
0.018677
100
AcDbArc
 50
318.883345
 51
342.828797
  0
ARC
  5
4F1
330
18
100
AcDbEntity
  8
0
100
AcDbCircle
 10
6.649114
 20
5.058038
 30
0.0
 40
0.022557
100
AcDbArc
 50
342.828797
 51
3.204591
  0
ARC
  5
4F2
330
18
100
AcDbEntity
  8
0
100
AcDbCircle
 10
6.644108
 20
5.057758
 30
0.0
 40
0.027571
100
AcDbArc
 50
3.204591
 51
21.616943
  0
ARC
  5
4F3
330
18
100
AcDbEntity
  8
0
100
AcDbCircle
 10
6.644108
 20
5.057758
 30
0.0
 40
0.027571
100
AcDbArc
 50
21.616943
 51
40.029295
  0
ARC
  5
4F4
330
18
100
AcDbEntity
  8
0
100
AcDbCircle
 10
6.647947
 20
5.060982
 30
0.0
 40
0.022557
100
AcDbArc
 50
40.029295
 51
60.405089
  0
ARC
  5
4F5
330
18
100
AcDbEntity
  8
0
100
AcDbCircle
 10
6.649863000000001
 20
5.064356
 30
0.0
 40
0.018677
100
AcDbArc
 50
60.405089
 51
84.350542
  0
ARC
  5
4F6
330
18
100
AcDbEntity
  8
0
100
AcDbCircle
 10
6.650278
 20
5.068546
 30
0.0
 40
0.014467
100
AcDbArc
 50
84.350542
 51
111.616943
  0
ARC
  5
4F7
330
18
100
AcDbEntity
  8
0
100
AcDbCircle
 10
7.953295
 20
6.011530000000001
 30
0.0
 40
0.010869
100
AcDbArc
 50
62.89644499999999
 51
88.662573
  0
ARC
  5
4F8
330
18
100
AcDbEntity
  8
0
100
AcDbCircle
 10
7.953247
 20
6.009478
 30
0.0
 40
0.012921
100
AcDbArc
 50
88.662573
 51
112.262357
  0
ARC
  5
4F9
330
18
100
AcDbEntity
  8
0
100
AcDbCircle
 10
7.953942999999999
 20
6.007779
 30
0.0
 40
0.014757
100
AcDbArc
 50
112.262357
 51
133.328605
  0
ARC
  5
4FA
330
18
100
AcDbEntity
  8
0
100
AcDbCircle
 10
7.955533999999999
 20
6.006092
 30
0.0
 40
0.017077
100
AcDbArc
 50
133.328605
 51
152.896445
  0
ARC
  5
4FB
330
18
100
AcDbEntity
  8
0
100
AcDbCircle
 10
7.955533999999999
 20
6.006092
 30
0.0
 40
0.017077
100
AcDbArc
 50
152.896445
 51
172.464286
  0
ARC
  5
4FC
330
18
100
AcDbEntity
  8
0
100
AcDbCircle
 10
7.953233999999999
 20
6.006396
 30
0.0
 40
0.014757
100
AcDbArc
 50
172.464286
 51
193.530533
  0
ARC
  5
4FD
330
18
100
AcDbEntity
  8
0
100
AcDbCircle
 10
7.95145
 20
6.005966
 30
0.0
 40
0.012921
100
AcDbArc
 50
193.530533
 51
217.130317
  0
ARC
  5
4FE
330
18
100
AcDbEntity
  8
0
100
AcDbCircle
 10
7.949814
 20
6.004728
 30
0.0
 40
0.010869
100
AcDbArc
 50
217.130317
 51
242.896445
  0
ARC
  5
4FF
330
18
100
AcDbEntity
  8
0
100
AcDbCircle
 10
7.949814
 20
6.004728
 30
0.0
 40
0.010869
100
AcDbArc
 50
242.896445
 51
268.662573
  0
ARC
  5
500
330
18
100
AcDbEntity
  8
0
100
AcDbCircle
 10
7.949862
 20
6.006779
 30
0.0
 40
0.012921
100
AcDbArc
 50
268.662573
 51
292.262357
  0
ARC
  5
501
330
18
100
AcDbEntity
  8
0
100
AcDbCircle
 10
7.949166
 20
6.008478
 30
0.0
 40
0.014757
100
AcDbArc
 50
292.262357
 51
313.328605
  0
ARC
  5
502
330
18
100
AcDbEntity
  8
0
100
AcDbCircle
 10
7.947574
 20
6.010166000000001
 30
0.0
 40
0.017077
100
AcDbArc
 50
313.328605
 51
332.896445
  0
ARC
  5
503
330
18
100
AcDbEntity
  8
0
100
AcDbCircle
 10
7.947574
 20
6.010166000000001
 30
0.0
 40
0.017077
100
AcDbArc
 50
332.896445
 51
352.464286
  0
ARC
  5
504
330
18
100
AcDbEntity
  8
0
100
AcDbCircle
 10
7.949874
 20
6.009862
 30
0.0
 40
0.014757
100
AcDbArc
 50
352.464286
 51
13.530533
  0
ARC
  5
505
330
18
100
AcDbEntity
  8
0
100
AcDbCircle
 10
7.951658999999999
 20
6.010291000000001
 30
0.0
 40
0.012921
100
AcDbArc
 50
13.530533
 51
37.130317
  0
ARC
  5
506
330
18
100
AcDbEntity
  8
0
100
AcDbCircle
 10
7.953295
 20
6.011530000000001
 30
0.0
 40
0.010869
100
AcDbArc
 50
37.130317
 51
62.89644499999999
  0
ARC
  5
507
330
18
100
AcDbEntity
  8
0
100
AcDbCircle
 10
7.878481
 20
5.832144
 30
0.0
 40
0.010869
100
AcDbArc
 50
62.89644499999999
 51
88.662573
  0
ARC
  5
508
330
18
100
AcDbEntity
  8
0
100
AcDbCircle
 10
7.878433
 20
5.830093
 30
0.0
 40
0.012921
100
AcDbArc
 50
88.662573
 51
112.262357
  0
ARC
  5
509
330
18
100
AcDbEntity
  8
0
100
AcDbCircle
 10
7.879128999999999
 20
5.828393
 30
0.0
 40
0.014757
100
AcDbArc
 50
112.262357
 51
133.328605
  0
ARC
  5
50A
330
18
100
AcDbEntity
  8
0
100
AcDbCircle
 10
7.880721
 20
5.826706
 30
0.0
 40
0.017077
100
AcDbArc
 50
133.328605
 51
152.896445
  0
ARC
  5
50B
330
18
100
AcDbEntity
  8
0
100
AcDbCircle
 10
7.880721
 20
5.826706
 30
0.0
 40
0.017077
100
AcDbArc
 50
152.896445
 51
172.464286
  0
ARC
  5
50C
330
18
100
AcDbEntity
  8
0
100
AcDbCircle
 10
7.878421
 20
5.82701
 30
0.0
 40
0.014757
100
AcDbArc
 50
172.464286
 51
193.530533
  0
ARC
  5
50D
330
18
100
AcDbEntity
  8
0
100
AcDbCircle
 10
7.876636
 20
5.826581
 30
0.0
 40
0.012921
100
AcDbArc
 50
193.530533
 51
217.130317
  0
ARC
  5
50E
330
18
100
AcDbEntity
  8
0
100
AcDbCircle
 10
7.875
 20
5.825342
 30
0.0
 40
0.010869
100
AcDbArc
 50
217.130317
 51
242.896445
  0
ARC
  5
50F
330
18
100
AcDbEntity
  8
0
100
AcDbCircle
 10
7.875
 20
5.825342
 30
0.0
 40
0.010869
100
AcDbArc
 50
242.896445
 51
268.662573
  0
ARC
  5
510
330
18
100
AcDbEntity
  8
0
100
AcDbCircle
 10
7.875048
 20
5.827393
 30
0.0
 40
0.012921
100
AcDbArc
 50
268.662573
 51
292.262357
  0
ARC
  5
511
330
18
100
AcDbEntity
  8
0
100
AcDbCircle
 10
7.874352
 20
5.829092
 30
0.0
 40
0.014757
100
AcDbArc
 50
292.262357
 51
313.328605
  0
ARC
  5
512
330
18
100
AcDbEntity
  8
0
100
AcDbCircle
 10
7.87276
 20
5.83078
 30
0.0
 40
0.017077
100
AcDbArc
 50
313.328605
 51
332.896445
  0
ARC
  5
513
330
18
100
AcDbEntity
  8
0
100
AcDbCircle
 10
7.87276
 20
5.83078
 30
0.0
 40
0.017077
100
AcDbArc
 50
332.896445
 51
352.464286
  0
ARC
  5
514
330
18
100
AcDbEntity
  8
0
100
AcDbCircle
 10
7.87506
 20
5.830476
 30
0.0
 40
0.014757
100
AcDbArc
 50
352.464286
 51
13.530533
  0
ARC
  5
515
330
18
100
AcDbEntity
  8
0
100
AcDbCircle
 10
7.876844999999999
 20
5.830905
 30
0.0
 40
0.012921
100
AcDbArc
 50
13.530533
 51
37.130317
  0
ARC
  5
516
330
18
100
AcDbEntity
  8
0
100
AcDbCircle
 10
7.878481
 20
5.832144
 30
0.0
 40
0.010869
100
AcDbArc
 50
37.130317
 51
62.89644499999999
  0
ARC
  5
517
330
18
100
AcDbEntity
  8
0
100
AcDbCircle
 10
7.844377000000001
 20
5.709766
 30
0.0
 40
0.00726
100
AcDbArc
 50
90.0
 51
120.047865
  0
ARC
  5
518
330
18
100
AcDbEntity
  8
0
100
AcDbCircle
 10
7.846235000000001
 20
5.706554
 30
0.0
 40
0.010971
100
AcDbArc
 50
120.047865
 51
144.395186
  0
ARC
  5
519
330
18
100
AcDbEntity
  8
0
100
AcDbCircle
 10
7.84917
 20
5.704453
 30
0.0
 40
0.014579
100
AcDbArc
 50
144.395186
 51
163.479621
  0
ARC
  5
51A
330
18
100
AcDbEntity
  8
0
100
AcDbCircle
 10
7.853802000000001
 20
5.703079
 30
0.0
 40
0.019411
100
AcDbArc
 50
163.479621
 51
180.0
  0
ARC
  5
51B
330
18
100
AcDbEntity
  8
0
100
AcDbCircle
 10
7.853802000000001
 20
5.703079
 30
0.0
 40
0.019411
100
AcDbArc
 50
180.0
 51
196.520379
  0
ARC
  5
51C
330
18
100
AcDbEntity
  8
0
100
AcDbCircle
 10
7.84917
 20
5.701705000000001
 30
0.0
 40
0.014579
100
AcDbArc
 50
196.520379
 51
215.604814
  0
ARC
  5
51D
330
18
100
AcDbEntity
  8
0
100
AcDbCircle
 10
7.846235000000001
 20
5.699604
 30
0.0
 40
0.010971
100
AcDbArc
 50
215.604814
 51
239.952135
  0
ARC
  5
51E
330
18
100
AcDbEntity
  8
0
100
AcDbCircle
 10
7.844377000000001
 20
5.696392
 30
0.0
 40
0.00726
100
AcDbArc
 50
239.952135
 51
270.0
  0
ARC
  5
51F
330
18
100
AcDbEntity
  8
0
100
AcDbCircle
 10
7.844377000000001
 20
5.696392
 30
0.0
 40
0.00726
100
AcDbArc
 50
270.0
 51
300.047865
  0
ARC
  5
520
330
18
100
AcDbEntity
  8
0
100
AcDbCircle
 10
7.842519
 20
5.699604
 30
0.0
 40
0.010971
100
AcDbArc
 50
300.047865
 51
324.395186
  0
ARC
  5
521
330
18
100
AcDbEntity
  8
0
100
AcDbCircle
 10
7.839585000000001
 20
5.701705000000001
 30
0.0
 40
0.014579
100
AcDbArc
 50
324.395186
 51
343.479621
  0
ARC
  5
522
330
18
100
AcDbEntity
  8
0
100
AcDbCircle
 10
7.834953
 20
5.703079
 30
0.0
 40
0.019411
100
AcDbArc
 50
343.479621
 51
0.0
  0
ARC
  5
523
330
18
100
AcDbEntity
  8
0
100
AcDbCircle
 10
7.834953
 20
5.703079
 30
0.0
 40
0.019411
100
AcDbArc
 50
0.0
 51
16.520379
  0
ARC
  5
524
330
18
100
AcDbEntity
  8
0
100
AcDbCircle
 10
7.839585000000001
 20
5.704453
 30
0.0
 40
0.014579
100
AcDbArc
 50
16.520379
 51
35.60481400000001
  0
ARC
  5
525
330
18
100
AcDbEntity
  8
0
100
AcDbCircle
 10
7.842519
 20
5.706554
 30
0.0
 40
0.010971
100
AcDbArc
 50
35.60481400000001
 51
59.95213499999999
  0
ARC
  5
526
330
18
100
AcDbEntity
  8
0
100
AcDbCircle
 10
7.844377000000001
 20
5.709766
 30
0.0
 40
0.00726
100
AcDbArc
 50
59.95213499999999
 51
90.0
  0
ARC
  5
527
330
18
100
AcDbEntity
  8
0
100
AcDbCircle
 10
7.954401
 20
5.848461
 30
0.0
 40
0.021738
100
AcDbArc
 50
39.852898
 51
62.89644499999999
  0
ARC
  5
528
330
18
100
AcDbEntity
  8
0
100
AcDbCircle
 10
7.954401
 20
5.848461
 30
0.0
 40
0.021738
100
AcDbArc
 50
62.89644499999999
 51
88.662573
  0
ARC
  5
529
330
18
100
AcDbEntity
  8
0
100
AcDbCircle
 10
7.954306
 20
5.844359
 30
0.0
 40
0.025841
100
AcDbArc
 50
88.662573
 51
112.262357
  0
ARC
  5
52A
330
18
100
AcDbEntity
  8
0
100
AcDbCircle
 10
7.955697
 20
5.84096
 30
0.0
 40
0.029513
100
AcDbArc
 50
112.262357
 51
133.328605
  0
ARC
  5
52B
330
18
100
AcDbEntity
  8
0
100
AcDbCircle
 10
7.958881
 20
5.837585
 30
0.0
 40
0.034153
100
AcDbArc
 50
133.328605
 51
152.896445
  0
ARC
  5
52C
330
18
100
AcDbEntity
  8
0
100
AcDbCircle
 10
7.958881
 20
5.837585
 30
0.0
 40
0.034153
100
AcDbArc
 50
152.896445
 51
172.464286
  0
ARC
  5
52D
330
18
100
AcDbEntity
  8
0
100
AcDbCircle
 10
7.954281
 20
5.838194000000001
 30
0.0
 40
0.029513
100
AcDbArc
 50
172.464286
 51
190.921771
  0
ARC
  5
52E
330
18
100
AcDbEntity
  8
0
100
AcDbCircle
 10
7.948952
 20
5.860135
 30
0.0
 40
0.021738
100
AcDbArc
 50
62.89644499999999
 51
88.662573
  0
ARC
  5
52F
330
18
100
AcDbEntity
  8
0
100
AcDbCircle
 10
7.948857
 20
5.856033
 30
0.0
 40
0.025841
100
AcDbArc
 50
88.662573
 51
112.262357
  0
ARC
  5
530
330
18
100
AcDbEntity
  8
0
100
AcDbCircle
 10
7.950247999999999
 20
5.852635
 30
0.0
 40
0.029513
100
AcDbArc
 50
112.262357
 51
133.328605
  0
ARC
  5
531
330
18
100
AcDbEntity
  8
0
100
AcDbCircle
 10
7.953432
 20
5.849259
 30
0.0
 40
0.034153
100
AcDbArc
 50
133.328605
 51
152.896445
  0
ARC
  5
532
330
18
100
AcDbEntity
  8
0
100
AcDbCircle
 10
7.953432
 20
5.849259
 30
0.0
 40
0.034153
100
AcDbArc
 50
152.896445
 51
172.464286
  0
ARC
  5
533
330
18
100
AcDbEntity
  8
0
100
AcDbCircle
 10
7.948832
 20
5.849868
 30
0.0
 40
0.029513
100
AcDbArc
 50
172.464286
 51
193.530533
  0
ARC
  5
534
330
18
100
AcDbEntity
  8
0
100
AcDbCircle
 10
7.945262
 20
5.849009
 30
0.0
 40
0.025841
100
AcDbArc
 50
193.530533
 51
217.130317
  0
ARC
  5
535
330
18
100
AcDbEntity
  8
0
100
AcDbCircle
 10
7.94199
 20
5.846532
 30
0.0
 40
0.021738
100
AcDbArc
 50
217.130317
 51
242.896445
  0
ARC
  5
536
330
18
100
AcDbEntity
  8
0
100
AcDbCircle
 10
7.94199
 20
5.846532
 30
0.0
 40
0.021738
100
AcDbArc
 50
242.896445
 51
268.662573
  0
ARC
  5
537
330
18
100
AcDbEntity
  8
0
100
AcDbCircle
 10
7.942086
 20
5.850633999999999
 30
0.0
 40
0.025841
100
AcDbArc
 50
268.662573
 51
292.262357
  0
ARC
  5
538
330
18
100
AcDbEntity
  8
0
100
AcDbCircle
 10
7.940695
 20
5.854032
 30
0.0
 40
0.029513
100
AcDbArc
 50
292.262357
 51
313.328605
  0
ARC
  5
539
330
18
100
AcDbEntity
  8
0
100
AcDbCircle
 10
7.937511
 20
5.857408
 30
0.0
 40
0.034153
100
AcDbArc
 50
313.328605
 51
332.896445
  0
ARC
  5
53A
330
18
100
AcDbEntity
  8
0
100
AcDbCircle
 10
7.937511
 20
5.857408
 30
0.0
 40
0.034153
100
AcDbArc
 50
332.896445
 51
352.464286
  0
ARC
  5
53B
330
18
100
AcDbEntity
  8
0
100
AcDbCircle
 10
7.942111
 20
5.856799
 30
0.0
 40
0.029513
100
AcDbArc
 50
352.464286
 51
13.530533
  0
ARC
  5
53C
330
18
100
AcDbEntity
  8
0
100
AcDbCircle
 10
7.945681
 20
5.857658
 30
0.0
 40
0.025841
100
AcDbArc
 50
13.530533
 51
37.130317
  0
ARC
  5
53D
330
18
100
AcDbEntity
  8
0
100
AcDbCircle
 10
7.948952
 20
5.860135
 30
0.0
 40
0.021738
100
AcDbArc
 50
37.130317
 51
62.89644499999999
  0
ARC
  5
53E
330
18
100
AcDbEntity
  8
0
100
AcDbCircle
 10
8.009404
 20
5.937086
 30
0.0
 40
0.010869
100
AcDbArc
 50
62.89644499999999
 51
88.662573
  0
ARC
  5
53F
330
18
100
AcDbEntity
  8
0
100
AcDbCircle
 10
8.009356
 20
5.935035
 30
0.0
 40
0.012921
100
AcDbArc
 50
88.662573
 51
112.262357
  0
ARC
  5
540
330
18
100
AcDbEntity
  8
0
100
AcDbCircle
 10
8.010050999999999
 20
5.933335
 30
0.0
 40
0.014757
100
AcDbArc
 50
112.262357
 51
133.328605
  0
ARC
  5
541
330
18
100
AcDbEntity
  8
0
100
AcDbCircle
 10
8.011642999999999
 20
5.931648
 30
0.0
 40
0.017077
100
AcDbArc
 50
133.328605
 51
152.896445
  0
ARC
  5
542
330
18
100
AcDbEntity
  8
0
100
AcDbCircle
 10
8.011642999999999
 20
5.931648
 30
0.0
 40
0.017077
100
AcDbArc
 50
152.896445
 51
172.464286
  0
ARC
  5
543
330
18
100
AcDbEntity
  8
0
100
AcDbCircle
 10
8.009342999999999
 20
5.931952
 30
0.0
 40
0.014757
100
AcDbArc
 50
172.464286
 51
193.530533
  0
ARC
  5
544
330
18
100
AcDbEntity
  8
0
100
AcDbCircle
 10
8.007558
 20
5.931523
 30
0.0
 40
0.012921
100
AcDbArc
 50
193.530533
 51
217.130317
  0
ARC
  5
545
330
18
100
AcDbEntity
  8
0
100
AcDbCircle
 10
8.005922999999999
 20
5.930283999999999
 30
0.0
 40
0.010869
100
AcDbArc
 50
217.130317
 51
242.896445
  0
ARC
  5
546
330
18
100
AcDbEntity
  8
0
100
AcDbCircle
 10
8.005922999999999
 20
5.930283999999999
 30
0.0
 40
0.010869
100
AcDbArc
 50
242.896445
 51
268.662573
  0
ARC
  5
547
330
18
100
AcDbEntity
  8
0
100
AcDbCircle
 10
8.00597
 20
5.932335
 30
0.0
 40
0.012921
100
AcDbArc
 50
268.662573
 51
292.262357
  0
ARC
  5
548
330
18
100
AcDbEntity
  8
0
100
AcDbCircle
 10
8.005274999999999
 20
5.934034
 30
0.0
 40
0.014757
100
AcDbArc
 50
292.262357
 51
313.328605
  0
ARC
  5
549
330
18
100
AcDbEntity
  8
0
100
AcDbCircle
 10
8.003683000000001
 20
5.935722
 30
0.0
 40
0.017077
100
AcDbArc
 50
313.328605
 51
332.896445
  0
ARC
  5
54A
330
18
100
AcDbEntity
  8
0
100
AcDbCircle
 10
8.003683000000001
 20
5.935722
 30
0.0
 40
0.017077
100
AcDbArc
 50
332.896445
 51
352.464286
  0
ARC
  5
54B
330
18
100
AcDbEntity
  8
0
100
AcDbCircle
 10
8.005983000000001
 20
5.935418
 30
0.0
 40
0.014757
100
AcDbArc
 50
352.464286
 51
13.530533
  0
ARC
  5
54C
330
18
100
AcDbEntity
  8
0
100
AcDbCircle
 10
8.007767999999999
 20
5.935847
 30
0.0
 40
0.012921
100
AcDbArc
 50
13.530533
 51
37.130317
  0
ARC
  5
54D
330
18
100
AcDbEntity
  8
0
100
AcDbCircle
 10
8.009404
 20
5.937086
 30
0.0
 40
0.010869
100
AcDbArc
 50
37.130317
 51
62.89644499999999
  0
ARC
  5
54E
330
18
100
AcDbEntity
  8
0
100
AcDbCircle
 10
7.925741
 20
5.932226999999999
 30
0.0
 40
0.010869
100
AcDbArc
 50
62.89644499999999
 51
88.662573
  0
ARC
  5
54F
330
18
100
AcDbEntity
  8
0
100
AcDbCircle
 10
7.925692999999999
 20
5.930176
 30
0.0
 40
0.012921
100
AcDbArc
 50
88.662573
 51
112.262357
  0
ARC
  5
550
330
18
100
AcDbEntity
  8
0
100
AcDbCircle
 10
7.926389
 20
5.928477
 30
0.0
 40
0.014757
100
AcDbArc
 50
112.262357
 51
133.328605
  0
ARC
  5
551
330
18
100
AcDbEntity
  8
0
100
AcDbCircle
 10
7.927981
 20
5.926789
 30
0.0
 40
0.017077
100
AcDbArc
 50
133.328605
 51
152.896445
  0
ARC
  5
552
330
18
100
AcDbEntity
  8
0
100
AcDbCircle
 10
7.927981
 20
5.926789
 30
0.0
 40
0.017077
100
AcDbArc
 50
152.896445
 51
172.464286
  0
ARC
  5
553
330
18
100
AcDbEntity
  8
0
100
AcDbCircle
 10
7.925681
 20
5.927093
 30
0.0
 40
0.014757
100
AcDbArc
 50
172.464286
 51
193.530533
  0
ARC
  5
554
330
18
100
AcDbEntity
  8
0
100
AcDbCircle
 10
7.923896000000001
 20
5.926664
 30
0.0
 40
0.012921
100
AcDbArc
 50
193.530533
 51
217.130317
  0
ARC
  5
555
330
18
100
AcDbEntity
  8
0
100
AcDbCircle
 10
7.922260000000001
 20
5.925425
 30
0.0
 40
0.010869
100
AcDbArc
 50
217.130317
 51
242.896445
  0
ARC
  5
556
330
18
100
AcDbEntity
  8
0
100
AcDbCircle
 10
7.922260000000001
 20
5.925425
 30
0.0
 40
0.010869
100
AcDbArc
 50
242.896445
 51
268.662573
  0
ARC
  5
557
330
18
100
AcDbEntity
  8
0
100
AcDbCircle
 10
7.922308
 20
5.927476
 30
0.0
 40
0.012921
100
AcDbArc
 50
268.662573
 51
292.262357
  0
ARC
  5
558
330
18
100
AcDbEntity
  8
0
100
AcDbCircle
 10
7.921613000000001
 20
5.929176
 30
0.0
 40
0.014757
100
AcDbArc
 50
292.262357
 51
313.328605
  0
ARC
  5
559
330
18
100
AcDbEntity
  8
0
100
AcDbCircle
 10
7.920021
 20
5.930863
 30
0.0
 40
0.017077
100
AcDbArc
 50
313.328605
 51
332.896445
  0
ARC
  5
55A
330
18
100
AcDbEntity
  8
0
100
AcDbCircle
 10
7.920021
 20
5.930863
 30
0.0
 40
0.017077
100
AcDbArc
 50
332.896445
 51
352.464286
  0
ARC
  5
55B
330
18
100
AcDbEntity
  8
0
100
AcDbCircle
 10
7.922321000000001
 20
5.930559
 30
0.0
 40
0.014757
100
AcDbArc
 50
352.464286
 51
13.530533
  0
ARC
  5
55C
330
18
100
AcDbEntity
  8
0
100
AcDbCircle
 10
7.924106
 20
5.930988
 30
0.0
 40
0.012921
100
AcDbArc
 50
13.530533
 51
37.130317
  0
ARC
  5
55D
330
18
100
AcDbEntity
  8
0
100
AcDbCircle
 10
7.925741
 20
5.932226999999999
 30
0.0
 40
0.010869
100
AcDbArc
 50
37.130317
 51
62.89644499999999
  0
ARC
  5
55E
330
18
100
AcDbEntity
  8
0
100
AcDbCircle
 10
7.948995
 20
5.755962
 30
0.0
 40
0.010869
100
AcDbArc
 50
62.89644499999999
 51
88.662573
  0
ARC
  5
55F
330
18
100
AcDbEntity
  8
0
100
AcDbCircle
 10
7.948947
 20
5.753911
 30
0.0
 40
0.012921
100
AcDbArc
 50
88.662573
 51
112.262357
  0
ARC
  5
560
330
18
100
AcDbEntity
  8
0
100
AcDbCircle
 10
7.949642
 20
5.752212
 30
0.0
 40
0.014757
100
AcDbArc
 50
112.262357
 51
133.328605
  0
ARC
  5
561
330
18
100
AcDbEntity
  8
0
100
AcDbCircle
 10
7.951234
 20
5.750524
 30
0.0
 40
0.017077
100
AcDbArc
 50
133.328605
 51
152.896445
  0
ARC
  5
562
330
18
100
AcDbEntity
  8
0
100
AcDbCircle
 10
7.951234
 20
5.750524
 30
0.0
 40
0.017077
100
AcDbArc
 50
152.896445
 51
172.464286
  0
ARC
  5
563
330
18
100
AcDbEntity
  8
0
100
AcDbCircle
 10
7.948934
 20
5.750829
 30
0.0
 40
0.014757
100
AcDbArc
 50
172.464286
 51
193.530533
  0
ARC
  5
564
330
18
100
AcDbEntity
  8
0
100
AcDbCircle
 10
7.947149000000001
 20
5.750399
 30
0.0
 40
0.012921
100
AcDbArc
 50
193.530533
 51
217.130317
  0
ARC
  5
565
330
18
100
AcDbEntity
  8
0
100
AcDbCircle
 10
7.945514
 20
5.74916
 30
0.0
 40
0.010869
100
AcDbArc
 50
217.130317
 51
242.896445
  0
ARC
  5
566
330
18
100
AcDbEntity
  8
0
100
AcDbCircle
 10
7.945514
 20
5.74916
 30
0.0
 40
0.010869
100
AcDbArc
 50
242.896445
 51
268.662573
  0
ARC
  5
567
330
18
100
AcDbEntity
  8
0
100
AcDbCircle
 10
7.945561
 20
5.751212000000001
 30
0.0
 40
0.012921
100
AcDbArc
 50
268.662573
 51
292.262357
  0
ARC
  5
568
330
18
100
AcDbEntity
  8
0
100
AcDbCircle
 10
7.944866
 20
5.752911
 30
0.0
 40
0.014757
100
AcDbArc
 50
292.262357
 51
313.328605
  0
ARC
  5
569
330
18
100
AcDbEntity
  8
0
100
AcDbCircle
 10
7.943274000000001
 20
5.754598000000001
 30
0.0
 40
0.017077
100
AcDbArc
 50
313.328605
 51
332.896445
  0
ARC
  5
56A
330
18
100
AcDbEntity
  8
0
100
AcDbCircle
 10
7.943274000000001
 20
5.754598000000001
 30
0.0
 40
0.017077
100
AcDbArc
 50
332.896445
 51
352.464286
  0
ARC
  5
56B
330
18
100
AcDbEntity
  8
0
100
AcDbCircle
 10
7.945574000000001
 20
5.754294
 30
0.0
 40
0.014757
100
AcDbArc
 50
352.464286
 51
13.530533
  0
ARC
  5
56C
330
18
100
AcDbEntity
  8
0
100
AcDbCircle
 10
7.947359
 20
5.754724
 30
0.0
 40
0.012921
100
AcDbArc
 50
13.530533
 51
37.130317
  0
ARC
  5
56D
330
18
100
AcDbEntity
  8
0
100
AcDbCircle
 10
7.948995
 20
5.755962
 30
0.0
 40
0.010869
100
AcDbArc
 50
37.130317
 51
62.89644499999999
  0
ARC
  5
56E
330
18
100
AcDbEntity
  8
0
100
AcDbCircle
 10
7.853589
 20
5.288945
 30
0.0
 40
0.023784
100
AcDbArc
 50
297.183649
 51
316.250758
  0
ARC
  5
56F
330
18
100
AcDbEntity
  8
0
100
AcDbCircle
 10
7.844534
 20
5.297614
 30
0.0
 40
0.03632
100
AcDbArc
 50
316.250758
 51
340.614275
  0
ARC
  5
570
330
18
100
AcDbEntity
  8
0
100
AcDbCircle
 10
7.832992999999999
 20
5.301675
 30
0.0
 40
0.048554
100
AcDbArc
 50
340.614275
 51
359.614303
  0
ARC
  5
571
330
18
100
AcDbEntity
  8
0
100
AcDbCircle
 10
7.816578999999999
 20
5.301785
 30
0.0
 40
0.064969
100
AcDbArc
 50
359.614303
 51
16.020558
  0
ARC
  5
572
330
18
100
AcDbEntity
  8
0
100
AcDbCircle
 10
7.816578999999999
 20
5.301785
 30
0.0
 40
0.064969
100
AcDbArc
 50
16.020558
 51
32.426812
  0
ARC
  5
573
330
18
100
AcDbEntity
  8
0
100
AcDbCircle
 10
7.830434
 20
5.310587
 30
0.0
 40
0.048554
100
AcDbArc
 50
32.426812
 51
51.42684099999999
  0
ARC
  5
574
330
18
100
AcDbEntity
  8
0
100
AcDbCircle
 10
7.838062
 20
5.320151999999999
 30
0.0
 40
0.03632
100
AcDbArc
 50
51.42684099999999
 51
75.790357
  0
ARC
  5
575
330
18
100
AcDbEntity
  8
0
100
AcDbCircle
 10
7.841139999999999
 20
5.332304
 30
0.0
 40
0.023784
100
AcDbArc
 50
75.790357
 51
104.252435
  0
ARC
  5
576
330
18
100
AcDbEntity
  8
0
100
AcDbCircle
 10
7.867242999999999
 20
5.277688
 30
0.0
 40
0.042472
100
AcDbArc
 50
286.474648
 51
316.250758
  0
ARC
  5
577
330
18
100
AcDbEntity
  8
0
100
AcDbCircle
 10
7.851072
 20
5.293168
 30
0.0
 40
0.064858
100
AcDbArc
 50
316.250758
 51
340.614275
  0
ARC
  5
578
330
18
100
AcDbEntity
  8
0
100
AcDbCircle
 10
7.830464
 20
5.300419000000001
 30
0.0
 40
0.086704
100
AcDbArc
 50
340.614275
 51
359.614303
  0
ARC
  5
579
330
18
100
AcDbEntity
  8
0
100
AcDbCircle
 10
7.801153
 20
5.300616000000001
 30
0.0
 40
0.116016
100
AcDbArc
 50
359.614303
 51
16.020558
  0
ARC
  5
57A
330
18
100
AcDbEntity
  8
0
100
AcDbCircle
 10
7.801153
 20
5.300616000000001
 30
0.0
 40
0.116016
100
AcDbArc
 50
16.020558
 51
32.426812
  0
ARC
  5
57B
330
18
100
AcDbEntity
  8
0
100
AcDbCircle
 10
7.825894
 20
5.316333999999999
 30
0.0
 40
0.086704
100
AcDbArc
 50
32.426812
 51
51.42684099999999
  0
ARC
  5
57C
330
18
100
AcDbEntity
  8
0
100
AcDbCircle
 10
7.839516000000001
 20
5.333414
 30
0.0
 40
0.064858
100
AcDbArc
 50
51.42684099999999
 51
75.790357
  0
ARC
  5
57D
330
18
100
AcDbEntity
  8
0
100
AcDbCircle
 10
7.845011
 20
5.355114
 30
0.0
 40
0.042472
100
AcDbArc
 50
75.790357
 51
106.020558
  0
ARC
  5
57E
330
18
100
AcDbEntity
  8
0
100
AcDbCircle
 10
7.822853
 20
5.324261
 30
0.0
 40
0.023784
100
AcDbArc
 50
106.020558
 51
136.250758
  0
ARC
  5
57F
330
18
100
AcDbEntity
  8
0
100
AcDbCircle
 10
7.831908
 20
5.315592
 30
0.0
 40
0.03632
100
AcDbArc
 50
136.250758
 51
160.614275
  0
ARC
  5
580
330
18
100
AcDbEntity
  8
0
100
AcDbCircle
 10
7.843449000000001
 20
5.311531
 30
0.0
 40
0.048554
100
AcDbArc
 50
160.614275
 51
179.614303
  0
ARC
  5
581
330
18
100
AcDbEntity
  8
0
100
AcDbCircle
 10
7.859863000000001
 20
5.311421
 30
0.0
 40
0.064969
100
AcDbArc
 50
179.614303
 51
196.020558
  0
ARC
  5
582
330
18
100
AcDbEntity
  8
0
100
AcDbCircle
 10
7.859863000000001
 20
5.311421
 30
0.0
 40
0.064969
100
AcDbArc
 50
196.020558
 51
212.426812
  0
ARC
  5
583
330
18
100
AcDbEntity
  8
0
100
AcDbCircle
 10
7.846008
 20
5.302619
 30
0.0
 40
0.048554
100
AcDbArc
 50
212.426812
 51
231.426841
  0
ARC
  5
584
330
18
100
AcDbEntity
  8
0
100
AcDbCircle
 10
7.83838
 20
5.293054
 30
0.0
 40
0.03632
100
AcDbArc
 50
231.426841
 51
255.790357
  0
ARC
  5
585
330
18
100
AcDbEntity
  8
0
100
AcDbCircle
 10
7.835302
 20
5.280901999999999
 30
0.0
 40
0.023784
100
AcDbArc
 50
255.790357
 51
286.020558
  0
ARC
  5
586
330
18
100
AcDbEntity
  8
0
100
AcDbCircle
 10
7.835302
 20
5.280901999999999
 30
0.0
 40
0.023784
100
AcDbArc
 50
286.020558
 51
316.250758
  0
ARC
  5
587
330
18
100
AcDbEntity
  8
0
100
AcDbCircle
 10
7.826247
 20
5.289569999999999
 30
0.0
 40
0.03632
100
AcDbArc
 50
316.250758
 51
340.614275
  0
ARC
  5
588
330
18
100
AcDbEntity
  8
0
100
AcDbCircle
 10
7.814706
 20
5.293631
 30
0.0
 40
0.048554
100
AcDbArc
 50
340.614275
 51
359.614303
  0
ARC
  5
589
330
18
100
AcDbEntity
  8
0
100
AcDbCircle
 10
7.798292
 20
5.293742
 30
0.0
 40
0.064969
100
AcDbArc
 50
359.614303
 51
16.020558
  0
ARC
  5
58A
330
18
100
AcDbEntity
  8
0
100
AcDbCircle
 10
7.798292
 20
5.293742
 30
0.0
 40
0.064969
100
AcDbArc
 50
16.020558
 51
32.426812
  0
ARC
  5
58B
330
18
100
AcDbEntity
  8
0
100
AcDbCircle
 10
7.812147
 20
5.302543
 30
0.0
 40
0.048554
100
AcDbArc
 50
32.426812
 51
51.42684099999999
  0
ARC
  5
58C
330
18
100
AcDbEntity
  8
0
100
AcDbCircle
 10
7.819775
 20
5.312108
 30
0.0
 40
0.03632
100
AcDbArc
 50
51.42684099999999
 51
75.790357
  0
ARC
  5
58D
330
18
100
AcDbEntity
  8
0
100
AcDbCircle
 10
7.822853
 20
5.324261
 30
0.0
 40
0.023784
100
AcDbArc
 50
75.790357
 51
106.020558
  0
ARC
  5
58E
330
18
100
AcDbEntity
  8
0
100
AcDbCircle
 10
7.837696
 20
5.352189
 30
0.0
 40
0.042472
100
AcDbArc
 50
106.020558
 51
136.250758
  0
ARC
  5
58F
330
18
100
AcDbEntity
  8
0
100
AcDbCircle
 10
7.853867
 20
5.336709
 30
0.0
 40
0.064858
100
AcDbArc
 50
136.250758
 51
160.614275
  0
ARC
  5
590
330
18
100
AcDbEntity
  8
0
100
AcDbCircle
 10
7.874475
 20
5.329458
 30
0.0
 40
0.086704
100
AcDbArc
 50
160.614275
 51
179.614303
  0
ARC
  5
591
330
18
100
AcDbEntity
  8
0
100
AcDbCircle
 10
7.903785000000001
 20
5.329261
 30
0.0
 40
0.116016
100
AcDbArc
 50
179.614303
 51
196.020558
  0
ARC
  5
592
330
18
100
AcDbEntity
  8
0
100
AcDbCircle
 10
7.903785000000001
 20
5.329261
 30
0.0
 40
0.116016
100
AcDbArc
 50
196.020558
 51
212.426812
  0
ARC
  5
593
330
18
100
AcDbEntity
  8
0
100
AcDbCircle
 10
7.879044
 20
5.313543
 30
0.0
 40
0.086704
100
AcDbArc
 50
212.426812
 51
231.426841
  0
ARC
  5
594
330
18
100
AcDbEntity
  8
0
100
AcDbCircle
 10
7.865423
 20
5.296463
 30
0.0
 40
0.064858
100
AcDbArc
 50
231.426841
 51
255.790357
  0
ARC
  5
595
330
18
100
AcDbEntity
  8
0
100
AcDbCircle
 10
7.859928
 20
5.274763
 30
0.0
 40
0.042472
100
AcDbArc
 50
255.790357
 51
286.020558
  0
ARC
  5
596
330
18
100
AcDbEntity
  8
0
100
AcDbCircle
 10
7.859928
 20
5.274763
 30
0.0
 40
0.042472
100
AcDbArc
 50
286.020558
 51
316.250758
  0
ARC
  5
597
330
18
100
AcDbEntity
  8
0
100
AcDbCircle
 10
7.843757000000001
 20
5.290242
 30
0.0
 40
0.064858
100
AcDbArc
 50
316.250758
 51
340.614275
  0
ARC
  5
598
330
18
100
AcDbEntity
  8
0
100
AcDbCircle
 10
7.823149000000001
 20
5.297494
 30
0.0
 40
0.086704
100
AcDbArc
 50
340.614275
 51
359.614303
  0
ARC
  5
599
330
18
100
AcDbEntity
  8
0
100
AcDbCircle
 10
7.793838
 20
5.297691
 30
0.0
 40
0.116016
100
AcDbArc
 50
359.614303
 51
16.020558
  0
ARC
  5
59A
330
18
100
AcDbEntity
  8
0
100
AcDbCircle
 10
7.793838
 20
5.297691
 30
0.0
 40
0.116016
100
AcDbArc
 50
16.020558
 51
32.426812
  0
ARC
  5
59B
330
18
100
AcDbEntity
  8
0
100
AcDbCircle
 10
7.818579
 20
5.313408
 30
0.0
 40
0.086704
100
AcDbArc
 50
32.426812
 51
51.42684099999999
  0
ARC
  5
59C
330
18
100
AcDbEntity
  8
0
100
AcDbCircle
 10
7.832201
 20
5.330489
 30
0.0
 40
0.064858
100
AcDbArc
 50
51.42684099999999
 51
75.790357
  0
ARC
  5
59D
330
18
100
AcDbEntity
  8
0
100
AcDbCircle
 10
7.837696
 20
5.352189
 30
0.0
 40
0.042472
100
AcDbArc
 50
75.790357
 51
106.020558
  0
ARC
  5
59E
330
18
100
AcDbEntity
  8
0
100
AcDbCircle
 10
7.845011
 20
5.355114
 30
0.0
 40
0.042472
100
AcDbArc
 50
106.020558
 51
117.117834
  0
ARC
  5
59F
330
18
100
AcDbEntity
  8
0
100
AcDbCircle
 10
7.910593
 20
5.586775
 30
0.0
 40
0.00726
100
AcDbArc
 50
90.0
 51
120.047865
  0
ARC
  5
5A0
330
18
100
AcDbEntity
  8
0
100
AcDbCircle
 10
7.912451
 20
5.583563
 30
0.0
 40
0.010971
100
AcDbArc
 50
120.047865
 51
144.395186
  0
ARC
  5
5A1
330
18
100
AcDbEntity
  8
0
100
AcDbCircle
 10
7.915385000000001
 20
5.581462
 30
0.0
 40
0.014579
100
AcDbArc
 50
144.395186
 51
163.479621
  0
ARC
  5
5A2
330
18
100
AcDbEntity
  8
0
100
AcDbCircle
 10
7.920017
 20
5.580088
 30
0.0
 40
0.019411
100
AcDbArc
 50
163.479621
 51
180.0
  0
ARC
  5
5A3
330
18
100
AcDbEntity
  8
0
100
AcDbCircle
 10
7.920017
 20
5.580088
 30
0.0
 40
0.019411
100
AcDbArc
 50
180.0
 51
196.520379
  0
ARC
  5
5A4
330
18
100
AcDbEntity
  8
0
100
AcDbCircle
 10
7.915385000000001
 20
5.578715
 30
0.0
 40
0.014579
100
AcDbArc
 50
196.520379
 51
215.604814
  0
ARC
  5
5A5
330
18
100
AcDbEntity
  8
0
100
AcDbCircle
 10
7.912451
 20
5.576614
 30
0.0
 40
0.010971
100
AcDbArc
 50
215.604814
 51
239.952135
  0
ARC
  5
5A6
330
18
100
AcDbEntity
  8
0
100
AcDbCircle
 10
7.910593
 20
5.573402
 30
0.0
 40
0.00726
100
AcDbArc
 50
239.952135
 51
270.0
  0
ARC
  5
5A7
330
18
100
AcDbEntity
  8
0
100
AcDbCircle
 10
7.910593
 20
5.573402
 30
0.0
 40
0.00726
100
AcDbArc
 50
270.0
 51
300.047865
  0
ARC
  5
5A8
330
18
100
AcDbEntity
  8
0
100
AcDbCircle
 10
7.908735000000001
 20
5.576614
 30
0.0
 40
0.010971
100
AcDbArc
 50
300.047865
 51
324.395186
  0
ARC
  5
5A9
330
18
100
AcDbEntity
  8
0
100
AcDbCircle
 10
7.905800999999999
 20
5.578715
 30
0.0
 40
0.014579
100
AcDbArc
 50
324.395186
 51
343.479621
  0
ARC
  5
5AA
330
18
100
AcDbEntity
  8
0
100
AcDbCircle
 10
7.901169
 20
5.580088
 30
0.0
 40
0.019411
100
AcDbArc
 50
343.479621
 51
0.0
  0
ARC
  5
5AB
330
18
100
AcDbEntity
  8
0
100
AcDbCircle
 10
7.901169
 20
5.580088
 30
0.0
 40
0.019411
100
AcDbArc
 50
0.0
 51
16.520379
  0
ARC
  5
5AC
330
18
100
AcDbEntity
  8
0
100
AcDbCircle
 10
7.905800999999999
 20
5.581462
 30
0.0
 40
0.014579
100
AcDbArc
 50
16.520379
 51
35.60481400000001
  0
ARC
  5
5AD
330
18
100
AcDbEntity
  8
0
100
AcDbCircle
 10
7.908735000000001
 20
5.583563
 30
0.0
 40
0.010971
100
AcDbArc
 50
35.60481400000001
 51
59.95213499999999
  0
ARC
  5
5AE
330
18
100
AcDbEntity
  8
0
100
AcDbCircle
 10
7.910593
 20
5.586775
 30
0.0
 40
0.00726
100
AcDbArc
 50
59.95213499999999
 51
90.0
  0
ARC
  5
5AF
330
18
100
AcDbEntity
  8
0
100
AcDbCircle
 10
7.779509
 20
5.019926
 30
0.0
 40
0.009681
100
AcDbArc
 50
180.0
 51
217.398605
  0
ARC
  5
5B0
330
18
100
AcDbEntity
  8
0
100
AcDbCircle
 10
7.789878999999999
 20
5.027853
 30
0.0
 40
0.022734
100
AcDbArc
 50
217.398605
 51
241.551334
  0
ARC
  5
5B1
330
18
100
AcDbEntity
  8
0
100
AcDbCircle
 10
7.796773
 20
5.040579
 30
0.0
 40
0.037207
100
AcDbArc
 50
241.551334
 51
257.351287
  0
ARC
  5
5B2
330
18
100
AcDbEntity
  8
0
100
AcDbCircle
 10
7.801310000000001
 20
5.060793
 30
0.0
 40
0.057924
100
AcDbArc
 50
257.351287
 51
270.0
  0
ARC
  5
5B3
330
18
100
AcDbEntity
  8
0
100
AcDbCircle
 10
7.801310000000001
 20
5.060793
 30
0.0
 40
0.057924
100
AcDbArc
 50
270.0
 51
282.648713
  0
ARC
  5
5B4
330
18
100
AcDbEntity
  8
0
100
AcDbCircle
 10
7.805846000000001
 20
5.040579
 30
0.0
 40
0.037207
100
AcDbArc
 50
282.648713
 51
298.448666
  0
ARC
  5
5B5
330
18
100
AcDbEntity
  8
0
100
AcDbCircle
 10
7.812741
 20
5.027853
 30
0.0
 40
0.022734
100
AcDbArc
 50
298.448666
 51
322.601395
  0
ARC
  5
5B6
330
18
100
AcDbEntity
  8
0
100
AcDbCircle
 10
7.823110000000001
 20
5.019926
 30
0.0
 40
0.009681
100
AcDbArc
 50
322.601395
 51
0.0
  0
ARC
  5
5B7
330
18
100
AcDbEntity
  8
0
100
AcDbCircle
 10
7.823110000000001
 20
5.019926
 30
0.0
 40
0.009681
100
AcDbArc
 50
0.0
 51
37.398605
  0
ARC
  5
5B8
330
18
100
AcDbEntity
  8
0
100
AcDbCircle
 10
7.812741
 20
5.011998
 30
0.0
 40
0.022734
100
AcDbArc
 50
37.398605
 51
61.551334
  0
ARC
  5
5B9
330
18
100
AcDbEntity
  8
0
100
AcDbCircle
 10
7.805846000000001
 20
4.999272
 30
0.0
 40
0.037207
100
AcDbArc
 50
61.551334
 51
77.351287
  0
ARC
  5
5BA
330
18
100
AcDbEntity
  8
0
100
AcDbCircle
 10
7.801310000000001
 20
4.979059
 30
0.0
 40
0.057924
100
AcDbArc
 50
77.351287
 51
90.0
  0
ARC
  5
5BB
330
18
100
AcDbEntity
  8
0
100
AcDbCircle
 10
7.801310000000001
 20
4.979059
 30
0.0
 40
0.057924
100
AcDbArc
 50
90.0
 51
102.648713
  0
ARC
  5
5BC
330
18
100
AcDbEntity
  8
0
100
AcDbCircle
 10
7.796773
 20
4.999272
 30
0.0
 40
0.037207
100
AcDbArc
 50
102.648713
 51
118.448666
  0
ARC
  5
5BD
330
18
100
AcDbEntity
  8
0
100
AcDbCircle
 10
7.789878999999999
 20
5.011998
 30
0.0
 40
0.022734
100
AcDbArc
 50
118.448666
 51
142.601395
  0
ARC
  5
5BE
330
18
100
AcDbEntity
  8
0
100
AcDbCircle
 10
7.779509
 20
5.019926
 30
0.0
 40
0.009681
100
AcDbArc
 50
142.601395
 51
180.0
  0
ARC
  5
5BF
330
18
100
AcDbEntity
  8
0
100
AcDbCircle
 10
7.779509
 20
4.988624
 30
0.0
 40
0.009681
100
AcDbArc
 50
180.0
 51
217.398605
  0
ARC
  5
5C0
330
18
100
AcDbEntity
  8
0
100
AcDbCircle
 10
7.789878999999999
 20
4.996551999999999
 30
0.0
 40
0.022734
100
AcDbArc
 50
217.398605
 51
241.551334
  0
ARC
  5
5C1
330
18
100
AcDbEntity
  8
0
100
AcDbCircle
 10
7.796773
 20
5.009278
 30
0.0
 40
0.037207
100
AcDbArc
 50
241.551334
 51
257.351287
  0
ARC
  5
5C2
330
18
100
AcDbEntity
  8
0
100
AcDbCircle
 10
7.801310000000001
 20
5.029491
 30
0.0
 40
0.057924
100
AcDbArc
 50
257.351287
 51
270.0
  0
ARC
  5
5C3
330
18
100
AcDbEntity
  8
0
100
AcDbCircle
 10
7.801310000000001
 20
5.029491
 30
0.0
 40
0.057924
100
AcDbArc
 50
270.0
 51
282.648713
  0
ARC
  5
5C4
330
18
100
AcDbEntity
  8
0
100
AcDbCircle
 10
7.805846000000001
 20
5.009278
 30
0.0
 40
0.037207
100
AcDbArc
 50
282.648713
 51
286.513276
  0
ARC
  5
5C5
330
18
100
AcDbEntity
  8
0
100
AcDbCircle
 10
7.795
 20
4.952564
 30
0.0
 40
0.049406
100
AcDbArc
 50
144.460702
 51
154.803505
  0
ARC
  5
5C6
330
18
100
AcDbEntity
  8
0
100
AcDbCircle
 10
7.789078999999999
 20
4.95535
 30
0.0
 40
0.042862
100
AcDbArc
 50
154.803505
 51
180.0
  0
ARC
  5
5C7
330
18
100
AcDbEntity
  8
0
100
AcDbCircle
 10
7.779509
 20
5.003932
 30
0.0
 40
0.009681
100
AcDbArc
 50
180.0
 51
217.398605
  0
ARC
  5
5C8
330
18
100
AcDbEntity
  8
0
100
AcDbCircle
 10
7.789878999999999
 20
5.01186
 30
0.0
 40
0.022734
100
AcDbArc
 50
217.398605
 51
241.551334
  0
ARC
  5
5C9
330
18
100
AcDbEntity
  8
0
100
AcDbCircle
 10
7.796773
 20
5.024586
 30
0.0
 40
0.037207
100
AcDbArc
 50
241.551334
 51
257.351287
  0
ARC
  5
5CA
330
18
100
AcDbEntity
  8
0
100
AcDbCircle
 10
7.801310000000001
 20
5.0448
 30
0.0
 40
0.057924
100
AcDbArc
 50
257.351287
 51
270.0
  0
ARC
  5
5CB
330
18
100
AcDbEntity
  8
0
100
AcDbCircle
 10
7.801310000000001
 20
5.0448
 30
0.0
 40
0.057924
100
AcDbArc
 50
270.0
 51
282.648713
  0
ARC
  5
5CC
330
18
100
AcDbEntity
  8
0
100
AcDbCircle
 10
7.805846000000001
 20
5.024586
 30
0.0
 40
0.037207
100
AcDbArc
 50
282.648713
 51
298.448666
  0
ARC
  5
5CD
330
18
100
AcDbEntity
  8
0
100
AcDbCircle
 10
7.812741
 20
5.01186
 30
0.0
 40
0.022734
100
AcDbArc
 50
298.448666
 51
322.601395
  0
ARC
  5
5CE
330
18
100
AcDbEntity
  8
0
100
AcDbCircle
 10
7.823110000000001
 20
5.003932
 30
0.0
 40
0.009681
100
AcDbArc
 50
322.601395
 51
0.0
  0
ARC
  5
5CF
330
18
100
AcDbEntity
  8
0
100
AcDbCircle
 10
6.270612
 20
4.948912
 30
0.0
 40
0.004332
100
AcDbArc
 50
108.68127
 51
142.97076
  0
ARC
  5
5D0
330
18
100
AcDbEntity
  8
0
100
AcDbCircle
 10
6.273865
 20
4.946458
 30
0.0
 40
0.008406
100
AcDbArc
 50
142.97076
 51
167.404527
  0
ARC
  5
5D1
330
18
100
AcDbEntity
  8
0
100
AcDbCircle
 10
6.278045
 20
4.945524
 30
0.0
 40
0.012689
100
AcDbArc
 50
167.404527
 51
184.55794
  0
ARC
  5
5D2
330
18
100
AcDbEntity
  8
0
100
AcDbCircle
 10
6.284009999999999
 20
4.946000000000001
 30
0.0
 40
0.018673
100
AcDbArc
 50
184.55794
 51
198.68127
  0
ARC
  5
5D3
330
18
100
AcDbEntity
  8
0
100
AcDbCircle
 10
6.284009999999999
 20
4.946000000000001
 30
0.0
 40
0.018673
100
AcDbArc
 50
198.68127
 51
212.8046
  0
ARC
  5
5D4
330
18
100
AcDbEntity
  8
0
100
AcDbCircle
 10
6.278980000000001
 20
4.942758
 30
0.0
 40
0.012689
100
AcDbArc
 50
212.8046
 51
229.958013
  0
ARC
  5
5D5
330
18
100
AcDbEntity
  8
0
100
AcDbCircle
 10
6.276225
 20
4.939478
 30
0.0
 40
0.008406
100
AcDbArc
 50
229.958013
 51
254.39178
  0
ARC
  5
5D6
330
18
100
AcDbEntity
  8
0
100
AcDbCircle
 10
6.275128
 20
4.935554
 30
0.0
 40
0.004332
100
AcDbArc
 50
254.39178
 51
288.68127
  0
ARC
  5
5D7
330
18
100
AcDbEntity
  8
0
100
AcDbCircle
 10
6.275128
 20
4.935554
 30
0.0
 40
0.004332
100
AcDbArc
 50
288.68127
 51
322.97076
  0
ARC
  5
5D8
330
18
100
AcDbEntity
  8
0
100
AcDbCircle
 10
6.271876
 20
4.938008
 30
0.0
 40
0.008406
100
AcDbArc
 50
322.97076
 51
347.404527
  0
ARC
  5
5D9
330
18
100
AcDbEntity
  8
0
100
AcDbCircle
 10
6.267695
 20
4.938942
 30
0.0
 40
0.012689
100
AcDbArc
 50
347.404527
 51
4.55794
  0
ARC
  5
5DA
330
18
100
AcDbEntity
  8
0
100
AcDbCircle
 10
6.26173
 20
4.938466
 30
0.0
 40
0.018673
100
AcDbArc
 50
4.55794
 51
18.68127
  0
ARC
  5
5DB
330
18
100
AcDbEntity
  8
0
100
AcDbCircle
 10
6.26173
 20
4.938466
 30
0.0
 40
0.018673
100
AcDbArc
 50
18.68127
 51
32.8046
  0
ARC
  5
5DC
330
18
100
AcDbEntity
  8
0
100
AcDbCircle
 10
6.26676
 20
4.941708
 30
0.0
 40
0.012689
100
AcDbArc
 50
32.8046
 51
49.958013
  0
ARC
  5
5DD
330
18
100
AcDbEntity
  8
0
100
AcDbCircle
 10
6.269516
 20
4.944988
 30
0.0
 40
0.008406
100
AcDbArc
 50
49.958013
 51
74.39178000000001
  0
ARC
  5
5DE
330
18
100
AcDbEntity
  8
0
100
AcDbCircle
 10
6.270612
 20
4.948912
 30
0.0
 40
0.004332
100
AcDbArc
 50
74.39178000000001
 51
108.68127
  0
ARC
  5
5DF
330
18
100
AcDbEntity
  8
0
100
AcDbCircle
 10
6.31516
 20
4.828485
 30
0.0
 40
0.004332
100
AcDbArc
 50
108.68127
 51
142.97076
  0
ARC
  5
5E0
330
18
100
AcDbEntity
  8
0
100
AcDbCircle
 10
6.318412
 20
4.826032
 30
0.0
 40
0.008406
100
AcDbArc
 50
142.97076
 51
167.404527
  0
ARC
  5
5E1
330
18
100
AcDbEntity
  8
0
100
AcDbCircle
 10
6.322593
 20
4.825097
 30
0.0
 40
0.012689
100
AcDbArc
 50
167.404527
 51
184.55794
  0
ARC
  5
5E2
330
18
100
AcDbEntity
  8
0
100
AcDbCircle
 10
6.328558
 20
4.825573
 30
0.0
 40
0.018673
100
AcDbArc
 50
184.55794
 51
198.68127
  0
ARC
  5
5E3
330
18
100
AcDbEntity
  8
0
100
AcDbCircle
 10
6.328558
 20
4.825573
 30
0.0
 40
0.018673
100
AcDbArc
 50
198.68127
 51
212.8046
  0
ARC
  5
5E4
330
18
100
AcDbEntity
  8
0
100
AcDbCircle
 10
6.323528
 20
4.822331
 30
0.0
 40
0.012689
100
AcDbArc
 50
212.8046
 51
229.958013
  0
ARC
  5
5E5
330
18
100
AcDbEntity
  8
0
100
AcDbCircle
 10
6.320772
 20
4.819052
 30
0.0
 40
0.008406
100
AcDbArc
 50
229.958013
 51
254.39178
  0
ARC
  5
5E6
330
18
100
AcDbEntity
  8
0
100
AcDbCircle
 10
6.319676
 20
4.815128
 30
0.0
 40
0.004332
100
AcDbArc
 50
254.39178
 51
288.68127
  0
ARC
  5
5E7
330
18
100
AcDbEntity
  8
0
100
AcDbCircle
 10
6.319676
 20
4.815128
 30
0.0
 40
0.004332
100
AcDbArc
 50
288.68127
 51
322.97076
  0
ARC
  5
5E8
330
18
100
AcDbEntity
  8
0
100
AcDbCircle
 10
6.316423
 20
4.817581
 30
0.0
 40
0.008406
100
AcDbArc
 50
322.97076
 51
347.404527
  0
ARC
  5
5E9
330
18
100
AcDbEntity
  8
0
100
AcDbCircle
 10
6.312243
 20
4.818515000000001
 30
0.0
 40
0.012689
100
AcDbArc
 50
347.404527
 51
4.55794
  0
ARC
  5
5EA
330
18
100
AcDbEntity
  8
0
100
AcDbCircle
 10
6.306278
 20
4.81804
 30
0.0
 40
0.018673
100
AcDbArc
 50
4.55794
 51
18.68127
  0
ARC
  5
5EB
330
18
100
AcDbEntity
  8
0
100
AcDbCircle
 10
6.306278
 20
4.81804
 30
0.0
 40
0.018673
100
AcDbArc
 50
18.68127
 51
32.8046
  0
ARC
  5
5EC
330
18
100
AcDbEntity
  8
0
100
AcDbCircle
 10
6.311308
 20
4.821282
 30
0.0
 40
0.012689
100
AcDbArc
 50
32.8046
 51
49.958013
  0
ARC
  5
5ED
330
18
100
AcDbEntity
  8
0
100
AcDbCircle
 10
6.314063
 20
4.824561
 30
0.0
 40
0.008406
100
AcDbArc
 50
49.958013
 51
74.39178000000001
  0
ARC
  5
5EE
330
18
100
AcDbEntity
  8
0
100
AcDbCircle
 10
6.31516
 20
4.828485
 30
0.0
 40
0.004332
100
AcDbArc
 50
74.39178000000001
 51
108.68127
  0
ARC
  5
5EF
330
18
100
AcDbEntity
  8
0
100
AcDbCircle
 10
6.270612
 20
4.691514
 30
0.0
 40
0.004332
100
AcDbArc
 50
108.68127
 51
142.97076
  0
ARC
  5
5F0
330
18
100
AcDbEntity
  8
0
100
AcDbCircle
 10
6.273865
 20
4.68906
 30
0.0
 40
0.008406
100
AcDbArc
 50
142.97076
 51
167.404527
  0
ARC
  5
5F1
330
18
100
AcDbEntity
  8
0
100
AcDbCircle
 10
6.278045
 20
4.688126000000001
 30
0.0
 40
0.012689
100
AcDbArc
 50
167.404527
 51
184.55794
  0
ARC
  5
5F2
330
18
100
AcDbEntity
  8
0
100
AcDbCircle
 10
6.284009999999999
 20
4.688602
 30
0.0
 40
0.018673
100
AcDbArc
 50
184.55794
 51
198.68127
  0
ARC
  5
5F3
330
18
100
AcDbEntity
  8
0
100
AcDbCircle
 10
6.284009999999999
 20
4.688602
 30
0.0
 40
0.018673
100
AcDbArc
 50
198.68127
 51
212.8046
  0
ARC
  5
5F4
330
18
100
AcDbEntity
  8
0
100
AcDbCircle
 10
6.278980000000001
 20
4.68536
 30
0.0
 40
0.012689
100
AcDbArc
 50
212.8046
 51
229.958013
  0
ARC
  5
5F5
330
18
100
AcDbEntity
  8
0
100
AcDbCircle
 10
6.276225
 20
4.68208
 30
0.0
 40
0.008406
100
AcDbArc
 50
229.958013
 51
254.39178
  0
ARC
  5
5F6
330
18
100
AcDbEntity
  8
0
100
AcDbCircle
 10
6.275128
 20
4.678156
 30
0.0
 40
0.004332
100
AcDbArc
 50
254.39178
 51
288.68127
  0
ARC
  5
5F7
330
18
100
AcDbEntity
  8
0
100
AcDbCircle
 10
6.275128
 20
4.678156
 30
0.0
 40
0.004332
100
AcDbArc
 50
288.68127
 51
322.97076
  0
ARC
  5
5F8
330
18
100
AcDbEntity
  8
0
100
AcDbCircle
 10
6.271876
 20
4.68061
 30
0.0
 40
0.008406
100
AcDbArc
 50
322.97076
 51
347.404527
  0
ARC
  5
5F9
330
18
100
AcDbEntity
  8
0
100
AcDbCircle
 10
6.267695
 20
4.681544000000001
 30
0.0
 40
0.012689
100
AcDbArc
 50
347.404527
 51
4.55794
  0
ARC
  5
5FA
330
18
100
AcDbEntity
  8
0
100
AcDbCircle
 10
6.26173
 20
4.681068
 30
0.0
 40
0.018673
100
AcDbArc
 50
4.55794
 51
18.68127
  0
ARC
  5
5FB
330
18
100
AcDbEntity
  8
0
100
AcDbCircle
 10
6.26173
 20
4.681068
 30
0.0
 40
0.018673
100
AcDbArc
 50
18.68127
 51
32.8046
  0
ARC
  5
5FC
330
18
100
AcDbEntity
  8
0
100
AcDbCircle
 10
6.26676
 20
4.68431
 30
0.0
 40
0.012689
100
AcDbArc
 50
32.8046
 51
49.958013
  0
ARC
  5
5FD
330
18
100
AcDbEntity
  8
0
100
AcDbCircle
 10
6.269516
 20
4.68759
 30
0.0
 40
0.008406
100
AcDbArc
 50
49.958013
 51
74.39178000000001
  0
ARC
  5
5FE
330
18
100
AcDbEntity
  8
0
100
AcDbCircle
 10
6.270612
 20
4.691514
 30
0.0
 40
0.004332
100
AcDbArc
 50
74.39178000000001
 51
108.68127
  0
LINE
  5
5FF
330
18
100
AcDbEntity
  8
0
100
AcDbLine
 10
7.203189
 20
3.761252
 30
0.0
 11
7.223378
 21
3.796182
 31
0.0
  0
LINE
  5
600
330
18
100
AcDbEntity
  8
0
100
AcDbLine
 10
7.223378
 20
3.796182
 30
0.0
 11
7.224761999999999
 21
3.826618
 31
0.0
  0
LINE
  5
601
330
18
100
AcDbEntity
  8
0
100
AcDbLine
 10
9.792682367211794
 20
4.356188157660538
 30
0.0
 11
9.756486000000001
 21
4.497166999999999
 31
0.0
  0
LINE
  5
602
330
18
100
AcDbEntity
  8
0
100
AcDbLine
 10
9.756486000000001
 20
4.497166999999999
 30
0.0
 11
9.78139
 21
4.564761
 31
0.0
  0
LINE
  5
603
330
18
100
AcDbEntity
  8
0
100
AcDbLine
 10
9.78139
 20
4.564761
 30
0.0
 11
9.795427
 21
4.648505
 31
0.0
  0
LINE
  5
604
330
18
100
AcDbEntity
  8
0
100
AcDbLine
 10
9.795427
 20
4.648505
 30
0.0
 11
9.788916
 21
4.697966999999999
 31
0.0
  0
LINE
  5
605
330
18
100
AcDbEntity
  8
0
100
AcDbLine
 10
9.788916
 20
4.697966999999999
 30
0.0
 11
9.785053
 21
4.759137999999999
 31
0.0
  0
LINE
  5
606
330
18
100
AcDbEntity
  8
0
100
AcDbLine
 10
9.785053
 20
4.759137999999999
 30
0.0
 11
9.787505000000001
 21
4.816737
 31
0.0
  0
LINE
  5
607
330
18
100
AcDbEntity
  8
0
100
AcDbLine
 10
9.787505000000001
 20
4.816737
 30
0.0
 11
9.810512999999999
 21
4.906818
 31
0.0
  0
LINE
  5
608
330
18
100
AcDbEntity
  8
0
100
AcDbLine
 10
9.810512999999999
 20
4.906818
 30
0.0
 11
9.823739999999999
 21
4.969862
 31
0.0
  0
LINE
  5
609
330
18
100
AcDbEntity
  8
0
100
AcDbLine
 10
9.823739999999999
 20
4.969862
 30
0.0
 11
9.817247999999999
 21
5.014825
 31
0.0
  0
LINE
  5
60A
330
18
100
AcDbEntity
  8
0
100
AcDbLine
 10
9.817247999999999
 20
5.014825
 30
0.0
 11
9.812578
 21
5.054397
 31
0.0
  0
LINE
  5
60B
330
18
100
AcDbEntity
  8
0
100
AcDbLine
 10
9.812578
 20
5.054397
 30
0.0
 11
9.814289000000001
 21
5.0751
 31
0.0
  0
LINE
  5
60C
330
18
100
AcDbEntity
  8
0
100
AcDbLine
 10
9.814289000000001
 20
5.0751
 30
0.0
 11
9.794955999999999
 21
5.176697
 31
0.0
  0
LINE
  5
60D
330
18
100
AcDbEntity
  8
0
 62
     0
100
AcDbLine
 10
2.57383620022747
 20
2.939155614605108
 30
0.0
 11
2.59553020022747
 21
2.965009614605108
 31
0.0
  0
LINE
  5
60E
330
18
100
AcDbEntity
  8
0
 62
     0
100
AcDbLine
 10
2.63627420022747
 20
2.600668614605108
 30
0.0
 11
2.65140520022747
 21
2.618701614605108
 31
0.0
  0
LINE
  5
60F
330
18
100
AcDbEntity
  8
0
 62
     0
100
AcDbLine
 10
2.63627420022747
 20
2.600668614605108
 30
0.0
 11
2.65580820022747
 21
2.598959614605108
 31
0.0
  0
LINE
  5
610
330
18
100
AcDbEntity
  8
0
 62
     0
100
AcDbLine
 10
2.57383620022747
 20
2.939155614605108
 30
0.0
 11
2.60073320022747
 21
2.936802614605108
 31
0.0
  0
LINE
  5
611
330
18
100
AcDbEntity
  8
0
 62
     0
100
AcDbLine
 10
2.60073520022747
 20
2.936801614605108
 30
0.0
 11
2.59553220022747
 21
2.965008614605108
 31
0.0
  0
LINE
  5
612
330
18
100
AcDbEntity
  8
0
 62
     0
100
AcDbLine
 10
2.46708520022747
 20
2.701531614605108
 30
0.0
 11
2.47675920022747
 21
2.711613614605108
 31
0.0
  0
LINE
  5
613
330
18
100
AcDbEntity
  8
0
 62
     0
100
AcDbLine
 10
2.38204820022747
 20
3.187921614605108
 30
0.0
 11
2.41709820022747
 21
3.224450614605108
 31
0.0
  0
LINE
  5
614
330
18
100
AcDbEntity
  8
0
 62
     0
100
AcDbLine
 10
2.48173220022747
 20
2.668876614605108
 30
0.0
 11
2.47676020022747
 21
2.711613614605108
 31
0.0
  0
LINE
  5
615
330
18
100
AcDbEntity
  8
0
 62
     0
100
AcDbLine
 10
2.42207220022747
 20
3.181713614605108
 30
0.0
 11
2.41710020022747
 21
3.224450614605108
 31
0.0
  0
LINE
  5
616
330
18
100
AcDbEntity
  8
0
 62
     0
100
AcDbLine
 10
2.48009520022747
 20
2.669131614605108
 30
0.0
 11
2.48173020022747
 21
2.668877614605108
 31
0.0
  0
LINE
  5
617
330
18
100
AcDbEntity
  8
0
 62
     0
100
AcDbLine
 10
2.38204820022747
 20
3.187921614605108
 30
0.0
 11
2.42207020022747
 21
3.181714614605108
 31
0.0
  0
LINE
  5
618
330
18
100
AcDbEntity
  8
0
 62
     0
100
AcDbLine
 10
2.53127820022747
 20
3.034426614605108
 30
0.0
 11
2.56278620022747
 21
3.046521614605108
 31
0.0
  0
LINE
  5
619
330
18
100
AcDbEntity
  8
0
 62
     0
100
AcDbLine
 10
2.37216120022747
 20
3.541922614605108
 30
0.0
 11
2.38811420022747
 21
3.548046614605108
 31
0.0
  0
LINE
  5
61A
330
18
100
AcDbEntity
  8
0
 62
     0
100
AcDbLine
 10
2.53127820022747
 20
3.034426614605108
 30
0.0
 11
2.55366220022747
 21
3.019328614605108
 31
0.0
  0
LINE
  5
61B
330
18
100
AcDbEntity
  8
0
 62
     0
100
AcDbLine
 10
2.37216120022747
 20
3.541922614605108
 30
0.0
 11
2.38949420022747
 21
3.530231614605108
 31
0.0
  0
LINE
  5
61C
330
18
100
AcDbEntity
  8
0
 62
     0
100
AcDbLine
 10
2.55366320022747
 20
3.019327614605108
 30
0.0
 11
2.56278820022747
 21
3.046520614605108
 31
0.0
  0
LINE
  5
61D
330
18
100
AcDbEntity
  8
0
 62
     0
100
AcDbLine
 10
2.48851020022747
 20
2.874167614605108
 30
0.0
 11
2.48851020022747
 21
2.874167614605108
 31
0.0
  0
LINE
  5
61E
330
18
100
AcDbEntity
  8
0
 62
     0
100
AcDbLine
 10
2.49398220022747
 20
3.023969614605108
 30
0.0
 11
2.49398220022747
 21
3.023969614605108
 31
0.0
  0
LINE
  5
61F
330
18
100
AcDbEntity
  8
0
 62
     0
100
AcDbLine
 10
2.49945420022747
 20
3.173772614605108
 30
0.0
 11
2.49945420022747
 21
3.173772614605108
 31
0.0
  0
LINE
  5
620
330
18
100
AcDbEntity
  8
0
 62
     0
100
AcDbLine
 10
2.48303820022747
 20
2.724365614605108
 30
0.0
 11
2.48303820022747
 21
2.724365614605108
 31
0.0
  0
LINE
  5
621
330
18
100
AcDbEntity
  8
0
 62
     0
100
AcDbLine
 10
2.46047720022747
 20
2.723012614605108
 30
0.0
 11
2.46047720022747
 21
2.723012614605108
 31
0.0
  0
LINE
  5
622
330
18
100
AcDbEntity
  8
0
 62
     0
100
AcDbLine
 10
2.57313020022747
 20
2.737843614605108
 30
0.0
 11
2.57313020022747
 21
2.737843614605108
 31
0.0
  0
LINE
  5
623
330
18
100
AcDbEntity
  8
0
 62
     0
100
AcDbLine
 10
2.57885820022747
 20
2.900497614605108
 30
0.0
 11
2.57885820022747
 21
2.900497614605108
 31
0.0
  0
LINE
  5
624
330
18
100
AcDbEntity
  8
0
 62
     0
100
AcDbLine
 10
2.41304220022747
 20
3.040567614605108
 30
0.0
 11
2.41304220022747
 21
3.040567614605108
 31
0.0
  0
LINE
  5
625
330
18
100
AcDbEntity
  8
0
 62
     0
100
AcDbLine
 10
2.36099420022747
 20
3.195615614605108
 30
0.0
 11
2.36099420022747
 21
3.195615614605108
 31
0.0
  0
LINE
  5
626
330
18
100
AcDbEntity
  8
0
 62
     0
100
AcDbLine
 10
2.36672220022747
 20
3.358269614605108
 30
0.0
 11
2.36672220022747
 21
3.358269614605108
 31
0.0
  0
LINE
  5
627
330
18
100
AcDbEntity
  8
0
 62
     0
100
AcDbLine
 10
2.62517820022747
 20
2.582795614605108
 30
0.0
 11
2.62517820022747
 21
2.582795614605108
 31
0.0
  0
LINE
  5
628
330
18
100
AcDbEntity
  8
0
 62
     0
100
AcDbLine
 10
2.67261320022747
 20
2.265240614605108
 30
0.0
 11
2.67261320022747
 21
2.265240614605108
 31
0.0
  0
LINE
  5
629
330
18
100
AcDbEntity
  8
0
 62
     0
100
AcDbLine
 10
2.50527920022747
 20
2.976138614605108
 30
0.0
 11
2.50527920022747
 21
2.976138614605108
 31
0.0
  0
LINE
  5
62A
330
18
100
AcDbEntity
  8
0
 62
     0
100
AcDbLine
 10
2.60016020022747
 20
2.915692614605108
 30
0.0
 11
2.60016020022747
 21
2.915692614605108
 31
0.0
  0
LINE
  5
62B
330
18
100
AcDbEntity
  8
0
 62
     0
100
AcDbLine
 10
2.28962820022747
 20
3.685072614605108
 30
0.0
 11
2.28962820022747
 21
3.685072614605108
 31
0.0
  0
LINE
  5
62C
330
18
100
AcDbEntity
  8
0
 62
     0
100
AcDbLine
 10
2.56834020022747
 20
2.507301614605108
 30
0.0
 11
2.56834020022747
 21
2.507301614605108
 31
0.0
  0
LINE
  5
62D
330
18
100
AcDbEntity
  8
0
 62
     0
100
AcDbLine
 10
2.66322120022747
 20
2.446855614605108
 30
0.0
 11
2.66322120022747
 21
2.446855614605108
 31
0.0
  0
LINE
  5
62E
330
18
100
AcDbEntity
  8
0
 62
     0
100
AcDbLine
 10
2.62820020022747
 20
2.572386614605108
 30
0.0
 11
2.62820020022747
 21
2.572386614605108
 31
0.0
  0
LINE
  5
62F
330
18
100
AcDbEntity
  8
0
 62
     0
100
AcDbLine
 10
2.47492020022747
 20
2.998364614605108
 30
0.0
 11
2.47492020022747
 21
2.998364614605108
 31
0.0
  0
LINE
  5
630
330
18
100
AcDbEntity
  8
0
 62
     0
100
AcDbLine
 10
2.38567320022747
 20
3.365668614605108
 30
0.0
 11
2.38567320022747
 21
3.365668614605108
 31
0.0
  0
LINE
  5
631
330
18
100
AcDbEntity
  8
0
 62
     0
100
AcDbLine
 10
2.64545320022747
 20
2.271053614605108
 30
0.0
 11
2.64545320022747
 21
2.271053614605108
 31
0.0
  0
LINE
  5
632
330
18
100
AcDbEntity
  8
0
100
AcDbLine
 10
2.58136920022747
 20
3.099635614605108
 30
0.0
 11
2.60335920022747
 21
3.007947614605108
 31
0.0
  0
LINE
  5
633
330
18
100
AcDbEntity
  8
0
100
AcDbLine
 10
2.60335920022747
 20
3.007947614605108
 30
0.0
 11
2.60632120022747
 21
2.946772614605108
 31
0.0
  0
LINE
  5
634
330
18
100
AcDbEntity
  8
0
100
AcDbLine
 10
2.60632120022747
 20
2.946772614605108
 30
0.0
 11
2.609230200227469
 21
2.898195614605108
 31
0.0
  0
LINE
  5
635
330
18
100
AcDbEntity
  8
0
100
AcDbLine
 10
2.609230200227469
 20
2.898195614605108
 30
0.0
 11
2.61124620022747
 21
2.847813614605108
 31
0.0
  0
LINE
  5
636
330
18
100
AcDbEntity
  8
0
100
AcDbLine
 10
2.61124620022747
 20
2.847813614605108
 30
0.0
 11
2.62681720022747
 21
2.783993614605108
 31
0.0
  0
LINE
  5
637
330
18
100
AcDbEntity
  8
0
100
AcDbLine
 10
2.62681720022747
 20
2.783993614605108
 30
0.0
 11
2.63439920022747
 21
2.694944614605108
 31
0.0
  0
LINE
  5
638
330
18
100
AcDbEntity
  8
0
100
AcDbLine
 10
2.63439920022747
 20
2.694944614605108
 30
0.0
 11
2.66467620022747
 21
2.559201614605108
 31
0.0
  0
LINE
  5
639
330
18
100
AcDbEntity
  8
0
100
AcDbLine
 10
2.66467620022747
 20
2.559201614605108
 30
0.0
 11
2.684160360345274
 21
2.06894695849237
 31
0.0
  0
LINE
  5
63A
330
18
100
AcDbEntity
  8
0
100
AcDbLine
 10
2.680934044143995
 20
2.068140779406149
 30
0.0
 11
2.63927620022747
 21
2.188366614605108
 31
0.0
  0
LINE
  5
63B
330
18
100
AcDbEntity
  8
0
100
AcDbLine
 10
2.63927620022747
 20
2.188366614605108
 30
0.0
 11
2.62628020022747
 21
2.280991614605108
 31
0.0
  0
LINE
  5
63C
330
18
100
AcDbEntity
  8
0
100
AcDbLine
 10
2.62628020022747
 20
2.280991614605108
 30
0.0
 11
2.58640720022747
 21
2.346507614605108
 31
0.0
  0
LINE
  5
63D
330
18
100
AcDbEntity
  8
0
100
AcDbLine
 10
2.58640720022747
 20
2.346507614605108
 30
0.0
 11
2.58584620022747
 21
2.476978614605108
 31
0.0
  0
LINE
  5
63E
330
18
100
AcDbEntity
  8
0
100
AcDbLine
 10
2.58584620022747
 20
2.476978614605108
 30
0.0
 11
2.54610720022747
 21
2.511001614605108
 31
0.0
  0
LINE
  5
63F
330
18
100
AcDbEntity
  8
0
100
AcDbLine
 10
2.54610720022747
 20
2.511001614605108
 30
0.0
 11
2.49815520022747
 21
2.571982614605108
 31
0.0
  0
LINE
  5
640
330
18
100
AcDbEntity
  8
0
100
AcDbLine
 10
2.49815520022747
 20
2.571982614605108
 30
0.0
 11
2.48155620022747
 21
2.665492614605108
 31
0.0
  0
LINE
  5
641
330
18
100
AcDbEntity
  8
0
100
AcDbLine
 10
2.48155620022747
 20
2.665492614605108
 30
0.0
 11
2.46063620022747
 21
2.717592614605108
 31
0.0
  0
LINE
  5
642
330
18
100
AcDbEntity
  8
0
100
AcDbLine
 10
2.46063620022747
 20
2.717592614605108
 30
0.0
 11
2.42068120022747
 21
2.802003614605108
 31
0.0
  0
LINE
  5
643
330
18
100
AcDbEntity
  8
0
100
AcDbLine
 10
2.42068120022747
 20
2.802003614605108
 30
0.0
 11
2.39158220022747
 21
2.872964614605108
 31
0.0
  0
LINE
  5
644
330
18
100
AcDbEntity
  8
0
100
AcDbLine
 10
2.39158220022747
 20
2.872964614605108
 30
0.0
 11
2.389171200227469
 21
3.015125614605108
 31
0.0
  0
LINE
  5
645
330
18
100
AcDbEntity
  8
0
100
AcDbLine
 10
2.389171200227469
 20
3.015125614605108
 30
0.0
 11
2.37796720022747
 21
3.109558614605108
 31
0.0
  0
LINE
  5
646
330
18
100
AcDbEntity
  8
0
100
AcDbLine
 10
2.37796720022747
 20
3.109558614605108
 30
0.0
 11
2.363392200227469
 21
3.150887614605108
 31
0.0
  0
LINE
  5
647
330
18
100
AcDbEntity
  8
0
100
AcDbLine
 10
2.363392200227469
 20
3.150887614605108
 30
0.0
 11
2.35666120022747
 21
3.251638614605108
 31
0.0
  0
LINE
  5
648
330
18
100
AcDbEntity
  8
0
100
AcDbLine
 10
2.35666120022747
 20
3.251638614605108
 30
0.0
 11
2.33298320022747
 21
3.317223614605108
 31
0.0
  0
LINE
  5
649
330
18
100
AcDbEntity
  8
0
100
AcDbLine
 10
2.33298320022747
 20
3.317223614605108
 30
0.0
 11
2.33823520022747
 21
3.351439614605108
 31
0.0
  0
LINE
  5
64A
330
18
100
AcDbEntity
  8
0
100
AcDbLine
 10
2.33823520022747
 20
3.351439614605108
 30
0.0
 11
2.29823820022747
 21
3.445748614605108
 31
0.0
  0
LINE
  5
64B
330
18
100
AcDbEntity
  8
0
100
AcDbLine
 10
2.29823820022747
 20
3.445748614605108
 30
0.0
 11
2.28542020022747
 21
3.496983614605108
 31
0.0
  0
LINE
  5
64C
330
18
100
AcDbEntity
  8
0
100
AcDbLine
 10
2.28542020022747
 20
3.496983614605108
 30
0.0
 11
2.29880120022747
 21
3.524035614605108
 31
0.0
  0
LINE
  5
64D
330
18
100
AcDbEntity
  8
0
100
AcDbLine
 10
2.29880120022747
 20
3.524035614605108
 30
0.0
 11
2.29491520022747
 21
3.590605614605108
 31
0.0
  0
LINE
  5
64E
330
18
100
AcDbEntity
  8
0
100
AcDbLine
 10
2.29491520022747
 20
3.590605614605108
 30
0.0
 11
2.27415020022747
 21
3.606712614605108
 31
0.0
  0
LINE
  5
64F
330
18
100
AcDbEntity
  8
0
100
AcDbLine
 10
2.27415020022747
 20
3.606712614605108
 30
0.0
 11
2.25556220022747
 21
3.744305614605108
 31
0.0
  0
ARC
  5
650
330
18
100
AcDbEntity
  8
0
100
AcDbCircle
 10
0.5072232002274699
 20
3.467228614605108
 30
0.0
 40
2.93786
100
AcDbArc
 50
357.629787
 51
357.937258
  0
ARC
  5
651
330
18
100
AcDbEntity
  8
0
100
AcDbCircle
 10
2.34305720022747
 20
3.401107614605108
 30
0.0
 40
1.100835
100
AcDbArc
 50
357.937258
 51
0.144488
  0
ARC
  5
652
330
18
100
AcDbEntity
  8
0
100
AcDbCircle
 10
-39.81331179977254
 20
3.294797614605108
 30
0.0
 40
43.257338
100
AcDbArc
 50
0.144488
 51
0.246321
  0
ARC
  5
653
330
18
100
AcDbEntity
  8
0
100
AcDbCircle
 10
3.40484620022747
 20
3.480598614605108
 30
0.0
 40
0.038781
100
AcDbArc
 50
0.246321
 51
3.647868
  0
ARC
  5
654
330
18
100
AcDbEntity
  8
0
100
AcDbCircle
 10
-0.65781379977253
 20
3.221589614605108
 30
0.0
 40
4.109687999999999
100
AcDbArc
 50
3.647868
 51
3.977718
  0
ARC
  5
655
330
18
100
AcDbEntity
  8
0
100
AcDbCircle
 10
-22.31266879977253
 20
1.715797614605108
 30
0.0
 40
25.816834
100
AcDbArc
 50
3.977718
 51
4.109322
  0
ARC
  5
656
330
18
100
AcDbEntity
  8
0
100
AcDbCircle
 10
-17.59831279977253
 20
2.054497614605108
 30
0.0
 40
21.090326
100
AcDbArc
 50
4.109322
 51
4.191507
  0
ARC
  5
657
330
18
100
AcDbEntity
  8
0
100
AcDbCircle
 10
-7.75019079977253
 20
2.776230614605108
 30
0.0
 40
11.215794
100
AcDbArc
 50
4.191507
 51
4.304206
  0
ARC
  5
658
330
18
100
AcDbEntity
  8
0
100
AcDbCircle
 10
3.13696120022747
 20
3.595643614605108
 30
0.0
 40
0.297848
100
AcDbArc
 50
4.304206
 51
11.469249
  0
ARC
  5
659
330
18
100
AcDbEntity
  8
0
100
AcDbCircle
 10
3.80555920022747
 20
3.725839614605108
 30
0.0
 40
0.383324
100
AcDbArc
 50
185.103776
 51
190.66968
  0
ARC
  5
65A
330
18
100
AcDbEntity
  8
0
100
AcDbCircle
 10
4.570652200227469
 20
3.794172614605108
 30
0.0
 40
1.151463
100
AcDbArc
 50
183.108726
 51
185.103776
  0
ARC
  5
65B
330
18
100
AcDbEntity
  8
0
100
AcDbCircle
 10
5.210038200227469
 20
3.828898614605108
 30
0.0
 40
1.791791
100
AcDbArc
 50
181.5094370000001
 51
183.108726
  0
ARC
  5
65C
330
18
100
AcDbEntity
  8
0
100
AcDbCircle
 10
4.94330420022747
 20
3.821869614605108
 30
0.0
 40
1.524965
100
AcDbArc
 50
180.920358
 51
181.5094370000001
  0
ARC
  5
65D
330
18
100
AcDbEntity
  8
0
100
AcDbCircle
 10
26.35619720022747
 20
4.165860614605108
 30
0.0
 40
22.94062
100
AcDbArc
 50
180.857955
 51
180.920358
  0
ARC
  5
65E
330
18
100
AcDbEntity
  8
0
100
AcDbCircle
 10
4.050174200227469
 20
3.302806614605108
 30
0.0
 40
0.665758
100
AcDbArc
 50
173.865661
 51
177.722596
  0
ARC
  5
65F
330
18
100
AcDbEntity
  8
0
100
AcDbCircle
 10
4.12326020022747
 20
3.294951614605108
 30
0.0
 40
0.739264
100
AcDbArc
 50
169.713084
 51
173.865661
  0
ARC
  5
660
330
18
100
AcDbEntity
  8
0
100
AcDbCircle
 10
3.36056020022747
 20
3.433377614605108
 30
0.0
 40
0.035895
100
AcDbArc
 50
349.713084
 51
8.640103999999999
  0
ARC
  5
661
330
18
100
AcDbEntity
  8
0
100
AcDbCircle
 10
3.094628200227469
 20
3.392969614605108
 30
0.0
 40
0.304879
100
AcDbArc
 50
8.640103999999999
 51
12.553643
  0
ARC
  5
662
330
18
100
AcDbEntity
  8
0
100
AcDbCircle
 10
4.52343020022747
 20
3.711130614605108
 30
0.0
 40
1.158917
100
AcDbArc
 50
190.546652
 51
192.553643
  0
ARC
  5
663
330
18
100
AcDbEntity
  8
0
100
AcDbCircle
 10
19.26143920022747
 20
6.455073614605109
 30
0.0
 40
16.150185
100
AcDbArc
 50
190.370993
 51
190.546652
  0
ARC
  5
664
330
18
100
AcDbEntity
  8
0
100
AcDbCircle
 10
3.39327420022747
 20
3.551023614605108
 30
0.0
 40
0.018473
100
AcDbArc
 50
185.175361
 51
190.370993
  0
ARC
  5
665
330
18
100
AcDbEntity
  8
0
100
AcDbCircle
 10
6.78084420022747
 20
3.857847614605108
 30
0.0
 40
3.41991
100
AcDbArc
 50
184.517472
 51
185.175361
  0
ARC
  5
666
330
18
100
AcDbEntity
  8
0
100
AcDbCircle
 10
-32.93760379977253
 20
0.5295996146051079
 30
0.0
 40
36.437784
100
AcDbArc
 50
4.815543
 51
4.87729
  0
ARC
  5
667
330
18
100
AcDbEntity
  8
0
100
AcDbCircle
 10
-208.7677607997725
 20
-14.47415938539489
 30
0.0
 40
212.906922
100
AcDbArc
 50
4.87729
 51
4.886279
  0
ARC
  5
668
330
18
100
AcDbEntity
  8
0
100
AcDbCircle
 10
113.5314602002275
 20
13.08693861460511
 30
0.0
 40
110.568582
100
AcDbArc
 50
184.87313
 51
184.890439
  0
ARC
  5
669
330
18
100
AcDbEntity
  8
0
100
AcDbCircle
 10
3.98233220022747
 20
3.747016614605108
 30
0.0
 40
0.622024
100
AcDbArc
 50
183.937707
 51
184.87313
  0
ARC
  5
66A
330
18
100
AcDbEntity
  8
0
100
AcDbCircle
 10
15.95621720022747
 20
4.571230614605108
 30
0.0
 40
12.624242
100
AcDbArc
 50
183.73007
 51
183.937707
  0
ARC
  5
66B
330
18
100
AcDbEntity
  8
0
100
AcDbCircle
 10
3.56338420022747
 20
3.763290614605108
 30
0.0
 40
0.205101
100
AcDbArc
 50
179.364917
 51
183.73007
  0
ARC
  5
66C
330
18
100
AcDbEntity
  8
0
100
AcDbCircle
 10
4.904027200227469
 20
3.748430614605108
 30
0.0
 40
1.545827
100
AcDbArc
 50
177.777093
 51
179.364917
  0
ARC
  5
66D
330
18
100
AcDbEntity
  8
0
100
AcDbCircle
 10
3.12646720022747
 20
3.355793614605108
 30
0.0
 40
0.224761
100
AcDbArc
 50
350.513597
 51
4.821915
  0
ARC
  5
66E
330
18
100
AcDbEntity
  8
0
100
AcDbCircle
 10
-2.991447799772531
 20
2.839701614605108
 30
0.0
 40
6.364405000000001
100
AcDbArc
 50
4.821915
 51
5.288772
  0
ARC
  5
66F
330
18
100
AcDbEntity
  8
0
100
AcDbCircle
 10
3.13006620022747
 20
3.406367614605108
 30
0.0
 40
0.21672
100
AcDbArc
 50
5.288772
 51
7.818928
  0
ARC
  5
670
330
18
100
AcDbEntity
  8
0
100
AcDbCircle
 10
2.36310620022747
 20
3.301048614605108
 30
0.0
 40
0.990877
100
AcDbArc
 50
7.818928
 51
11.0452
  0
ARC
  5
671
330
18
100
AcDbEntity
  8
0
100
AcDbCircle
 10
4.03098020022747
 20
3.626616614605108
 30
0.0
 40
0.708476
100
AcDbArc
 50
187.229526
 51
191.0452
  0
ARC
  5
672
330
18
100
AcDbEntity
  8
0
100
AcDbCircle
 10
3.55326820022747
 20
3.566017614605108
 30
0.0
 40
0.226935
100
AcDbArc
 50
182.958305
 51
187.229526
  0
ARC
  5
673
330
18
100
AcDbEntity
  8
0
100
AcDbCircle
 10
22.17807020022747
 20
4.528511614605108
 30
0.0
 40
18.87659
100
AcDbArc
 50
182.490094
 51
182.958305
  0
ARC
  5
674
330
18
100
AcDbEntity
  8
0
100
AcDbCircle
 10
4.156657200227469
 20
3.744801614605108
 30
0.0
 40
0.838144
100
AcDbArc
 50
177.978367
 51
182.490094
  0
ARC
  5
675
330
18
100
AcDbEntity
  8
0
100
AcDbCircle
 10
5.90801920022747
 20
3.682980614605108
 30
0.0
 40
2.590597
100
AcDbArc
 50
177.432264
 51
177.978367
  0
LINE
  5
676
330
18
100
AcDbEntity
  8
0
100
AcDbLine
 10
2.25556220022747
 20
3.744305614605108
 30
0.0
 11
2.33254120022747
 21
3.629459614605108
 31
0.0
  0
LINE
  5
677
330
18
100
AcDbEntity
  8
0
100
AcDbLine
 10
2.33254120022747
 20
3.629459614605108
 30
0.0
 11
2.36069020022747
 21
3.570192614605108
 31
0.0
  0
LINE
  5
678
330
18
100
AcDbEntity
  8
0
100
AcDbLine
 10
2.36069020022747
 20
3.570192614605108
 30
0.0
 11
2.38680720022747
 21
3.564905614605108
 31
0.0
  0
LINE
  5
679
330
18
100
AcDbEntity
  8
0
100
AcDbLine
 10
2.38680720022747
 20
3.564905614605108
 30
0.0
 11
2.39252320022747
 21
3.491144614605108
 31
0.0
  0
LINE
  5
67A
330
18
100
AcDbEntity
  8
0
100
AcDbLine
 10
2.39252320022747
 20
3.491144614605108
 30
0.0
 11
2.41972320022747
 21
3.443571614605108
 31
0.0
  0
LINE
  5
67B
330
18
100
AcDbEntity
  8
0
100
AcDbLine
 10
2.41972320022747
 20
3.443571614605108
 30
0.0
 11
2.45228620022747
 21
3.404119614605108
 31
0.0
  0
LINE
  5
67C
330
18
100
AcDbEntity
  8
0
100
AcDbLine
 10
2.45228620022747
 20
3.404119614605108
 30
0.0
 11
2.45439120022747
 21
3.333042614605108
 31
0.0
  0
LINE
  5
67D
330
18
100
AcDbEntity
  8
0
100
AcDbLine
 10
2.45439120022747
 20
3.333042614605108
 30
0.0
 11
2.47883320022747
 21
3.298954614605108
 31
0.0
  0
LINE
  5
67E
330
18
100
AcDbEntity
  8
0
100
AcDbLine
 10
2.47883320022747
 20
3.298954614605108
 30
0.0
 11
2.49879520022747
 21
3.260347614605108
 31
0.0
  0
LINE
  5
67F
330
18
100
AcDbEntity
  8
0
100
AcDbLine
 10
2.49879520022747
 20
3.260347614605108
 30
0.0
 11
2.52874720022747
 21
3.200188614605108
 31
0.0
  0
LINE
  5
680
330
18
100
AcDbEntity
  8
0
100
AcDbLine
 10
2.52874720022747
 20
3.200188614605108
 30
0.0
 11
2.56140320022747
 21
3.139141614605108
 31
0.0
  0
LINE
  5
681
330
18
100
AcDbEntity
  8
0
100
AcDbLine
 10
2.56140320022747
 20
3.139141614605108
 30
0.0
 11
2.58136920022747
 21
3.099635614605108
 31
0.0
  0
ARC
  5
682
330
18
100
AcDbEntity
  8
0
  6
Continuous
100
AcDbCircle
 10
3.07248820022747
 20
3.704410614605108
 30
0.0
 40
0.024493
100
AcDbArc
 50
180.0
 51
205.196495
  0
ARC
  5
683
330
18
100
AcDbEntity
  8
0
  6
Continuous
100
AcDbCircle
 10
3.07587120022747
 20
3.706002614605108
 30
0.0
 40
0.028232
100
AcDbArc
 50
205.196495
 51
228.639683
  0
ARC
  5
684
330
18
100
AcDbEntity
  8
0
  6
Continuous
100
AcDbCircle
 10
3.07805720022747
 20
3.708485614605108
 30
0.0
 40
0.03154
100
AcDbArc
 50
228.639683
 51
249.964664
  0
ARC
  5
685
330
18
100
AcDbEntity
  8
0
  6
Continuous
100
AcDbCircle
 10
3.07947620022747
 20
3.712377614605108
 30
0.0
 40
0.035683
100
AcDbArc
 50
249.964664
 51
270.0
  0
ARC
  5
686
330
18
100
AcDbEntity
  8
0
  6
Continuous
100
AcDbCircle
 10
3.07947620022747
 20
3.712377614605108
 30
0.0
 40
0.035683
100
AcDbArc
 50
270.0
 51
290.035336
  0
ARC
  5
687
330
18
100
AcDbEntity
  8
0
  6
Continuous
100
AcDbCircle
 10
3.08089620022747
 20
3.708485614605108
 30
0.0
 40
0.03154
100
AcDbArc
 50
290.035336
 51
311.360317
  0
ARC
  5
688
330
18
100
AcDbEntity
  8
0
  6
Continuous
100
AcDbCircle
 10
3.08308220022747
 20
3.706002614605108
 30
0.0
 40
0.028232
100
AcDbArc
 50
311.360317
 51
334.803505
  0
ARC
  5
689
330
18
100
AcDbEntity
  8
0
  6
Continuous
100
AcDbCircle
 10
3.08646520022747
 20
3.704410614605108
 30
0.0
 40
0.024493
100
AcDbArc
 50
334.803505
 51
0.0
  0
ARC
  5
68A
330
18
100
AcDbEntity
  8
0
100
AcDbCircle
 10
2.582663200227469
 20
3.428437614605108
 30
0.0
 40
0.922227
100
AcDbArc
 50
355.92312
 51
357.819247
  0
ARC
  5
68B
330
18
100
AcDbEntity
  8
0
100
AcDbCircle
 10
-12.41020679977253
 20
3.999361614605108
 30
0.0
 40
15.925963
100
AcDbArc
 50
357.819247
 51
358.144667
  0
ARC
  5
68C
330
18
100
AcDbEntity
  8
0
100
AcDbCircle
 10
3.39216820022747
 20
3.487475614605108
 30
0.0
 40
0.115299
100
AcDbArc
 50
358.144667
 51
1.96995
  0
ARC
  5
68D
330
18
100
AcDbEntity
  8
0
100
AcDbCircle
 10
3.23098220022747
 20
3.481931614605108
 30
0.0
 40
0.276581
100
AcDbArc
 50
1.96995
 51
9.816880000000001
  0
ARC
  5
68E
330
18
100
AcDbEntity
  8
0
100
AcDbCircle
 10
3.83506820022747
 20
3.586458614605108
 30
0.0
 40
0.336482
100
AcDbArc
 50
182.703614
 51
189.81688
  0
ARC
  5
68F
330
18
100
AcDbEntity
  8
0
100
AcDbCircle
 10
5.58660420022747
 20
3.669169614605108
 30
0.0
 40
2.089969
100
AcDbArc
 50
181.505366
 51
182.703614
  0
ARC
  5
690
330
18
100
AcDbEntity
  8
0
100
AcDbCircle
 10
5.093274200227469
 20
3.656204614605108
 30
0.0
 40
1.59647
100
AcDbArc
 50
180.134362
 51
181.505366
  0
ARC
  5
691
330
18
100
AcDbEntity
  8
0
100
AcDbCircle
 10
3.82826520022747
 20
3.653238614605108
 30
0.0
 40
0.331457
100
AcDbArc
 50
178.77752
 51
180.134362
  0
ARC
  5
692
330
18
100
AcDbEntity
  8
0
100
AcDbCircle
 10
7.49261420022747
 20
3.575042614605108
 30
0.0
 40
3.99664
100
AcDbArc
 50
178.386782
 51
178.77752
  0
ARC
  5
693
330
18
100
AcDbEntity
  8
0
100
AcDbCircle
 10
3.64086820022747
 20
3.683521614605108
 30
0.0
 40
0.143367
100
AcDbArc
 50
163.192107
 51
178.386782
  0
ARC
  5
694
330
18
100
AcDbEntity
  8
0
100
AcDbCircle
 10
2.92111120022747
 20
3.900936614605108
 30
0.0
 40
0.60851
100
AcDbArc
 50
343.192107
 51
350.550912
  0
ARC
  5
695
330
18
100
AcDbEntity
  8
0
100
AcDbCircle
 10
3.31969320022747
 20
3.834601614605108
 30
0.0
 40
0.204446
100
AcDbArc
 50
350.550912
 51
3.602646
  0
ARC
  5
696
330
18
100
AcDbEntity
  8
0
100
AcDbCircle
 10
2.36242720022747
 20
3.474901614605108
 30
0.0
 40
1.19709
100
AcDbArc
 50
355.35828
 51
356.492839
  0
ARC
  5
697
330
18
100
AcDbEntity
  8
0
100
AcDbCircle
 10
-91.19425879977253
 20
9.208809614605109
 30
0.0
 40
94.929322
100
AcDbArc
 50
356.492839
 51
356.531032
  0
ARC
  5
698
330
18
100
AcDbEntity
  8
0
100
AcDbCircle
 10
2.66536720022747
 20
3.519132614605108
 30
0.0
 40
0.8974030000000001
100
AcDbArc
 50
356.531032
 51
356.923848
  0
ARC
  5
699
330
18
100
AcDbEntity
  8
0
100
AcDbCircle
 10
1.88467820022747
 20
3.561087614605108
 30
0.0
 40
1.679218
100
AcDbArc
 50
356.923848
 51
358.304835
  0
ARC
  5
69A
330
18
100
AcDbEntity
  8
0
100
AcDbCircle
 10
3.39895820022747
 20
3.516272614605108
 30
0.0
 40
0.164275
100
AcDbArc
 50
358.304835
 51
2.721096
  0
ARC
  5
69B
330
18
100
AcDbEntity
  8
0
100
AcDbCircle
 10
3.39905920022747
 20
3.516277614605108
 30
0.0
 40
0.164174
100
AcDbArc
 50
2.721096
 51
6.255326999999999
  0
ARC
  5
69C
330
18
100
AcDbEntity
  8
0
100
AcDbCircle
 10
0.8268922002274697
 20
3.234337614605108
 30
0.0
 40
2.751746
100
AcDbArc
 50
6.255326999999999
 51
7.118460000000001
  0
ARC
  5
69D
330
18
100
AcDbEntity
  8
0
100
AcDbCircle
 10
2.24473420022747
 20
3.411402614605108
 30
0.0
 40
1.322891
100
AcDbArc
 50
7.118460000000001
 51
8.3173
  0
ARC
  5
69E
330
18
100
AcDbEntity
  8
0
100
AcDbCircle
 10
5.18185020022747
 20
3.837382614605108
 30
0.0
 40
1.644956
100
AcDbArc
 50
187.235824
 51
188.199937
  0
ARC
  5
69F
330
18
100
AcDbEntity
  8
0
100
AcDbCircle
 10
3.84965720022747
 20
3.668240614605108
 30
0.0
 40
0.302068
100
AcDbArc
 50
182.583627
 51
187.235824
  0
ARC
  5
6A0
330
18
100
AcDbEntity
  8
0
100
AcDbCircle
 10
3.74174920022747
 20
3.663371614605108
 30
0.0
 40
0.19405
100
AcDbArc
 50
176.778393
 51
182.583627
  0
ARC
  5
6A1
330
18
100
AcDbEntity
  8
0
100
AcDbCircle
 10
3.60160520022747
 20
3.671259614605108
 30
0.0
 40
0.053685
100
AcDbArc
 50
156.044629
 51
176.778393
  0
ARC
  5
6A2
330
18
100
AcDbEntity
  8
0
100
AcDbCircle
 10
3.45376320022747
 20
3.736945614605108
 30
0.0
 40
0.108092
100
AcDbArc
 50
336.044629
 51
350.616188
  0
ARC
  5
6A3
330
18
100
AcDbEntity
  8
0
100
AcDbCircle
 10
3.08300320022747
 20
3.798216614605108
 30
0.0
 40
0.4838810000000001
100
AcDbArc
 50
350.616188
 51
354.753997
  0
ARC
  5
6A4
330
18
100
AcDbEntity
  8
0
100
AcDbCircle
 10
3.50651620022747
 20
3.759330614605108
 30
0.0
 40
0.058587
100
AcDbArc
 50
354.753997
 51
6.664459
  0
ARC
  5
6A5
330
18
100
AcDbEntity
  8
0
100
AcDbCircle
 10
0.5597992002274697
 20
3.415024614605108
 30
0.0
 40
3.02535
100
AcDbArc
 50
6.664459
 51
7.247856
  0
ARC
  5
6A6
330
18
100
AcDbEntity
  8
0
100
AcDbCircle
 10
8.891683200227469
 20
4.462612614605108
 30
0.0
 40
5.372139
100
AcDbArc
 50
186.791887
 51
187.120429
  0
ARC
  5
6A7
330
18
100
AcDbEntity
  8
0
100
AcDbCircle
 10
38.55669020022747
 20
7.995690614605108
 30
0.0
 40
35.24679699999999
100
AcDbArc
 50
186.7471100000001
 51
186.791887
  0
ARC
  5
6A8
330
18
100
AcDbEntity
  8
0
100
AcDbCircle
 10
4.41349120022747
 20
3.355501614605108
 30
0.0
 40
0.8065899999999999
100
AcDbArc
 50
174.779427
 51
177.339793
  0
ARC
  5
6A9
330
18
100
AcDbEntity
  8
0
100
AcDbCircle
 10
5.37551920022747
 20
3.267601614605108
 30
0.0
 40
1.772625
100
AcDbArc
 50
173.318183
 51
174.779427
  0
ARC
  5
6AA
330
18
100
AcDbEntity
  8
0
100
AcDbCircle
 10
3.54420820022747
 20
3.482142614605108
 30
0.0
 40
0.07121
100
AcDbArc
 50
353.318183
 51
0.6134500000000001
  0
ARC
  5
6AB
330
18
100
AcDbEntity
  8
0
100
AcDbCircle
 10
3.15512020022747
 20
3.477976614605108
 30
0.0
 40
0.460321
100
AcDbArc
 50
0.6134500000000001
 51
2.930096
  0
ARC
  5
6AC
330
18
100
AcDbEntity
  8
0
100
AcDbCircle
 10
1.59132220022747
 20
3.397934614605108
 30
0.0
 40
2.026165
100
AcDbArc
 50
2.930096
 51
4.03425
  0
ARC
  5
6AD
330
18
100
AcDbEntity
  8
0
100
AcDbCircle
 10
2.01078120022747
 20
3.427517614605108
 30
0.0
 40
1.605665
100
AcDbArc
 50
4.03425
 51
5.759176999999999
  0
ARC
  5
6AE
330
18
100
AcDbEntity
  8
0
100
AcDbCircle
 10
3.96859620022747
 20
3.624976614605108
 30
0.0
 40
0.362082
100
AcDbArc
 50
182.126299
 51
185.759177
  0
ARC
  5
6AF
330
18
100
AcDbEntity
  8
0
100
AcDbCircle
 10
4.44204120022747
 20
3.642554614605108
 30
0.0
 40
0.8358540000000001
100
AcDbArc
 50
180.244725
 51
182.126299
  0
ARC
  5
6B0
330
18
100
AcDbEntity
  8
0
100
AcDbCircle
 10
0.8745392002274697
 20
3.596181614605108
 30
0.0
 40
2.731991
100
AcDbArc
 50
0.897689
 51
1.473335
  0
ARC
  5
6B1
330
18
100
AcDbEntity
  8
0
100
AcDbCircle
 10
2.04055020022747
 20
3.626171614605108
 30
0.0
 40
1.565595
100
AcDbArc
 50
1.473335
 51
2.54409
  0
ARC
  5
6B2
330
18
100
AcDbEntity
  8
0
100
AcDbCircle
 10
4.197494200227469
 20
3.731098614605108
 30
0.0
 40
0.59395
100
AcDbArc
 50
180.597387
 51
183.420037
  0
ARC
  5
6B3
330
18
100
AcDbEntity
  8
0
100
AcDbCircle
 10
3.72050420022747
 20
3.726124614605108
 30
0.0
 40
0.116934
100
AcDbArc
 50
171.525423
 51
180.597387
  0
ARC
  5
6B4
330
18
100
AcDbEntity
  8
0
100
AcDbCircle
 10
3.46624220022747
 20
3.762169614605108
 30
0.0
 40
0.139876
100
AcDbArc
 50
352.270594
 51
359.852216
  0
ARC
  5
6B5
330
18
100
AcDbEntity
  8
0
100
AcDbCircle
 10
2.33065020022747
 20
3.765098614605108
 30
0.0
 40
1.275471
100
AcDbArc
 50
359.852216
 51
0.6404260000000001
  0
ARC
  5
6B6
330
18
100
AcDbEntity
  8
0
100
AcDbCircle
 10
8.349275200227469
 20
3.808520614605108
 30
0.0
 40
4.743323
100
AcDbArc
 50
180.140348
 51
180.352294
  0
ARC
  5
6B7
330
18
100
AcDbEntity
  8
0
100
AcDbCircle
 10
5.25959320022747
 20
3.800952614605108
 30
0.0
 40
1.653632
100
AcDbArc
 50
179.390138
 51
180.140348
  0
ARC
  5
6B8
330
18
100
AcDbEntity
  8
0
100
AcDbCircle
 10
-8.07046079977253
 20
3.942843614605108
 30
0.0
 40
11.677177
100
AcDbArc
 50
359.390138
 51
359.628388
  0
ARC
  5
6B9
330
18
100
AcDbEntity
  8
0
100
AcDbCircle
 10
3.20740620022747
 20
3.965283614605108
 30
0.0
 40
0.004584
100
AcDbArc
 50
77.44205500000001
 51
109.365192
  0
ARC
  5
6BA
330
18
100
AcDbEntity
  8
0
100
AcDbCircle
 10
3.20844720022747
 20
3.962319614605108
 30
0.0
 40
0.007725
100
AcDbArc
 50
109.365192
 51
133.82358
  0
ARC
  5
6BB
330
18
100
AcDbEntity
  8
0
100
AcDbCircle
 10
3.21063920022747
 20
3.960036614605108
 30
0.0
 40
0.01089
100
AcDbArc
 50
133.82358
 51
152.044744
  0
ARC
  5
6BC
330
18
100
AcDbEntity
  8
0
100
AcDbCircle
 10
3.21445820022747
 20
3.958009614605108
 30
0.0
 40
0.015214
100
AcDbArc
 50
152.044744
 51
167.442055
  0
ARC
  5
6BD
330
18
100
AcDbEntity
  8
0
100
AcDbCircle
 10
3.21445820022747
 20
3.958009614605108
 30
0.0
 40
0.015214
100
AcDbArc
 50
167.442055
 51
182.839366
  0
ARC
  5
6BE
330
18
100
AcDbEntity
  8
0
100
AcDbCircle
 10
3.21013920022747
 20
3.957795614605108
 30
0.0
 40
0.01089
100
AcDbArc
 50
182.839366
 51
201.060531
  0
ARC
  5
6BF
330
18
100
AcDbEntity
  8
0
100
AcDbCircle
 10
3.20718620022747
 20
3.956657614605108
 30
0.0
 40
0.007725
100
AcDbArc
 50
201.060531
 51
225.518918
  0
ARC
  5
6C0
330
18
100
AcDbEntity
  8
0
100
AcDbCircle
 10
3.20498520022747
 20
3.954416614605108
 30
0.0
 40
0.004584
100
AcDbArc
 50
225.518918
 51
257.442055
  0
ARC
  5
6C1
330
18
100
AcDbEntity
  8
0
100
AcDbCircle
 10
3.20498520022747
 20
3.954416614605108
 30
0.0
 40
0.004584
100
AcDbArc
 50
257.442055
 51
289.365192
  0
ARC
  5
6C2
330
18
100
AcDbEntity
  8
0
100
AcDbCircle
 10
3.20394320022747
 20
3.957380614605108
 30
0.0
 40
0.007725
100
AcDbArc
 50
289.365192
 51
313.82358
  0
ARC
  5
6C3
330
18
100
AcDbEntity
  8
0
100
AcDbCircle
 10
3.20175220022747
 20
3.959663614605108
 30
0.0
 40
0.01089
100
AcDbArc
 50
313.82358
 51
332.044744
  0
ARC
  5
6C4
330
18
100
AcDbEntity
  8
0
100
AcDbCircle
 10
3.19793320022747
 20
3.961690614605108
 30
0.0
 40
0.015214
100
AcDbArc
 50
332.044744
 51
347.442055
  0
ARC
  5
6C5
330
18
100
AcDbEntity
  8
0
100
AcDbCircle
 10
3.19793320022747
 20
3.961690614605108
 30
0.0
 40
0.015214
100
AcDbArc
 50
347.442055
 51
2.839366000000001
  0
ARC
  5
6C6
330
18
100
AcDbEntity
  8
0
100
AcDbCircle
 10
3.20225120022747
 20
3.961904614605108
 30
0.0
 40
0.01089
100
AcDbArc
 50
2.839366000000001
 51
21.060531
  0
ARC
  5
6C7
330
18
100
AcDbEntity
  8
0
100
AcDbCircle
 10
3.20520420022747
 20
3.963041614605108
 30
0.0
 40
0.007725
100
AcDbArc
 50
21.060531
 51
45.518918
  0
ARC
  5
6C8
330
18
100
AcDbEntity
  8
0
100
AcDbCircle
 10
3.20740620022747
 20
3.965283614605108
 30
0.0
 40
0.004584
100
AcDbArc
 50
45.518918
 51
77.44205500000001
  0
ARC
  5
6C9
330
18
100
AcDbEntity
  8
0
100
AcDbCircle
 10
3.16774520022747
 20
3.981309614605108
 30
0.0
 40
0.004584
100
AcDbArc
 50
77.44205500000001
 51
109.365192
  0
ARC
  5
6CA
330
18
100
AcDbEntity
  8
0
100
AcDbCircle
 10
3.16878620022747
 20
3.978345614605108
 30
0.0
 40
0.007725
100
AcDbArc
 50
109.365192
 51
133.82358
  0
ARC
  5
6CB
330
18
100
AcDbEntity
  8
0
100
AcDbCircle
 10
3.17097820022747
 20
3.976062614605108
 30
0.0
 40
0.01089
100
AcDbArc
 50
133.82358
 51
152.044744
  0
ARC
  5
6CC
330
18
100
AcDbEntity
  8
0
100
AcDbCircle
 10
3.17479720022747
 20
3.974035614605108
 30
0.0
 40
0.015214
100
AcDbArc
 50
152.044744
 51
167.442055
  0
ARC
  5
6CD
330
18
100
AcDbEntity
  8
0
100
AcDbCircle
 10
3.17479720022747
 20
3.974035614605108
 30
0.0
 40
0.015214
100
AcDbArc
 50
167.442055
 51
182.839366
  0
ARC
  5
6CE
330
18
100
AcDbEntity
  8
0
100
AcDbCircle
 10
3.170478200227469
 20
3.973821614605108
 30
0.0
 40
0.01089
100
AcDbArc
 50
182.839366
 51
201.060531
  0
ARC
  5
6CF
330
18
100
AcDbEntity
  8
0
100
AcDbCircle
 10
3.16752520022747
 20
3.972684614605108
 30
0.0
 40
0.007725
100
AcDbArc
 50
201.060531
 51
225.518918
  0
ARC
  5
6D0
330
18
100
AcDbEntity
  8
0
100
AcDbCircle
 10
3.165324200227469
 20
3.970442614605108
 30
0.0
 40
0.004584
100
AcDbArc
 50
225.518918
 51
257.442055
  0
ARC
  5
6D1
330
18
100
AcDbEntity
  8
0
100
AcDbCircle
 10
3.165324200227469
 20
3.970442614605108
 30
0.0
 40
0.004584
100
AcDbArc
 50
257.442055
 51
289.365192
  0
ARC
  5
6D2
330
18
100
AcDbEntity
  8
0
100
AcDbCircle
 10
3.16428220022747
 20
3.973406614605108
 30
0.0
 40
0.007725
100
AcDbArc
 50
289.365192
 51
313.82358
  0
ARC
  5
6D3
330
18
100
AcDbEntity
  8
0
100
AcDbCircle
 10
3.16209120022747
 20
3.975689614605108
 30
0.0
 40
0.01089
100
AcDbArc
 50
313.82358
 51
332.044744
  0
ARC
  5
6D4
330
18
100
AcDbEntity
  8
0
100
AcDbCircle
 10
3.15827220022747
 20
3.977716614605108
 30
0.0
 40
0.015214
100
AcDbArc
 50
332.044744
 51
347.442055
  0
ARC
  5
6D5
330
18
100
AcDbEntity
  8
0
100
AcDbCircle
 10
3.15827220022747
 20
3.977716614605108
 30
0.0
 40
0.015214
100
AcDbArc
 50
347.442055
 51
2.839366000000001
  0
ARC
  5
6D6
330
18
100
AcDbEntity
  8
0
100
AcDbCircle
 10
3.16259020022747
 20
3.977930614605108
 30
0.0
 40
0.01089
100
AcDbArc
 50
2.839366000000001
 51
21.060531
  0
ARC
  5
6D7
330
18
100
AcDbEntity
  8
0
100
AcDbCircle
 10
3.16554320022747
 20
3.979068614605108
 30
0.0
 40
0.007725
100
AcDbArc
 50
21.060531
 51
45.518918
  0
ARC
  5
6D8
330
18
100
AcDbEntity
  8
0
100
AcDbCircle
 10
3.16774520022747
 20
3.981309614605108
 30
0.0
 40
0.004584
100
AcDbArc
 50
45.518918
 51
77.44205500000001
  0
ARC
  5
6D9
330
18
100
AcDbEntity
  8
0
  6
Continuous
100
AcDbCircle
 10
3.07248820022747
 20
3.785410614605108
 30
0.0
 40
0.024493
100
AcDbArc
 50
180.0
 51
205.196495
  0
ARC
  5
6DA
330
18
100
AcDbEntity
  8
0
  6
Continuous
100
AcDbCircle
 10
3.07587120022747
 20
3.787002614605108
 30
0.0
 40
0.028232
100
AcDbArc
 50
205.196495
 51
228.639683
  0
ARC
  5
6DB
330
18
100
AcDbEntity
  8
0
  6
Continuous
100
AcDbCircle
 10
3.07805720022747
 20
3.789485614605108
 30
0.0
 40
0.03154
100
AcDbArc
 50
228.639683
 51
249.964664
  0
ARC
  5
6DC
330
18
100
AcDbEntity
  8
0
  6
Continuous
100
AcDbCircle
 10
3.07947620022747
 20
3.793377614605108
 30
0.0
 40
0.035683
100
AcDbArc
 50
249.964664
 51
270.0
  0
ARC
  5
6DD
330
18
100
AcDbEntity
  8
0
  6
Continuous
100
AcDbCircle
 10
3.07947620022747
 20
3.793377614605108
 30
0.0
 40
0.035683
100
AcDbArc
 50
270.0
 51
290.035336
  0
ARC
  5
6DE
330
18
100
AcDbEntity
  8
0
  6
Continuous
100
AcDbCircle
 10
3.08089620022747
 20
3.789485614605108
 30
0.0
 40
0.03154
100
AcDbArc
 50
290.035336
 51
311.360317
  0
ARC
  5
6DF
330
18
100
AcDbEntity
  8
0
  6
Continuous
100
AcDbCircle
 10
3.08308220022747
 20
3.787002614605108
 30
0.0
 40
0.028232
100
AcDbArc
 50
311.360317
 51
334.803505
  0
ARC
  5
6E0
330
18
100
AcDbEntity
  8
0
  6
Continuous
100
AcDbCircle
 10
3.08646520022747
 20
3.785410614605108
 30
0.0
 40
0.024493
100
AcDbArc
 50
334.803505
 51
0.0
  0
ARC
  5
6E1
330
18
100
AcDbEntity
  8
0
100
AcDbCircle
 10
3.07805720022747
 20
3.843485614605108
 30
0.0
 40
0.03154
100
AcDbArc
 50
238.209517
 51
249.964664
  0
ARC
  5
6E2
330
18
100
AcDbEntity
  8
0
100
AcDbCircle
 10
3.07947620022747
 20
3.847377614605108
 30
0.0
 40
0.035683
100
AcDbArc
 50
249.964664
 51
270.0
  0
ARC
  5
6E3
330
18
100
AcDbEntity
  8
0
100
AcDbCircle
 10
3.07947620022747
 20
3.847377614605108
 30
0.0
 40
0.035683
100
AcDbArc
 50
270.0
 51
290.035336
  0
ARC
  5
6E4
330
18
100
AcDbEntity
  8
0
100
AcDbCircle
 10
3.08089620022747
 20
3.843485614605108
 30
0.0
 40
0.03154
100
AcDbArc
 50
290.035336
 51
311.360317
  0
ARC
  5
6E5
330
18
100
AcDbEntity
  8
0
100
AcDbCircle
 10
3.08308220022747
 20
3.841002614605108
 30
0.0
 40
0.028232
100
AcDbArc
 50
311.360317
 51
328.514974
  0
ARC
  5
6E6
330
18
100
AcDbEntity
  8
0
100
AcDbCircle
 10
3.07248820022747
 20
3.812410614605108
 30
0.0
 40
0.024493
100
AcDbArc
 50
180.0
 51
205.196495
  0
ARC
  5
6E7
330
18
100
AcDbEntity
  8
0
100
AcDbCircle
 10
3.07587120022747
 20
3.814002614605108
 30
0.0
 40
0.028232
100
AcDbArc
 50
205.196495
 51
228.639683
  0
ARC
  5
6E8
330
18
100
AcDbEntity
  8
0
100
AcDbCircle
 10
3.07805720022747
 20
3.816485614605108
 30
0.0
 40
0.03154
100
AcDbArc
 50
228.639683
 51
249.964664
  0
ARC
  5
6E9
330
18
100
AcDbEntity
  8
0
100
AcDbCircle
 10
3.07947620022747
 20
3.820377614605108
 30
0.0
 40
0.035683
100
AcDbArc
 50
249.964664
 51
270.0
  0
ARC
  5
6EA
330
18
100
AcDbEntity
  8
0
100
AcDbCircle
 10
3.07947620022747
 20
3.820377614605108
 30
0.0
 40
0.035683
100
AcDbArc
 50
270.0
 51
290.035336
  0
ARC
  5
6EB
330
18
100
AcDbEntity
  8
0
100
AcDbCircle
 10
3.08089620022747
 20
3.816485614605108
 30
0.0
 40
0.03154
100
AcDbArc
 50
290.035336
 51
311.360317
  0
ARC
  5
6EC
330
18
100
AcDbEntity
  8
0
100
AcDbCircle
 10
3.08308220022747
 20
3.814002614605108
 30
0.0
 40
0.028232
100
AcDbArc
 50
311.360317
 51
334.803505
  0
ARC
  5
6ED
330
18
100
AcDbEntity
  8
0
100
AcDbCircle
 10
3.08646520022747
 20
3.812410614605108
 30
0.0
 40
0.024493
100
AcDbArc
 50
334.803505
 51
0.0
  0
ARC
  5
6EE
330
18
100
AcDbEntity
  8
0
  6
Continuous
100
AcDbCircle
 10
3.07248820022747
 20
3.758410614605108
 30
0.0
 40
0.024493
100
AcDbArc
 50
180.0
 51
205.196495
  0
ARC
  5
6EF
330
18
100
AcDbEntity
  8
0
  6
Continuous
100
AcDbCircle
 10
3.07587120022747
 20
3.760002614605108
 30
0.0
 40
0.028232
100
AcDbArc
 50
205.196495
 51
228.639683
  0
ARC
  5
6F0
330
18
100
AcDbEntity
  8
0
  6
Continuous
100
AcDbCircle
 10
3.07805720022747
 20
3.762485614605108
 30
0.0
 40
0.03154
100
AcDbArc
 50
228.639683
 51
249.964664
  0
ARC
  5
6F1
330
18
100
AcDbEntity
  8
0
  6
Continuous
100
AcDbCircle
 10
3.07947620022747
 20
3.766377614605108
 30
0.0
 40
0.035683
100
AcDbArc
 50
249.964664
 51
270.0
  0
ARC
  5
6F2
330
18
100
AcDbEntity
  8
0
  6
Continuous
100
AcDbCircle
 10
3.07947620022747
 20
3.766377614605108
 30
0.0
 40
0.035683
100
AcDbArc
 50
270.0
 51
290.035336
  0
ARC
  5
6F3
330
18
100
AcDbEntity
  8
0
  6
Continuous
100
AcDbCircle
 10
3.08089620022747
 20
3.762485614605108
 30
0.0
 40
0.03154
100
AcDbArc
 50
290.035336
 51
311.360317
  0
ARC
  5
6F4
330
18
100
AcDbEntity
  8
0
  6
Continuous
100
AcDbCircle
 10
3.08308220022747
 20
3.760002614605108
 30
0.0
 40
0.028232
100
AcDbArc
 50
311.360317
 51
334.803505
  0
ARC
  5
6F5
330
18
100
AcDbEntity
  8
0
  6
Continuous
100
AcDbCircle
 10
3.08646520022747
 20
3.758410614605108
 30
0.0
 40
0.024493
100
AcDbArc
 50
334.803505
 51
0.0
  0
ARC
  5
6F6
330
18
100
AcDbEntity
  8
0
  6
Continuous
100
AcDbCircle
 10
3.07248820022747
 20
3.731410614605108
 30
0.0
 40
0.024493
100
AcDbArc
 50
180.0
 51
205.196495
  0
ARC
  5
6F7
330
18
100
AcDbEntity
  8
0
  6
Continuous
100
AcDbCircle
 10
3.07587120022747
 20
3.733002614605108
 30
0.0
 40
0.028232
100
AcDbArc
 50
205.196495
 51
228.639683
  0
ARC
  5
6F8
330
18
100
AcDbEntity
  8
0
  6
Continuous
100
AcDbCircle
 10
3.07805720022747
 20
3.735485614605108
 30
0.0
 40
0.03154
100
AcDbArc
 50
228.639683
 51
249.964664
  0
ARC
  5
6F9
330
18
100
AcDbEntity
  8
0
  6
Continuous
100
AcDbCircle
 10
3.07947620022747
 20
3.739377614605108
 30
0.0
 40
0.035683
100
AcDbArc
 50
249.964664
 51
270.0
  0
ARC
  5
6FA
330
18
100
AcDbEntity
  8
0
  6
Continuous
100
AcDbCircle
 10
3.07947620022747
 20
3.739377614605108
 30
0.0
 40
0.035683
100
AcDbArc
 50
270.0
 51
290.035336
  0
ARC
  5
6FB
330
18
100
AcDbEntity
  8
0
  6
Continuous
100
AcDbCircle
 10
3.08089620022747
 20
3.735485614605108
 30
0.0
 40
0.03154
100
AcDbArc
 50
290.035336
 51
311.360317
  0
ARC
  5
6FC
330
18
100
AcDbEntity
  8
0
  6
Continuous
100
AcDbCircle
 10
3.08308220022747
 20
3.733002614605108
 30
0.0
 40
0.028232
100
AcDbArc
 50
311.360317
 51
334.803505
  0
ARC
  5
6FD
330
18
100
AcDbEntity
  8
0
  6
Continuous
100
AcDbCircle
 10
3.08646520022747
 20
3.731410614605108
 30
0.0
 40
0.024493
100
AcDbArc
 50
334.803505
 51
0.0
  0
ARC
  5
6FE
330
18
100
AcDbEntity
  8
0
100
AcDbCircle
 10
3.07248820022747
 20
3.677410614605108
 30
0.0
 40
0.024493
100
AcDbArc
 50
180.0
 51
205.196495
  0
ARC
  5
6FF
330
18
100
AcDbEntity
  8
0
100
AcDbCircle
 10
3.07587120022747
 20
3.679002614605108
 30
0.0
 40
0.028232
100
AcDbArc
 50
205.196495
 51
228.639683
  0
ARC
  5
700
330
18
100
AcDbEntity
  8
0
100
AcDbCircle
 10
3.07805720022747
 20
3.681485614605108
 30
0.0
 40
0.03154
100
AcDbArc
 50
228.639683
 51
249.964664
  0
ARC
  5
701
330
18
100
AcDbEntity
  8
0
100
AcDbCircle
 10
3.07947620022747
 20
3.685377614605108
 30
0.0
 40
0.035683
100
AcDbArc
 50
249.964664
 51
270.0
  0
ARC
  5
702
330
18
100
AcDbEntity
  8
0
100
AcDbCircle
 10
3.07947620022747
 20
3.685377614605108
 30
0.0
 40
0.035683
100
AcDbArc
 50
270.0
 51
290.035336
  0
ARC
  5
703
330
18
100
AcDbEntity
  8
0
100
AcDbCircle
 10
3.08089620022747
 20
3.681485614605108
 30
0.0
 40
0.03154
100
AcDbArc
 50
290.035336
 51
311.360317
  0
ARC
  5
704
330
18
100
AcDbEntity
  8
0
100
AcDbCircle
 10
3.08308220022747
 20
3.679002614605108
 30
0.0
 40
0.028232
100
AcDbArc
 50
311.360317
 51
334.803505
  0
ARC
  5
705
330
18
100
AcDbEntity
  8
0
100
AcDbCircle
 10
3.08646520022747
 20
3.677410614605108
 30
0.0
 40
0.024493
100
AcDbArc
 50
334.803505
 51
0.0
  0
ARC
  5
706
330
18
100
AcDbEntity
  8
0
100
AcDbCircle
 10
3.07248820022747
 20
3.650410614605108
 30
0.0
 40
0.024493
100
AcDbArc
 50
180.0
 51
205.196495
  0
ARC
  5
707
330
18
100
AcDbEntity
  8
0
100
AcDbCircle
 10
3.07587120022747
 20
3.652002614605108
 30
0.0
 40
0.028232
100
AcDbArc
 50
205.196495
 51
228.639683
  0
ARC
  5
708
330
18
100
AcDbEntity
  8
0
100
AcDbCircle
 10
3.07805720022747
 20
3.654485614605108
 30
0.0
 40
0.03154
100
AcDbArc
 50
228.639683
 51
249.964664
  0
ARC
  5
709
330
18
100
AcDbEntity
  8
0
100
AcDbCircle
 10
3.07947620022747
 20
3.658377614605108
 30
0.0
 40
0.035683
100
AcDbArc
 50
249.964664
 51
270.0
  0
ARC
  5
70A
330
18
100
AcDbEntity
  8
0
100
AcDbCircle
 10
3.07947620022747
 20
3.658377614605108
 30
0.0
 40
0.035683
100
AcDbArc
 50
270.0
 51
290.035336
  0
ARC
  5
70B
330
18
100
AcDbEntity
  8
0
100
AcDbCircle
 10
3.08089620022747
 20
3.654485614605108
 30
0.0
 40
0.03154
100
AcDbArc
 50
290.035336
 51
311.360317
  0
ARC
  5
70C
330
18
100
AcDbEntity
  8
0
100
AcDbCircle
 10
3.08308220022747
 20
3.652002614605108
 30
0.0
 40
0.028232
100
AcDbArc
 50
311.360317
 51
334.803505
  0
ARC
  5
70D
330
18
100
AcDbEntity
  8
0
100
AcDbCircle
 10
3.08646520022747
 20
3.650410614605108
 30
0.0
 40
0.024493
100
AcDbArc
 50
334.803505
 51
0.0
  0
LINE
  5
70E
330
18
100
AcDbEntity
  8
0
100
AcDbLine
 10
7.148385
 20
3.528334
 30
0.0
 11
7.148385
 21
3.571281
 31
0.0
  0
LINE
  5
70F
330
18
100
AcDbEntity
  8
0
100
AcDbLine
 10
7.148385
 20
3.571281
 30
0.0
 11
7.149686999999999
 21
3.586901
 31
0.0
  0
TEXT
  5
710
330
18
100
AcDbEntity
  8
0
100
AcDbText
 10
3.002517771656041
 20
1.696127614605108
 30
0.0
 40
0.15
  1
HGT-2
 72
     1
 11
3.38108920022747
 21
1.696127614605108
 31
0.0
100
AcDbText
  0
TEXT
  5
711
330
18
100
AcDbEntity
  8
0
100
AcDbText
 10
4.612062285714286
 20
2.274313
 30
0.0
 40
0.15
  1
HETA20
 72
     1
 11
5.026348000000001
 21
2.274313
 31
0.0
100
AcDbText
  0
TEXT
  5
712
330
18
100
AcDbEntity
  8
0
100
AcDbText
 10
5.953688571428572
 20
2.696205
 30
0.0
 40
0.15
  1
ETA20 (3)
 72
     1
 11
6.53226
 21
2.696205
 31
0.0
100
AcDbText
  0
TEXT
  5
713
330
18
100
AcDbEntity
  8
0
100
AcDbText
 10
7.433303428571429
 20
3.184341
 30
0.0
 40
0.15
  1
MTT28B
 72
     1
 11
7.854732
 21
3.184341
 31
0.0
100
AcDbText
  0
TEXT
  5
714
330
18
100
AcDbEntity
  8
0
100
AcDbText
 10
4.151348000000001
 20
2.025722
 30
0.0
 40
0.15
  1
(ETA20 similar)
 72
     1
 11
5.026348000000001
 21
2.025722
 31
0.0
100
AcDbText
  0
TEXT
  5
715
330
18
100
AcDbEntity
  8
0
100
AcDbText
 10
7.407066
 20
1.499802
 30
0.0
 40
0.17
  1
Simpson Strong-Tie
100
AcDbText
  0
TEXT
  5
716
330
18
100
AcDbEntity
  8
0
100
AcDbText
 10
7.407066
 20
1.208374
 30
0.0
 40
0.17
  1
Girder/Truss to Concrete
100
AcDbText
  0
ENDSEC
  0
SECTION
  2
OBJECTS
  0
DICTIONARY
  5
C
330
0
100
AcDbDictionary
281
     1
  3
ACAD_COLOR
350
71C
  3
ACAD_GROUP
350
D
  3
ACAD_LAYOUT
350
15
  3
ACAD_MATERIAL
350
71E
  3
ACAD_MLINESTYLE
350
12
  3
ACAD_PLOTSETTINGS
350
14
  3
ACAD_PLOTSTYLENAME
350
E
  3
ACDBHEADERROUNDTRIPXREC
350
71B
  0
DICTIONARY
  5
71C
102
{ACAD_REACTORS
330
C
102
}
330
C
100
AcDbDictionary
281
     1
  0
DICTIONARY
  5
D
102
{ACAD_REACTORS
330
C
102
}
330
C
100
AcDbDictionary
281
     1
  0
DICTIONARY
  5
15
102
{ACAD_REACTORS
330
C
102
}
330
C
100
AcDbDictionary
281
     1
  3
Layout1
350
17
  3
Model
350
19
  0
DICTIONARY
  5
71E
102
{ACAD_REACTORS
330
C
102
}
330
C
100
AcDbDictionary
281
     1
  0
DICTIONARY
  5
12
102
{ACAD_REACTORS
330
C
102
}
330
C
100
AcDbDictionary
281
     1
  3
Standard
350
13
  0
DICTIONARY
  5
14
102
{ACAD_REACTORS
330
C
102
}
330
C
100
AcDbDictionary
281
     1
  0
ACDBDICTIONARYWDFLT
  5
E
102
{ACAD_REACTORS
330
C
102
}
330
C
100
AcDbDictionary
281
     1
  3
Normal
350
F
100
AcDbDictionaryWithDefault
340
F
  0
DICTIONARY
  5
71B
102
{ACAD_REACTORS
330
C
102
}
330
C
100
AcDbDictionary
281
     1
  3
COLORDICT
350
71D
  3
MATERIALDICT
350
71F
  0
LAYOUT
  5
17
102
{ACAD_REACTORS
330
15
102
}
102
{ACAD_XDICTIONARY
360
720
102
}
330
15
100
AcDbPlotSettings
  1

  2

  4

  6

 40
0.0
 41
0.0
 42
0.0
 43
0.0
 44
0.0
 45
0.0
 46
0.0
 47
0.0
 48
0.0
 49
0.0
140
0.0
141
0.0
142
1.0
143
1.0
 70
   688
 72
     0
 73
     0
 74
     5
  7

 75
    16
147
1.0
148
0.0
149
0.0
100
AcDbLayout
  1
Layout1
 70
     1
 71
     1
 10
0.0
 20
0.0
 11
12.0
 21
9.0
 12
0.0
 22
0.0
 32
0.0
 14
1.000000000000000E+20
 24
1.000000000000000E+20
 34
1.000000000000000E+20
 15
-1.000000000000000E+20
 25
-1.000000000000000E+20
 35
-1.000000000000000E+20
146
0.0
 13
0.0
 23
0.0
 33
0.0
 16
1.0
 26
0.0
 36
0.0
 17
0.0
 27
1.0
 37
0.0
 76
     0
330
16
  0
LAYOUT
  5
19
102
{ACAD_REACTORS
330
15
102
}
102
{ACAD_XDICTIONARY
360
722
102
}
330
15
100
AcDbPlotSettings
  1

  2

  4

  6

 40
0.0
 41
0.0
 42
0.0
 43
0.0
 44
0.0
 45
0.0
 46
0.0
 47
0.0
 48
0.0
 49
0.0
140
0.0
141
0.0
142
1.0
143
1.0
 70
  1712
 72
     0
 73
     0
 74
     0
  7

 75
     0
147
1.0
148
0.0
149
0.0
100
AcDbLayout
  1
Model
 70
     1
 71
     0
 10
0.0
 20
0.0
 11
0.0
 21
0.0
 12
0.0
 22
0.0
 32
0.0
 14
0.0
 24
0.0
 34
0.0
 15
0.0
 25
0.0
 35
0.0
146
0.0
 13
0.0
 23
0.0
 33
0.0
 16
1.0
 26
0.0
 36
0.0
 17
0.0
 27
1.0
 37
0.0
 76
     0
330
18
  0
MLINESTYLE
  5
13
102
{ACAD_REACTORS
330
12
102
}
330
12
100
AcDbMlineStyle
  2
Standard
 70
     0
  3

 62
   256
 51
90.0
 52
90.0
 71
     2
 49
0.5
 62
   256
  6
BYLAYER
 49
-0.5
 62
   256
  6
BYLAYER
  0
ACDBPLACEHOLDER
  5
F
102
{ACAD_REACTORS
330
E
102
}
330
E
  0
XRECORD
  5
71D
102
{ACAD_REACTORS
330
71B
102
}
330
71B
100
AcDbXrecord
340
71C
  0
XRECORD
  5
71F
102
{ACAD_REACTORS
330
71B
102
}
330
71B
100
AcDbXrecord
340
71E
  0
DICTIONARY
  5
720
330
17
100
AcDbDictionary
280
     1
281
     1
  3
ACAD_XREC_ROUNDTRIP
360
721
  0
DICTIONARY
  5
722
330
19
100
AcDbDictionary
280
     1
281
     1
  3
ACAD_XREC_ROUNDTRIP
360
723
  0
XRECORD
  5
721
102
{ACAD_REACTORS
330
720
102
}
330
720
100
AcDbXrecord
102
SHADEPLOT
 70
     0
102
SHADEPLOTRESLEVEL
 70
     0
102
SHADEPLOTCUSTOMDPI
 70
     0
  0
XRECORD
  5
723
102
{ACAD_REACTORS
330
722
102
}
330
722
100
AcDbXrecord
102
SHADEPLOT
 70
 31552
102
SHADEPLOTRESLEVEL
 70
 30752
102
SHADEPLOTCUSTOMDPI
 70
 31608
  0
ENDSEC
  0
EOF
