  0
SECTION
  2
HEADER
  9
$ACADVER
  1
AC1015
  9
$ACADMAINTVER
 70
     6
  9
$DWGCODEPAGE
  3
ISO8859-1
  9
$INSBASE
 10
0.0
 20
0.0
 30
0.0
  9
$EXTMIN
 10
0.650362
 20
0.539755
 30
0.0
  9
$EXTMAX
 10
6.223362
 20
7.048162
 30
0.0
  9
$LIMMIN
 10
0.0
 20
0.0
  9
$LIMMAX
 10
12.0
 20
9.0
  9
$ORTHOMODE
 70
     1
  9
$REGENMODE
 70
     1
  9
$FILLMODE
 70
     1
  9
$QTEXTMODE
 70
     0
  9
$MIRRTEXT
 70
     1
  9
$LTSCALE
 40
1.0
  9
$ATTMODE
 70
     1
  9
$TEXTSIZE
 40
0.2
  9
$TRACEWID
 40
0.05
  9
$TEXTSTYLE
  7
STANDARD
  9
$CLAYER
  8
0
  9
$CELTYPE
  6
ByLayer
  9
$CECOLOR
 62
   256
  9
$CELTSCALE
 40
1.0
  9
$DISPSILH
 70
     0
  9
$DIMSCALE
 40
1.0
  9
$DIMASZ
 40
0.18
  9
$DIMEXO
 40
0.0625
  9
$DIMDLI
 40
0.38
  9
$DIMRND
 40
0.0
  9
$DIMDLE
 40
0.0
  9
$DIMEXE
 40
0.18
  9
$DIMTP
 40
0.0
  9
$DIMTM
 40
0.0
  9
$DIMTXT
 40
0.18
  9
$DIMCEN
 40
0.09
  9
$DIMTSZ
 40
0.0
  9
$DIMTOL
 70
     0
  9
$DIMLIM
 70
     0
  9
$DIMTIH
 70
     1
  9
$DIMTOH
 70
     1
  9
$DIMSE1
 70
     0
  9
$DIMSE2
 70
     0
  9
$DIMTAD
 70
     0
  9
$DIMZIN
 70
     0
  9
$DIMBLK
  1

  9
$DIMASO
 70
     1
  9
$DIMSHO
 70
     0
  9
$DIMPOST
  1

  9
$DIMAPOST
  1

  9
$DIMALT
 70
     0
  9
$DIMALTD
 70
     2
  9
$DIMALTF
 40
25.4
  9
$DIMLFAC
 40
1.0
  9
$DIMTOFL
 70
     0
  9
$DIMTVP
 40
0.0
  9
$DIMTIX
 70
     0
  9
$DIMSOXD
 70
     0
  9
$DIMSAH
 70
     0
  9
$DIMBLK1
  1

  9
$DIMBLK2
  1

  9
$DIMSTYLE
  2
Standard
  9
$DIMCLRD
 70
     0
  9
$DIMCLRE
 70
     0
  9
$DIMCLRT
 70
     0
  9
$DIMTFAC
 40
1.0
  9
$DIMGAP
 40
0.09
  9
$DIMJUST
 70
     0
  9
$DIMSD1
 70
     0
  9
$DIMSD2
 70
     0
  9
$DIMTOLJ
 70
     1
  9
$DIMTZIN
 70
     0
  9
$DIMALTZ
 70
     0
  9
$DIMALTTZ
 70
     0
  9
$DIMUPT
 70
     0
  9
$DIMDEC
 70
     4
  9
$DIMTDEC
 70
     4
  9
$DIMALTU
 70
     2
  9
$DIMALTTD
 70
     2
  9
$DIMTXSTY
  7
STANDARD
  9
$DIMAUNIT
 70
     0
  9
$DIMADEC
 70
     0
  9
$DIMALTRND
 40
0.0
  9
$DIMAZIN
 70
     0
  9
$DIMDSEP
 70
    46
  9
$DIMATFIT
 70
     3
  9
$DIMFRAC
 70
     0
  9
$DIMLDRBLK
  1

  9
$DIMLUNIT
 70
     2
  9
$DIMLWD
 70
    -2
  9
$DIMLWE
 70
    -2
  9
$DIMTMOVE
 70
     0
  9
$LUNITS
 70
     2
  9
$LUPREC
 70
     4
  9
$SKETCHINC
 40
0.1
  9
$FILLETRAD
 40
0.0
  9
$AUNITS
 70
     0
  9
$AUPREC
 70
     0
  9
$MENU
  1
ACAD
  9
$ELEVATION
 40
0.0
  9
$PELEVATION
 40
0.0
  9
$THICKNESS
 40
0.0
  9
$LIMCHECK
 70
     0
  9
$CHAMFERA
 40
0.0
  9
$CHAMFERB
 40
0.0
  9
$CHAMFERC
 40
1.0
  9
$CHAMFERD
 40
0.0
  9
$SKPOLY
 70
     0
  9
$TDCREATE
 40
2453955.561818171
  9
$TDUCREATE
 40
2453955.895151505
  9
$TDUPDATE
 40
2453955.603484849
  9
$TDUUPDATE
 40
2453955.895151516
  9
$TDINDWG
 40
0.0000000116
  9
$TDUSRTIMER
 40
0.0000000116
  9
$USRTIMER
 70
     1
  9
$ANGBASE
 50
0.0
  9
$ANGDIR
 70
     0
  9
$PDMODE
 70
     0
  9
$PDSIZE
 40
0.0
  9
$PLINEWID
 40
0.0
  9
$SPLFRAME
 70
     0
  9
$SPLINETYPE
 70
     6
  9
$SPLINESEGS
 70
     8
  9
$HANDSEED
  5
2E2
  9
$SURFTAB1
 70
     6
  9
$SURFTAB2
 70
     6
  9
$SURFTYPE
 70
     6
  9
$SURFU
 70
     6
  9
$SURFV
 70
     6
  9
$UCSBASE
  2

  9
$UCSNAME
  2

  9
$UCSORG
 10
0.0
 20
0.0
 30
0.0
  9
$UCSXDIR
 10
1.0
 20
0.0
 30
0.0
  9
$UCSYDIR
 10
0.0
 20
1.0
 30
0.0
  9
$UCSORTHOREF
  2

  9
$UCSORTHOVIEW
 70
     0
  9
$UCSORGTOP
 10
0.0
 20
0.0
 30
0.0
  9
$UCSORGBOTTOM
 10
0.0
 20
0.0
 30
0.0
  9
$UCSORGLEFT
 10
0.0
 20
0.0
 30
0.0
  9
$UCSORGRIGHT
 10
0.0
 20
0.0
 30
0.0
  9
$UCSORGFRONT
 10
0.0
 20
0.0
 30
0.0
  9
$UCSORGBACK
 10
0.0
 20
0.0
 30
0.0
  9
$PUCSBASE
  2

  9
$PUCSNAME
  2

  9
$PUCSORG
 10
0.0
 20
0.0
 30
0.0
  9
$PUCSXDIR
 10
1.0
 20
0.0
 30
0.0
  9
$PUCSYDIR
 10
0.0
 20
1.0
 30
0.0
  9
$PUCSORTHOREF
  2

  9
$PUCSORTHOVIEW
 70
     0
  9
$PUCSORGTOP
 10
0.0
 20
0.0
 30
0.0
  9
$PUCSORGBOTTOM
 10
0.0
 20
0.0
 30
0.0
  9
$PUCSORGLEFT
 10
0.0
 20
0.0
 30
0.0
  9
$PUCSORGRIGHT
 10
0.0
 20
0.0
 30
0.0
  9
$PUCSORGFRONT
 10
0.0
 20
0.0
 30
0.0
  9
$PUCSORGBACK
 10
0.0
 20
0.0
 30
0.0
  9
$USERI1
 70
     0
  9
$USERI2
 70
     0
  9
$USERI3
 70
     0
  9
$USERI4
 70
     0
  9
$USERI5
 70
     0
  9
$USERR1
 40
0.0
  9
$USERR2
 40
0.0
  9
$USERR3
 40
0.0
  9
$USERR4
 40
0.0
  9
$USERR5
 40
0.0
  9
$WORLDVIEW
 70
     1
  9
$SHADEDGE
 70
     3
  9
$SHADEDIF
 70
    70
  9
$TILEMODE
 70
     1
  9
$MAXACTVP
 70
    16
  9
$PINSBASE
 10
0.0
 20
0.0
 30
0.0
  9
$PLIMCHECK
 70
     0
  9
$PEXTMIN
 10
1.000000000000000E+20
 20
1.000000000000000E+20
 30
1.000000000000000E+20
  9
$PEXTMAX
 10
-1.000000000000000E+20
 20
-1.000000000000000E+20
 30
-1.000000000000000E+20
  9
$PLIMMIN
 10
0.0
 20
0.0
  9
$PLIMMAX
 10
12.0
 20
9.0
  9
$UNITMODE
 70
     0
  9
$VISRETAIN
 70
     0
  9
$PLINEGEN
 70
     0
  9
$PSLTSCALE
 70
     0
  9
$TREEDEPTH
 70
  3020
  9
$CMLSTYLE
  2
Standard
  9
$CMLJUST
 70
     0
  9
$CMLSCALE
 40
1.0
  9
$PROXYGRAPHICS
 70
     1
  9
$MEASUREMENT
 70
     0
  9
$CELWEIGHT
370
    -1
  9
$ENDCAPS
280
     0
  9
$JOINSTYLE
280
     0
  9
$LWDISPLAY
290
     0
  9
$INSUNITS
 70
     1
  9
$HYPERLINKBASE
  1

  9
$STYLESHEET
  1

  9
$XEDIT
290
     1
  9
$CEPSNTYPE
380
     0
  9
$PSTYLEMODE
290
     0
  9
$FINGERPRINTGUID
  2
{FAEB1C30-E019-11D5-929B-00C0DF256EC4}
  9
$VERSIONGUID
  2
{FAEB1C32-E019-11D5-929B-00C0DF256EC4}
  9
$EXTNAMES
290
     1
  9
$PSVPSCALE
 40
0.0
  9
$OLESTARTUP
290
     0
  0
ENDSEC
  0
SECTION
  2
CLASSES
  0
CLASS
  1
ACDBDICTIONARYWDFLT
  2
AcDbDictionaryWithDefault
  3
AutoCAD 2000
 90
        0
280
     0
281
     0
  0
CLASS
  1
ACDBPLACEHOLDER
  2
AcDbPlaceHolder
  3
ObjectDBX Classes
 90
        0
280
     0
281
     0
  0
CLASS
  1
LAYOUT
  2
AcDbLayout
  3
ObjectDBX Classes
 90
        0
280
     0
281
     0
  0
ENDSEC
  0
SECTION
  2
TABLES
  0
TABLE
  2
VPORT
  5
8
330
0
100
AcDbSymbolTable
 70
     2
  0
VPORT
  5
1E
330
8
100
AcDbSymbolTableRecord
100
AcDbViewportTableRecord
  2
*ACTIVE
 70
     0
 10
0.0
 20
0.0
 11
1.0
 21
1.0
 12
6.243341404358354
 22
4.5
 13
0.0
 23
0.0
 14
1.0
 24
1.0
 15
0.0
 25
0.0
 16
0.0
 26
0.0
 36
1.0
 17
0.0
 27
0.0
 37
0.0
 40
9.0
 41
0.7207678883071553
 42
50.0
 43
0.0
 44
0.0
 50
0.0
 51
0.0
 71
     0
 72
   100
 73
     1
 74
     0
 75
     0
 76
     0
 77
     0
 78
     0
281
     0
 65
     1
110
0.0
120
0.0
130
0.0
111
1.0
121
0.0
131
0.0
112
0.0
122
1.0
132
0.0
 79
     0
146
0.0
  0
ENDTAB
  0
TABLE
  2
LTYPE
  5
5
330
0
100
AcDbSymbolTable
 70
     1
  0
LTYPE
  5
10
330
5
100
AcDbSymbolTableRecord
100
AcDbLinetypeTableRecord
  2
ByBlock
 70
     0
  3

 72
    65
 73
     0
 40
0.0
  0
LTYPE
  5
11
330
5
100
AcDbSymbolTableRecord
100
AcDbLinetypeTableRecord
  2
ByLayer
 70
     0
  3

 72
    65
 73
     0
 40
0.0
  0
LTYPE
  5
1B
330
5
100
AcDbSymbolTableRecord
100
AcDbLinetypeTableRecord
  2
CONTINUOUS
 70
     0
  3
Solid line
 72
    65
 73
     0
 40
0.0
  0
ENDTAB
  0
TABLE
  2
LAYER
  5
2
330
0
100
AcDbSymbolTable
 70
     1
  0
LAYER
  5
1C
330
2
100
AcDbSymbolTableRecord
100
AcDbLayerTableRecord
  2
0
 70
     0
 62
     7
  6
CONTINUOUS
370
    -3
390
F
  0
ENDTAB
  0
TABLE
  2
STYLE
  5
3
330
0
100
AcDbSymbolTable
 70
     1
  0
STYLE
  5
20
330
3
100
AcDbSymbolTableRecord
100
AcDbTextStyleTableRecord
  2
STANDARD
 70
     0
 40
0.0
 41
1.0
 50
0.0
 71
     0
 42
0.2
  3
ROMANS.SHX
  4

  0
ENDTAB
  0
TABLE
  2
VIEW
  5
6
330
0
100
AcDbSymbolTable
 70
     0
  0
ENDTAB
  0
TABLE
  2
UCS
  5
7
330
0
100
AcDbSymbolTable
 70
     0
  0
ENDTAB
  0
TABLE
  2
APPID
  5
9
330
0
100
AcDbSymbolTable
 70
     1
  0
APPID
  5
1F
330
9
100
AcDbSymbolTableRecord
100
AcDbRegAppTableRecord
  2
ACAD
 70
     0
  0
ENDTAB
  0
TABLE
  2
DIMSTYLE
  5
A
330
0
100
AcDbSymbolTable
 70
     1
100
AcDbDimStyleTable
  0
DIMSTYLE
105
21
330
A
100
AcDbSymbolTableRecord
100
AcDbDimStyleTableRecord
  2
Standard
 70
     0
  3

  4

340
20
  0
ENDTAB
  0
TABLE
  2
BLOCK_RECORD
  5
1
330
0
100
AcDbSymbolTable
 70
     0
  0
BLOCK_RECORD
  5
18
330
1
100
AcDbSymbolTableRecord
100
AcDbBlockTableRecord
  2
*Model_Space
340
19
  0
BLOCK_RECORD
  5
16
330
1
100
AcDbSymbolTableRecord
100
AcDbBlockTableRecord
  2
*Paper_Space
340
17
  0
ENDTAB
  0
ENDSEC
  0
SECTION
  2
BLOCKS
  0
BLOCK
  5
2D7
330
18
100
AcDbEntity
  8
0
100
AcDbBlockBegin
  2
*Model_Space
 70
     0
 10
0.0
 20
0.0
 30
0.0
  3
*Model_Space
  1

  4

  0
ENDBLK
  5
2D8
330
18
100
AcDbEntity
  8
0
100
AcDbBlockEnd
  0
BLOCK
  5
2D5
330
16
100
AcDbEntity
 67
     1
  8
0
100
AcDbBlockBegin
  2
*Paper_Space
 70
     0
 10
0.0
 20
0.0
 30
0.0
  3
*Paper_Space
  1

  4

  0
ENDBLK
  5
2D6
330
16
100
AcDbEntity
 67
     1
  8
0
100
AcDbBlockEnd
  0
ENDSEC
  0
SECTION
  2
ENTITIES
  0
LWPOLYLINE
  5
22
330
18
100
AcDbEntity
  8
0
100
AcDbPolyline
 90
        3
 70
     0
 43
0.0
 10
1.781362
 20
3.433162
 10
1.781362
 20
1.712162
 10
1.302362
 20
2.006162
  0
LWPOLYLINE
  5
28
330
18
100
AcDbEntity
  8
0
100
AcDbPolyline
 90
        2
 70
     0
 43
0.0
 10
1.302362
 20
3.728162
 10
1.302362
 20
2.006162
  0
LWPOLYLINE
  5
2D
330
18
100
AcDbEntity
  8
0
100
AcDbPolyline
 90
        2
 70
     0
 43
0.0
 10
1.302362
 20
3.728162
 10
1.781362
 20
3.433162
  0
LWPOLYLINE
  5
32
330
18
100
AcDbEntity
  8
0
100
AcDbPolyline
 90
        2
 70
     0
 43
0.0
 10
1.781362
 20
1.712162
 10
3.109362
 20
3.419162000000001
  0
LWPOLYLINE
  5
37
330
18
100
AcDbEntity
  8
0
100
AcDbPolyline
 90
        2
 70
     0
 43
0.0
 10
4.363362
 20
6.754161999999999
 10
4.363362
 20
6.145162
  0
LWPOLYLINE
  5
3C
330
18
100
AcDbEntity
  8
0
100
AcDbPolyline
 90
        3
 70
     0
 43
0.0
 10
3.884362
 20
7.048162
 10
4.363362
 20
6.754161999999999
 10
1.781362
 20
3.433162
  0
LWPOLYLINE
  5
42
330
18
100
AcDbEntity
  8
0
100
AcDbPolyline
 90
        2
 70
     0
 43
0.0
 10
1.302362
 20
3.728162
 10
3.884362
 20
7.048162
  0
LWPOLYLINE
  5
47
330
18
100
AcDbEntity
  8
0
100
AcDbPolyline
 90
        2
 70
     0
 43
0.0
 10
5.216362
 20
2.202162
 10
5.216362
 20
0.745162
  0
LWPOLYLINE
  5
4C
330
18
100
AcDbEntity
  8
0
100
AcDbPolyline
 90
        3
 70
     0
 43
0.0
 10
5.216362
 20
2.202162
 10
6.220362000000001
 20
2.776162
 10
6.220362000000001
 20
1.320162
  0
LWPOLYLINE
  5
52
330
18
100
AcDbEntity
  8
0
100
AcDbPolyline
 90
        2
 70
     0
 43
0.0
 10
6.220362000000001
 20
2.776162
 10
3.721362
 20
4.206162
  0
LWPOLYLINE
  5
57
330
18
100
AcDbEntity
  8
0
100
AcDbPolyline
 90
        2
 70
     0
 43
0.0
 10
5.216362
 20
0.745162
 10
6.220362000000001
 20
1.320162
  0
LWPOLYLINE
  5
5C
330
18
100
AcDbEntity
  8
0
100
AcDbPolyline
 90
        2
 70
     0
 43
0.0
 10
5.216362
 20
1.474162
 10
6.220362000000001
 20
2.048162
  0
LWPOLYLINE
  5
61
330
18
100
AcDbEntity
  8
0
100
AcDbPolyline
 90
        2
 70
     0
 43
0.0
 10
2.304362
 20
5.016162000000001
 10
1.772362
 20
5.320162
  0
LWPOLYLINE
  5
66
330
18
100
AcDbEntity
  8
0
100
AcDbPolyline
 90
        2
 70
     0
 43
0.0
 10
5.216362
 20
2.202162
 10
3.741362
 20
3.062162
  0
LWPOLYLINE
  5
6B
330
18
100
AcDbEntity
  8
0
100
AcDbPolyline
 90
        2
 70
     0
 43
0.0
 10
0.650362
 20
4.867162
 10
0.944362
 20
4.986162
  0
LWPOLYLINE
  5
70
330
18
100
AcDbEntity
  8
0
100
AcDbPolyline
 90
        2
 70
     0
 43
0.0
 10
0.650362
 20
4.867162
 10
0.650362
 20
3.743162
  0
LWPOLYLINE
  5
75
330
18
100
AcDbEntity
  8
0
100
AcDbPolyline
 90
        2
 70
     0
 43
0.0
 10
5.216362
 20
1.474162
 10
3.276362
 20
2.676162
  0
LWPOLYLINE
  5
7A
330
18
100
AcDbEntity
  8
0
100
AcDbPolyline
 90
        2
 70
     0
 43
0.0
 10
5.216362
 20
0.745162
 10
2.445362
 20
2.564162
  0
LWPOLYLINE
  5
7F
330
18
100
AcDbEntity
  8
0
100
AcDbPolyline
 90
        2
 70
     0
 43
0.0
 10
1.393362
 20
3.844162
 10
0.650362
 20
4.304162
  0
LWPOLYLINE
  5
84
330
18
100
AcDbEntity
  8
0
100
AcDbPolyline
 90
        2
 70
     0
 43
0.0
 10
1.708362
 20
4.250162
 10
0.650362
 20
4.867162
  0
LWPOLYLINE
  5
89
330
18
100
AcDbEntity
  8
0
100
AcDbPolyline
 90
        2
 70
     0
 43
0.0
 10
1.302362
 20
3.314162
 10
0.650362
 20
3.743162
  0
LWPOLYLINE
  5
8E
330
18
100
AcDbEntity
  8
0
100
AcDbPolyline
 90
        2
 70
     0
 43
0.0
 10
3.109362
 20
4.368162
 10
3.109362
 20
3.419162000000001
  0
LWPOLYLINE
  5
93
330
18
100
AcDbEntity
  8
0
100
AcDbPolyline
 90
        2
 70
     0
 43
0.0
 10
2.617362
 20
2.786162
 10
2.738362
 20
2.501162
  0
LWPOLYLINE
  5
98
330
18
100
AcDbEntity
  8
0
100
AcDbPolyline
 90
        2
 70
     0
 43
0.0
 10
2.917362
 20
2.383162
 10
2.738362
 20
2.501162
  0
LWPOLYLINE
  5
9D
330
18
100
AcDbEntity
  8
0
100
AcDbPolyline
 90
        2
 70
     0
 43
0.0
 10
2.917362
 20
2.383162
 10
3.741362
 20
3.054162
  0
LWPOLYLINE
  5
A2
330
18
100
AcDbEntity
  8
0
100
AcDbPolyline
 90
        2
 70
     0
 43
0.0
 10
3.683362
 20
3.007162
 10
3.683362
 20
3.169162
  0
LWPOLYLINE
  5
A7
330
18
100
AcDbEntity
  8
0
100
AcDbPolyline
 90
        2
 70
     0
 43
0.0
 10
3.449362
 20
4.695162
 10
3.449362
 20
3.827162
  0
LWPOLYLINE
  5
AC
330
18
100
AcDbEntity
  8
0
100
AcDbPolyline
 90
        2
 70
     0
 43
0.0
 10
3.683362
 20
3.169162
 10
3.109362
 20
4.368162
  0
LWPOLYLINE
  5
B1
330
18
100
AcDbEntity
  8
0
100
AcDbPolyline
 90
        2
 70
     0
 43
0.0
 10
3.741362
 20
3.054162
 10
3.741362
 20
3.217162
  0
LWPOLYLINE
  5
B6
330
18
100
AcDbEntity
  8
0
100
AcDbPolyline
 90
        3
 70
     0
 43
0.0
 10
3.683362
 20
3.169162
 10
3.741362
 20
3.217162
 10
3.181362
 20
4.388162
  0
LWPOLYLINE
  5
BC
330
18
100
AcDbEntity
  8
0
100
AcDbPolyline
 90
        4
 70
     0
 43
0.0
 10
3.109362
 20
4.368162
 10
3.239362
 20
4.675162
 10
3.405362
 20
4.737162000000001
 10
3.449362
 20
4.695162
  0
LWPOLYLINE
  5
C3
330
18
100
AcDbEntity
  8
0
100
AcDbPolyline
 90
        2
 70
     0
 43
0.0
 10
3.282362
 20
4.629162
 10
3.449362
 20
4.691162
  0
LWPOLYLINE
  5
C8
330
18
100
AcDbEntity
  8
0
100
AcDbPolyline
 90
        2
 70
     0
 43
0.0
 10
3.181362
 20
4.388162
 10
3.282362
 20
4.629162
  0
LWPOLYLINE
  5
CD
330
18
100
AcDbEntity
  8
0
100
AcDbPolyline
 90
        2
 70
     0
 43
0.0
 10
3.449362
 20
3.856162
 10
4.363362
 20
5.032162000000001
  0
LWPOLYLINE
  5
D2
330
18
100
AcDbEntity
  8
0
100
AcDbPolyline
 90
        4
 70
     0
 43
0.0
 10
4.363362
 20
5.454162
 10
4.566362000000001
 20
5.986162
 10
4.275362
 20
5.868162
 10
4.363362
 20
6.145162
  0
LWPOLYLINE
  5
D9
330
18
100
AcDbEntity
  8
0
100
AcDbPolyline
 90
        2
 70
     0
 43
0.0
 10
4.354362
 20
6.116162
 10
4.566362000000001
 20
5.986162
  0
LWPOLYLINE
  5
DE
330
18
100
AcDbEntity
  8
0
100
AcDbPolyline
 90
        2
 70
     0
 43
0.0
 10
4.363362
 20
5.454162
 10
4.363362
 20
5.032162000000001
  0
LWPOLYLINE
  5
E3
330
18
100
AcDbEntity
  8
0
100
AcDbPolyline
 90
        5
 70
     0
 43
0.0
 10
0.944362
 20
4.986162
 10
1.002362
 20
5.248162000000001
 10
1.601362
 20
5.127162
 10
1.592362
 20
5.248162000000001
 10
1.772362
 20
5.320162
  0
LWPOLYLINE
  5
EB
330
18
100
AcDbEntity
  8
0
100
AcDbPolyline
 90
        2
 70
     0
 43
0.0
 10
3.547362
 20
3.333162
 10
3.109362
 20
4.250994
  0
LWPOLYLINE
  5
F0
330
18
100
AcDbEntity
  8
0
100
AcDbPolyline
 90
        2
 70
     0
 43
0.0
 10
3.488362
 20
3.304162
 10
3.109362
 20
4.097893
  0
LWPOLYLINE
  5
F5
330
18
100
AcDbEntity
  8
0
100
AcDbPolyline
 90
       10
 70
     0
 43
0.0
 10
3.488362
 20
3.304162
 10
3.495362
 20
3.296162
 10
3.505362
 20
3.291162
 10
3.513362
 20
3.290162000000001
 10
3.517362
 20
3.290162000000001
 10
3.529362
 20
3.294162000000001
 10
3.540362000000001
 20
3.302162
 10
3.547362
 20
3.311162
 10
3.549362
 20
3.323162
 10
3.547362
 20
3.333162
  0
LWPOLYLINE
  5
102
330
18
100
AcDbEntity
  8
0
100
AcDbPolyline
 90
       11
 70
     0
 43
0.0
 10
3.257362
 20
3.440162
 10
3.263362
 20
3.432162
 10
3.273362
 20
3.427162
 10
3.281362
 20
3.426162
 10
3.285362
 20
3.426162
 10
3.298362000000001
 20
3.430162
 10
3.308362
 20
3.437162
 10
3.315362
 20
3.447162
 10
3.318362000000001
 20
3.458162
 10
3.318362000000001
 20
3.459162
 10
3.316362
 20
3.469162
  0
LWPOLYLINE
  5
110
330
18
100
AcDbEntity
  8
0
100
AcDbPolyline
 90
        2
 70
     0
 43
0.0
 10
3.316362
 20
3.469162
 10
3.109362
 20
3.901162
  0
LWPOLYLINE
  5
115
330
18
100
AcDbEntity
  8
0
100
AcDbPolyline
 90
        2
 70
     0
 43
0.0
 10
3.257362
 20
3.440162
 10
3.109362
 20
3.748162
  0
LWPOLYLINE
  5
11A
330
18
100
AcDbEntity
  8
0
100
AcDbPolyline
 90
        2
 70
     0
 43
0.0
 10
3.303362
 20
4.160162000000001
 10
3.295362
 20
4.148162
  0
LWPOLYLINE
  5
11F
330
18
100
AcDbEntity
  8
0
100
AcDbPolyline
 90
        9
 70
     0
 43
0.0
 10
1.676362
 20
3.499162
 10
1.635362
 20
3.328162
 10
1.607362
 20
3.228162
 10
1.555362
 20
3.054162
 10
1.514362
 20
2.920162
 10
1.496362
 20
2.863162
 10
1.413362
 20
2.626162
 10
1.379362
 20
2.539162
 10
1.303362
 20
2.392162
  0
LWPOLYLINE
  5
12B
330
18
100
AcDbEntity
  8
0
100
AcDbPolyline
 90
       10
 70
     0
 43
0.0
 10
1.781362
 20
3.346162
 10
1.696362
 20
3.090162
 10
1.654362
 20
2.949162
 10
1.574362
 20
2.644162
 10
1.550362
 20
2.553162
 10
1.543362
 20
2.530162
 10
1.533362
 20
2.501162
 10
1.510362
 20
2.428162
 10
1.431362
 20
2.195162
 10
1.342362
 20
1.987162
  0
LWPOLYLINE
  5
138
330
18
100
AcDbEntity
  8
0
100
AcDbPolyline
 90
       15
 70
     0
 43
0.0
 10
1.781362
 20
2.988162
 10
1.724362
 20
2.803162
 10
1.693362
 20
2.685162
 10
1.659362
 20
2.534162
 10
1.645362
 20
2.475162
 10
1.634362
 20
2.430162
 10
1.632362
 20
2.421162
 10
1.622362
 20
2.383162
 10
1.591362
 20
2.258162
 10
1.573362
 20
2.192162
 10
1.571362
 20
2.184162
 10
1.561362
 20
2.147162
 10
1.530362
 20
2.030162
 10
1.512362
 20
1.965162
 10
1.487362
 20
1.898162
  0
LWPOLYLINE
  5
14A
330
18
100
AcDbEntity
  8
0
100
AcDbPolyline
 90
        8
 70
     0
 43
0.0
 10
5.216362
 20
2.047162
 10
5.294362000000001
 20
2.140162
 10
5.325362
 20
2.176162
 10
5.399362
 20
2.260162
 10
5.431362
 20
2.297162
 10
5.423362
 20
2.288162
 10
5.428362
 20
2.294162
 10
5.464362
 20
2.343162
  0
LWPOLYLINE
  5
155
330
18
100
AcDbEntity
  8
0
100
AcDbPolyline
 90
       11
 70
     0
 43
0.0
 10
5.216362
 20
1.886162
 10
5.303362
 20
1.986162
 10
5.349362
 20
2.041162
 10
5.463362
 20
2.186162
 10
5.498362
 20
2.228162
 10
5.532362
 20
2.262162
 10
5.629362
 20
2.347162
 10
5.694362
 20
2.393162
 10
5.788362
 20
2.457162
 10
5.825362
 20
2.496162
 10
5.881362
 20
2.582162
  0
LWPOLYLINE
  5
163
330
18
100
AcDbEntity
  8
0
100
AcDbPolyline
 90
       23
 70
     0
 43
0.0
 10
5.216362
 20
1.745162
 10
5.309362
 20
1.852162
 10
5.353362000000001
 20
1.899162
 10
5.453362
 20
2.005162
 10
5.449362000000001
 20
2.000162
 10
5.449362000000001
 20
2.001162
 10
5.459362000000001
 20
2.011162
 10
5.487362
 20
2.047162
 10
5.535362
 20
2.108162
 10
5.588362
 20
2.168162
 10
5.633362
 20
2.210162
 10
5.681362
 20
2.239162
 10
5.728362000000001
 20
2.268162
 10
5.758362
 20
2.294162
 10
5.796362
 20
2.328162
 10
5.833362
 20
2.368162
 10
5.857362
 20
2.390162
 10
5.900362
 20
2.415162
 10
5.993362
 20
2.461162
 10
6.054362
 20
2.496162
 10
6.133362
 20
2.543162
 10
6.156362000000001
 20
2.555162
 10
6.221362
 20
2.585162
  0
LWPOLYLINE
  5
17D
330
18
100
AcDbEntity
  8
0
100
AcDbPolyline
 90
       19
 70
     0
 43
0.0
 10
5.216362
 20
1.587162
 10
5.317362
 20
1.695162
 10
5.344362
 20
1.722162
 10
5.541362
 20
1.922162
 10
5.483362000000001
 20
1.863162
 10
5.482362
 20
1.862162
 10
5.488362
 20
1.869162
 10
5.534362000000001
 20
1.918162
 10
5.596362
 20
1.987162
 10
5.652362
 20
2.043162
 10
5.750362
 20
2.134162
 10
5.836362
 20
2.209162
 10
5.887362
 20
2.247162
 10
5.957362
 20
2.290162
 10
6.043362
 20
2.344162
 10
6.095362000000001
 20
2.380162
 10
6.168362
 20
2.431162
 10
6.179362
 20
2.438162
 10
6.223362
 20
2.463162
  0
LWPOLYLINE
  5
193
330
18
100
AcDbEntity
  8
0
100
AcDbPolyline
 90
       15
 70
     0
 43
0.0
 10
5.366362000000001
 20
1.559162
 10
5.399362
 20
1.657162
 10
5.429362
 20
1.708162
 10
5.517362
 20
1.811162
 10
5.555362000000001
 20
1.846162
 10
5.644362
 20
1.913162
 10
5.706362
 20
1.953162
 10
5.827362
 20
2.020162
 10
5.911362
 20
2.069162
 10
5.983362000000001
 20
2.116162
 10
6.076362000000001
 20
2.176162
 10
6.113362
 20
2.199162
 10
6.164362000000001
 20
2.229162
 10
6.177362000000001
 20
2.234162
 10
6.220362000000001
 20
2.238162
  0
LWPOLYLINE
  5
1A5
330
18
100
AcDbEntity
  8
0
100
AcDbPolyline
 90
       14
 70
     0
 43
0.0
 10
5.745362
 20
1.776162
 10
5.761362
 20
1.821162
 10
5.782362
 20
1.864162
 10
5.818362000000001
 20
1.904162
 10
5.882362000000001
 20
1.947162
 10
5.922362000000001
 20
1.974162
 10
5.982362
 20
2.019162
 10
6.030362
 20
2.055162
 10
6.100362000000001
 20
2.104162
 10
6.130362
 20
2.122162
 10
6.160362
 20
2.129162
 10
6.206362
 20
2.138162
 10
6.210362
 20
2.139162
 10
6.220362000000001
 20
2.143162
  0
LWPOLYLINE
  5
1B6
330
18
100
AcDbEntity
  8
0
100
AcDbPolyline
 90
       14
 70
     0
 43
0.0
 10
5.430362000000001
 20
1.596162
 10
5.496362
 20
1.577162
 10
5.564362
 20
1.567162
 10
5.574362000000001
 20
1.567162
 10
5.607362
 20
1.571162
 10
5.639362
 20
1.581162
 10
5.752362000000001
 20
1.638162
 10
5.820362
 20
1.680162
 10
5.908362
 20
1.739162
 10
5.948362
 20
1.768162
 10
5.993362
 20
1.810162
 10
6.056362
 20
1.890162
 10
6.068362000000001
 20
1.915162
 10
6.084362000000001
 20
1.971162
  0
LWPOLYLINE
  5
1C7
330
18
100
AcDbEntity
  8
0
100
AcDbPolyline
 90
       20
 70
     0
 43
0.0
 10
5.268362000000001
 20
1.503162
 10
5.337362000000001
 20
1.474162
 10
5.409362000000001
 20
1.457162
 10
5.442362
 20
1.454162
 10
5.479362
 20
1.457162
 10
5.514362
 20
1.466162
 10
5.612362
 20
1.499162
 10
5.622362
 20
1.503162
 10
5.726362
 20
1.546162
 10
5.782362
 20
1.568162
 10
5.854362
 20
1.596162
 10
5.881362
 20
1.608162
 10
5.894362
 20
1.616162
 10
5.957362
 20
1.659162
 10
6.017362
 20
1.703162
 10
6.036362
 20
1.718162
 10
6.039362000000001
 20
1.721162
 10
6.118362
 20
1.788162
 10
6.152362
 20
1.820162
 10
6.222362
 20
1.893162
  0
LWPOLYLINE
  5
1DE
330
18
100
AcDbEntity
  8
0
100
AcDbPolyline
 90
       25
 70
     0
 43
0.0
 10
5.216362
 20
1.244162
 10
5.291362
 20
1.233162
 10
5.311362
 20
1.232162
 10
5.326362000000001
 20
1.232162
 10
5.420362
 20
1.242162
 10
5.481362
 20
1.247162
 10
5.555362000000001
 20
1.246162
 10
5.571362000000001
 20
1.246162
 10
5.599362
 20
1.247162
 10
5.648362000000001
 20
1.255162
 10
5.740362
 20
1.271162
 10
5.806362
 20
1.278162
 10
5.846362
 20
1.284162
 10
5.870362
 20
1.293162
 10
5.938362000000001
 20
1.335162
 10
6.027362
 20
1.403162
 10
6.057362
 20
1.434162
 10
6.086362
 20
1.474162
 10
6.099362
 20
1.490162
 10
6.100362000000001
 20
1.491162
 10
6.104362
 20
1.496162
 10
6.127362000000001
 20
1.515162
 10
6.184362
 20
1.551162
 10
6.198362
 20
1.564162
 10
6.220362000000001
 20
1.589162
  0
LWPOLYLINE
  5
1FA
330
18
100
AcDbEntity
  8
0
100
AcDbPolyline
 90
       15
 70
     0
 43
0.0
 10
5.216362
 20
1.130162
 10
5.293362
 20
1.140162
 10
5.335362
 20
1.143162
 10
5.411362
 20
1.148162
 10
5.431362
 20
1.149162
 10
5.476362
 20
1.157162
 10
5.540362
 20
1.170162
 10
5.571362000000001
 20
1.173162
 10
5.640362000000001
 20
1.177162
 10
5.713362
 20
1.173162
 10
5.734362
 20
1.164162
 10
5.747362
 20
1.152162
 10
5.789362000000001
 20
1.108162
 10
5.796362
 20
1.099162
 10
5.809362
 20
1.084162
  0
LWPOLYLINE
  5
20C
330
18
100
AcDbEntity
  8
0
100
AcDbPolyline
 90
       15
 70
     0
 43
0.0
 10
5.216362
 20
0.9591620000000001
 10
5.263362
 20
0.9321620000000001
 10
5.273362000000001
 20
0.9311620000000001
 10
5.289362000000001
 20
0.9341620000000001
 10
5.330362
 20
0.9621620000000001
 10
5.373362
 20
0.9891620000000001
 10
5.413362
 20
1.010162
 10
5.426362
 20
1.017162
 10
5.459362000000001
 20
1.033162
 10
5.503362
 20
1.052162
 10
5.522362
 20
1.056162
 10
5.571362000000001
 20
1.053162
 10
5.610362
 20
1.036162
 10
5.631362
 20
1.016162
 10
5.646362
 20
0.9911620000000001
  0
LWPOLYLINE
  5
21E
330
18
100
AcDbEntity
  8
0
100
AcDbPolyline
 90
        2
 70
     0
 43
0.0
 10
1.450362
 20
3.637162000000001
 10
1.302362
 20
3.400162
  0
LWPOLYLINE
  5
223
330
18
100
AcDbEntity
  8
0
100
AcDbPolyline
 90
       11
 70
     0
 43
0.0
 10
4.481362
 20
6.038162000000001
 10
4.453362
 20
6.014162000000001
 10
4.433362000000001
 20
6.000162
 10
4.415362
 20
5.991162
 10
4.404362
 20
5.984162
 10
4.379362
 20
5.972162
 10
4.365362
 20
5.965162
 10
4.362362
 20
5.964162
 10
4.340362
 20
5.956162
 10
4.322362
 20
5.950162000000001
 10
4.299362
 20
5.944162
  0
LWPOLYLINE
  5
231
330
18
100
AcDbEntity
  8
0
100
AcDbPolyline
 90
        5
 70
     0
 43
0.0
 10
4.432362
 20
6.069162
 10
4.408362
 20
6.048162000000001
 10
4.373362
 20
6.025162
 10
4.335362
 20
6.025162
 10
4.323362
 20
6.021162
  0
LWPOLYLINE
  5
239
330
18
100
AcDbEntity
  8
0
100
AcDbPolyline
 90
       21
 70
     0
 43
0.0
 10
3.310362000000001
 20
3.097162
 10
3.306362000000001
 20
3.079162
 10
3.306362000000001
 20
3.077162
 10
3.308362
 20
3.061162
 10
3.318362000000001
 20
3.045162
 10
3.332362
 20
3.034162
 10
3.350362
 20
3.030162
 10
3.351362
 20
3.030162
 10
3.368362
 20
3.034162
 10
3.383362
 20
3.044162
 10
3.394362
 20
3.059162
 10
3.398362
 20
3.077162
 10
3.398362
 20
3.079162
 10
3.396362
 20
3.095162
 10
3.386362
 20
3.111162
 10
3.372362
 20
3.121162
 10
3.354362
 20
3.125162
 10
3.353362
 20
3.125162
 10
3.336362
 20
3.122162
 10
3.321362
 20
3.112162
 10
3.310362000000001
 20
3.097162
  0
LWPOLYLINE
  5
251
330
18
100
AcDbEntity
  8
0
100
AcDbPolyline
 90
       22
 70
     0
 43
0.0
 10
2.854362
 20
2.648162
 10
2.849362
 20
2.630162
 10
2.849362
 20
2.628162
 10
2.852362
 20
2.612162
 10
2.861362
 20
2.596162
 10
2.876362
 20
2.586162
 10
2.893362
 20
2.582162
 10
2.894362
 20
2.582162
 10
2.911362
 20
2.585162
 10
2.927362
 20
2.595162
 10
2.938362
 20
2.610162
 10
2.942362
 20
2.629162
 10
2.942362
 20
2.631162
 10
2.939362
 20
2.647162
 10
2.930362
 20
2.662162
 10
2.916362
 20
2.673162
 10
2.898362
 20
2.677162
 10
2.897362
 20
2.677162
 10
2.880362
 20
2.674162
 10
2.865362
 20
2.664162
 10
2.854362
 20
2.649162
 10
2.854362
 20
2.648162
  0
LWPOLYLINE
  5
26A
330
18
100
AcDbEntity
  8
0
100
AcDbPolyline
 90
       13
 70
     0
 43
0.0
 10
3.323362
 20
3.040162
 10
3.325362
 20
3.037162
 10
3.340362
 20
3.027162
 10
3.357362
 20
3.023162
 10
3.358362
 20
3.023162
 10
3.375362
 20
3.026162
 10
3.391362
 20
3.036162
 10
3.402362
 20
3.051162
 10
3.406362
 20
3.069162
 10
3.406362
 20
3.072162
 10
3.403362
 20
3.088162
 10
3.394362
 20
3.103162
 10
3.388362
 20
3.108162
  0
LWPOLYLINE
  5
27A
330
18
100
AcDbEntity
  8
0
100
AcDbPolyline
 90
       13
 70
     0
 43
0.0
 10
2.867362
 20
2.591162
 10
2.869362
 20
2.589162
 10
2.884362
 20
2.578162
 10
2.901362
 20
2.574162
 10
2.902362
 20
2.574162
 10
2.919362
 20
2.577162
 10
2.935362
 20
2.587162
 10
2.945362
 20
2.603162
 10
2.950362
 20
2.621162
 10
2.950362
 20
2.623162
 10
2.947362
 20
2.639162
 10
2.938362
 20
2.655162
 10
2.932362
 20
2.660162
  0
LWPOLYLINE
  5
28A
330
18
100
AcDbEntity
  8
0
100
AcDbPolyline
 90
       21
 70
     0
 43
0.0
 10
3.294362000000001
 20
4.499162
 10
3.284362
 20
4.480162
 10
3.281362
 20
4.462162
 10
3.281362
 20
4.459162
 10
3.286362
 20
4.440162
 10
3.297362
 20
4.426162000000001
 10
3.313362
 20
4.419162
 10
3.323362
 20
4.418162000000001
 10
3.333362
 20
4.419162
 10
3.352362
 20
4.427162
 10
3.368362
 20
4.442162000000001
 10
3.378362
 20
4.461162
 10
3.381362
 20
4.479162000000001
 10
3.381362
 20
4.481162
 10
3.377362
 20
4.500162
 10
3.365362
 20
4.514162000000001
 10
3.349362
 20
4.522162000000001
 10
3.339362
 20
4.523162
 10
3.329362
 20
4.522162000000001
 10
3.311362
 20
4.514162000000001
 10
3.294362000000001
 20
4.499162
  0
LWPOLYLINE
  5
2A2
330
18
100
AcDbEntity
  8
0
100
AcDbPolyline
 90
        4
 70
     0
 43
0.0
 10
3.328362
 20
4.079162
 10
3.331362
 20
4.079162
 10
3.342362
 20
4.080162000000001
 10
3.343362
 20
4.081162
  0
LWPOLYLINE
  5
2A9
330
18
100
AcDbEntity
  8
0
100
AcDbPolyline
 90
        3
 70
     0
 43
0.0
 10
3.328362
 20
4.180162
 10
3.319362
 20
4.175162
 10
3.295362
 20
4.148162
  0
LWPOLYLINE
  5
2AF
330
18
100
AcDbEntity
  8
0
100
AcDbPolyline
 90
       10
 70
     0
 43
0.0
 10
3.303362
 20
4.502162
 10
3.292362
 20
4.482162000000001
 10
3.289362
 20
4.464162
 10
3.289362
 20
4.462162
 10
3.294362000000001
 20
4.443162
 10
3.306362000000001
 20
4.429162
 10
3.322362000000001
 20
4.422162
 10
3.331362
 20
4.421162000000001
 10
3.342362
 20
4.422162
 10
3.343362
 20
4.422162
  0
LWPOLYLINE
  5
2BC
330
18
100
AcDbEntity
  8
0
100
AcDbPolyline
 90
        3
 70
     0
 43
0.0
 10
3.328362
 20
4.521162
 10
3.319362
 20
4.517162
 10
3.303362
 20
4.502162
  0
LWPOLYLINE
  5
2C2
330
18
100
AcDbEntity
  8
0
100
AcDbPolyline
 90
       14
 70
     0
 43
0.0
 10
3.329362
 20
4.077162
 10
3.333362
 20
4.078162
 10
3.352362
 20
4.085162
 10
3.368362
 20
4.100162
 10
3.378362
 20
4.120162000000001
 10
3.381362
 20
4.138162
 10
3.381362
 20
4.140162
 10
3.377362
 20
4.159162
 10
3.365362
 20
4.173162000000001
 10
3.349362
 20
4.180162
 10
3.339362
 20
4.181162000000001
 10
3.329362
 20
4.180162
 10
3.311362
 20
4.172162
 10
3.292362
 20
4.154162
  0
TEXT
  5
2D3
330
18
100
AcDbEntity
  8
0
100
AcDbText
 10
0.928983
 20
0.8635649999999999
 30
0.0
 40
0.2
  1
Simpson Strong-Tie
100
AcDbText
  0
TEXT
  5
2D4
330
18
100
AcDbEntity
  8
0
100
AcDbText
 10
0.928983
 20
0.539755
 30
0.0
 40
0.2
  1
H1
100
AcDbText
  0
ENDSEC
  0
SECTION
  2
OBJECTS
  0
DICTIONARY
  5
C
330
0
100
AcDbDictionary
281
     1
  3
ACAD_COLOR
350
2DA
  3
ACAD_GROUP
350
D
  3
ACAD_LAYOUT
350
15
  3
ACAD_MATERIAL
350
2DC
  3
ACAD_MLINESTYLE
350
12
  3
ACAD_PLOTSETTINGS
350
14
  3
ACAD_PLOTSTYLENAME
350
E
  3
ACDBHEADERROUNDTRIPXREC
350
2D9
  0
DICTIONARY
  5
2DA
102
{ACAD_REACTORS
330
C
102
}
330
C
100
AcDbDictionary
281
     1
  0
DICTIONARY
  5
D
102
{ACAD_REACTORS
330
C
102
}
330
C
100
AcDbDictionary
281
     1
  0
DICTIONARY
  5
15
102
{ACAD_REACTORS
330
C
102
}
330
C
100
AcDbDictionary
281
     1
  3
Layout1
350
17
  3
Model
350
19
  0
DICTIONARY
  5
2DC
102
{ACAD_REACTORS
330
C
102
}
330
C
100
AcDbDictionary
281
     1
  0
DICTIONARY
  5
12
102
{ACAD_REACTORS
330
C
102
}
330
C
100
AcDbDictionary
281
     1
  3
Standard
350
13
  0
DICTIONARY
  5
14
102
{ACAD_REACTORS
330
C
102
}
330
C
100
AcDbDictionary
281
     1
  0
ACDBDICTIONARYWDFLT
  5
E
102
{ACAD_REACTORS
330
C
102
}
330
C
100
AcDbDictionary
281
     1
  3
Normal
350
F
100
AcDbDictionaryWithDefault
340
F
  0
DICTIONARY
  5
2D9
102
{ACAD_REACTORS
330
C
102
}
330
C
100
AcDbDictionary
281
     1
  3
COLORDICT
350
2DB
  3
MATERIALDICT
350
2DD
  0
LAYOUT
  5
17
102
{ACAD_REACTORS
330
15
102
}
102
{ACAD_XDICTIONARY
360
2DE
102
}
330
15
100
AcDbPlotSettings
  1

  2

  4

  6

 40
0.0
 41
0.0
 42
0.0
 43
0.0
 44
0.0
 45
0.0
 46
0.0
 47
0.0
 48
0.0
 49
0.0
140
0.0
141
0.0
142
1.0
143
1.0
 70
   688
 72
     0
 73
     0
 74
     5
  7

 75
    16
147
1.0
148
0.0
149
0.0
100
AcDbLayout
  1
Layout1
 70
     1
 71
     1
 10
0.0
 20
0.0
 11
12.0
 21
9.0
 12
0.0
 22
0.0
 32
0.0
 14
1.000000000000000E+20
 24
1.000000000000000E+20
 34
1.000000000000000E+20
 15
-1.000000000000000E+20
 25
-1.000000000000000E+20
 35
-1.000000000000000E+20
146
0.0
 13
0.0
 23
0.0
 33
0.0
 16
1.0
 26
0.0
 36
0.0
 17
0.0
 27
1.0
 37
0.0
 76
     0
330
16
  0
LAYOUT
  5
19
102
{ACAD_REACTORS
330
15
102
}
102
{ACAD_XDICTIONARY
360
2E0
102
}
330
15
100
AcDbPlotSettings
  1

  2

  4

  6

 40
0.0
 41
0.0
 42
0.0
 43
0.0
 44
0.0
 45
0.0
 46
0.0
 47
0.0
 48
0.0
 49
0.0
140
0.0
141
0.0
142
1.0
143
1.0
 70
  1712
 72
     0
 73
     0
 74
     0
  7

 75
     0
147
1.0
148
0.0
149
0.0
100
AcDbLayout
  1
Model
 70
     1
 71
     0
 10
0.0
 20
0.0
 11
0.0
 21
0.0
 12
0.0
 22
0.0
 32
0.0
 14
0.0
 24
0.0
 34
0.0
 15
0.0
 25
0.0
 35
0.0
146
0.0
 13
0.0
 23
0.0
 33
0.0
 16
1.0
 26
0.0
 36
0.0
 17
0.0
 27
1.0
 37
0.0
 76
     0
330
18
  0
MLINESTYLE
  5
13
102
{ACAD_REACTORS
330
12
102
}
330
12
100
AcDbMlineStyle
  2
Standard
 70
     0
  3

 62
   256
 51
90.0
 52
90.0
 71
     2
 49
0.5
 62
   256
  6
BYLAYER
 49
-0.5
 62
   256
  6
BYLAYER
  0
ACDBPLACEHOLDER
  5
F
102
{ACAD_REACTORS
330
E
102
}
330
E
  0
XRECORD
  5
2DB
102
{ACAD_REACTORS
330
2D9
102
}
330
2D9
100
AcDbXrecord
340
2DA
  0
XRECORD
  5
2DD
102
{ACAD_REACTORS
330
2D9
102
}
330
2D9
100
AcDbXrecord
340
2DC
  0
DICTIONARY
  5
2DE
330
17
100
AcDbDictionary
280
     1
281
     1
  3
ACAD_XREC_ROUNDTRIP
360
2DF
  0
DICTIONARY
  5
2E0
330
19
100
AcDbDictionary
280
     1
281
     1
  3
ACAD_XREC_ROUNDTRIP
360
2E1
  0
XRECORD
  5
2DF
102
{ACAD_REACTORS
330
2DE
102
}
330
2DE
100
AcDbXrecord
102
SHADEPLOT
 70
 31552
102
SHADEPLOTRESLEVEL
 70
 30752
102
SHADEPLOTCUSTOMDPI
 70
 31608
  0
XRECORD
  5
2E1
102
{ACAD_REACTORS
330
2E0
102
}
330
2E0
100
AcDbXrecord
102
SHADEPLOT
 70
     0
102
SHADEPLOTRESLEVEL
 70
     0
102
SHADEPLOTCUSTOMDPI
 70
     0
  0
ENDSEC
  0
EOF
