  0
SECTION
  2
HEADER
  9
$ACADVER
  1
AC1015
  9
$ACADMAINTVER
 70
     6
  9
$DWGCODEPAGE
  3
ASCII
  9
$INSBASE
 10
0.0
 20
0.0
 30
0.0
  9
$EXTMIN
 10
0.031
 20
0.6732699999999998
 30
0.0
  9
$EXTMAX
 10
6.205
 20
7.827000000000001
 30
0.0
  9
$LIMMIN
 10
0.0
 20
0.0
  9
$LIMMAX
 10
12.0
 20
9.0
  9
$ORTHOMODE
 70
     0
  9
$REGENMODE
 70
     1
  9
$FILLMODE
 70
     1
  9
$QTEXTMODE
 70
     0
  9
$MIRRTEXT
 70
     1
  9
$LTSCALE
 40
0.25
  9
$ATTMODE
 70
     1
  9
$TEXTSIZE
 40
0.175
  9
$TRACEWID
 40
0.05
  9
$TEXTSTYLE
  7
STANDARD
  9
$CLAYER
  8
0
  9
$CELTYPE
  6
ByLayer
  9
$CECOLOR
 62
   256
  9
$CELTSCALE
 40
1.0
  9
$DISPSILH
 70
     0
  9
$DIMSCALE
 40
1.0
  9
$DIMASZ
 40
0.18
  9
$DIMEXO
 40
0.063
  9
$DIMDLI
 40
0.38
  9
$DIMRND
 40
0.0
  9
$DIMDLE
 40
0.0
  9
$DIMEXE
 40
0.18
  9
$DIMTP
 40
0.0
  9
$DIMTM
 40
0.0
  9
$DIMTXT
 40
0.18
  9
$DIMCEN
 40
0.09
  9
$DIMTSZ
 40
0.0
  9
$DIMTOL
 70
     0
  9
$DIMLIM
 70
     0
  9
$DIMTIH
 70
     1
  9
$DIMTOH
 70
     1
  9
$DIMSE1
 70
     0
  9
$DIMSE2
 70
     0
  9
$DIMTAD
 70
     0
  9
$DIMZIN
 70
     0
  9
$DIMBLK
  1

  9
$DIMASO
 70
     0
  9
$DIMSHO
 70
     1
  9
$DIMPOST
  1

  9
$DIMAPOST
  1

  9
$DIMALT
 70
     0
  9
$DIMALTD
 70
     2
  9
$DIMALTF
 40
25.4
  9
$DIMLFAC
 40
1.0
  9
$DIMTOFL
 70
     0
  9
$DIMTVP
 40
0.0
  9
$DIMTIX
 70
     0
  9
$DIMSOXD
 70
     0
  9
$DIMSAH
 70
     0
  9
$DIMBLK1
  1

  9
$DIMBLK2
  1

  9
$DIMSTYLE
  2
Standard
  9
$DIMCLRD
 70
     0
  9
$DIMCLRE
 70
     0
  9
$DIMCLRT
 70
     0
  9
$DIMTFAC
 40
1.0
  9
$DIMGAP
 40
0.09
  9
$DIMJUST
 70
     0
  9
$DIMSD1
 70
     0
  9
$DIMSD2
 70
     0
  9
$DIMTOLJ
 70
     1
  9
$DIMTZIN
 70
     0
  9
$DIMALTZ
 70
     0
  9
$DIMALTTZ
 70
     0
  9
$DIMUPT
 70
     0
  9
$DIMDEC
 70
     4
  9
$DIMTDEC
 70
     4
  9
$DIMALTU
 70
     2
  9
$DIMALTTD
 70
     2
  9
$DIMTXSTY
  7
STANDARD
  9
$DIMAUNIT
 70
     0
  9
$DIMADEC
 70
     0
  9
$DIMALTRND
 40
0.0
  9
$DIMAZIN
 70
     0
  9
$DIMDSEP
 70
    46
  9
$DIMATFIT
 70
     3
  9
$DIMFRAC
 70
     0
  9
$DIMLDRBLK
  1

  9
$DIMLUNIT
 70
     2
  9
$DIMLWD
 70
    -2
  9
$DIMLWE
 70
    -2
  9
$DIMTMOVE
 70
     0
  9
$LUNITS
 70
     2
  9
$LUPREC
 70
     4
  9
$SKETCHINC
 40
0.1
  9
$FILLETRAD
 40
0.0
  9
$AUNITS
 70
     0
  9
$AUPREC
 70
     0
  9
$MENU
  1
acad
  9
$ELEVATION
 40
0.0
  9
$PELEVATION
 40
0.0
  9
$THICKNESS
 40
0.0
  9
$LIMCHECK
 70
     0
  9
$CHAMFERA
 40
0.0
  9
$CHAMFERB
 40
0.0
  9
$CHAMFERC
 40
1.0
  9
$CHAMFERD
 40
0.0
  9
$SKPOLY
 70
     0
  9
$TDCREATE
 40
2453955.561753067
  9
$TDUCREATE
 40
2453955.895086401
  9
$TDUPDATE
 40
2453955.603419745
  9
$TDUUPDATE
 40
2453955.895086412
  9
$TDINDWG
 40
0.0000000116
  9
$TDUSRTIMER
 40
0.0000000116
  9
$USRTIMER
 70
     1
  9
$ANGBASE
 50
0.0
  9
$ANGDIR
 70
     0
  9
$PDMODE
 70
     0
  9
$PDSIZE
 40
0.0
  9
$PLINEWID
 40
0.0
  9
$SPLFRAME
 70
     0
  9
$SPLINETYPE
 70
     6
  9
$SPLINESEGS
 70
     8
  9
$HANDSEED
  5
558
  9
$SURFTAB1
 70
     6
  9
$SURFTAB2
 70
     6
  9
$SURFTYPE
 70
     6
  9
$SURFU
 70
     6
  9
$SURFV
 70
     6
  9
$UCSBASE
  2

  9
$UCSNAME
  2

  9
$UCSORG
 10
0.0
 20
0.0
 30
0.0
  9
$UCSXDIR
 10
1.0
 20
0.0
 30
0.0
  9
$UCSYDIR
 10
0.0
 20
1.0
 30
0.0
  9
$UCSORTHOREF
  2

  9
$UCSORTHOVIEW
 70
     0
  9
$UCSORGTOP
 10
0.0
 20
0.0
 30
0.0
  9
$UCSORGBOTTOM
 10
0.0
 20
0.0
 30
0.0
  9
$UCSORGLEFT
 10
0.0
 20
0.0
 30
0.0
  9
$UCSORGRIGHT
 10
0.0
 20
0.0
 30
0.0
  9
$UCSORGFRONT
 10
0.0
 20
0.0
 30
0.0
  9
$UCSORGBACK
 10
0.0
 20
0.0
 30
0.0
  9
$PUCSBASE
  2

  9
$PUCSNAME
  2

  9
$PUCSORG
 10
0.0
 20
0.0
 30
0.0
  9
$PUCSXDIR
 10
1.0
 20
0.0
 30
0.0
  9
$PUCSYDIR
 10
0.0
 20
1.0
 30
0.0
  9
$PUCSORTHOREF
  2

  9
$PUCSORTHOVIEW
 70
     0
  9
$PUCSORGTOP
 10
0.0
 20
0.0
 30
0.0
  9
$PUCSORGBOTTOM
 10
0.0
 20
0.0
 30
0.0
  9
$PUCSORGLEFT
 10
0.0
 20
0.0
 30
0.0
  9
$PUCSORGRIGHT
 10
0.0
 20
0.0
 30
0.0
  9
$PUCSORGFRONT
 10
0.0
 20
0.0
 30
0.0
  9
$PUCSORGBACK
 10
0.0
 20
0.0
 30
0.0
  9
$USERI1
 70
     0
  9
$USERI2
 70
     0
  9
$USERI3
 70
     0
  9
$USERI4
 70
     0
  9
$USERI5
 70
     0
  9
$USERR1
 40
0.0
  9
$USERR2
 40
0.0
  9
$USERR3
 40
0.0
  9
$USERR4
 40
0.0
  9
$USERR5
 40
0.0
  9
$WORLDVIEW
 70
     1
  9
$SHADEDGE
 70
     3
  9
$SHADEDIF
 70
    70
  9
$TILEMODE
 70
     1
  9
$MAXACTVP
 70
    16
  9
$PINSBASE
 10
0.0
 20
0.0
 30
0.0
  9
$PLIMCHECK
 70
     0
  9
$PEXTMIN
 10
1.000000000000000E+20
 20
1.000000000000000E+20
 30
1.000000000000000E+20
  9
$PEXTMAX
 10
-1.000000000000000E+20
 20
-1.000000000000000E+20
 30
-1.000000000000000E+20
  9
$PLIMMIN
 10
0.0
 20
0.0
  9
$PLIMMAX
 10
12.0
 20
9.0
  9
$UNITMODE
 70
     0
  9
$VISRETAIN
 70
     0
  9
$PLINEGEN
 70
     0
  9
$PSLTSCALE
 70
     1
  9
$TREEDEPTH
 70
  3020
  9
$CMLSTYLE
  2
Standard
  9
$CMLJUST
 70
     0
  9
$CMLSCALE
 40
1.0
  9
$PROXYGRAPHICS
 70
     1
  9
$MEASUREMENT
 70
     0
  9
$CELWEIGHT
370
    -1
  9
$ENDCAPS
280
     0
  9
$JOINSTYLE
280
     0
  9
$LWDISPLAY
290
     0
  9
$INSUNITS
 70
     1
  9
$HYPERLINKBASE
  1

  9
$STYLESHEET
  1

  9
$XEDIT
290
     1
  9
$CEPSNTYPE
380
     0
  9
$PSTYLEMODE
290
     0
  9
$FINGERPRINTGUID
  2
{FAEB1C30-E019-11D5-929B-00C0DF256EC4}
  9
$VERSIONGUID
  2
{FAEB1C32-E019-11D5-929B-00C0DF256EC4}
  9
$EXTNAMES
290
     1
  9
$PSVPSCALE
 40
0.0
  9
$OLESTARTUP
290
     0
  0
ENDSEC
  0
SECTION
  2
CLASSES
  0
CLASS
  1
ACDBDICTIONARYWDFLT
  2
AcDbDictionaryWithDefault
  3
AutoCAD 2000
 90
        0
280
     0
281
     0
  0
CLASS
  1
ACDBPLACEHOLDER
  2
AcDbPlaceHolder
  3
ObjectDBX Classes
 90
        0
280
     0
281
     0
  0
CLASS
  1
LAYOUT
  2
AcDbLayout
  3
ObjectDBX Classes
 90
        0
280
     0
281
     0
  0
ENDSEC
  0
SECTION
  2
TABLES
  0
TABLE
  2
VPORT
  5
8
330
0
100
AcDbSymbolTable
 70
     2
  0
VPORT
  5
1E
330
8
100
AcDbSymbolTableRecord
100
AcDbViewportTableRecord
  2
*ACTIVE
 70
     0
 10
0.0
 20
0.0
 11
1.0
 21
1.0
 12
6.243341404358354
 22
4.5
 13
0.0
 23
0.0
 14
1.0
 24
1.0
 15
0.0
 25
0.0
 16
0.0
 26
0.0
 36
1.0
 17
0.0
 27
0.0
 37
0.0
 40
9.0
 41
0.7207678883071553
 42
50.0
 43
0.0
 44
0.0
 50
0.0
 51
0.0
 71
     0
 72
  2000
 73
     1
 74
     0
 75
     0
 76
     0
 77
     0
 78
     0
281
     0
 65
     1
110
0.0
120
0.0
130
0.0
111
1.0
121
0.0
131
0.0
112
0.0
122
1.0
132
0.0
 79
     0
146
0.0
  0
ENDTAB
  0
TABLE
  2
LTYPE
  5
5
330
0
100
AcDbSymbolTable
 70
     1
  0
LTYPE
  5
10
330
5
100
AcDbSymbolTableRecord
100
AcDbLinetypeTableRecord
  2
ByBlock
 70
     0
  3

 72
    65
 73
     0
 40
0.0
  0
LTYPE
  5
11
330
5
100
AcDbSymbolTableRecord
100
AcDbLinetypeTableRecord
  2
ByLayer
 70
     0
  3

 72
    65
 73
     0
 40
0.0
  0
LTYPE
  5
1B
330
5
100
AcDbSymbolTableRecord
100
AcDbLinetypeTableRecord
  2
CONTINUOUS
 70
     0
  3
Solid line
 72
    65
 73
     0
 40
0.0
  0
ENDTAB
  0
TABLE
  2
LAYER
  5
2
330
0
100
AcDbSymbolTable
 70
     1
  0
LAYER
  5
1C
330
2
100
AcDbSymbolTableRecord
100
AcDbLayerTableRecord
  2
0
 70
     0
 62
     7
  6
CONTINUOUS
370
    -3
390
F
  0
ENDTAB
  0
TABLE
  2
STYLE
  5
3
330
0
100
AcDbSymbolTable
 70
     1
  0
STYLE
  5
21
330
3
100
AcDbSymbolTableRecord
100
AcDbTextStyleTableRecord
  2
STANDARD
 70
     0
 40
0.0
 41
1.0
 50
0.0
 71
     0
 42
0.175
  3
ROMANS.shx
  4

  0
ENDTAB
  0
TABLE
  2
VIEW
  5
6
330
0
100
AcDbSymbolTable
 70
     1
  0
VIEW
  5
20
330
6
100
AcDbSymbolTableRecord
100
AcDbViewTableRecord
  2
1
 70
     0
 40
8.0
 10
5.183
 20
4.0
 41
10.366
 11
0.0
 21
0.0
 31
1.0
 12
0.0
 22
0.0
 32
0.0
 42
50.0
 43
0.0
 44
0.0
 50
0.0
 71
     0
281
     0
 72
     0
  0
ENDTAB
  0
TABLE
  2
UCS
  5
7
330
0
100
AcDbSymbolTable
 70
     0
  0
ENDTAB
  0
TABLE
  2
APPID
  5
9
330
0
100
AcDbSymbolTable
 70
     1
  0
APPID
  5
1F
330
9
100
AcDbSymbolTableRecord
100
AcDbRegAppTableRecord
  2
ACAD
 70
     0
  0
ENDTAB
  0
TABLE
  2
DIMSTYLE
  5
A
330
0
100
AcDbSymbolTable
 70
     1
100
AcDbDimStyleTable
  0
DIMSTYLE
105
22
330
A
100
AcDbSymbolTableRecord
100
AcDbDimStyleTableRecord
  2
Standard
 70
     0
  3

  4

340
21
  0
ENDTAB
  0
TABLE
  2
BLOCK_RECORD
  5
1
330
0
100
AcDbSymbolTable
 70
     0
  0
BLOCK_RECORD
  5
18
330
1
100
AcDbSymbolTableRecord
100
AcDbBlockTableRecord
  2
*Model_Space
340
19
  0
BLOCK_RECORD
  5
16
330
1
100
AcDbSymbolTableRecord
100
AcDbBlockTableRecord
  2
*Paper_Space
340
17
  0
ENDTAB
  0
ENDSEC
  0
SECTION
  2
BLOCKS
  0
BLOCK
  5
54D
330
18
100
AcDbEntity
  8
0
100
AcDbBlockBegin
  2
*Model_Space
 70
     0
 10
0.0
 20
0.0
 30
0.0
  3
*Model_Space
  1

  4

  0
ENDBLK
  5
54E
330
18
100
AcDbEntity
  8
0
100
AcDbBlockEnd
  0
BLOCK
  5
54B
330
16
100
AcDbEntity
 67
     1
  8
0
100
AcDbBlockBegin
  2
*Paper_Space
 70
     0
 10
0.0
 20
0.0
 30
0.0
  3
*Paper_Space
  1

  4

  0
ENDBLK
  5
54C
330
16
100
AcDbEntity
 67
     1
  8
0
100
AcDbBlockEnd
  0
ENDSEC
  0
SECTION
  2
ENTITIES
  0
LINE
  5
23
330
18
100
AcDbEntity
  8
0
100
AcDbLine
 10
3.047
 20
1.417
 30
0.0
 11
3.047
 21
2.647
 31
0.0
  0
LINE
  5
24
330
18
100
AcDbEntity
  8
0
100
AcDbLine
 10
3.047
 20
1.417
 30
0.0
 11
3.54
 21
1.32
 31
0.0
  0
LINE
  5
25
330
18
100
AcDbEntity
  8
0
100
AcDbLine
 10
3.54
 20
1.32
 30
0.0
 11
3.54
 21
2.598
 31
0.0
  0
LINE
  5
26
330
18
100
AcDbEntity
  8
0
100
AcDbLine
 10
3.54
 20
1.32
 30
0.0
 11
3.859
 21
1.466
 31
0.0
  0
LINE
  5
27
330
18
100
AcDbEntity
  8
0
100
AcDbLine
 10
4.302
 20
1.668
 30
0.0
 11
4.302
 21
2.522
 31
0.0
  0
LINE
  5
28
330
18
100
AcDbEntity
  8
0
100
AcDbLine
 10
5.085
 20
2.445
 30
0.0
 11
0.102
 21
2.939
 31
0.0
  0
LINE
  5
29
330
18
100
AcDbEntity
  8
0
100
AcDbLine
 10
0.102
 20
2.939
 30
0.0
 11
0.102
 21
3.439
 31
0.0
  0
LINE
  5
2A
330
18
100
AcDbEntity
  8
0
100
AcDbLine
 10
5.085
 20
2.445
 30
0.0
 11
5.085
 21
3.072
 31
0.0
  0
LINE
  5
2B
330
18
100
AcDbEntity
  8
0
100
AcDbLine
 10
0.482
 20
3.408
 30
0.0
 11
0.482
 21
3.868
 31
0.0
  0
LINE
  5
2C
330
18
100
AcDbEntity
  8
0
100
AcDbLine
 10
0.482
 20
3.868
 30
0.0
 11
0.374
 21
4.268
 31
0.0
  0
LINE
  5
2D
330
18
100
AcDbEntity
  8
0
100
AcDbLine
 10
0.031
 20
5.539
 30
0.0
 11
0.377
 21
5.803999999999999
 31
0.0
  0
LINE
  5
2E
330
18
100
AcDbEntity
  8
0
100
AcDbLine
 10
5.311
 20
3.659
 30
0.0
 11
5.311
 21
3.055
 31
0.0
  0
LINE
  5
2F
330
18
100
AcDbEntity
  8
0
100
AcDbLine
 10
6.037000000000001
 20
3.782
 30
0.0
 11
6.037000000000001
 21
3.268
 31
0.0
  0
LINE
  5
30
330
18
100
AcDbEntity
  8
0
100
AcDbLine
 10
0.102
 20
3.439
 30
0.0
 11
0.482
 21
3.506
 31
0.0
  0
LINE
  5
31
330
18
100
AcDbEntity
  8
0
100
AcDbLine
 10
5.085
 20
2.445
 30
0.0
 11
5.391
 21
2.547
 31
0.0
  0
LINE
  5
32
330
18
100
AcDbEntity
  8
0
100
AcDbLine
 10
5.814
 20
2.689
 30
0.0
 11
5.814
 21
3.139
 31
0.0
  0
LINE
  5
33
330
18
100
AcDbEntity
  8
0
100
AcDbLine
 10
5.311
 20
3.055
 30
0.0
 11
4.257
 21
3.133
 31
0.0
  0
LINE
  5
34
330
18
100
AcDbEntity
  8
0
100
AcDbLine
 10
5.311
 20
3.055
 30
0.0
 11
5.638999999999999
 21
3.151
 31
0.0
  0
LINE
  5
35
330
18
100
AcDbEntity
  8
0
100
AcDbLine
 10
5.311
 20
3.659
 30
0.0
 11
5.638999999999999
 21
3.715
 31
0.0
  0
LINE
  5
36
330
18
100
AcDbEntity
  8
0
100
AcDbLine
 10
5.311
 20
3.659
 30
0.0
 11
4.257
 21
3.705
 31
0.0
  0
LINE
  5
37
330
18
100
AcDbEntity
  8
0
100
AcDbLine
 10
5.26
 20
3.662
 30
0.0
 11
5.083
 21
4.305
 31
0.0
  0
LINE
  5
38
330
18
100
AcDbEntity
  8
0
100
AcDbLine
 10
4.66
 20
5.843999999999999
 30
0.0
 11
5.047
 21
6.178
 31
0.0
  0
LINE
  5
39
330
18
100
AcDbEntity
  8
0
100
AcDbLine
 10
0.031
 20
5.539
 30
0.0
 11
2.403
 21
5.695
 31
0.0
  0
LINE
  5
3A
330
18
100
AcDbEntity
  8
0
100
AcDbLine
 10
5.047
 20
6.178
 30
0.0
 11
3.383
 21
6.045
 31
0.0
  0
LINE
  5
3B
330
18
100
AcDbEntity
  8
0
100
AcDbLine
 10
5.047
 20
6.178
 30
0.0
 11
5.382000000000001
 21
4.979
 31
0.0
  0
LINE
  5
3C
330
18
100
AcDbEntity
  8
0
100
AcDbLine
 10
5.26
 20
3.662
 30
0.0
 11
5.657
 21
4.0
 31
0.0
  0
LINE
  5
3D
330
18
100
AcDbEntity
  8
0
100
AcDbLine
 10
6.037000000000001
 20
3.782
 30
0.0
 11
5.442
 21
3.817
 31
0.0
  0
LINE
  5
3E
330
18
100
AcDbEntity
  8
0
100
AcDbLine
 10
2.642
 20
3.094
 30
0.0
 11
3.472
 21
3.739
 31
0.0
  0
LINE
  5
3F
330
18
100
AcDbEntity
  8
0
100
AcDbLine
 10
5.655
 20
7.824
 30
0.0
 11
2.098
 21
5.038
 31
0.0
  0
LINE
  5
40
330
18
100
AcDbEntity
  8
0
100
AcDbLine
 10
2.098
 20
5.038
 30
0.0
 11
2.642
 21
3.094
 31
0.0
  0
LINE
  5
41
330
18
100
AcDbEntity
  8
0
100
AcDbLine
 10
2.642
 20
3.094
 30
0.0
 11
2.152
 21
3.13
 31
0.0
  0
LINE
  5
42
330
18
100
AcDbEntity
  8
0
100
AcDbLine
 10
2.152
 20
3.13
 30
0.0
 11
1.568
 21
5.041
 31
0.0
  0
LINE
  5
43
330
18
100
AcDbEntity
  8
0
100
AcDbLine
 10
1.568
 20
5.041
 30
0.0
 11
2.098
 21
5.038
 31
0.0
  0
LINE
  5
44
330
18
100
AcDbEntity
  8
0
100
AcDbLine
 10
3.199
 20
4.957
 30
0.0
 11
2.985
 21
5.734
 31
0.0
  0
LINE
  5
45
330
18
100
AcDbEntity
  8
0
100
AcDbLine
 10
2.789
 20
5.997999999999999
 30
0.0
 11
0.377
 21
5.803999999999999
 31
0.0
  0
LINE
  5
46
330
18
100
AcDbEntity
  8
0
100
AcDbLine
 10
2.985
 20
5.734
 30
0.0
 11
4.66
 21
5.843999999999999
 31
0.0
  0
LINE
  5
47
330
18
100
AcDbEntity
  8
0
100
AcDbLine
 10
2.103
 20
3.292
 30
0.0
 11
0.102
 21
3.439
 31
0.0
  0
LINE
  5
48
330
18
100
AcDbEntity
  8
0
100
AcDbLine
 10
1.946
 20
3.804
 30
0.0
 11
0.482
 21
3.868
 31
0.0
  0
LINE
  5
49
330
18
100
AcDbEntity
  8
0
100
AcDbLine
 10
5.327000000000001
 20
5.178999999999999
 30
0.0
 11
6.205
 21
5.86
 31
0.0
  0
LINE
  5
4A
330
18
100
AcDbEntity
  8
0
100
AcDbLine
 10
5.655
 20
7.824
 30
0.0
 11
5.893
 21
6.973
 31
0.0
  0
LINE
  5
4B
330
18
100
AcDbEntity
  8
0
100
AcDbLine
 10
5.125
 20
7.827000000000001
 30
0.0
 11
5.655
 21
7.824
 31
0.0
  0
LINE
  5
4C
330
18
100
AcDbEntity
  8
0
100
AcDbLine
 10
1.568
 20
5.041
 30
0.0
 11
5.125
 21
7.827000000000001
 31
0.0
  0
LINE
  5
4D
330
18
100
AcDbEntity
  8
0
100
AcDbLine
 10
5.893
 20
6.973
 30
0.0
 11
6.026
 21
6.968
 31
0.0
  0
LINE
  5
4E
330
18
100
AcDbEntity
  8
0
100
AcDbLine
 10
5.84
 20
6.695
 30
0.0
 11
5.972
 21
6.69
 31
0.0
  0
LINE
  5
4F
330
18
100
AcDbEntity
  8
0
100
AcDbLine
 10
5.84
 20
6.695
 30
0.0
 11
6.026
 21
6.968
 31
0.0
  0
LINE
  5
50
330
18
100
AcDbEntity
  8
0
100
AcDbLine
 10
5.972
 20
6.69
 30
0.0
 11
6.205
 21
5.86
 31
0.0
  0
LINE
  5
51
330
18
100
AcDbEntity
  8
0
100
AcDbLine
 10
2.446
 20
3.109
 30
0.0
 11
2.63
 21
2.815
 31
0.0
  0
LINE
  5
52
330
18
100
AcDbEntity
  8
0
100
AcDbLine
 10
3.892
 20
2.69
 30
0.0
 11
3.328
 21
2.746
 31
0.0
  0
LINE
  5
53
330
18
100
AcDbEntity
  8
0
100
AcDbLine
 10
3.892
 20
2.69
 30
0.0
 11
4.2
 21
2.941
 31
0.0
  0
LINE
  5
54
330
18
100
AcDbEntity
  8
0
100
AcDbLine
 10
4.2
 20
2.941
 30
0.0
 11
4.2
 21
3.707
 31
0.0
  0
LINE
  5
55
330
18
100
AcDbEntity
  8
0
100
AcDbLine
 10
4.257
 20
2.96
 30
0.0
 11
4.257
 21
3.705
 31
0.0
  0
LINE
  5
56
330
18
100
AcDbEntity
  8
0
100
AcDbLine
 10
3.95
 20
2.709
 30
0.0
 11
4.257
 21
2.96
 31
0.0
  0
LINE
  5
57
330
18
100
AcDbEntity
  8
0
100
AcDbLine
 10
3.892
 20
2.69
 30
0.0
 11
3.95
 21
2.709
 31
0.0
  0
LINE
  5
58
330
18
100
AcDbEntity
  8
0
100
AcDbLine
 10
4.2
 20
3.707
 30
0.0
 11
3.938
 21
4.663
 31
0.0
  0
LINE
  5
59
330
18
100
AcDbEntity
  8
0
100
AcDbLine
 10
4.257
 20
3.705
 30
0.0
 11
3.984
 21
4.702
 31
0.0
  0
LINE
  5
5A
330
18
100
AcDbEntity
  8
0
100
AcDbLine
 10
3.938
 20
4.663
 30
0.0
 11
3.534
 21
4.945
 31
0.0
  0
LINE
  5
5B
330
18
100
AcDbEntity
  8
0
100
AcDbLine
 10
3.984
 20
4.702
 30
0.0
 11
3.58
 21
4.984
 31
0.0
  0
LINE
  5
5C
330
18
100
AcDbEntity
  8
0
100
AcDbLine
 10
3.224
 20
4.924
 30
0.0
 11
3.534
 21
4.945
 31
0.0
  0
LINE
  5
5D
330
18
100
AcDbEntity
  8
0
100
AcDbLine
 10
3.211
 20
4.959
 30
0.0
 11
3.58
 21
4.984
 31
0.0
  0
LINE
  5
5E
330
18
100
AcDbEntity
  8
0
100
AcDbLine
 10
3.195
 20
4.913
 30
0.0
 11
3.011
 21
4.769
 31
0.0
  0
LINE
  5
5F
330
18
100
AcDbEntity
  8
0
100
AcDbLine
 10
3.188
 20
4.951000000000001
 30
0.0
 11
2.967
 21
4.778000000000001
 31
0.0
  0
ARC
  5
60
330
18
100
AcDbEntity
  8
0
100
AcDbCircle
 10
3.213
 20
4.918
 30
0.0
 40
0.041
100
AcDbArc
 50
93.76299999999999
 51
128.065
  0
ARC
  5
61
330
18
100
AcDbEntity
  8
0
100
AcDbCircle
 10
3.227
 20
4.873
 30
0.0
 40
0.051
100
AcDbArc
 50
93.76299999999999
 51
128.065
  0
LINE
  5
62
330
18
100
AcDbEntity
  8
0
100
AcDbLine
 10
3.011
 20
4.769
 30
0.0
 11
3.002
 21
4.694
 31
0.0
  0
LINE
  5
63
330
18
100
AcDbEntity
  8
0
100
AcDbLine
 10
3.002
 20
4.694
 30
0.0
 11
3.253
 21
3.797
 31
0.0
  0
LINE
  5
64
330
18
100
AcDbEntity
  8
0
100
AcDbLine
 10
2.967
 20
4.778000000000001
 30
0.0
 11
2.957
 21
4.695
 31
0.0
  0
LINE
  5
65
330
18
100
AcDbEntity
  8
0
100
AcDbLine
 10
2.957
 20
4.695
 30
0.0
 11
3.208
 21
3.797
 31
0.0
  0
LINE
  5
66
330
18
100
AcDbEntity
  8
0
100
AcDbLine
 10
3.253
 20
3.797
 30
0.0
 11
3.308
 21
3.839
 31
0.0
  0
LINE
  5
67
330
18
100
AcDbEntity
  8
0
100
AcDbLine
 10
3.208
 20
3.797
 30
0.0
 11
3.253
 21
3.797
 31
0.0
  0
LINE
  5
68
330
18
100
AcDbEntity
  8
0
100
AcDbLine
 10
3.308
 20
3.839
 30
0.0
 11
3.472
 21
3.755
 31
0.0
  0
LINE
  5
69
330
18
100
AcDbEntity
  8
0
100
AcDbLine
 10
3.534
 20
3.799
 30
0.0
 11
3.254
 21
4.818000000000001
 31
0.0
  0
LINE
  5
6A
330
18
100
AcDbEntity
  8
0
100
AcDbLine
 10
3.502
 20
3.791
 30
0.0
 11
3.222
 21
4.808
 31
0.0
  0
LINE
  5
6B
330
18
100
AcDbEntity
  8
0
100
AcDbLine
 10
3.559
 20
3.752
 30
0.0
 11
3.472
 21
3.755
 31
0.0
  0
LINE
  5
6C
330
18
100
AcDbEntity
  8
0
100
AcDbLine
 10
3.881
 20
4.474
 30
0.0
 11
3.389
 21
4.817
 31
0.0
  0
LINE
  5
6D
330
18
100
AcDbEntity
  8
0
100
AcDbLine
 10
3.828
 20
4.417
 30
0.0
 11
3.336
 21
4.761
 31
0.0
  0
ARC
  5
6E
330
18
100
AcDbEntity
  8
0
100
AcDbCircle
 10
3.363
 20
4.788
 30
0.0
 40
0.039
100
AcDbArc
 50
48.092
 51
225.993
  0
ARC
  5
6F
330
18
100
AcDbEntity
  8
0
100
AcDbCircle
 10
3.854
 20
4.446000000000001
 30
0.0
 40
0.039
100
AcDbArc
 50
228.092
 51
45.993
  0
ARC
  5
70
330
18
100
AcDbEntity
  8
0
100
AcDbCircle
 10
3.989
 20
3.982
 30
0.0
 40
0.039
100
AcDbArc
 50
228.092
 51
45.993
  0
LINE
  5
71
330
18
100
AcDbEntity
  8
0
100
AcDbLine
 10
4.016
 20
4.01
 30
0.0
 11
3.523
 21
4.354
 31
0.0
  0
LINE
  5
72
330
18
100
AcDbEntity
  8
0
100
AcDbLine
 10
3.963
 20
3.953
 30
0.0
 11
3.47
 21
4.297
 31
0.0
  0
ARC
  5
73
330
18
100
AcDbEntity
  8
0
100
AcDbCircle
 10
3.497
 20
4.325
 30
0.0
 40
0.039
100
AcDbArc
 50
48.092
 51
225.993
  0
LWPOLYLINE
  5
74
330
18
100
AcDbEntity
  8
0
100
AcDbPolyline
 90
       16
 70
     1
 43
0.0
 10
3.295
 20
4.0
 42
0.135
 10
3.286
 20
3.995
 42
0.107
 10
3.279
 20
3.983
 42
0.082
 10
3.277
 20
3.97
 42
0.07
 10
3.279
 20
3.954
 42
0.07
 10
3.285
 20
3.939
 42
0.082
 10
3.295
 20
3.929
 42
0.107
 10
3.306
 20
3.923
 42
0.135
 10
3.317
 20
3.923
 42
0.135
 10
3.326
 20
3.928
 42
0.107
 10
3.333
 20
3.939
 42
0.082
 10
3.335
 20
3.953
 42
0.07
 10
3.333
 20
3.969
 42
0.07
 10
3.326
 20
3.984
 42
0.082
 10
3.317
 20
3.994
 42
0.107
 10
3.306
 20
4.0
 42
0.135
  0
LWPOLYLINE
  5
87
330
18
100
AcDbEntity
  8
0
100
AcDbPolyline
 90
       10
 70
     0
 43
0.0
 10
3.281
 20
3.999
 42
0.135
 10
3.272
 20
3.994
 42
0.107
 10
3.265
 20
3.983
 42
0.082
 10
3.262
 20
3.969
 42
0.07
 10
3.264
 20
3.953
 42
0.07
 10
3.271
 20
3.938
 42
0.082
 10
3.28
 20
3.928
 42
0.107
 10
3.292
 20
3.922
 42
0.135
 10
3.302
 20
3.922
 42
0.038
 10
3.305
 20
3.923
 42
0.107
  0
LWPOLYLINE
  5
94
330
18
100
AcDbEntity
  8
0
100
AcDbPolyline
 90
        3
 70
     0
 43
0.0
 10
3.292
 20
3.999
 42
0.01
 10
3.291
 20
3.999
 42
0.135
 10
3.281
 20
3.999
 42
0.135
  0
LWPOLYLINE
  5
9A
330
18
100
AcDbEntity
  8
0
100
AcDbPolyline
 90
       10
 70
     0
 43
0.0
 10
3.22
 20
4.214
 42
0.135
 10
3.211
 20
4.209
 42
0.107
 10
3.204
 20
4.197
 42
0.082
 10
3.202
 20
4.184
 42
0.07
 10
3.204
 20
4.168
 42
0.07
 10
3.211
 20
4.153000000000001
 42
0.082
 10
3.22
 20
4.143
 42
0.107
 10
3.231
 20
4.137
 42
0.135
 10
3.242
 20
4.137
 42
0.038
 10
3.245
 20
4.138
 42
0.107
  0
LWPOLYLINE
  5
A7
330
18
100
AcDbEntity
  8
0
100
AcDbPolyline
 90
       16
 70
     1
 43
0.0
 10
3.235
 20
4.215
 42
0.135
 10
3.226
 20
4.209
 42
0.107
 10
3.219
 20
4.198
 42
0.082
 10
3.217
 20
4.185
 42
0.07
 10
3.219
 20
4.169
 42
0.07
 10
3.225
 20
4.154
 42
0.082
 10
3.234
 20
4.144
 42
0.107
 10
3.246
 20
4.138
 42
0.135
 10
3.257
 20
4.138
 42
0.135
 10
3.265
 20
4.143
 42
0.107
 10
3.272
 20
4.154
 42
0.082
 10
3.275
 20
4.168
 42
0.07
 10
3.273
 20
4.184
 42
0.07
 10
3.266
 20
4.198
 42
0.082
 10
3.257
 20
4.209
 42
0.107
 10
3.245
 20
4.215
 42
0.135
  0
LWPOLYLINE
  5
BA
330
18
100
AcDbEntity
  8
0
100
AcDbPolyline
 90
        3
 70
     0
 43
0.0
 10
3.232
 20
4.214
 42
0.01
 10
3.231
 20
4.214
 42
0.135
 10
3.22
 20
4.214
 42
0.135
  0
LWPOLYLINE
  5
C0
330
18
100
AcDbEntity
  8
0
100
AcDbPolyline
 90
       10
 70
     0
 43
0.0
 10
3.158
 20
4.437
 42
0.135
 10
3.149
 20
4.432
 42
0.107
 10
3.142
 20
4.421
 42
0.082
 10
3.14
 20
4.407
 42
0.07
 10
3.142
 20
4.391
 42
0.07
 10
3.148
 20
4.377
 42
0.082
 10
3.157
 20
4.366000000000001
 42
0.107
 10
3.169
 20
4.36
 42
0.135
 10
3.179
 20
4.36
 42
0.038
 10
3.182
 20
4.361000000000001
 42
0.107
  0
LWPOLYLINE
  5
CD
330
18
100
AcDbEntity
  8
0
100
AcDbPolyline
 90
       16
 70
     1
 43
0.0
 10
3.172
 20
4.438
 42
0.135
 10
3.163
 20
4.433
 42
0.107
 10
3.157
 20
4.421
 42
0.082
 10
3.154
 20
4.408
 42
0.07
 10
3.156
 20
4.392
 42
0.07
 10
3.163
 20
4.377
 42
0.082
 10
3.172
 20
4.367
 42
0.107
 10
3.183
 20
4.361000000000001
 42
0.135
 10
3.194
 20
4.361000000000001
 42
0.135
 10
3.203
 20
4.366000000000001
 42
0.107
 10
3.21
 20
4.378
 42
0.082
 10
3.212
 20
4.391
 42
0.07
 10
3.21
 20
4.407
 42
0.07
 10
3.204
 20
4.422
 42
0.082
 10
3.195
 20
4.432
 42
0.107
 10
3.183
 20
4.438
 42
0.135
  0
LWPOLYLINE
  5
E0
330
18
100
AcDbEntity
  8
0
100
AcDbPolyline
 90
        3
 70
     0
 43
0.0
 10
3.169
 20
4.437
 42
0.01
 10
3.168
 20
4.437
 42
0.135
 10
3.158
 20
4.437
 42
0.135
  0
LWPOLYLINE
  5
E6
330
18
100
AcDbEntity
  8
0
100
AcDbPolyline
 90
       10
 70
     0
 43
0.0
 10
3.1
 20
4.643
 42
0.135
 10
3.091
 20
4.638
 42
0.107
 10
3.084
 20
4.627
 42
0.082
 10
3.082
 20
4.613
 42
0.07
 10
3.084
 20
4.597
 42
0.07
 10
3.09
 20
4.582
 42
0.082
 10
3.1
 20
4.572
 42
0.107
 10
3.111
 20
4.566
 42
0.135
 10
3.122
 20
4.566
 42
0.038
 10
3.125
 20
4.567
 42
0.107
  0
LWPOLYLINE
  5
F3
330
18
100
AcDbEntity
  8
0
100
AcDbPolyline
 90
       16
 70
     1
 43
0.0
 10
3.115
 20
4.644
 42
0.135
 10
3.106
 20
4.638999999999999
 42
0.107
 10
3.099
 20
4.627
 42
0.082
 10
3.096
 20
4.614
 42
0.07
 10
3.099
 20
4.598
 42
0.07
 10
3.105
 20
4.583
 42
0.082
 10
3.114
 20
4.573
 42
0.107
 10
3.126
 20
4.567
 42
0.135
 10
3.136
 20
4.567
 42
0.135
 10
3.145
 20
4.572
 42
0.107
 10
3.152
 20
4.583
 42
0.082
 10
3.154
 20
4.597
 42
0.07
 10
3.152
 20
4.613
 42
0.07
 10
3.146
 20
4.628
 42
0.082
 10
3.137
 20
4.638
 42
0.107
 10
3.125
 20
4.644
 42
0.135
  0
LWPOLYLINE
  5
106
330
18
100
AcDbEntity
  8
0
100
AcDbPolyline
 90
        3
 70
     0
 43
0.0
 10
3.112
 20
4.643
 42
0.01
 10
3.111
 20
4.643
 42
0.135
 10
3.1
 20
4.643
 42
0.135
  0
LWPOLYLINE
  5
10C
330
18
100
AcDbEntity
  8
0
100
AcDbPolyline
 90
       16
 70
     1
 43
0.0
 10
3.888
 20
3.896
 42
0.124
 10
3.9
 20
3.902
 42
0.106
 10
3.908
 20
3.915
 42
0.087
 10
3.912
 20
3.931
 42
0.077
 10
3.91
 20
3.949
 42
0.077
 10
3.902
 20
3.965
 42
0.087
 10
3.891
 20
3.977
 42
0.106
 10
3.877
 20
3.984
 42
0.124
 10
3.864
 20
3.984
 42
0.124
 10
3.852
 20
3.977
 42
0.106
 10
3.843
 20
3.964
 42
0.087
 10
3.84
 20
3.948
 42
0.077
 10
3.842
 20
3.93
 42
0.077
 10
3.85
 20
3.914
 42
0.087
 10
3.861
 20
3.902
 42
0.106
 10
3.875
 20
3.896
 42
0.124
  0
LWPOLYLINE
  5
11F
330
18
100
AcDbEntity
  8
0
100
AcDbPolyline
 90
       10
 70
     0
 43
0.0
 10
3.857
 20
3.981
 42
0.071
 10
3.85
 20
3.98
 42
0.124
 10
3.838
 20
3.973
 42
0.106
 10
3.829
 20
3.96
 42
0.087
 10
3.826
 20
3.945
 42
0.077
 10
3.828
 20
3.927
 42
0.077
 10
3.835
 20
3.91
 42
0.087
 10
3.846
 20
3.898
 42
0.106
 10
3.86
 20
3.892
 42
0.124
 10
3.874
 20
3.892
 42
0.124
  0
LWPOLYLINE
  5
12C
330
18
100
AcDbEntity
  8
0
100
AcDbPolyline
 90
        2
 70
     0
 43
0.0
 10
3.874
 20
3.892
 42
0.067
 10
3.88
 20
3.895
 42
0.031
  0
LWPOLYLINE
  5
131
330
18
100
AcDbEntity
  8
0
100
AcDbPolyline
 90
       10
 70
     0
 43
0.0
 10
3.744
 20
4.396
 42
0.071
 10
3.736
 20
4.395
 42
0.124
 10
3.725
 20
4.388999999999999
 42
0.106
 10
3.716
 20
4.376
 42
0.087
 10
3.713
 20
4.36
 42
0.077
 10
3.715
 20
4.342
 42
0.077
 10
3.722
 20
4.326000000000001
 42
0.087
 10
3.733
 20
4.314
 42
0.106
 10
3.747
 20
4.307
 42
0.124
 10
3.761
 20
4.308
 42
0.124
  0
LWPOLYLINE
  5
13E
330
18
100
AcDbEntity
  8
0
100
AcDbPolyline
 90
       16
 70
     1
 43
0.0
 10
3.775
 20
4.311
 42
0.124
 10
3.786
 20
4.318000000000001
 42
0.106
 10
3.795
 20
4.331
 42
0.087
 10
3.799
 20
4.347
 42
0.077
 10
3.797
 20
4.365
 42
0.077
 10
3.789
 20
4.381
 42
0.087
 10
3.778
 20
4.393
 42
0.106
 10
3.764
 20
4.399
 42
0.124
 10
3.751
 20
4.399
 42
0.124
 10
3.739
 20
4.393
 42
0.106
 10
3.73
 20
4.38
 42
0.087
 10
3.727
 20
4.364
 42
0.077
 10
3.729
 20
4.346
 42
0.077
 10
3.736
 20
4.33
 42
0.087
 10
3.747
 20
4.318000000000001
 42
0.106
 10
3.762
 20
4.311
 42
0.124
  0
LWPOLYLINE
  5
151
330
18
100
AcDbEntity
  8
0
100
AcDbPolyline
 90
        2
 70
     0
 43
0.0
 10
3.761
 20
4.308
 42
0.067
 10
3.767
 20
4.31
 42
0.031
  0
LINE
  5
156
330
18
100
AcDbEntity
  8
0
100
AcDbLine
 10
3.557
 20
3.718
 30
0.0
 11
3.452
 21
3.723
 31
0.0
  0
ARC
  5
157
330
18
100
AcDbEntity
  8
0
100
AcDbCircle
 10
3.556
 20
3.735
 30
0.0
 40
0.017
100
AcDbArc
 50
272.794
 51
82.265
  0
LWPOLYLINE
  5
158
330
18
100
AcDbEntity
  8
0
100
AcDbPolyline
 90
       16
 70
     1
 43
0.0
 10
3.569
 20
3.586
 42
0.104
 10
3.554
 20
3.583
 42
0.101
 10
3.54
 20
3.573
 42
0.096
 10
3.531
 20
3.559
 42
0.093
 10
3.528
 20
3.542
 42
0.093
 10
3.531
 20
3.525
 42
0.096
 10
3.54
 20
3.511
 42
0.101
 10
3.554
 20
3.502
 42
0.104
 10
3.569
 20
3.498
 42
0.104
 10
3.585
 20
3.502
 42
0.101
 10
3.599
 20
3.511
 42
0.096
 10
3.608
 20
3.525
 42
0.093
 10
3.611
 20
3.542
 42
0.093
 10
3.608
 20
3.559
 42
0.096
 10
3.599
 20
3.573
 42
0.101
 10
3.585
 20
3.583
 42
0.104
  0
LWPOLYLINE
  5
16B
330
18
100
AcDbEntity
  8
0
100
AcDbPolyline
 90
        2
 70
     0
 43
0.0
 10
3.581
 20
3.586
 42
0.038
 10
3.575
 20
3.586
 42
0.101
  0
LWPOLYLINE
  5
170
330
18
100
AcDbEntity
  8
0
100
AcDbPolyline
 90
       10
 70
     0
 43
0.0
 10
3.575
 20
3.499
 42
0.038
 10
3.581
 20
3.498
 42
0.104
 10
3.597
 20
3.502
 42
0.101
 10
3.61
 20
3.511
 42
0.096
 10
3.619
 20
3.525
 42
0.093
 10
3.623
 20
3.542
 42
0.093
 10
3.619
 20
3.559
 42
0.096
 10
3.61
 20
3.573
 42
0.101
 10
3.597
 20
3.583
 42
0.104
 10
3.581
 20
3.586
 42
0.104
  0
LWPOLYLINE
  5
17D
330
18
100
AcDbEntity
  8
0
100
AcDbPolyline
 90
       10
 70
     0
 43
0.0
 10
4.031000000000001
 20
3.249
 42
0.038
 10
4.037
 20
3.248
 42
0.104
 10
4.053
 20
3.252
 42
0.101
 10
4.066
 20
3.261
 42
0.096
 10
4.075
 20
3.276
 42
0.093
 10
4.079
 20
3.293
 42
0.093
 10
4.075
 20
3.309
 42
0.096
 10
4.066
 20
3.324
 42
0.101
 10
4.053
 20
3.333
 42
0.104
 10
4.037
 20
3.337
 42
0.104
  0
LWPOLYLINE
  5
18A
330
18
100
AcDbEntity
  8
0
100
AcDbPolyline
 90
        2
 70
     0
 43
0.0
 10
4.037
 20
3.337
 42
0.038
 10
4.031000000000001
 20
3.336
 42
0.101
  0
LWPOLYLINE
  5
18F
330
18
100
AcDbEntity
  8
0
100
AcDbPolyline
 90
       16
 70
     1
 43
0.0
 10
4.025
 20
3.337
 42
0.104
 10
4.01
 20
3.333
 42
0.101
 10
3.996
 20
3.324
 42
0.096
 10
3.987
 20
3.309
 42
0.093
 10
3.984
 20
3.293
 42
0.093
 10
3.987
 20
3.276
 42
0.096
 10
3.996
 20
3.261
 42
0.101
 10
4.01
 20
3.252
 42
0.104
 10
4.025
 20
3.248
 42
0.104
 10
4.041
 20
3.252
 42
0.101
 10
4.055
 20
3.261
 42
0.096
 10
4.063
 20
3.276
 42
0.093
 10
4.067
 20
3.293
 42
0.093
 10
4.063
 20
3.309
 42
0.096
 10
4.055
 20
3.324
 42
0.101
 10
4.041
 20
3.333
 42
0.104
  0
LWPOLYLINE
  5
1A2
330
18
100
AcDbEntity
  8
0
100
AcDbPolyline
 90
       10
 70
     0
 43
0.0
 10
3.794
 20
2.824
 42
0.038
 10
3.8
 20
2.824
 42
0.104
 10
3.816
 20
2.827
 42
0.101
 10
3.829
 20
2.837
 42
0.096
 10
3.838
 20
2.851
 42
0.093
 10
3.841
 20
2.868
 42
0.093
 10
3.838
 20
2.885
 42
0.096
 10
3.829
 20
2.899
 42
0.101
 10
3.816
 20
2.909
 42
0.104
 10
3.8
 20
2.912
 42
0.104
  0
LWPOLYLINE
  5
1AF
330
18
100
AcDbEntity
  8
0
100
AcDbPolyline
 90
        2
 70
     0
 43
0.0
 10
3.8
 20
2.912
 42
0.038
 10
3.794
 20
2.911
 42
0.101
  0
LWPOLYLINE
  5
1B4
330
18
100
AcDbEntity
  8
0
100
AcDbPolyline
 90
       16
 70
     1
 43
0.0
 10
3.788
 20
2.912
 42
0.104
 10
3.773
 20
2.909
 42
0.101
 10
3.759
 20
2.899
 42
0.096
 10
3.75
 20
2.885
 42
0.093
 10
3.747
 20
2.868
 42
0.093
 10
3.75
 20
2.851
 42
0.096
 10
3.759
 20
2.837
 42
0.101
 10
3.773
 20
2.827
 42
0.104
 10
3.788
 20
2.824
 42
0.104
 10
3.804
 20
2.827
 42
0.101
 10
3.817
 20
2.837
 42
0.096
 10
3.826
 20
2.851
 42
0.093
 10
3.829
 20
2.868
 42
0.093
 10
3.826
 20
2.885
 42
0.096
 10
3.817
 20
2.899
 42
0.101
 10
3.804
 20
2.909
 42
0.104
  0
LWPOLYLINE
  5
1C7
330
18
100
AcDbEntity
  8
0
100
AcDbPolyline
 90
       10
 70
     0
 43
0.0
 10
3.254
 20
3.298
 42
0.038
 10
3.26
 20
3.298
 42
0.104
 10
3.275
 20
3.301
 42
0.101
 10
3.289
 20
3.311
 42
0.096
 10
3.298
 20
3.325
 42
0.093
 10
3.301
 20
3.342
 42
0.093
 10
3.298
 20
3.359
 42
0.096
 10
3.289
 20
3.373
 42
0.101
 10
3.275
 20
3.382
 42
0.104
 10
3.26
 20
3.386
 42
0.104
  0
LWPOLYLINE
  5
1D4
330
18
100
AcDbEntity
  8
0
100
AcDbPolyline
 90
        2
 70
     0
 43
0.0
 10
3.26
 20
3.386
 42
0.038
 10
3.254
 20
3.385
 42
0.101
  0
LWPOLYLINE
  5
1D9
330
18
100
AcDbEntity
  8
0
100
AcDbPolyline
 90
       16
 70
     1
 43
0.0
 10
3.248
 20
3.386
 42
0.104
 10
3.232
 20
3.382
 42
0.101
 10
3.219
 20
3.373
 42
0.096
 10
3.21
 20
3.359
 42
0.093
 10
3.207
 20
3.342
 42
0.093
 10
3.21
 20
3.325
 42
0.096
 10
3.219
 20
3.311
 42
0.101
 10
3.232
 20
3.301
 42
0.104
 10
3.248
 20
3.298
 42
0.104
 10
3.264
 20
3.301
 42
0.101
 10
3.277
 20
3.311
 42
0.096
 10
3.286
 20
3.325
 42
0.093
 10
3.289
 20
3.342
 42
0.093
 10
3.286
 20
3.359
 42
0.096
 10
3.277
 20
3.373
 42
0.101
 10
3.264
 20
3.382
 42
0.104
  0
LWPOLYLINE
  5
1EC
330
18
100
AcDbEntity
  8
0
100
AcDbPolyline
 90
       10
 70
     0
 43
0.0
 10
3.257
 20
2.963
 42
0.038
 10
3.263
 20
2.963
 42
0.104
 10
3.279
 20
2.966
 42
0.101
 10
3.292
 20
2.976
 42
0.096
 10
3.301
 20
2.99
 42
0.093
 10
3.304
 20
3.007
 42
0.093
 10
3.301
 20
3.024
 42
0.096
 10
3.292
 20
3.038
 42
0.101
 10
3.279
 20
3.048
 42
0.104
 10
3.263
 20
3.051
 42
0.104
  0
LWPOLYLINE
  5
1F9
330
18
100
AcDbEntity
  8
0
100
AcDbPolyline
 90
        2
 70
     0
 43
0.0
 10
3.263
 20
3.051
 42
0.038
 10
3.257
 20
3.05
 42
0.101
  0
LWPOLYLINE
  5
1FE
330
18
100
AcDbEntity
  8
0
100
AcDbPolyline
 90
       16
 70
     1
 43
0.0
 10
3.251
 20
3.051
 42
0.104
 10
3.235
 20
3.048
 42
0.101
 10
3.222
 20
3.038
 42
0.096
 10
3.213
 20
3.024
 42
0.093
 10
3.21
 20
3.007
 42
0.093
 10
3.213
 20
2.99
 42
0.096
 10
3.222
 20
2.976
 42
0.101
 10
3.235
 20
2.966
 42
0.104
 10
3.251
 20
2.963
 42
0.104
 10
3.267
 20
2.966
 42
0.101
 10
3.28
 20
2.976
 42
0.096
 10
3.289
 20
2.99
 42
0.093
 10
3.292
 20
3.007
 42
0.093
 10
3.289
 20
3.024
 42
0.096
 10
3.28
 20
3.038
 42
0.101
 10
3.267
 20
3.048
 42
0.104
  0
LWPOLYLINE
  5
211
330
18
100
AcDbEntity
  8
0
100
AcDbPolyline
 90
       10
 70
     0
 43
0.0
 10
2.792
 20
2.907
 42
0.038
 10
2.798
 20
2.907
 42
0.104
 10
2.814
 20
2.91
 42
0.101
 10
2.828
 20
2.92
 42
0.096
 10
2.836
 20
2.934
 42
0.093
 10
2.84
 20
2.951
 42
0.093
 10
2.836
 20
2.968
 42
0.096
 10
2.828
 20
2.982
 42
0.101
 10
2.814
 20
2.991
 42
0.104
 10
2.798
 20
2.995
 42
0.104
  0
LWPOLYLINE
  5
21E
330
18
100
AcDbEntity
  8
0
100
AcDbPolyline
 90
        2
 70
     0
 43
0.0
 10
2.798
 20
2.995
 42
0.038
 10
2.792
 20
2.994
 42
0.101
  0
LWPOLYLINE
  5
223
330
18
100
AcDbEntity
  8
0
100
AcDbPolyline
 90
       16
 70
     1
 43
0.0
 10
2.787
 20
2.995
 42
0.104
 10
2.771
 20
2.991
 42
0.101
 10
2.757
 20
2.982
 42
0.096
 10
2.748
 20
2.968
 42
0.093
 10
2.745
 20
2.951
 42
0.093
 10
2.748
 20
2.934
 42
0.096
 10
2.757
 20
2.92
 42
0.101
 10
2.771
 20
2.91
 42
0.104
 10
2.787
 20
2.907
 42
0.104
 10
2.802
 20
2.91
 42
0.101
 10
2.816
 20
2.92
 42
0.096
 10
2.825
 20
2.934
 42
0.093
 10
2.828
 20
2.951
 42
0.093
 10
2.825
 20
2.968
 42
0.096
 10
2.816
 20
2.982
 42
0.101
 10
2.802
 20
2.991
 42
0.104
  0
LWPOLYLINE
  5
236
330
18
100
AcDbEntity
  8
0
100
AcDbPolyline
 90
       10
 70
     0
 43
0.0
 10
2.927
 20
3.315
 42
0.017
 10
2.929
 20
3.313
 42
0.101
 10
2.942
 20
3.303
 42
0.104
 10
2.958
 20
3.3
 42
0.104
 10
2.973
 20
3.303
 42
0.101
 10
2.987
 20
3.313
 42
0.096
 10
2.996
 20
3.327
 42
0.093
 10
2.999
 20
3.344
 42
0.093
 10
2.996
 20
3.361
 42
0.037
 10
2.993
 20
3.367
 42
0.101
  0
LWPOLYLINE
  5
243
330
18
100
AcDbEntity
  8
0
100
AcDbPolyline
 90
        8
 70
     0
 43
0.0
 10
2.964
 20
3.3
 42
0.038
 10
2.97
 20
3.3
 42
0.104
 10
2.985
 20
3.303
 42
0.101
 10
2.999
 20
3.313
 42
0.096
 10
3.008
 20
3.327
 42
0.093
 10
3.011
 20
3.344
 42
0.093
 10
3.008
 20
3.361
 42
0.078
 10
3.001
 20
3.373
 42
0.101
  0
LINE
  5
24E
330
18
100
AcDbEntity
  8
0
100
AcDbLine
 10
3.206
 20
2.758
 30
0.0
 11
3.206
 21
2.852
 31
0.0
  0
LINE
  5
24F
330
18
100
AcDbEntity
  8
0
100
AcDbLine
 10
3.328
 20
2.746
 30
0.0
 11
3.328
 21
2.84
 31
0.0
  0
LINE
  5
250
330
18
100
AcDbEntity
  8
0
100
AcDbLine
 10
3.206
 20
2.852
 30
0.0
 11
3.267
 21
2.891
 31
0.0
  0
LINE
  5
251
330
18
100
AcDbEntity
  8
0
100
AcDbLine
 10
3.267
 20
2.891
 30
0.0
 11
3.328
 21
2.84
 31
0.0
  0
LINE
  5
252
330
18
100
AcDbEntity
  8
0
100
AcDbLine
 10
4.2
 20
2.941
 30
0.0
 11
4.257
 21
2.96
 31
0.0
  0
LINE
  5
253
330
18
100
AcDbEntity
  8
0
100
AcDbLine
 10
3.245
 20
2.771
 30
0.0
 11
3.245
 21
2.877
 31
0.0
  0
LINE
  5
254
330
18
100
AcDbEntity
  8
0
100
AcDbLine
 10
3.206
 20
2.758
 30
0.0
 11
2.63
 21
2.815
 31
0.0
  0
LINE
  5
255
330
18
100
AcDbEntity
  8
0
100
AcDbLine
 10
3.206
 20
2.758
 30
0.0
 11
3.245
 21
2.771
 31
0.0
  0
LINE
  5
256
330
18
100
AcDbEntity
  8
0
100
AcDbLine
 10
3.859
 20
1.466
 30
0.0
 11
3.896
 21
1.601
 31
0.0
  0
LINE
  5
257
330
18
100
AcDbEntity
  8
0
100
AcDbLine
 10
3.896
 20
1.601
 30
0.0
 11
4.003
 21
1.44
 31
0.0
  0
LINE
  5
258
330
18
100
AcDbEntity
  8
0
100
AcDbLine
 10
4.003
 20
1.44
 30
0.0
 11
4.031000000000001
 21
1.545
 31
0.0
  0
LINE
  5
259
330
18
100
AcDbEntity
  8
0
100
AcDbLine
 10
3.86
 20
1.468
 30
0.0
 11
4.003
 21
1.44
 31
0.0
  0
LINE
  5
25A
330
18
100
AcDbEntity
  8
0
100
AcDbLine
 10
4.031000000000001
 20
1.545
 30
0.0
 11
4.302
 21
1.668
 31
0.0
  0
TEXT
  5
25B
330
18
100
AcDbEntity
  8
0
100
AcDbText
 10
3.265
 20
3.523
 30
0.0
 40
0.074
  1
SON
 50
357.53
 41
0.85
100
AcDbText
  0
LWPOLYLINE
  5
25C
330
18
100
AcDbEntity
  8
0
100
AcDbPolyline
 90
        4
 70
     0
 43
0.0
 10
2.043
 20
3.488
 10
2.202
 20
3.288
 10
2.246
 20
3.19
 10
2.278
 20
3.121
  0
LWPOLYLINE
  5
263
330
18
100
AcDbEntity
  8
0
100
AcDbPolyline
 90
        5
 70
     0
 43
0.0
 10
1.986
 20
3.673
 10
2.169
 20
3.484
 10
2.267
 20
3.342
 10
2.322
 20
3.223
 10
2.374
 20
3.114
  0
LWPOLYLINE
  5
26B
330
18
100
AcDbEntity
  8
0
100
AcDbPolyline
 90
        5
 70
     0
 43
0.0
 10
1.923
 20
3.879
 10
2.18
 20
3.625
 10
2.322
 20
3.429
 10
2.463
 20
3.245
 10
2.514
 20
3.104
  0
LWPOLYLINE
  5
273
330
18
100
AcDbEntity
  8
0
100
AcDbPolyline
 90
        8
 70
     0
 43
0.0
 10
2.627
 20
3.148
 10
2.495
 20
3.418
 10
2.398
 20
3.516
 10
2.3
 20
3.646
 10
2.224
 20
3.755
 10
2.093
 20
3.885
 10
2.007
 20
3.972
 10
1.854
 20
4.106
  0
LWPOLYLINE
  5
27E
330
18
100
AcDbEntity
  8
0
100
AcDbPolyline
 90
        7
 70
     0
 43
0.0
 10
1.78
 20
4.349
 10
2.083
 20
4.081
 10
2.191
 20
3.994
 10
2.289
 20
3.918
 10
2.387
 20
3.744
 10
2.452
 20
3.646
 10
2.502
 20
3.594
  0
LWPOLYLINE
  5
288
330
18
100
AcDbEntity
  8
0
100
AcDbPolyline
 90
        6
 70
     0
 43
0.0
 10
1.713
 20
4.566
 10
1.996
 20
4.374
 10
2.126
 20
4.233000000000001
 10
2.213
 20
4.178
 10
2.3
 20
4.092
 10
2.388
 20
4.002
  0
LWPOLYLINE
  5
291
330
18
100
AcDbEntity
  8
0
100
AcDbPolyline
 90
        5
 70
     0
 43
0.0
 10
1.653
 20
4.763
 10
2.007
 20
4.526
 10
2.148
 20
4.461
 10
2.235
 20
4.385
 10
2.307
 20
4.291
  0
LWPOLYLINE
  5
299
330
18
100
AcDbEntity
  8
0
100
AcDbPolyline
 90
        5
 70
     0
 43
0.0
 10
1.597
 20
4.947
 10
1.876
 20
4.787
 10
2.039
 20
4.711
 10
2.093
 20
4.656000000000001
 10
2.224
 20
4.586
  0
LWPOLYLINE
  5
2A1
330
18
100
AcDbEntity
  8
0
100
AcDbPolyline
 90
        4
 70
     0
 43
0.0
 10
1.768
 20
5.04
 10
1.974
 20
4.917
 10
2.093
 20
4.83
 10
2.165
 20
4.799
  0
LINE
  5
2A8
330
18
100
AcDbEntity
  8
0
100
AcDbLine
 10
4.989
 20
4.649
 30
0.0
 11
5.375
 21
4.983000000000001
 31
0.0
  0
LINE
  5
2A9
330
18
100
AcDbEntity
  8
0
100
AcDbLine
 10
5.083
 20
4.305
 30
0.0
 11
5.476
 21
4.645
 31
0.0
  0
LINE
  5
2AA
330
18
100
AcDbEntity
  8
0
100
AcDbLine
 10
5.153
 20
4.565
 30
0.0
 11
5.54
 21
4.899
 31
0.0
  0
LINE
  5
2AB
330
18
100
AcDbEntity
  8
0
100
AcDbLine
 10
4.989
 20
4.649
 30
0.0
 11
5.153
 21
4.565
 31
0.0
  0
LINE
  5
2AC
330
18
100
AcDbEntity
  8
0
100
AcDbLine
 10
4.957
 20
4.37
 30
0.0
 11
5.083
 21
4.305
 31
0.0
  0
LINE
  5
2AD
330
18
100
AcDbEntity
  8
0
100
AcDbLine
 10
5.153
 20
4.565
 30
0.0
 11
4.957
 21
4.37
 31
0.0
  0
LINE
  5
2AE
330
18
100
AcDbEntity
  8
0
100
AcDbLine
 10
4.989
 20
4.649
 30
0.0
 11
4.66
 21
5.843999999999999
 31
0.0
  0
LINE
  5
2AF
330
18
100
AcDbEntity
  8
0
100
AcDbLine
 10
5.375
 20
4.983000000000001
 30
0.0
 11
5.54
 21
4.899
 31
0.0
  0
LINE
  5
2B0
330
18
100
AcDbEntity
  8
0
100
AcDbLine
 10
5.332000000000001
 20
4.718999999999999
 30
0.0
 11
5.476
 21
4.645
 31
0.0
  0
LINE
  5
2B1
330
18
100
AcDbEntity
  8
0
100
AcDbLine
 10
5.476
 20
4.645
 30
0.0
 11
5.657
 21
4.0
 31
0.0
  0
TEXT
  5
2B2
330
18
100
AcDbEntity
  8
0
100
AcDbText
 10
3.129
 20
3.432
 30
0.0
 40
0.074
  1
ong-Tie%%d
 50
357.53
 41
0.85
100
AcDbText
  0
LINE
  5
2B3
330
18
100
AcDbEntity
  8
0
100
AcDbLine
 10
5.638999999999999
 20
3.715
 30
0.0
 11
5.638999999999999
 21
3.151
 31
0.0
  0
LINE
  5
2B4
330
18
100
AcDbEntity
  8
0
100
AcDbLine
 10
5.875
 20
3.754
 30
0.0
 11
5.875
 21
3.221
 31
0.0
  0
LINE
  5
2B5
330
18
100
AcDbEntity
  8
0
100
AcDbLine
 10
5.834
 20
3.7
 30
0.0
 11
5.834
 21
3.137
 31
0.0
  0
LINE
  5
2B6
330
18
100
AcDbEntity
  8
0
100
AcDbLine
 10
5.834
 20
3.137
 30
0.0
 11
5.638999999999999
 21
3.151
 31
0.0
  0
LINE
  5
2B7
330
18
100
AcDbEntity
  8
0
100
AcDbLine
 10
5.875
 20
3.221
 30
0.0
 11
5.834
 21
3.224
 31
0.0
  0
LINE
  5
2B8
330
18
100
AcDbEntity
  8
0
100
AcDbLine
 10
5.875
 20
3.221
 30
0.0
 11
6.037000000000001
 21
3.268
 31
0.0
  0
LINE
  5
2B9
330
18
100
AcDbEntity
  8
0
100
AcDbLine
 10
5.834
 20
3.7
 30
0.0
 11
5.638999999999999
 21
3.715
 31
0.0
  0
LINE
  5
2BA
330
18
100
AcDbEntity
  8
0
100
AcDbLine
 10
5.875
 20
3.754
 30
0.0
 11
5.736000000000001
 21
3.765
 31
0.0
  0
LINE
  5
2BB
330
18
100
AcDbEntity
  8
0
100
AcDbLine
 10
5.834
 20
3.7
 30
0.0
 11
5.736000000000001
 21
3.765
 31
0.0
  0
LINE
  5
2BC
330
18
100
AcDbEntity
  8
0
100
AcDbLine
 10
5.875
 20
3.754
 30
0.0
 11
6.037000000000001
 21
3.782
 31
0.0
  0
LINE
  5
2BD
330
18
100
AcDbEntity
  8
0
100
AcDbLine
 10
5.391
 20
2.547
 30
0.0
 11
5.612
 21
2.495
 31
0.0
  0
LINE
  5
2BE
330
18
100
AcDbEntity
  8
0
100
AcDbLine
 10
5.612
 20
2.495
 30
0.0
 11
5.612
 21
3.144
 31
0.0
  0
LINE
  5
2BF
330
18
100
AcDbEntity
  8
0
100
AcDbLine
 10
5.666
 20
2.639
 30
0.0
 11
5.666
 21
3.149
 31
0.0
  0
LINE
  5
2C0
330
18
100
AcDbEntity
  8
0
100
AcDbLine
 10
5.391
 20
2.547
 30
0.0
 11
5.391
 21
3.079
 31
0.0
  0
LINE
  5
2C1
330
18
100
AcDbEntity
  8
0
100
AcDbLine
 10
5.612
 20
2.652
 30
0.0
 11
5.666
 21
2.639
 31
0.0
  0
LINE
  5
2C2
330
18
100
AcDbEntity
  8
0
100
AcDbLine
 10
5.666
 20
2.639
 30
0.0
 11
5.814
 21
2.689
 31
0.0
  0
LWPOLYLINE
  5
2C3
330
18
100
AcDbEntity
  8
0
100
AcDbPolyline
 90
        3
 70
     0
 43
0.0
 10
5.085
 20
3.028
 10
5.132999999999999
 20
3.042
 10
5.166
 20
3.066
  0
LWPOLYLINE
  5
2C9
330
18
100
AcDbEntity
  8
0
100
AcDbPolyline
 90
        3
 70
     0
 43
0.0
 10
5.085
 20
2.97
 10
5.166
 20
3.01
 10
5.26
 20
3.059
  0
LWPOLYLINE
  5
2CF
330
18
100
AcDbEntity
  8
0
100
AcDbPolyline
 90
        6
 70
     0
 43
0.0
 10
5.085
 20
2.915
 10
5.191
 20
2.97
 10
5.26
 20
2.991
 10
5.391
 20
3.068
 10
5.529
 20
3.071
 10
5.612
 20
3.075
  0
LWPOLYLINE
  5
2D8
330
18
100
AcDbEntity
  8
0
100
AcDbPolyline
 90
        2
 70
     0
 43
0.0
 10
5.51
 20
3.114
 10
5.612
 20
3.119
  0
LWPOLYLINE
  5
2DD
330
18
100
AcDbEntity
  8
0
100
AcDbPolyline
 90
        5
 70
     0
 43
0.0
 10
5.612
 20
3.006
 10
5.482
 20
3.01
 10
5.391
 20
2.999
 10
5.26
 20
2.933
 10
5.085
 20
2.861
  0
LWPOLYLINE
  5
2E5
330
18
100
AcDbEntity
  8
0
100
AcDbPolyline
 90
        4
 70
     0
 43
0.0
 10
5.085
 20
2.791
 10
5.242000000000001
 20
2.85
 10
5.391
 20
2.915
 10
5.489
 20
2.919
  0
LWPOLYLINE
  5
2EC
330
18
100
AcDbEntity
  8
0
100
AcDbPolyline
 90
        2
 70
     0
 43
0.0
 10
5.489
 20
2.919
 10
5.612
 20
2.922
  0
LWPOLYLINE
  5
2F1
330
18
100
AcDbEntity
  8
0
100
AcDbPolyline
 90
        6
 70
     0
 43
0.0
 10
5.612
 20
2.857
 10
5.518
 20
2.853
 10
5.391
 20
2.857
 10
5.263999999999999
 20
2.788
 10
5.14
 20
2.748
 10
5.085
 20
2.73
  0
LWPOLYLINE
  5
2FA
330
18
100
AcDbEntity
  8
0
100
AcDbPolyline
 90
        5
 70
     0
 43
0.0
 10
5.612
 20
2.784
 10
5.452999999999999
 20
2.784
 10
5.391
 20
2.781
 10
5.224
 20
2.722
 10
5.085
 20
2.675
  0
LWPOLYLINE
  5
302
330
18
100
AcDbEntity
  8
0
100
AcDbPolyline
 90
        6
 70
     0
 43
0.0
 10
5.085
 20
2.613
 10
5.22
 20
2.653
 10
5.303999999999999
 20
2.675
 10
5.391
 20
2.704
 10
5.486000000000001
 20
2.711
 10
5.612
 20
2.722
  0
LWPOLYLINE
  5
30B
330
18
100
AcDbEntity
  8
0
100
AcDbPolyline
 90
        5
 70
     0
 43
0.0
 10
5.085
 20
2.53
 10
5.238
 20
2.599
 10
5.391
 20
2.639
 10
5.5
 20
2.646
 10
5.612
 20
2.639
  0
LWPOLYLINE
  5
313
330
18
100
AcDbEntity
  8
0
100
AcDbPolyline
 90
        5
 70
     0
 43
0.0
 10
5.612
 20
2.559
 10
5.482
 20
2.577
 10
5.391
 20
2.588
 10
5.198
 20
2.526
 10
5.085
 20
2.479
  0
LWPOLYLINE
  5
31B
330
18
100
AcDbEntity
  8
0
100
AcDbPolyline
 90
        4
 70
     0
 43
0.0
 10
5.612
 20
3.133
 10
5.666
 20
3.119
 10
5.705
 20
3.13
 10
5.74
 20
3.144
  0
LWPOLYLINE
  5
322
330
18
100
AcDbEntity
  8
0
100
AcDbPolyline
 90
        6
 70
     0
 43
0.0
 10
5.612
 20
2.686
 10
5.645
 20
2.664
 10
5.666
 20
2.657
 10
5.734
 20
2.681
 10
5.791
 20
2.697
 10
5.814
 20
2.705
  0
LWPOLYLINE
  5
32B
330
18
100
AcDbEntity
  8
0
100
AcDbPolyline
 90
        7
 70
     0
 43
0.0
 10
5.612
 20
3.07
 10
5.645
 20
3.065
 10
5.666
 20
3.06
 10
5.734
 20
3.077
 10
5.786000000000001
 20
3.098
 10
5.807
 20
3.106
 10
5.814
 20
3.112
  0
LWPOLYLINE
  5
335
330
18
100
AcDbEntity
  8
0
100
AcDbPolyline
 90
        6
 70
     0
 43
0.0
 10
5.612
 20
3.017
 10
5.643
 20
3.014
 10
5.666
 20
3.009
 10
5.716
 20
3.022
 10
5.759
 20
3.032
 10
5.814
 20
3.062
  0
LWPOLYLINE
  5
33E
330
18
100
AcDbEntity
  8
0
100
AcDbPolyline
 90
        6
 70
     0
 43
0.0
 10
5.612
 20
2.97
 10
5.648
 20
2.963
 10
5.666
 20
2.962
 10
5.732
 20
2.979
 10
5.78
 20
2.995
 10
5.814
 20
3.011
  0
LWPOLYLINE
  5
347
330
18
100
AcDbEntity
  8
0
100
AcDbPolyline
 90
        6
 70
     0
 43
0.0
 10
5.612
 20
2.922
 10
5.651
 20
2.913
 10
5.666
 20
2.911
 10
5.724
 20
2.927
 10
5.775
 20
2.946
 10
5.814
 20
2.952
  0
LWPOLYLINE
  5
350
330
18
100
AcDbEntity
  8
0
100
AcDbPolyline
 90
        6
 70
     0
 43
0.0
 10
5.612
 20
2.878
 10
5.637000000000001
 20
2.871
 10
5.666
 20
2.87
 10
5.71
 20
2.882
 10
5.747999999999999
 20
2.897
 10
5.814
 20
2.92
  0
LWPOLYLINE
  5
359
330
18
100
AcDbEntity
  8
0
100
AcDbPolyline
 90
        6
 70
     0
 43
0.0
 10
5.612
 20
2.84
 10
5.643
 20
2.833
 10
5.666
 20
2.828
 10
5.734
 20
2.852
 10
5.792000000000001
 20
2.874
 10
5.814
 20
2.892
  0
LWPOLYLINE
  5
362
330
18
100
AcDbEntity
  8
0
100
AcDbPolyline
 90
        6
 70
     0
 43
0.0
 10
5.612
 20
2.797
 10
5.637000000000001
 20
2.79
 10
5.666
 20
2.781
 10
5.735
 20
2.805
 10
5.777
 20
2.827
 10
5.814
 20
2.848
  0
LWPOLYLINE
  5
36B
330
18
100
AcDbEntity
  8
0
100
AcDbPolyline
 90
        6
 70
     0
 43
0.0
 10
5.612
 20
2.748
 10
5.637000000000001
 20
2.736
 10
5.666
 20
2.735
 10
5.716
 20
2.757
 10
5.756
 20
2.775
 10
5.814
 20
2.798
  0
LWPOLYLINE
  5
374
330
18
100
AcDbEntity
  8
0
100
AcDbPolyline
 90
        6
 70
     0
 43
0.0
 10
5.612
 20
2.711
 10
5.64
 20
2.705
 10
5.666
 20
2.697
 10
5.729
 20
2.717
 10
5.792000000000001
 20
2.744
 10
5.814
 20
2.756
  0
LWPOLYLINE
  5
37D
330
18
100
AcDbEntity
  8
0
100
AcDbPolyline
 90
        5
 70
     0
 43
0.0
 10
6.037000000000001
 20
3.725
 10
5.959
 20
3.731
 10
5.875
 20
3.735
 10
5.803
 20
3.742
 10
5.767
 20
3.744
  0
LWPOLYLINE
  5
385
330
18
100
AcDbEntity
  8
0
100
AcDbPolyline
 90
        3
 70
     0
 43
0.0
 10
5.935
 20
3.764
 10
5.987
 20
3.761
 10
6.037000000000001
 20
3.766
  0
LWPOLYLINE
  5
38B
330
18
100
AcDbEntity
  8
0
100
AcDbPolyline
 90
        4
 70
     0
 43
0.0
 10
5.957999999999999
 20
3.245
 10
5.895
 20
3.249
 10
5.875
 20
3.252
 10
5.834
 20
3.263
  0
LWPOLYLINE
  5
392
330
18
100
AcDbEntity
  8
0
100
AcDbPolyline
 90
        8
 70
     0
 43
0.0
 10
5.834
 20
3.307
 10
5.857
 20
3.301
 10
5.875
 20
3.293
 10
5.922000000000001
 20
3.284
 10
5.952999999999999
 20
3.286
 10
5.98
 20
3.281
 10
6.004
 20
3.286
 10
6.037000000000001
 20
3.274
  0
LWPOLYLINE
  5
39D
330
18
100
AcDbEntity
  8
0
100
AcDbPolyline
 90
        7
 70
     0
 43
0.0
 10
6.037000000000001
 20
3.31
 10
5.98
 20
3.324
 10
5.942
 20
3.328
 10
5.898
 20
3.332
 10
5.875
 20
3.332
 10
5.854
 20
3.344
 10
5.834
 20
3.351
  0
LWPOLYLINE
  5
3A7
330
18
100
AcDbEntity
  8
0
100
AcDbPolyline
 90
        8
 70
     0
 43
0.0
 10
5.834
 20
3.397
 10
5.864
 20
3.383
 10
5.875
 20
3.377
 10
5.917999999999999
 20
3.372
 10
5.948
 20
3.37
 10
5.979
 20
3.365
 10
6.001
 20
3.366
 10
6.037000000000001
 20
3.362
  0
LWPOLYLINE
  5
3B2
330
18
100
AcDbEntity
  8
0
100
AcDbPolyline
 90
        8
 70
     0
 43
0.0
 10
5.834
 20
3.448
 10
5.859
 20
3.433
 10
5.875
 20
3.426
 10
5.932
 20
3.411
 10
5.962000000000001
 20
3.409
 10
5.989
 20
3.413
 10
6.007000000000001
 20
3.407
 10
6.037000000000001
 20
3.41
  0
LWPOLYLINE
  5
3BD
330
18
100
AcDbEntity
  8
0
100
AcDbPolyline
 90
        7
 70
     0
 43
0.0
 10
6.037000000000001
 20
3.451
 10
5.986000000000001
 20
3.455
 10
5.938
 20
3.461
 10
5.911000000000001
 20
3.465
 10
5.875
 20
3.468
 10
5.854
 20
3.483
 10
5.834
 20
3.496
  0
LWPOLYLINE
  5
3C7
330
18
100
AcDbEntity
  8
0
100
AcDbPolyline
 90
        7
 70
     0
 43
0.0
 10
5.834
 20
3.54
 10
5.857
 20
3.53
 10
5.875
 20
3.523
 10
5.925
 20
3.515
 10
5.968999999999999
 20
3.512
 10
5.997000000000001
 20
3.512
 10
6.037000000000001
 20
3.505
  0
LWPOLYLINE
  5
3D1
330
18
100
AcDbEntity
  8
0
100
AcDbPolyline
 90
        6
 70
     0
 43
0.0
 10
6.037000000000001
 20
3.543
 10
5.976
 20
3.551
 10
5.919
 20
3.558
 10
5.875
 20
3.565
 10
5.856
 20
3.578
 10
5.834
 20
3.594
  0
LWPOLYLINE
  5
3DA
330
18
100
AcDbEntity
  8
0
100
AcDbPolyline
 90
        8
 70
     0
 43
0.0
 10
5.834
 20
3.639
 10
5.859
 20
3.629
 10
5.875
 20
3.626
 10
5.932
 20
3.616
 10
5.968999999999999
 20
3.606
 10
5.994
 20
3.604
 10
6.018
 20
3.604
 10
6.037000000000001
 20
3.602
  0
LWPOLYLINE
  5
3E5
330
18
100
AcDbEntity
  8
0
100
AcDbPolyline
 90
        8
 70
     0
 43
0.0
 10
5.834
 20
3.684
 10
5.861000000000001
 20
3.679
 10
5.875
 20
3.676
 10
5.921
 20
3.662
 10
5.956
 20
3.653
 10
5.987
 20
3.66
 10
6.016
 20
3.653
 10
6.037000000000001
 20
3.659
  0
LWPOLYLINE
  5
3F0
330
18
100
AcDbEntity
  8
0
100
AcDbPolyline
 90
        5
 70
     0
 43
0.0
 10
6.037000000000001
 20
3.693
 10
5.983
 20
3.694
 10
5.925
 20
3.696
 10
5.875
 20
3.701
 10
5.815
 20
3.713
  0
LWPOLYLINE
  5
3F8
330
18
100
AcDbEntity
  8
0
100
AcDbPolyline
 90
        3
 70
     0
 43
0.0
 10
5.768
 20
3.705
 10
5.799
 20
3.69
 10
5.834
 20
3.676
  0
LWPOLYLINE
  5
3FE
330
18
100
AcDbEntity
  8
0
100
AcDbPolyline
 90
        7
 70
     0
 43
0.0
 10
5.834
 20
3.622
 10
5.785
 20
3.659
 10
5.73
 20
3.679
 10
5.678
 20
3.691
 10
5.638999999999999
 20
3.698
 10
5.591
 20
3.694
 10
5.537000000000001
 20
3.697
  0
LWPOLYLINE
  5
408
330
18
100
AcDbEntity
  8
0
100
AcDbPolyline
 90
        9
 70
     0
 43
0.0
 10
5.421
 20
3.678
 10
5.515
 20
3.67
 10
5.577000000000001
 20
3.672
 10
5.603
 20
3.673
 10
5.638999999999999
 20
3.667
 10
5.693
 20
3.642
 10
5.737
 20
3.632
 10
5.792000000000001
 20
3.612
 10
5.834
 20
3.591
  0
LWPOLYLINE
  5
414
330
18
100
AcDbEntity
  8
0
100
AcDbPolyline
 90
        9
 70
     0
 43
0.0
 10
5.834
 20
3.551
 10
5.763999999999999
 20
3.582
 10
5.726
 20
3.594
 10
5.689
 20
3.605
 10
5.638999999999999
 20
3.616
 10
5.532
 20
3.619
 10
5.422999999999999
 20
3.633
 10
5.369
 20
3.631
 10
5.311
 20
3.636
  0
LWPOLYLINE
  5
420
330
18
100
AcDbEntity
  8
0
100
AcDbPolyline
 90
       10
 70
     0
 43
0.0
 10
5.311
 20
3.591
 10
5.395
 20
3.59
 10
5.45
 20
3.588
 10
5.529
 20
3.58
 10
5.576000000000001
 20
3.578
 10
5.638999999999999
 20
3.571
 10
5.707000000000001
 20
3.553
 10
5.754
 20
3.54
 10
5.794
 20
3.532
 10
5.834
 20
3.524
  0
LWPOLYLINE
  5
42D
330
18
100
AcDbEntity
  8
0
100
AcDbPolyline
 90
        9
 70
     0
 43
0.0
 10
5.311
 20
3.536
 10
5.388
 20
3.536
 10
5.46
 20
3.543
 10
5.513999999999999
 20
3.541
 10
5.572
 20
3.54
 10
5.638999999999999
 20
3.539
 10
5.699
 20
3.52
 10
5.757000000000001
 20
3.508
 10
5.834
 20
3.487
  0
LWPOLYLINE
  5
439
330
18
100
AcDbEntity
  8
0
100
AcDbPolyline
 90
       11
 70
     0
 43
0.0
 10
5.834
 20
3.434
 10
5.772
 20
3.457
 10
5.707000000000001
 20
3.475
 10
5.68
 20
3.481
 10
5.638999999999999
 20
3.496
 10
5.557
 20
3.491
 10
5.484
 20
3.489
 10
5.439
 20
3.488
 10
5.395
 20
3.489
 10
5.345
 20
3.488
 10
5.311
 20
3.483
  0
LWPOLYLINE
  5
447
330
18
100
AcDbEntity
  8
0
100
AcDbPolyline
 90
       10
 70
     0
 43
0.0
 10
5.311
 20
3.416
 10
5.388999999999999
 20
3.423
 10
5.448
 20
3.438
 10
5.545
 20
3.441
 10
5.587999999999999
 20
3.444
 10
5.638999999999999
 20
3.445
 10
5.7
 20
3.426
 10
5.757999999999999
 20
3.414
 10
5.803
 20
3.397
 10
5.834
 20
3.39
  0
LWPOLYLINE
  5
454
330
18
100
AcDbEntity
  8
0
100
AcDbPolyline
 90
       10
 70
     0
 43
0.0
 10
5.834
 20
3.358
 10
5.777
 20
3.365
 10
5.692
 20
3.377
 10
5.638999999999999
 20
3.386
 10
5.54
 20
3.379
 10
5.477
 20
3.376
 10
5.441
 20
3.368
 10
5.388999999999999
 20
3.359
 10
5.352
 20
3.359
 10
5.311
 20
3.356
  0
LWPOLYLINE
  5
461
330
18
100
AcDbEntity
  8
0
100
AcDbPolyline
 90
       11
 70
     0
 43
0.0
 10
5.311
 20
3.286
 10
5.399
 20
3.297
 10
5.443
 20
3.295
 10
5.477
 20
3.3
 10
5.536000000000001
 20
3.31
 10
5.572
 20
3.324
 10
5.638999999999999
 20
3.335
 10
5.744
 20
3.314
 10
5.771
 20
3.315
 10
5.805
 20
3.312
 10
5.834
 20
3.315
  0
LWPOLYLINE
  5
46F
330
18
100
AcDbEntity
  8
0
100
AcDbPolyline
 90
        9
 70
     0
 43
0.0
 10
5.834
 20
3.249
 10
5.76
 20
3.26
 10
5.678
 20
3.278
 10
5.638999999999999
 20
3.29
 10
5.569
 20
3.273
 10
5.462999999999999
 20
3.245
 10
5.399
 20
3.233
 10
5.355
 20
3.225
 10
5.311
 20
3.212
  0
LWPOLYLINE
  5
47B
330
18
100
AcDbEntity
  8
0
100
AcDbPolyline
 90
        8
 70
     0
 43
0.0
 10
5.311
 20
3.15
 10
5.409
 20
3.177
 10
5.481
 20
3.195
 10
5.58
 20
3.213
 10
5.638999999999999
 20
3.222
 10
5.717000000000001
 20
3.213
 10
5.803
 20
3.208
 10
5.834
 20
3.202
  0
LWPOLYLINE
  5
486
330
18
100
AcDbEntity
  8
0
100
AcDbPolyline
 90
        6
 70
     0
 43
0.0
 10
5.786000000000001
 20
3.141
 10
5.689
 20
3.171
 10
5.638999999999999
 20
3.18
 10
5.518
 20
3.154
 10
5.441
 20
3.116
 10
5.371
 20
3.073
  0
LINE
  5
48F
330
18
100
AcDbEntity
  8
0
100
AcDbLine
 10
3.974
 20
3.7
 30
0.0
 11
3.869
 21
3.705
 31
0.0
  0
LINE
  5
490
330
18
100
AcDbEntity
  8
0
100
AcDbLine
 10
3.976
 20
3.734
 30
0.0
 11
3.871
 21
3.738
 31
0.0
  0
ARC
  5
491
330
18
100
AcDbEntity
  8
0
100
AcDbCircle
 10
3.974
 20
3.717
 30
0.0
 40
0.017
100
AcDbArc
 50
272.794
 51
82.265
  0
ARC
  5
492
330
18
100
AcDbEntity
  8
0
100
AcDbCircle
 10
3.871
 20
3.721
 30
0.0
 40
0.017
100
AcDbArc
 50
92.794
 51
262.265
  0
LINE
  5
493
330
18
100
AcDbEntity
  8
0
100
AcDbLine
 10
3.841
 20
3.723
 30
0.0
 11
3.585
 21
3.734
 31
0.0
  0
LINE
  5
494
330
18
100
AcDbEntity
  8
0
100
AcDbLine
 10
4.169
 20
3.709
 30
0.0
 11
4.01
 21
3.715
 31
0.0
  0
LINE
  5
495
330
18
100
AcDbEntity
  8
0
100
AcDbLine
 10
0.248
 20
4.332
 30
0.0
 11
0.374
 21
4.268
 31
0.0
  0
LINE
  5
496
330
18
100
AcDbEntity
  8
0
100
AcDbLine
 10
0.444
 20
4.528000000000001
 30
0.0
 11
0.248
 21
4.332
 31
0.0
  0
LINE
  5
497
330
18
100
AcDbEntity
  8
0
100
AcDbLine
 10
0.281
 20
4.611000000000001
 30
0.0
 11
0.444
 21
4.528000000000001
 31
0.0
  0
LINE
  5
498
330
18
100
AcDbEntity
  8
0
100
AcDbLine
 10
0.281
 20
4.611000000000001
 30
0.0
 11
0.031
 21
5.539
 31
0.0
  0
SOLID
  5
499
330
18
100
AcDbEntity
  8
0
100
AcDbTrace
 10
0.71
 20
2.433
 30
0.0
 11
0.716
 21
2.492
 31
0.0
 12
0.534
 22
2.48
 32
0.0
 13
0.534
 23
2.48
 33
0.0
  0
SOLID
  5
49A
330
18
100
AcDbEntity
  8
0
100
AcDbTrace
 10
2.494
 20
2.316
 30
0.0
 11
2.488
 21
2.257
 31
0.0
 12
2.67
 22
2.269
 32
0.0
 13
2.67
 23
2.269
 33
0.0
  0
LINE
  5
49B
330
18
100
AcDbEntity
  8
0
100
AcDbLine
 10
2.491
 20
2.286
 30
0.0
 11
0.713
 21
2.463
 31
0.0
  0
SOLID
  5
49C
330
18
100
AcDbEntity
  8
0
100
AcDbTrace
 10
4.81
 20
1.818
 30
0.0
 11
4.791
 21
1.875
 31
0.0
 12
4.63
 22
1.789
 32
0.0
 13
4.63
 23
1.789
 33
0.0
  0
SOLID
  5
49D
330
18
100
AcDbEntity
  8
0
100
AcDbTrace
 10
5.937
 20
2.258
 30
0.0
 11
5.956
 21
2.201
 31
0.0
 12
6.117000000000001
 22
2.287
 32
0.0
 13
6.117000000000001
 23
2.287
 33
0.0
  0
LINE
  5
49E
330
18
100
AcDbEntity
  8
0
100
AcDbLine
 10
5.946000000000001
 20
2.23
 30
0.0
 11
4.801
 21
1.846
 31
0.0
  0
TEXT
  5
49F
330
18
100
AcDbEntity
  8
0
100
AcDbText
 10
0.3418430000000001
 20
0.6732699999999999
 30
0.0
 40
0.175
  1
H10
 72
     1
 11
0.6043430000000001
 21
0.76077
 31
0.0
100
AcDbText
 73
     2
  0
LWPOLYLINE
  5
4A0
330
18
100
AcDbEntity
  8
0
100
AcDbPolyline
 90
        3
 70
     0
 43
0.0
 10
4.991000000000001
 20
6.13
 10
5.045
 20
6.031000000000001
 10
5.112
 20
5.947
  0
LWPOLYLINE
  5
4A6
330
18
100
AcDbEntity
  8
0
100
AcDbPolyline
 90
        7
 70
     0
 43
0.0
 10
4.926
 20
6.074
 10
5.001
 20
5.947
 10
5.057
 20
5.819
 10
5.098
 20
5.702000000000001
 10
5.15
 20
5.598
 10
5.25
 20
5.365
 10
5.309
 20
5.241000000000001
  0
LWPOLYLINE
  5
4B0
330
18
100
AcDbEntity
  8
0
100
AcDbPolyline
 90
       11
 70
     0
 43
0.0
 10
4.862
 20
6.019
 10
4.949
 20
5.819
 10
5.009
 20
5.682
 10
5.065
 20
5.534
 10
5.122000000000001
 20
5.417999999999999
 10
5.17
 20
5.329
 10
5.198
 20
5.265
 10
5.202000000000001
 20
5.229
 10
5.372999999999999
 20
4.981
 10
5.447
 20
4.928
 10
5.491000000000001
 20
4.924
  0
LWPOLYLINE
  5
4BE
330
18
100
AcDbEntity
  8
0
100
AcDbPolyline
 90
       12
 70
     0
 43
0.0
 10
4.794
 20
5.959
 10
4.893
 20
5.702000000000001
 10
4.945
 20
5.534
 10
5.037
 20
5.406000000000001
 10
5.11
 20
5.265
 10
5.158
 20
5.145
 10
5.198
 20
5.073
 10
5.226
 20
4.996
 10
5.284
 20
4.904
 10
5.346
 20
4.884
 10
5.419
 20
4.856
 10
5.473
 20
4.842
  0
LWPOLYLINE
  5
4CD
330
18
100
AcDbEntity
  8
0
100
AcDbPolyline
 90
        8
 70
     0
 43
0.0
 10
5.396
 20
4.775
 10
5.278
 20
4.816
 10
5.214
 20
4.843999999999999
 10
5.093999999999999
 20
5.049
 10
4.997
 20
5.281000000000001
 10
4.888999999999999
 20
5.49
 10
4.801
 20
5.726
 10
4.705
 20
5.882000000000001
  0
LWPOLYLINE
  5
4D8
330
18
100
AcDbEntity
  8
0
100
AcDbPolyline
 90
        9
 70
     0
 43
0.0
 10
4.703
 20
5.687
 10
4.813
 20
5.438
 10
4.888999999999999
 20
5.297000000000001
 10
4.937
 20
5.149
 10
5.001
 20
4.992
 10
5.082
 20
4.824
 10
5.119
 20
4.762
 10
5.21
 20
4.736000000000001
 10
5.294
 20
4.687
  0
LWPOLYLINE
  5
4E4
330
18
100
AcDbEntity
  8
0
100
AcDbPolyline
 90
        5
 70
     0
 43
0.0
 10
5.209
 20
4.613
 10
5.102
 20
4.66
 10
5.046
 20
4.699
 10
4.968999999999999
 20
4.852
 10
4.881
 20
5.041
  0
LWPOLYLINE
  5
4EC
330
18
100
AcDbEntity
  8
0
100
AcDbPolyline
 90
        6
 70
     0
 43
0.0
 10
5.038
 20
4.328
 10
5.109
 20
4.327
 10
5.198
 20
4.142
 10
5.278
 20
4.03
 10
5.322
 20
3.913
 10
5.41
 20
3.79
  0
LWPOLYLINE
  5
4F5
330
18
100
AcDbEntity
  8
0
100
AcDbPolyline
 90
        3
 70
     0
 43
0.0
 10
5.169
 20
3.993
 10
5.246
 20
3.877
 10
5.343
 20
3.733
  0
LWPOLYLINE
  5
4FB
330
18
100
AcDbEntity
  8
0
100
AcDbPolyline
 90
        3
 70
     0
 43
0.0
 10
5.295
 20
3.692
 10
5.257999999999999
 20
3.741
 10
5.226
 20
3.783
  0
LWPOLYLINE
  5
501
330
18
100
AcDbEntity
  8
0
100
AcDbPolyline
 90
        8
 70
     0
 43
0.0
 10
4.996
 20
4.408
 10
5.093999999999999
 20
4.399
 10
5.178
 20
4.387
 10
5.257999999999999
 20
4.234
 10
5.318
 20
4.102
 10
5.377999999999999
 20
3.982
 10
5.427000000000001
 20
3.905
 10
5.47
 20
3.841
  0
LWPOLYLINE
  5
50C
330
18
100
AcDbEntity
  8
0
100
AcDbPolyline
 90
        8
 70
     0
 43
0.0
 10
5.524
 20
3.887
 10
5.427000000000001
 20
4.082
 10
5.354
 20
4.21
 10
5.31
 20
4.331
 10
5.286000000000001
 20
4.387
 10
5.247000000000001
 20
4.447
 10
5.138
 20
4.455
 10
5.06
 20
4.472
  0
LWPOLYLINE
  5
517
330
18
100
AcDbEntity
  8
0
100
AcDbPolyline
 90
        7
 70
     0
 43
0.0
 10
5.129
 20
4.54
 10
5.25
 20
4.527
 10
5.32
 20
4.51
 10
5.431
 20
4.286000000000001
 10
5.491000000000001
 20
4.162
 10
5.542999999999999
 20
4.07
 10
5.597
 20
3.949
  0
LWPOLYLINE
  5
521
330
18
100
AcDbEntity
  8
0
100
AcDbPolyline
 90
        7
 70
     0
 43
0.0
 10
5.632999999999999
 20
4.085
 10
5.547000000000001
 20
4.274
 10
5.479
 20
4.387
 10
5.435
 20
4.467
 10
5.382000000000001
 20
4.564
 10
5.282
 20
4.587
 10
5.204
 20
4.609
  0
LWPOLYLINE
  5
52B
330
18
100
AcDbEntity
  8
0
100
AcDbPolyline
 90
        5
 70
     0
 43
0.0
 10
5.263
 20
4.66
 10
5.374
 20
4.638999999999999
 10
5.436
 20
4.611000000000001
 10
5.491000000000001
 20
4.487
 10
5.552000000000001
 20
4.375
  0
LWPOLYLINE
  5
533
330
18
100
AcDbEntity
  8
0
100
AcDbPolyline
 90
        3
 70
     0
 43
0.0
 10
3.883
 20
1.464
 10
3.898
 20
1.522
 10
3.917
 20
1.569
  0
LWPOLYLINE
  5
539
330
18
100
AcDbEntity
  8
0
100
AcDbPolyline
 90
        3
 70
     0
 43
0.0
 10
3.916
 20
1.457
 10
3.929
 20
1.501
 10
3.942
 20
1.531
  0
LWPOLYLINE
  5
53F
330
18
100
AcDbEntity
  8
0
100
AcDbPolyline
 90
        2
 70
     0
 43
0.0
 10
3.957
 20
1.449
 10
3.969
 20
1.491
  0
ARC
  5
544
330
18
100
AcDbEntity
  8
0
100
AcDbCircle
 10
3.823
 20
3.928
 30
0.0
 40
0.043
100
AcDbArc
 50
74.62300000000001
 51
310.097
  0
ARC
  5
545
330
18
100
AcDbEntity
  8
0
100
AcDbCircle
 10
3.709
 20
4.343
 30
0.0
 40
0.043
100
AcDbArc
 50
73.681
 51
311.861
  0
TEXT
  5
546
330
18
100
AcDbEntity
  8
0
100
AcDbText
 10
0.340343
 20
0.9567700000000001
 30
0.0
 40
0.175
  1
Simpson Strong-Tie
100
AcDbText
  0
TEXT
  5
547
330
18
100
AcDbEntity
  8
0
100
AcDbText
 10
1.461337
 20
2.060365
 30
0.0
 40
0.175
  1
F
100
AcDbText
  0
TEXT
  5
548
330
18
100
AcDbEntity
  8
0
100
AcDbText
 10
1.573111
 20
1.977288
 30
0.0
 40
0.175
  1
1
100
AcDbText
  0
TEXT
  5
549
330
18
100
AcDbEntity
  8
0
100
AcDbText
 10
5.494576
 20
1.636996
 30
0.0
 40
0.175
  1
2
100
AcDbText
  0
TEXT
  5
54A
330
18
100
AcDbEntity
  8
0
100
AcDbText
 10
5.359676
 20
1.720073
 30
0.0
 40
0.175
  1
F
100
AcDbText
  0
ENDSEC
  0
SECTION
  2
OBJECTS
  0
DICTIONARY
  5
C
330
0
100
AcDbDictionary
281
     1
  3
ACAD_COLOR
350
550
  3
ACAD_GROUP
350
D
  3
ACAD_LAYOUT
350
15
  3
ACAD_MATERIAL
350
552
  3
ACAD_MLINESTYLE
350
12
  3
ACAD_PLOTSETTINGS
350
14
  3
ACAD_PLOTSTYLENAME
350
E
  3
ACDBHEADERROUNDTRIPXREC
350
54F
  0
DICTIONARY
  5
550
102
{ACAD_REACTORS
330
C
102
}
330
C
100
AcDbDictionary
281
     1
  0
DICTIONARY
  5
D
102
{ACAD_REACTORS
330
C
102
}
330
C
100
AcDbDictionary
281
     1
  0
DICTIONARY
  5
15
102
{ACAD_REACTORS
330
C
102
}
330
C
100
AcDbDictionary
281
     1
  3
Layout1
350
17
  3
Model
350
19
  0
DICTIONARY
  5
552
102
{ACAD_REACTORS
330
C
102
}
330
C
100
AcDbDictionary
281
     1
  0
DICTIONARY
  5
12
102
{ACAD_REACTORS
330
C
102
}
330
C
100
AcDbDictionary
281
     1
  3
Standard
350
13
  0
DICTIONARY
  5
14
102
{ACAD_REACTORS
330
C
102
}
330
C
100
AcDbDictionary
281
     1
  0
ACDBDICTIONARYWDFLT
  5
E
102
{ACAD_REACTORS
330
C
102
}
330
C
100
AcDbDictionary
281
     1
  3
Normal
350
F
100
AcDbDictionaryWithDefault
340
F
  0
DICTIONARY
  5
54F
102
{ACAD_REACTORS
330
C
102
}
330
C
100
AcDbDictionary
281
     1
  3
COLORDICT
350
551
  3
MATERIALDICT
350
553
  0
LAYOUT
  5
17
102
{ACAD_REACTORS
330
15
102
}
102
{ACAD_XDICTIONARY
360
554
102
}
330
15
100
AcDbPlotSettings
  1

  2

  4

  6

 40
0.0
 41
0.0
 42
0.0
 43
0.0
 44
0.0
 45
0.0
 46
0.0
 47
0.0
 48
0.0
 49
0.0
140
0.0
141
0.0
142
1.0
143
1.0
 70
   688
 72
     0
 73
     0
 74
     5
  7

 75
    16
147
1.0
148
0.0
149
0.0
100
AcDbLayout
  1
Layout1
 70
     1
 71
     1
 10
0.0
 20
0.0
 11
12.0
 21
9.0
 12
0.0
 22
0.0
 32
0.0
 14
1.000000000000000E+20
 24
1.000000000000000E+20
 34
1.000000000000000E+20
 15
-1.000000000000000E+20
 25
-1.000000000000000E+20
 35
-1.000000000000000E+20
146
0.0
 13
0.0
 23
0.0
 33
0.0
 16
1.0
 26
0.0
 36
0.0
 17
0.0
 27
1.0
 37
0.0
 76
     0
330
16
  0
LAYOUT
  5
19
102
{ACAD_REACTORS
330
15
102
}
102
{ACAD_XDICTIONARY
360
556
102
}
330
15
100
AcDbPlotSettings
  1

  2

  4

  6

 40
0.0
 41
0.0
 42
0.0
 43
0.0
 44
0.0
 45
0.0
 46
0.0
 47
0.0
 48
0.0
 49
0.0
140
0.0
141
0.0
142
1.0
143
1.0
 70
  1712
 72
     0
 73
     0
 74
     0
  7

 75
     0
147
1.0
148
0.0
149
0.0
100
AcDbLayout
  1
Model
 70
     1
 71
     0
 10
0.0
 20
0.0
 11
0.0
 21
0.0
 12
0.0
 22
0.0
 32
0.0
 14
0.0
 24
0.0
 34
0.0
 15
0.0
 25
0.0
 35
0.0
146
0.0
 13
0.0
 23
0.0
 33
0.0
 16
1.0
 26
0.0
 36
0.0
 17
0.0
 27
1.0
 37
0.0
 76
     0
330
18
  0
MLINESTYLE
  5
13
102
{ACAD_REACTORS
330
12
102
}
330
12
100
AcDbMlineStyle
  2
Standard
 70
     0
  3

 62
   256
 51
90.0
 52
90.0
 71
     2
 49
0.5
 62
   256
  6
BYLAYER
 49
-0.5
 62
   256
  6
BYLAYER
  0
ACDBPLACEHOLDER
  5
F
102
{ACAD_REACTORS
330
E
102
}
330
E
  0
XRECORD
  5
551
102
{ACAD_REACTORS
330
54F
102
}
330
54F
100
AcDbXrecord
340
550
  0
XRECORD
  5
553
102
{ACAD_REACTORS
330
54F
102
}
330
54F
100
AcDbXrecord
340
552
  0
DICTIONARY
  5
554
330
17
100
AcDbDictionary
280
     1
281
     1
  3
ACAD_XREC_ROUNDTRIP
360
555
  0
DICTIONARY
  5
556
330
19
100
AcDbDictionary
280
     1
281
     1
  3
ACAD_XREC_ROUNDTRIP
360
557
  0
XRECORD
  5
555
102
{ACAD_REACTORS
330
554
102
}
330
554
100
AcDbXrecord
102
SHADEPLOT
 70
     0
102
SHADEPLOTRESLEVEL
 70
     0
102
SHADEPLOTCUSTOMDPI
 70
     0
  0
XRECORD
  5
557
102
{ACAD_REACTORS
330
556
102
}
330
556
100
AcDbXrecord
102
SHADEPLOT
 70
     0
102
SHADEPLOTRESLEVEL
 70
     0
102
SHADEPLOTCUSTOMDPI
 70
     0
  0
ENDSEC
  0
EOF
