  0
SECTION
  2
HEADER
  9
$ACADVER
  1
AC1015
  9
$ACADMAINTVER
 70
     6
  9
$DWGCODEPAGE
  3
ISO8859-1
  9
$INSBASE
 10
0.0
 20
0.0
 30
0.0
  9
$EXTMIN
 10
0.423165
 20
0.3943449999999996
 30
0.0
  9
$EXTMAX
 10
6.669421000000001
 20
7.262460000000001
 30
0.0
  9
$LIMMIN
 10
0.0
 20
0.0
  9
$LIMMAX
 10
8.5
 20
11.0
  9
$ORTHOMODE
 70
     0
  9
$REGENMODE
 70
     0
  9
$FILLMODE
 70
     1
  9
$QTEXTMODE
 70
     0
  9
$MIRRTEXT
 70
     1
  9
$LTSCALE
 40
0.2
  9
$ATTMODE
 70
     1
  9
$TEXTSIZE
 40
0.25
  9
$TRACEWID
 40
0.05
  9
$TEXTSTYLE
  7
STANDARD
  9
$CLAYER
  8
0
  9
$CELTYPE
  6
ByLayer
  9
$CECOLOR
 62
   256
  9
$CELTSCALE
 40
1.0
  9
$DISPSILH
 70
     0
  9
$DIMSCALE
 40
1.0
  9
$DIMASZ
 40
0.2
  9
$DIMEXO
 40
0.0625
  9
$DIMDLI
 40
0.38
  9
$DIMRND
 40
0.0
  9
$DIMDLE
 40
0.0
  9
$DIMEXE
 40
0.075
  9
$DIMTP
 40
0.0
  9
$DIMTM
 40
0.0
  9
$DIMTXT
 40
0.1
  9
$DIMCEN
 40
0.09
  9
$DIMTSZ
 40
0.0
  9
$DIMTOL
 70
     0
  9
$DIMLIM
 70
     0
  9
$DIMTIH
 70
     0
  9
$DIMTOH
 70
     0
  9
$DIMSE1
 70
     0
  9
$DIMSE2
 70
     0
  9
$DIMTAD
 70
     1
  9
$DIMZIN
 70
     0
  9
$DIMBLK
  1

  9
$DIMASO
 70
     0
  9
$DIMSHO
 70
     1
  9
$DIMPOST
  1

  9
$DIMAPOST
  1

  9
$DIMALT
 70
     0
  9
$DIMALTD
 70
     2
  9
$DIMALTF
 40
25.4
  9
$DIMLFAC
 40
1.0
  9
$DIMTOFL
 70
     0
  9
$DIMTVP
 40
0.0
  9
$DIMTIX
 70
     0
  9
$DIMSOXD
 70
     0
  9
$DIMSAH
 70
     0
  9
$DIMBLK1
  1

  9
$DIMBLK2
  1

  9
$DIMSTYLE
  2
Standard
  9
$DIMCLRD
 70
     0
  9
$DIMCLRE
 70
     0
  9
$DIMCLRT
 70
     0
  9
$DIMTFAC
 40
1.0
  9
$DIMGAP
 40
0.09
  9
$DIMJUST
 70
     0
  9
$DIMSD1
 70
     0
  9
$DIMSD2
 70
     0
  9
$DIMTOLJ
 70
     1
  9
$DIMTZIN
 70
     0
  9
$DIMALTZ
 70
     0
  9
$DIMALTTZ
 70
     0
  9
$DIMUPT
 70
     0
  9
$DIMDEC
 70
     4
  9
$DIMTDEC
 70
     4
  9
$DIMALTU
 70
     2
  9
$DIMALTTD
 70
     2
  9
$DIMTXSTY
  7
STANDARD
  9
$DIMAUNIT
 70
     0
  9
$DIMADEC
 70
     0
  9
$DIMALTRND
 40
0.0
  9
$DIMAZIN
 70
     0
  9
$DIMDSEP
 70
    46
  9
$DIMATFIT
 70
     3
  9
$DIMFRAC
 70
     0
  9
$DIMLDRBLK
  1

  9
$DIMLUNIT
 70
     2
  9
$DIMLWD
 70
    -2
  9
$DIMLWE
 70
    -2
  9
$DIMTMOVE
 70
     0
  9
$LUNITS
 70
     2
  9
$LUPREC
 70
     4
  9
$SKETCHINC
 40
0.1
  9
$FILLETRAD
 40
0.0
  9
$AUNITS
 70
     0
  9
$AUPREC
 70
     0
  9
$MENU
  1
acad
  9
$ELEVATION
 40
0.0
  9
$PELEVATION
 40
0.0
  9
$THICKNESS
 40
0.0
  9
$LIMCHECK
 70
     0
  9
$CHAMFERA
 40
0.0
  9
$CHAMFERB
 40
0.0
  9
$CHAMFERC
 40
1.0
  9
$CHAMFERD
 40
0.0
  9
$SKPOLY
 70
     0
  9
$TDCREATE
 40
2453955.561751435
  9
$TDUCREATE
 40
2453955.895084769
  9
$TDUPDATE
 40
2453955.603418113
  9
$TDUUPDATE
 40
2453955.89508478
  9
$TDINDWG
 40
0.0000000116
  9
$TDUSRTIMER
 40
0.0000000116
  9
$USRTIMER
 70
     1
  9
$ANGBASE
 50
0.0
  9
$ANGDIR
 70
     0
  9
$PDMODE
 70
     0
  9
$PDSIZE
 40
0.0
  9
$PLINEWID
 40
0.0
  9
$SPLFRAME
 70
     0
  9
$SPLINETYPE
 70
     6
  9
$SPLINESEGS
 70
     8
  9
$HANDSEED
  5
535
  9
$SURFTAB1
 70
     6
  9
$SURFTAB2
 70
     6
  9
$SURFTYPE
 70
     6
  9
$SURFU
 70
     6
  9
$SURFV
 70
     6
  9
$UCSBASE
  2

  9
$UCSNAME
  2

  9
$UCSORG
 10
0.0
 20
0.0
 30
0.0
  9
$UCSXDIR
 10
1.0
 20
0.0
 30
0.0
  9
$UCSYDIR
 10
0.0
 20
1.0
 30
0.0
  9
$UCSORTHOREF
  2

  9
$UCSORTHOVIEW
 70
     0
  9
$UCSORGTOP
 10
0.0
 20
0.0
 30
0.0
  9
$UCSORGBOTTOM
 10
0.0
 20
0.0
 30
0.0
  9
$UCSORGLEFT
 10
0.0
 20
0.0
 30
0.0
  9
$UCSORGRIGHT
 10
0.0
 20
0.0
 30
0.0
  9
$UCSORGFRONT
 10
0.0
 20
0.0
 30
0.0
  9
$UCSORGBACK
 10
0.0
 20
0.0
 30
0.0
  9
$PUCSBASE
  2

  9
$PUCSNAME
  2

  9
$PUCSORG
 10
0.0
 20
0.0
 30
0.0
  9
$PUCSXDIR
 10
1.0
 20
0.0
 30
0.0
  9
$PUCSYDIR
 10
0.0
 20
1.0
 30
0.0
  9
$PUCSORTHOREF
  2

  9
$PUCSORTHOVIEW
 70
     0
  9
$PUCSORGTOP
 10
0.0
 20
0.0
 30
0.0
  9
$PUCSORGBOTTOM
 10
0.0
 20
0.0
 30
0.0
  9
$PUCSORGLEFT
 10
0.0
 20
0.0
 30
0.0
  9
$PUCSORGRIGHT
 10
0.0
 20
0.0
 30
0.0
  9
$PUCSORGFRONT
 10
0.0
 20
0.0
 30
0.0
  9
$PUCSORGBACK
 10
0.0
 20
0.0
 30
0.0
  9
$USERI1
 70
     0
  9
$USERI2
 70
     0
  9
$USERI3
 70
     0
  9
$USERI4
 70
     0
  9
$USERI5
 70
     0
  9
$USERR1
 40
0.0
  9
$USERR2
 40
0.0
  9
$USERR3
 40
0.0
  9
$USERR4
 40
0.0
  9
$USERR5
 40
0.0
  9
$WORLDVIEW
 70
     1
  9
$SHADEDGE
 70
     3
  9
$SHADEDIF
 70
    70
  9
$TILEMODE
 70
     1
  9
$MAXACTVP
 70
    16
  9
$PINSBASE
 10
0.0
 20
0.0
 30
0.0
  9
$PLIMCHECK
 70
     0
  9
$PEXTMIN
 10
1.000000000000000E+20
 20
1.000000000000000E+20
 30
1.000000000000000E+20
  9
$PEXTMAX
 10
-1.000000000000000E+20
 20
-1.000000000000000E+20
 30
-1.000000000000000E+20
  9
$PLIMMIN
 10
0.0
 20
0.0
  9
$PLIMMAX
 10
12.0
 20
9.0
  9
$UNITMODE
 70
     0
  9
$VISRETAIN
 70
     0
  9
$PLINEGEN
 70
     0
  9
$PSLTSCALE
 70
     1
  9
$TREEDEPTH
 70
  3020
  9
$CMLSTYLE
  2
Standard
  9
$CMLJUST
 70
     0
  9
$CMLSCALE
 40
1.0
  9
$PROXYGRAPHICS
 70
     1
  9
$MEASUREMENT
 70
     0
  9
$CELWEIGHT
370
    -1
  9
$ENDCAPS
280
     0
  9
$JOINSTYLE
280
     0
  9
$LWDISPLAY
290
     0
  9
$INSUNITS
 70
     1
  9
$HYPERLINKBASE
  1

  9
$STYLESHEET
  1

  9
$XEDIT
290
     1
  9
$CEPSNTYPE
380
     0
  9
$PSTYLEMODE
290
     0
  9
$FINGERPRINTGUID
  2
{FAEB1C30-E019-11D5-929B-00C0DF256EC4}
  9
$VERSIONGUID
  2
{FAEB1C32-E019-11D5-929B-00C0DF256EC4}
  9
$EXTNAMES
290
     1
  9
$PSVPSCALE
 40
0.0
  9
$OLESTARTUP
290
     0
  0
ENDSEC
  0
SECTION
  2
CLASSES
  0
CLASS
  1
ACDBDICTIONARYWDFLT
  2
AcDbDictionaryWithDefault
  3
AutoCAD 2000
 90
        0
280
     0
281
     0
  0
CLASS
  1
ACDBPLACEHOLDER
  2
AcDbPlaceHolder
  3
ObjectDBX Classes
 90
        0
280
     0
281
     0
  0
CLASS
  1
LAYOUT
  2
AcDbLayout
  3
ObjectDBX Classes
 90
        0
280
     0
281
     0
  0
ENDSEC
  0
SECTION
  2
TABLES
  0
TABLE
  2
VPORT
  5
8
330
0
100
AcDbSymbolTable
 70
     2
  0
VPORT
  5
1E
330
8
100
AcDbSymbolTableRecord
100
AcDbViewportTableRecord
  2
*ACTIVE
 70
     0
 10
0.0
 20
0.0
 11
1.0
 21
1.0
 12
7.630750605326877
 22
5.5
 13
0.0
 23
0.0
 14
1.0
 24
1.0
 15
0.0
 25
0.0
 16
0.0
 26
0.0
 36
1.0
 17
0.0
 27
0.0
 37
0.0
 40
11.0
 41
0.7207678883071553
 42
50.0
 43
0.0
 44
0.0
 50
0.0
 51
0.0
 71
     0
 72
  2000
 73
     1
 74
     0
 75
     0
 76
     0
 77
     0
 78
     0
281
     0
 65
     1
110
0.0
120
0.0
130
0.0
111
1.0
121
0.0
131
0.0
112
0.0
122
1.0
132
0.0
 79
     0
146
0.0
  0
ENDTAB
  0
TABLE
  2
LTYPE
  5
5
330
0
100
AcDbSymbolTable
 70
     1
  0
LTYPE
  5
10
330
5
100
AcDbSymbolTableRecord
100
AcDbLinetypeTableRecord
  2
ByBlock
 70
     0
  3

 72
    65
 73
     0
 40
0.0
  0
LTYPE
  5
11
330
5
100
AcDbSymbolTableRecord
100
AcDbLinetypeTableRecord
  2
ByLayer
 70
     0
  3

 72
    65
 73
     0
 40
0.0
  0
LTYPE
  5
1B
330
5
100
AcDbSymbolTableRecord
100
AcDbLinetypeTableRecord
  2
CONTINUOUS
 70
     0
  3
Solid line
 72
    65
 73
     0
 40
0.0
  0
ENDTAB
  0
TABLE
  2
LAYER
  5
2
330
0
100
AcDbSymbolTable
 70
     1
  0
LAYER
  5
1C
330
2
100
AcDbSymbolTableRecord
100
AcDbLayerTableRecord
  2
0
 70
     0
 62
     7
  6
CONTINUOUS
370
    -3
390
F
  0
ENDTAB
  0
TABLE
  2
STYLE
  5
3
330
0
100
AcDbSymbolTable
 70
     1
  0
STYLE
  5
21
330
3
100
AcDbSymbolTableRecord
100
AcDbTextStyleTableRecord
  2
STANDARD
 70
     0
 40
0.0
 41
1.0
 50
0.0
 71
     0
 42
0.25
  3
ROMANS.SHX
  4

  0
ENDTAB
  0
TABLE
  2
VIEW
  5
6
330
0
100
AcDbSymbolTable
 70
     1
  0
VIEW
  5
20
330
6
100
AcDbSymbolTableRecord
100
AcDbViewTableRecord
  2
1
 70
     0
 40
11.0
 10
7.225941000000001
 20
5.5
 41
14.451883
 11
0.0
 21
0.0
 31
1.0
 12
0.0
 22
0.0
 32
0.0
 42
50.0
 43
0.0
 44
0.0
 50
0.0
 71
     0
281
     0
 72
     0
  0
ENDTAB
  0
TABLE
  2
UCS
  5
7
330
0
100
AcDbSymbolTable
 70
     0
  0
ENDTAB
  0
TABLE
  2
APPID
  5
9
330
0
100
AcDbSymbolTable
 70
     1
  0
APPID
  5
1F
330
9
100
AcDbSymbolTableRecord
100
AcDbRegAppTableRecord
  2
ACAD
 70
     0
  0
ENDTAB
  0
TABLE
  2
DIMSTYLE
  5
A
330
0
100
AcDbSymbolTable
 70
     1
100
AcDbDimStyleTable
  0
DIMSTYLE
105
22
330
A
100
AcDbSymbolTableRecord
100
AcDbDimStyleTableRecord
  2
Standard
 70
     0
  3

  4

340
21
  0
ENDTAB
  0
TABLE
  2
BLOCK_RECORD
  5
1
330
0
100
AcDbSymbolTable
 70
     0
  0
BLOCK_RECORD
  5
18
330
1
100
AcDbSymbolTableRecord
100
AcDbBlockTableRecord
  2
*Model_Space
340
19
  0
BLOCK_RECORD
  5
16
330
1
100
AcDbSymbolTableRecord
100
AcDbBlockTableRecord
  2
*Paper_Space
340
17
  0
ENDTAB
  0
ENDSEC
  0
SECTION
  2
BLOCKS
  0
BLOCK
  5
52A
330
18
100
AcDbEntity
  8
0
100
AcDbBlockBegin
  2
*Model_Space
 70
     0
 10
0.0
 20
0.0
 30
0.0
  3
*Model_Space
  1

  4

  0
ENDBLK
  5
52B
330
18
100
AcDbEntity
  8
0
100
AcDbBlockEnd
  0
BLOCK
  5
528
330
16
100
AcDbEntity
 67
     1
  8
0
100
AcDbBlockBegin
  2
*Paper_Space
 70
     0
 10
0.0
 20
0.0
 30
0.0
  3
*Paper_Space
  1

  4

  0
ENDBLK
  5
529
330
16
100
AcDbEntity
 67
     1
  8
0
100
AcDbBlockEnd
  0
ENDSEC
  0
SECTION
  2
ENTITIES
  0
LINE
  5
23
330
18
100
AcDbEntity
  8
0
100
AcDbLine
 10
3.992756
 20
3.192975
 30
0.0
 11
3.992756
 21
1.499651
 31
0.0
  0
LINE
  5
24
330
18
100
AcDbEntity
  8
0
100
AcDbLine
 10
3.442865
 20
3.25189
 30
0.0
 11
3.442865
 21
1.603161
 31
0.0
  0
LINE
  5
25
330
18
100
AcDbEntity
  8
0
100
AcDbLine
 10
4.787587
 20
3.128631
 30
0.0
 11
4.787587
 21
1.892507
 31
0.0
  0
LINE
  5
26
330
18
100
AcDbEntity
  8
0
100
AcDbLine
 10
3.442865
 20
1.603161
 30
0.0
 11
3.992756
 21
1.499651
 31
0.0
  0
LINE
  5
27
330
18
100
AcDbEntity
  8
0
100
AcDbLine
 10
3.992756
 20
1.499651
 30
0.0
 11
4.37943
 21
1.690769
 31
0.0
  0
LINE
  5
28
330
18
100
AcDbEntity
  8
0
100
AcDbLine
 10
4.37943
 20
1.690769
 30
0.0
 11
4.422377
 21
1.815261
 31
0.0
  0
LINE
  5
29
330
18
100
AcDbEntity
  8
0
100
AcDbLine
 10
4.422377
 20
1.815261
 30
0.0
 11
4.509957
 21
1.638802
 31
0.0
  0
LINE
  5
2A
330
18
100
AcDbEntity
  8
0
100
AcDbLine
 10
4.509957
 20
1.638802
 30
0.0
 11
4.545745
 21
1.772973
 31
0.0
  0
LINE
  5
2B
330
18
100
AcDbEntity
  8
0
100
AcDbLine
 10
4.545745
 20
1.772973
 30
0.0
 11
4.787587
 21
1.892507
 31
0.0
  0
LINE
  5
2C
330
18
100
AcDbEntity
  8
0
100
AcDbLine
 10
4.509957
 20
1.638802
 30
0.0
 11
4.359304
 21
1.680822
 31
0.0
  0
LINE
  5
2D
330
18
100
AcDbEntity
  8
0
100
AcDbLine
 10
6.590661999999999
 20
4.477056
 30
0.0
 11
4.800036
 21
4.542574
 31
0.0
  0
LINE
  5
2E
330
18
100
AcDbEntity
  8
0
100
AcDbLine
 10
5.572026
 20
3.044587
 30
0.0
 11
4.194593
 21
3.192163
 31
0.0
  0
LINE
  5
2F
330
18
100
AcDbEntity
  8
0
100
AcDbLine
 10
0.423165
 20
4.080627
 30
0.0
 11
0.423165
 21
3.596228
 31
0.0
  0
LINE
  5
30
330
18
100
AcDbEntity
  8
0
100
AcDbLine
 10
0.809704
 20
4.576809
 30
0.0
 11
0.809704
 21
4.052109
 31
0.0
  0
LINE
  5
31
330
18
100
AcDbEntity
  8
0
100
AcDbLine
 10
5.573333
 20
3.700649
 30
0.0
 11
5.573333
 21
3.044447
 31
0.0
  0
LINE
  5
32
330
18
100
AcDbEntity
  8
0
100
AcDbLine
 10
6.352924
 20
3.751241
 30
0.0
 11
6.352924
 21
3.322831
 31
0.0
  0
LINE
  5
33
330
18
100
AcDbEntity
  8
0
100
AcDbLine
 10
6.590661999999999
 20
4.477056
 30
0.0
 11
6.590661999999999
 21
3.877546
 31
0.0
  0
LINE
  5
34
330
18
100
AcDbEntity
  8
0
100
AcDbLine
 10
5.825264
 20
4.332066
 30
0.0
 11
5.825264
 21
3.682062
 31
0.0
  0
LINE
  5
35
330
18
100
AcDbEntity
  8
0
100
AcDbLine
 10
5.825264
 20
3.682062
 30
0.0
 11
4.699403
 21
3.765128
 31
0.0
  0
LINE
  5
36
330
18
100
AcDbEntity
  8
0
100
AcDbLine
 10
0.809704
 20
4.142542
 30
0.0
 11
0.423165
 21
4.080627
 31
0.0
  0
LINE
  5
37
330
18
100
AcDbEntity
  8
0
100
AcDbLine
 10
1.81228
 20
4.65039
 30
0.0
 11
0.809704
 21
4.576809
 31
0.0
  0
LINE
  5
38
330
18
100
AcDbEntity
  8
0
100
AcDbLine
 10
2.066205
 20
4.515549
 30
0.0
 11
0.809704
 21
4.576809
 31
0.0
  0
LINE
  5
39
330
18
100
AcDbEntity
  8
0
100
AcDbLine
 10
5.573454
 20
7.262460000000001
 30
0.0
 11
5.725071
 21
6.649783
 31
0.0
  0
LINE
  5
3A
330
18
100
AcDbEntity
  8
0
100
AcDbLine
 10
5.725071
 20
6.649783
 30
0.0
 11
5.868586
 21
6.632956
 31
0.0
  0
LINE
  5
3B
330
18
100
AcDbEntity
  8
0
100
AcDbLine
 10
5.868586
 20
6.632956
 30
0.0
 11
5.679315
 21
6.399859999999999
 31
0.0
  0
LINE
  5
3C
330
18
100
AcDbEntity
  8
0
100
AcDbLine
 10
5.679315
 20
6.399859999999999
 30
0.0
 11
5.790071
 21
6.387119
 31
0.0
  0
LINE
  5
3D
330
18
100
AcDbEntity
  8
0
100
AcDbLine
 10
5.933423
 20
5.807841000000001
 30
0.0
 11
4.628775
 21
4.74661
 31
0.0
  0
LINE
  5
3E
330
18
100
AcDbEntity
  8
0
100
AcDbLine
 10
5.790071
 20
6.387119
 30
0.0
 11
5.933423
 21
5.807841000000001
 31
0.0
  0
LINE
  5
3F
330
18
100
AcDbEntity
  8
0
100
AcDbLine
 10
5.07199
 20
7.211635
 30
0.0
 11
2.318921
 21
5.807712
 31
0.0
  0
LINE
  5
40
330
18
100
AcDbEntity
  8
0
100
AcDbLine
 10
5.573454
 20
7.262460000000001
 30
0.0
 11
2.868357
 21
5.814204
 31
0.0
  0
LINE
  5
41
330
18
100
AcDbEntity
  8
0
100
AcDbLine
 10
4.638722000000001
 20
7.181425999999999
 30
0.0
 11
1.763359
 21
5.781789
 31
0.0
  0
LINE
  5
42
330
18
100
AcDbEntity
  8
0
100
AcDbLine
 10
2.868357
 20
5.814204
 30
0.0
 11
2.321127
 21
5.798151
 31
0.0
  0
LINE
  5
43
330
18
100
AcDbEntity
  8
0
100
AcDbLine
 10
3.304091000000001
 20
3.66908
 30
0.0
 11
2.790031
 21
3.715235
 31
0.0
  0
LINE
  5
44
330
18
100
AcDbEntity
  8
0
100
AcDbLine
 10
5.573454
 20
7.262460000000001
 30
0.0
 11
5.108782
 21
7.222175999999999
 31
0.0
  0
LINE
  5
45
330
18
100
AcDbEntity
  8
0
100
AcDbLine
 10
1.763359
 20
5.781789
 30
0.0
 11
2.245932
 21
3.764086
 31
0.0
  0
LINE
  5
46
330
18
100
AcDbEntity
  8
0
100
AcDbLine
 10
2.868357
 20
5.814204
 30
0.0
 11
3.304091000000001
 21
3.66908
 31
0.0
  0
LINE
  5
47
330
18
100
AcDbEntity
  8
0
100
AcDbLine
 10
2.298337
 20
5.799933
 30
0.0
 11
2.773414
 21
3.72593
 31
0.0
  0
LINE
  5
48
330
18
100
AcDbEntity
  8
0
100
AcDbLine
 10
2.035881
 20
4.642339
 30
0.0
 11
1.81228
 21
4.65039
 31
0.0
  0
LINE
  5
49
330
18
100
AcDbEntity
  8
0
100
AcDbLine
 10
6.352924
 20
3.322831
 30
0.0
 11
6.175219
 21
3.265923
 31
0.0
  0
LINE
  5
4A
330
18
100
AcDbEntity
  8
0
100
AcDbLine
 10
5.572026
 20
3.044587
 30
0.0
 11
5.881315
 21
3.155025
 31
0.0
  0
LINE
  5
4B
330
18
100
AcDbEntity
  8
0
100
AcDbLine
 10
5.881315
 20
3.155025
 30
0.0
 11
6.109063
 21
3.145379
 31
0.0
  0
LINE
  5
4C
330
18
100
AcDbEntity
  8
0
100
AcDbLine
 10
6.590661999999999
 20
3.877546
 30
0.0
 11
6.402951
 21
3.830298
 31
0.0
  0
LINE
  5
4D
330
18
100
AcDbEntity
  8
0
100
AcDbLine
 10
6.153521
 20
3.77196
 30
0.0
 11
5.825264
 21
3.682062
 31
0.0
  0
LINE
  5
4E
330
18
100
AcDbEntity
  8
0
100
AcDbLine
 10
6.153521
 20
3.77196
 30
0.0
 11
6.356791
 21
3.750839
 31
0.0
  0
LINE
  5
4F
330
18
100
AcDbEntity
  8
0
100
AcDbLine
 10
6.356791
 20
4.352526999999999
 30
0.0
 11
6.356791
 21
3.750839
 31
0.0
  0
LINE
  5
50
330
18
100
AcDbEntity
  8
0
100
AcDbLine
 10
6.132194999999999
 20
4.381055
 30
0.0
 11
6.132194999999999
 21
3.766119
 31
0.0
  0
LINE
  5
51
330
18
100
AcDbEntity
  8
0
100
AcDbLine
 10
6.402951
 20
4.422341
 30
0.0
 11
6.402951
 21
3.830298
 31
0.0
  0
LINE
  5
52
330
18
100
AcDbEntity
  8
0
100
AcDbLine
 10
6.175219
 20
3.769705
 30
0.0
 11
6.175219
 21
3.265923
 31
0.0
  0
LINE
  5
53
330
18
100
AcDbEntity
  8
0
100
AcDbLine
 10
6.109063
 20
3.759784
 30
0.0
 11
6.109063
 21
3.145379
 31
0.0
  0
LINE
  5
54
330
18
100
AcDbEntity
  8
0
100
AcDbLine
 10
5.881391000000001
 20
3.697433
 30
0.0
 11
5.881391000000001
 21
3.155025
 31
0.0
  0
LINE
  5
55
330
18
100
AcDbEntity
  8
0
100
AcDbLine
 10
6.590661999999999
 20
4.477056
 30
0.0
 11
6.402951
 21
4.422341
 31
0.0
  0
LINE
  5
56
330
18
100
AcDbEntity
  8
0
100
AcDbLine
 10
6.402951
 20
4.422341
 30
0.0
 11
6.297573000000001
 21
4.427142
 31
0.0
  0
LINE
  5
57
330
18
100
AcDbEntity
  8
0
100
AcDbLine
 10
6.297573000000001
 20
4.427142
 30
0.0
 11
6.356791
 21
4.352526999999999
 31
0.0
  0
LINE
  5
58
330
18
100
AcDbEntity
  8
0
100
AcDbLine
 10
6.356791
 20
4.352526999999999
 30
0.0
 11
6.132194999999999
 21
4.381055
 31
0.0
  0
LINE
  5
59
330
18
100
AcDbEntity
  8
0
100
AcDbLine
 10
6.132194999999999
 20
4.381055
 30
0.0
 11
5.825264
 21
4.332066
 31
0.0
  0
LINE
  5
5A
330
18
100
AcDbEntity
  8
0
100
AcDbLine
 10
4.931835
 20
4.380319
 30
0.0
 11
5.825264
 21
4.332066
 31
0.0
  0
LINE
  5
5B
330
18
100
AcDbEntity
  8
0
100
AcDbLine
 10
6.402951
 20
3.830298
 30
0.0
 11
6.356791
 21
3.832401
 31
0.0
  0
LINE
  5
5C
330
18
100
AcDbEntity
  8
0
100
AcDbLine
 10
6.175219
 20
3.265923
 30
0.0
 11
6.109063
 21
3.277563
 31
0.0
  0
LINE
  5
5D
330
18
100
AcDbEntity
  8
0
100
AcDbLine
 10
4.881329
 20
4.042317
 30
0.0
 11
4.116948000000001
 21
3.179669
 31
0.0
  0
LINE
  5
5E
330
18
100
AcDbEntity
  8
0
100
AcDbLine
 10
4.882632
 20
4.373201
 30
0.0
 11
4.881329
 21
4.042317
 31
0.0
  0
LINE
  5
5F
330
18
100
AcDbEntity
  8
0
100
AcDbLine
 10
2.897443
 20
3.705591000000001
 30
0.0
 11
3.250566
 21
3.272492
 31
0.0
  0
LINE
  5
60
330
18
100
AcDbEntity
  8
0
100
AcDbLine
 10
4.145319000000001
 20
3.17663
 30
0.0
 11
3.250566
 21
3.272492
 31
0.0
  0
LINE
  5
61
330
18
100
AcDbEntity
  8
0
100
AcDbLine
 10
4.247399
 20
4.460358
 30
0.0
 11
3.945923000000001
 21
4.415978
 31
0.0
  0
LINE
  5
62
330
18
100
AcDbEntity
  8
0
100
AcDbLine
 10
3.884209
 20
4.417004
 30
0.0
 11
3.767406
 21
4.552035
 31
0.0
  0
LINE
  5
63
330
18
100
AcDbEntity
  8
0
100
AcDbLine
 10
3.767406
 20
5.450858
 30
0.0
 11
3.767406
 21
4.552035
 31
0.0
  0
LINE
  5
64
330
18
100
AcDbEntity
  8
0
100
AcDbLine
 10
4.932361
 20
4.382668
 30
0.0
 11
4.930330000000001
 21
4.040737
 31
0.0
  0
LINE
  5
65
330
18
100
AcDbEntity
  8
0
100
AcDbLine
 10
4.292816
 20
5.143206
 30
0.0
 11
4.932361
 21
4.382668
 31
0.0
  0
LINE
  5
66
330
18
100
AcDbEntity
  8
0
100
AcDbLine
 10
4.930330000000001
 20
4.040737
 30
0.0
 11
4.195622
 21
3.193331
 31
0.0
  0
LINE
  5
67
330
18
100
AcDbEntity
  8
0
100
AcDbLine
 10
3.896875
 20
5.455112000000001
 30
0.0
 11
4.174761
 21
5.204736000000001
 31
0.0
  0
LINE
  5
68
330
18
100
AcDbEntity
  8
0
100
AcDbLine
 10
3.896875
 20
5.455112000000001
 30
0.0
 11
3.767406
 21
5.450858
 31
0.0
  0
LINE
  5
69
330
18
100
AcDbEntity
  8
0
100
AcDbLine
 10
3.817406
 20
5.450858
 30
0.0
 11
3.817406
 21
4.557930000000001
 31
0.0
  0
LINE
  5
6A
330
18
100
AcDbEntity
  8
0
100
AcDbLine
 10
3.945923000000001
 20
4.415978
 30
0.0
 11
3.817406
 21
4.557930000000001
 31
0.0
  0
LINE
  5
6B
330
18
100
AcDbEntity
  8
0
100
AcDbLine
 10
4.255166
 20
4.442707
 30
0.0
 11
3.304091000000001
 21
3.66908
 31
0.0
  0
LINE
  5
6C
330
18
100
AcDbEntity
  8
0
100
AcDbLine
 10
3.231973
 20
3.295297
 30
0.0
 11
0.423165
 21
3.596228
 31
0.0
  0
LINE
  5
6D
330
18
100
AcDbEntity
  8
0
100
AcDbLine
 10
2.201607
 20
3.949414
 30
0.0
 11
0.423165
 21
4.080627
 31
0.0
  0
LWPOLYLINE
  5
6E
330
18
100
AcDbEntity
  8
0
100
AcDbPolyline
 90
        9
 70
     0
 43
0.0
 10
2.691678
 20
3.724065
 10
2.691436
 20
3.724985
 10
2.685346
 20
3.768122
 10
2.682262
 20
3.814274
 10
2.68721
 20
3.857429
 10
2.694184
 20
3.888546
 10
2.702156
 20
3.922674
 10
2.71613
 20
3.968854
 10
2.717235
 20
3.971188
  0
LWPOLYLINE
  5
7A
330
18
100
AcDbEntity
  8
0
100
AcDbPolyline
 90
       19
 70
     0
 43
0.0
 10
1.844749
 20
5.784177
 10
1.861408
 20
5.728469000000001
 10
1.881546
 20
5.685354
 10
1.901699
 20
5.632206
 10
1.921869
 20
5.569023000000001
 10
1.943023
 20
5.517883
 10
1.959145
 20
5.475766
 10
1.970237
 20
5.441668
 10
1.960216
 20
5.433624
 10
1.948211
 20
5.41153
 10
1.94223
 20
5.386435
 10
1.952335
 20
5.342301
 10
1.969454
 20
5.304199
 10
1.980561
 20
5.26107
 10
1.982629
 20
5.222944
 10
1.979677
 20
5.186816
 10
1.970743
 20
5.126597
 10
1.959796
 20
5.070389
 10
1.949431
 20
5.0038
  0
LWPOLYLINE
  5
90
330
18
100
AcDbEntity
  8
0
100
AcDbPolyline
 90
       22
 70
     0
 43
0.0
 10
1.97451
 20
5.787983000000001
 10
1.999075
 20
5.604267
 10
2.005183
 20
5.550092
 10
2.019338
 20
5.482887
 10
2.033486
 20
5.420698000000001
 10
2.046657
 20
5.341449
 10
2.076898
 20
5.255205
 10
2.096076
 20
5.184996
 10
2.116271
 20
5.105759
 10
2.120344
 20
5.06864
 10
2.115347
 20
5.056591
 10
2.107345
 20
5.040523
 10
2.09639
 20
4.989332
 10
2.094485
 20
4.926114
 10
2.097595
 20
4.863907
 10
2.101698
 20
4.807723
 10
2.103815
 20
4.739494000000001
 10
2.102929
 20
4.666244
 10
2.099025
 20
4.598005000000001
 10
2.092077
 20
4.550834
 10
2.086155
 20
4.489616000000001
 10
2.083435
 20
4.443511
  0
LWPOLYLINE
  5
A9
330
18
100
AcDbEntity
  8
0
100
AcDbPolyline
 90
       28
 70
     0
 43
0.0
 10
2.030794
 20
5.789634
 10
2.050041
 20
5.733789
 10
2.056184
 20
5.657539
 10
2.066339
 20
5.5823
 10
2.075465
 20
5.523113
 10
2.090637
 20
5.447882
 10
2.126948
 20
5.330541
 10
2.146109
 20
5.270367
 10
2.177405
 20
5.152014
 10
2.203656
 20
5.050712
 10
2.229983
 20
4.902248999999999
 10
2.242079
 20
4.868153
 10
2.244139
 20
4.835044
 10
2.228118
 20
4.813946
 10
2.210118
 20
4.775788
 10
2.202151
 20
4.738649
 10
2.20824
 20
4.695512
 10
2.223383
 20
4.638342
 10
2.231531
 20
4.563099
 10
2.230633
 20
4.497876
 10
2.227674
 20
4.465762000000001
 10
2.216712
 20
4.418584
 10
2.202768
 20
4.354343
 10
2.192877
 20
4.265023
 10
2.191952
 20
4.215855
 10
2.192063
 20
4.14662
 10
2.191157
 20
4.086412999999999
 10
2.188402
 20
4.004629
  0
LWPOLYLINE
  5
C8
330
18
100
AcDbEntity
  8
0
100
AcDbPolyline
 90
       44
 70
     0
 43
0.0
 10
2.091561
 20
5.791417
 10
2.100183
 20
5.751931
 10
2.109286
 20
5.706792
 10
2.126442
 20
5.645611
 10
2.141593
 20
5.583424
 10
2.154718
 20
5.533274
 10
2.165838
 20
5.482118
 10
2.174991
 20
5.405874
 10
2.188125
 20
5.349704
 10
2.207295
 20
5.284513
 10
2.233461
 20
5.236391
 10
2.272716
 20
5.160195
 10
2.286827
 20
5.121084
 10
2.293889
 20
5.097014
 10
2.295967
 20
5.052867
 10
2.310158
 20
4.963586
 10
2.327314
 20
4.902406
 10
2.343485
 20
4.830186
 10
2.358639
 20
4.765992
 10
2.369767
 20
4.709819
 10
2.379881
 20
4.659664
 10
2.394016
 20
4.605503
 10
2.402103
 20
4.56839
 10
2.403132
 20
4.552337000000001
 10
2.394138
 20
4.529244
 10
2.384154
 20
4.498122
 10
2.370171
 20
4.457963
 10
2.361177
 20
4.43487
 10
2.353185
 20
4.412782
 10
2.351212
 20
4.391708
 10
2.355252
 20
4.375659
 10
2.364318
 20
4.353599
 10
2.370379
 20
4.328523000000001
 10
2.374455
 20
4.289397
 10
2.37049
 20
4.259288
 10
2.370564
 20
4.213131
 10
2.370677
 20
4.142893
 10
2.373777
 20
4.086707
 10
2.379915
 20
4.013467
 10
2.384045
 20
3.941228
 10
2.385124
 20
3.89407
 10
2.389212
 20
3.847919
 10
2.400376
 20
3.768668
 10
2.401644
 20
3.750106
  0
LWPOLYLINE
  5
F7
330
18
100
AcDbEntity
  8
0
100
AcDbPolyline
 90
       35
 70
     0
 43
0.0
 10
2.149108
 20
5.793105000000001
 10
2.164422
 20
5.738989
 10
2.188632
 20
5.658755
 10
2.208846
 20
5.568480999999999
 10
2.234063
 20
5.486242
 10
2.256273
 20
5.401991000000001
 10
2.312688
 20
5.262607
 10
2.342897
 20
5.19643
 10
2.365041
 20
5.153319000000001
 10
2.389237
 20
5.082116
 10
2.412441
 20
5.003887000000001
 10
2.431599
 20
4.94572
 10
2.444734
 20
4.88955
 10
2.465954
 20
4.79727
 10
2.479114
 20
4.725046
 10
2.487193
 20
4.692949
 10
2.504412
 20
4.592636
 10
2.516522
 20
4.549509
 10
2.542756
 20
4.459244
 10
2.555937
 20
4.373975
 10
2.566042
 20
4.329841
 10
2.58017
 20
4.279693
 10
2.577213
 20
4.246576
 10
2.567221
 20
4.220471
 10
2.545209
 20
4.181303
 10
2.535204
 20
4.163225
 10
2.5242
 20
4.142136
 10
2.510223
 20
4.097963
 10
2.508276
 20
4.060834
 10
2.518407
 20
4.000645
 10
2.519481
 20
3.956497
 10
2.509548
 20
3.893266000000001
 10
2.509629
 20
3.843096
 10
2.510742
 20
3.774866
 10
2.516276
 20
3.739813
  0
LWPOLYLINE
  5
11D
330
18
100
AcDbEntity
  8
0
100
AcDbPolyline
 90
       10
 70
     0
 43
0.0
 10
2.221072
 20
5.795216
 10
2.224557
 20
5.782233
 10
2.237674
 20
5.7371
 10
2.261891
 20
5.652853
 10
2.282094
 20
5.568598000000001
 10
2.319404
 20
5.454269
 10
2.342542
 20
5.41718
 10
2.360662
 20
5.381087
 10
2.386823
 20
5.335975
 10
2.422276
 20
5.258865
  0
LWPOLYLINE
  5
12A
330
18
100
AcDbEntity
  8
0
100
AcDbPolyline
 90
        6
 70
     0
 43
0.0
 10
2.763377
 20
5.811125
 10
2.783475
 20
5.771089
 10
2.812666
 20
5.713941
 10
2.842863
 20
5.654789
 10
2.887195
 20
5.541474
 10
2.945961
 20
5.432161
  0
LWPOLYLINE
  5
133
330
18
100
AcDbEntity
  8
0
100
AcDbPolyline
 90
       22
 70
     0
 43
0.0
 10
2.63503
 20
5.80736
 10
2.641961
 20
5.791933
 10
2.67014
 20
5.739801
 10
2.707385
 20
5.665609
 10
2.76073
 20
5.563346
 10
2.795956
 20
5.497178
 10
2.845273
 20
5.40394
 10
2.903652
 20
5.290648
 10
2.934876
 20
5.217449
 10
2.957043
 20
5.16029
 10
2.975157
 20
5.127207
 10
2.982228
 20
5.098119000000001
 10
2.991315
 20
5.063014
 10
2.990435
 20
4.98575
 10
2.991471
 20
4.965683
 10
2.997577
 20
4.912512
 10
3.004675
 20
4.866366999999999
 10
3.014754
 20
4.838288
 10
3.028856
 20
4.804194
 10
3.042959
 20
4.770101
 10
3.092263
 20
4.68489
 10
3.100919
 20
4.669298
  0
LWPOLYLINE
  5
14C
330
18
100
AcDbEntity
  8
0
100
AcDbPolyline
 90
       19
 70
     0
 43
0.0
 10
2.47081
 20
5.802542
 10
2.478415
 20
5.78565
 10
2.503595
 20
5.72649
 10
2.56202
 20
5.585102
 10
2.613387
 20
5.464775
 10
2.66473
 20
5.3595
 10
2.717028
 20
5.284328
 10
2.766343
 20
5.192093
 10
2.804595
 20
5.115895
 10
2.83382
 20
5.037676
 10
2.848998
 20
4.958431
 10
2.85915
 20
4.885198
 10
2.902511
 20
4.751814
 10
2.976977
 20
4.61848
 10
3.017207
 20
4.560346
 10
3.070537
 20
4.467115
 10
3.104765
 20
4.397933999999999
 10
3.151071
 20
4.304691
 10
3.191859
 20
4.2216
  0
LWPOLYLINE
  5
162
330
18
100
AcDbEntity
  8
0
100
AcDbPolyline
 90
        7
 70
     0
 43
0.0
 10
2.701065
 20
4.041779
 10
2.737156
 20
3.996983
 10
2.769349
 20
3.944857
 10
2.797517
 20
3.899749
 10
2.831715
 20
3.84863
 10
2.878988
 20
3.778467
 10
2.934457
 20
3.702267
  0
LWPOLYLINE
  5
16C
330
18
100
AcDbEntity
  8
0
100
AcDbPolyline
 90
       13
 70
     0
 43
0.0
 10
3.026996
 20
3.693959
 10
2.996408
 20
3.765611
 10
2.963197
 20
3.826766000000001
 10
2.93501
 20
3.883915
 10
2.914879
 20
3.923016000000001
 10
2.879687
 20
3.968113
 10
2.825361
 20
4.056326
 10
2.790144
 20
4.117477
 10
2.752864
 20
4.212742
 10
2.722669
 20
4.270891000000001
 10
2.693496
 20
4.317001
 10
2.634167
 20
4.396175
 10
2.608893
 20
4.444167
  0
LWPOLYLINE
  5
17C
330
18
100
AcDbEntity
  8
0
100
AcDbPolyline
 90
       14
 70
     0
 43
0.0
 10
2.475435
 20
5.026795
 10
2.500788
 20
4.974930000000001
 10
2.557196
 20
4.83956
 10
2.604569
 20
4.707186
 10
2.664912
 20
4.620989
 10
2.704118
 20
4.575898000000001
 10
2.752367
 20
4.522795
 10
2.809737
 20
4.413515
 10
2.861068
 20
4.315263
 10
2.9134
 20
4.21902
 10
2.972767
 20
4.115764
 10
3.036185
 20
3.989436
 10
3.125724
 20
3.843081
 10
3.233099
 20
3.675454
  0
LWPOLYLINE
  5
18D
330
18
100
AcDbEntity
  8
0
100
AcDbPolyline
 90
       19
 70
     0
 43
0.0
 10
2.305976
 20
5.802219999999999
 10
2.31889
 20
5.774357
 10
2.36424
 20
5.652013
 10
2.4106
 20
5.525658
 10
2.460983
 20
5.393289
 10
2.511347
 20
5.272959999999999
 10
2.538545
 20
5.206778
 10
2.581824
 20
5.124568
 10
2.619079
 20
5.044355
 10
2.643285
 20
4.967131
 10
2.666487
 20
4.889906
 10
2.710819
 20
4.776592
 10
2.766197
 20
4.658278
 10
2.918047
 20
4.449812000000001
 10
2.992486
 20
4.333536000000001
 10
3.053861
 20
4.22928
 10
3.108213
 20
4.125012
 10
3.176627
 20
4.011736
 10
3.263347
 20
3.869662
  0
LWPOLYLINE
  5
1A3
330
18
100
AcDbEntity
  8
0
100
AcDbPolyline
 90
        6
 70
     0
 43
0.0
 10
4.400757
 20
1.752591
 10
4.403205000000001
 20
1.742393
 10
4.4226
 20
1.710894
 10
4.429148000000001
 20
1.68997
 10
4.436897
 20
1.669831
 10
4.442180000000001
 20
1.657706
  0
LWPOLYLINE
  5
1AC
330
18
100
AcDbEntity
  8
0
100
AcDbPolyline
 90
       12
 70
     0
 43
0.0
 10
6.132194999999999
 20
4.227729
 10
6.125309
 20
4.226183
 10
6.093198999999999
 20
4.227135
 10
6.065098
 20
4.2301
 10
6.032978
 20
4.237073000000001
 10
5.992832
 20
4.243029
 10
5.960731
 20
4.23796
 10
5.935657
 20
4.230896
 10
5.913752
 20
4.232214
 10
5.877682
 20
4.235647
 10
5.845047
 20
4.237364
 10
5.825264
 20
4.254532
  0
LWPOLYLINE
  5
1BB
330
18
100
AcDbEntity
  8
0
100
AcDbPolyline
 90
        8
 70
     0
 43
0.0
 10
6.556062
 20
3.868837
 10
6.549313
 20
3.874667
 10
6.514191
 20
3.876617
 10
6.488096
 20
3.880589
 10
6.463002
 20
3.885566
 10
6.443931
 20
3.889549
 10
6.417843
 20
3.889507
 10
6.402951
 20
3.891468
  0
LWPOLYLINE
  5
1C6
330
18
100
AcDbEntity
  8
0
100
AcDbPolyline
 90
        9
 70
     0
 43
0.0
 10
6.356791
 20
4.232451
 10
6.339021
 20
4.235557
 10
6.311913
 20
4.245548
 10
6.276769
 20
4.260542
 10
6.246652
 20
4.269525
 10
6.21052
 20
4.275487
 10
6.155315
 20
4.286436
 10
6.141852
 20
4.289651
 10
6.132194999999999
 20
4.29261
  0
LWPOLYLINE
  5
1D2
330
18
100
AcDbEntity
  8
0
100
AcDbPolyline
 90
        9
 70
     0
 43
0.0
 10
6.356791
 20
4.279458
 10
6.320879
 20
4.285699
 10
6.284758999999999
 20
4.283633999999999
 10
6.249626999999999
 20
4.291605000000001
 10
6.225531
 20
4.300597
 10
6.200428
 20
4.311594
 10
6.172313
 20
4.32359
 10
6.15324
 20
4.328576
 10
6.132194999999999
 20
4.337567
  0
LWPOLYLINE
  5
1DE
330
18
100
AcDbEntity
  8
0
100
AcDbPolyline
 90
        6
 70
     0
 43
0.0
 10
6.590661999999999
 20
4.412216
 10
6.588586
 20
4.412558
 10
6.548424
 20
4.428548
 10
6.516312
 20
4.430504
 10
6.487202
 20
4.437481
 10
6.470353
 20
4.441987999999999
  0
LWPOLYLINE
  5
1E7
330
18
100
AcDbEntity
  8
0
100
AcDbPolyline
 90
        6
 70
     0
 43
0.0
 10
6.590661999999999
 20
4.350789
 10
6.553548999999999
 20
4.361328
 10
6.51642
 20
4.363275
 10
6.481294
 20
4.367232
 10
6.434116
 20
4.378194000000001
 10
6.402951
 20
4.376412999999999
  0
LWPOLYLINE
  5
1F0
330
18
100
AcDbEntity
  8
0
100
AcDbPolyline
 90
        8
 70
     0
 43
0.0
 10
6.402951
 20
4.376412999999999
 10
6.388975
 20
4.379408
 10
6.377008999999999
 20
4.379408
 10
6.371027
 20
4.381401
 10
6.368534
 20
4.381899
 10
6.353078
 20
4.383394
 10
6.331141000000001
 20
4.386882
 10
6.329331
 20
4.387126
  0
LWPOLYLINE
  5
1FB
330
18
100
AcDbEntity
  8
0
100
AcDbPolyline
 90
        7
 70
     0
 43
0.0
 10
6.590661999999999
 20
4.287773000000001
 10
6.583772
 20
4.286121
 10
6.541614
 20
4.295083999999999
 10
6.49947
 20
4.296019
 10
6.470366
 20
4.298983
 10
6.433241000000001
 20
4.29792
 10
6.402951
 20
4.298489
  0
LWPOLYLINE
  5
205
330
18
100
AcDbEntity
  8
0
100
AcDbPolyline
 90
        9
 70
     0
 43
0.0
 10
6.590661999999999
 20
4.227977
 10
6.571826
 20
4.2269
 10
6.536707
 20
4.226844
 10
6.509615
 20
4.2268
 10
6.49055
 20
4.22677
 10
6.466468
 20
4.226731
 10
6.437368
 20
4.227688
 10
6.414294
 20
4.22464
 10
6.402951
 20
4.224244000000001
  0
LWPOLYLINE
  5
211
330
18
100
AcDbEntity
  8
0
100
AcDbPolyline
 90
        8
 70
     0
 43
0.0
 10
6.590661999999999
 20
4.145148000000001
 10
6.572960000000001
 20
4.145626
 10
6.540845
 20
4.149588
 10
6.499702
 20
4.151528
 10
6.470601
 20
4.152485
 10
6.445513
 20
4.154452
 10
6.410390000000001
 20
4.156402
 10
6.402951
 20
4.158515
  0
LWPOLYLINE
  5
21C
330
18
100
AcDbEntity
  8
0
100
AcDbPolyline
 90
        7
 70
     0
 43
0.0
 10
6.590661999999999
 20
4.078437
 10
6.579087
 20
4.07941
 10
6.525906
 20
4.079325
 10
6.479746
 20
4.081258
 10
6.451643
 20
4.086230000000001
 10
6.424547000000001
 20
4.088193
 10
6.402951
 20
4.092656
  0
LWPOLYLINE
  5
226
330
18
100
AcDbEntity
  8
0
100
AcDbPolyline
 90
        8
 70
     0
 43
0.0
 10
6.590661999999999
 20
4.032165
 10
6.581160000000001
 20
4.038274
 10
6.528973000000001
 20
4.04421
 10
6.494862
 20
4.041144999999999
 10
6.4748
 20
4.0371
 10
6.447711
 20
4.035049
 10
6.411594999999999
 20
4.030978
 10
6.402951
 20
4.033703
  0
LWPOLYLINE
  5
231
330
18
100
AcDbEntity
  8
0
100
AcDbPolyline
 90
        8
 70
     0
 43
0.0
 10
6.590661999999999
 20
3.950391
 10
6.573269
 20
3.952971
 10
6.544159
 20
3.959948
 10
6.518071
 20
3.959906
 10
6.487967
 20
3.960861
 10
6.457861
 20
3.96282
 10
6.423742
 20
3.964772
 10
6.402951
 20
3.963515
  0
LWPOLYLINE
  5
23C
330
18
100
AcDbEntity
  8
0
100
AcDbPolyline
 90
        4
 70
     0
 43
0.0
 10
6.402951
 20
4.298489
 10
6.383506
 20
4.305376
 10
6.361852
 20
4.311389
 10
6.356791
 20
4.314424
  0
LWPOLYLINE
  5
243
330
18
100
AcDbEntity
  8
0
100
AcDbPolyline
 90
        4
 70
     0
 43
0.0
 10
6.402951
 20
4.224244000000001
 10
6.381101
 20
4.233234
 10
6.36065
 20
4.239245
 10
6.356791
 20
4.240136
  0
LWPOLYLINE
  5
24A
330
18
100
AcDbEntity
  8
0
100
AcDbPolyline
 90
        6
 70
     0
 43
0.0
 10
6.402951
 20
4.158515
 10
6.379898000000001
 20
4.164698000000001
 10
6.370273
 20
4.168305
 10
6.363055
 20
4.17071
 10
6.357041000000001
 20
4.173115
 10
6.356791
 20
4.17324
  0
LWPOLYLINE
  5
253
330
18
100
AcDbEntity
  8
0
100
AcDbPolyline
 90
        5
 70
     0
 43
0.0
 10
6.402951
 20
4.092656
 10
6.381101
 20
4.098566
 10
6.363055
 20
4.103376
 10
6.358244
 20
4.105782
 10
6.356791
 20
4.106178
  0
LWPOLYLINE
  5
25B
330
18
100
AcDbEntity
  8
0
100
AcDbPolyline
 90
        5
 70
     0
 43
0.0
 10
6.402951
 20
4.033703
 10
6.376288
 20
4.037246
 10
6.367868
 20
4.038448000000001
 10
6.359447
 20
4.039651
 10
6.356791
 20
4.039651
  0
LWPOLYLINE
  5
263
330
18
100
AcDbEntity
  8
0
100
AcDbPolyline
 90
        3
 70
     0
 43
0.0
 10
6.402951
 20
3.963515
 10
6.375086000000001
 20
3.975924
 10
6.356791
 20
3.983035
  0
LWPOLYLINE
  5
269
330
18
100
AcDbEntity
  8
0
100
AcDbPolyline
 90
        5
 70
     0
 43
0.0
 10
6.402951
 20
3.891468
 10
6.389522
 20
3.894162
 10
6.37268
 20
3.897769
 10
6.364259
 20
3.900174
 10
6.356791
 20
3.901667
  0
LWPOLYLINE
  5
271
330
18
100
AcDbEntity
  8
0
100
AcDbPolyline
 90
        6
 70
     0
 43
0.0
 10
6.132194999999999
 20
4.337567
 10
6.123504000000001
 20
4.344666
 10
6.101029000000001
 20
4.349564
 10
6.054861
 20
4.356514
 10
6.035796
 20
4.356483
 10
5.998889
 20
4.359779000000001
  0
LWPOLYLINE
  5
27A
330
18
100
AcDbEntity
  8
0
100
AcDbPolyline
 90
        9
 70
     0
 43
0.0
 10
6.132194999999999
 20
4.29261
 10
6.111152
 20
4.294393
 10
6.075018
 20
4.301358000000001
 10
6.038887
 20
4.306317
 10
5.997744
 20
4.308258
 10
5.964632
 20
4.308205
 10
5.926496
 20
4.312158
 10
5.885345
 20
4.319115
 10
5.82956
 20
4.332751999999999
  0
LWPOLYLINE
  5
286
330
18
100
AcDbEntity
  8
0
100
AcDbPolyline
 90
        7
 70
     0
 43
0.0
 10
6.356791
 20
4.185422
 10
6.334078
 20
4.189392
 10
6.270834
 20
4.207351999999999
 10
6.215631
 20
4.217298
 10
6.186527
 20
4.220261
 10
6.158423
 20
4.225233
 10
6.132194999999999
 20
4.227729
  0
LWPOLYLINE
  5
290
330
18
100
AcDbEntity
  8
0
100
AcDbPolyline
 90
       11
 70
     0
 43
0.0
 10
6.132194999999999
 20
4.126395
 10
6.123652
 20
4.12688
 10
6.079312
 20
4.126772
 10
6.051213
 20
4.128733
 10
6.018097
 20
4.130687
 10
5.98398
 20
4.131636
 10
5.950872
 20
4.128572
 10
5.917773
 20
4.120492
 10
5.884665
 20
4.117429
 10
5.844532
 20
4.115357
 10
5.825264
 20
4.113461
  0
LWPOLYLINE
  5
29E
330
18
100
AcDbEntity
  8
0
100
AcDbPolyline
 90
        8
 70
     0
 43
0.0
 10
6.356791
 20
4.058408
 10
6.349334
 20
4.061983000000001
 10
6.307153
 20
4.084994
 10
6.274018
 20
4.098989
 10
6.231851
 20
4.113972
 10
6.21077
 20
4.119959
 10
6.176972
 20
4.125386
 10
6.132194999999999
 20
4.126395
  0
LWPOLYLINE
  5
2A9
330
18
100
AcDbEntity
  8
0
100
AcDbPolyline
 90
        8
 70
     0
 43
0.0
 10
6.356791
 20
3.978274
 10
6.34545
 20
3.980701
 10
6.308313
 20
3.987665
 10
6.276180999999999
 20
4.001661
 10
6.240036
 20
4.015651
 10
6.208774
 20
4.019861
 10
6.157630999999999
 20
4.02838
 10
6.132194999999999
 20
4.030419
  0
LWPOLYLINE
  5
2B4
330
18
100
AcDbEntity
  8
0
100
AcDbPolyline
 90
        7
 70
     0
 43
0.0
 10
6.356791
 20
3.913943
 10
6.350572000000001
 20
3.915487
 10
6.306424
 20
3.914413
 10
6.268273000000001
 20
3.927396
 10
6.217085
 20
3.936345
 10
6.167859
 20
3.937222
 10
6.132194999999999
 20
3.937222
  0
LWPOLYLINE
  5
2BE
330
18
100
AcDbEntity
  8
0
100
AcDbPolyline
 90
        8
 70
     0
 43
0.0
 10
6.356791
 20
3.82897
 10
6.344687
 20
3.831191000000001
 10
6.293505000000001
 20
3.836126
 10
6.26138
 20
3.846109
 10
6.229256
 20
3.855088
 10
6.193119
 20
3.864061
 10
6.163007
 20
3.870033
 10
6.132194999999999
 20
3.865657
  0
LWPOLYLINE
  5
2C9
330
18
100
AcDbEntity
  8
0
100
AcDbPolyline
 90
        9
 70
     0
 43
0.0
 10
6.132194999999999
 20
3.937222
 10
6.099676000000001
 20
3.942177
 10
6.054518
 20
3.945114
 10
6.027428
 20
3.944067
 10
5.996322
 20
3.944018
 10
5.928097
 20
3.939894
 10
5.885954
 20
3.939827
 10
5.844814
 20
3.939761
 10
5.825264
 20
3.937013
  0
LWPOLYLINE
  5
2D5
330
18
100
AcDbEntity
  8
0
100
AcDbPolyline
 90
        9
 70
     0
 43
0.0
 10
6.132194999999999
 20
4.030419
 10
6.120601000000001
 20
4.033521
 10
6.072435
 20
4.03545
 10
6.0343
 20
4.038399
 10
5.990149
 20
4.039332
 10
5.951011
 20
4.042279
 10
5.906854
 20
4.046222
 10
5.859697
 20
4.044139
 10
5.825264
 20
4.041564
  0
LWPOLYLINE
  5
2E1
330
18
100
AcDbEntity
  8
0
100
AcDbPolyline
 90
       10
 70
     0
 43
0.0
 10
6.132194999999999
 20
3.865657
 10
6.128658000000001
 20
3.864811
 10
6.093780000000001
 20
3.864905
 10
6.056652
 20
3.865848
 10
5.975368000000001
 20
3.870735
 10
5.938231
 20
3.877699
 10
5.914149
 20
3.87766
 10
5.88807
 20
3.871598000000001
 10
5.850949
 20
3.868528
 10
5.825264
 20
3.864293
  0
LWPOLYLINE
  5
2EE
330
18
100
AcDbEntity
  8
0
100
AcDbPolyline
 90
        8
 70
     0
 43
0.0
 10
6.127939
 20
3.764953
 10
6.072367
 20
3.776789
 10
6.030701000000001
 20
3.780517
 10
5.981526000000001
 20
3.785455
 10
5.943396
 20
3.785394
 10
5.901248000000001
 20
3.788336
 10
5.86412
 20
3.78928
 10
5.825264
 20
3.791928
  0
LWPOLYLINE
  5
2F9
330
18
100
AcDbEntity
  8
0
100
AcDbPolyline
 90
       10
 70
     0
 43
0.0
 10
5.881391000000001
 20
3.364599
 10
5.853569
 20
3.347634
 10
5.827365
 20
3.333943
 10
5.789619999999999
 20
3.31856
 10
5.757546
 20
3.296434
 10
5.73249
 20
3.278332
 10
5.694403
 20
3.252182
 10
5.663334
 20
3.229054
 10
5.599183
 20
3.186808
 10
5.573333
 20
3.178145
  0
LWPOLYLINE
  5
306
330
18
100
AcDbEntity
  8
0
100
AcDbPolyline
 90
        8
 70
     0
 43
0.0
 10
5.881391000000001
 20
3.460728
 10
5.836606
 20
3.427004
 10
5.804533
 20
3.404878
 10
5.759415
 20
3.382730000000001
 10
5.722321
 20
3.362602
 10
5.686232
 20
3.341473
 10
5.649133
 20
3.324355
 10
5.573333
 20
3.291458
  0
LWPOLYLINE
  5
311
330
18
100
AcDbEntity
  8
0
100
AcDbPolyline
 90
       10
 70
     0
 43
0.0
 10
5.881391000000001
 20
3.540917
 10
5.838468
 20
3.517314
 10
5.792347
 20
3.495165
 10
5.758252
 20
3.482066000000001
 10
5.727172
 20
3.465962
 10
5.699104
 20
3.448858
 10
5.66803
 20
3.42874
 10
5.635954
 20
3.408621
 10
5.602873000000001
 20
3.388499
 10
5.573333
 20
3.376957
  0
LWPOLYLINE
  5
31E
330
18
100
AcDbEntity
  8
0
100
AcDbPolyline
 90
       11
 70
     0
 43
0.0
 10
5.880968
 20
3.641765
 10
5.875165
 20
3.639766
 10
5.835289
 20
3.622667
 10
5.806209
 20
3.61058
 10
5.775128
 20
3.595479
 10
5.742041
 20
3.579371
 10
5.689893
 20
3.561226
 10
5.647767
 20
3.550121
 10
5.61268
 20
3.529996
 10
5.585619
 20
3.510888
 10
5.573333
 20
3.501574
  0
LWPOLYLINE
  5
32C
330
18
100
AcDbEntity
  8
0
100
AcDbPolyline
 90
        7
 70
     0
 43
0.0
 10
5.781042
 20
3.685325
 10
5.772979
 20
3.683775
 10
5.754929
 20
3.676723
 10
5.727855
 20
3.665642
 10
5.666681
 20
3.644472
 10
5.611525
 20
3.624315
 10
5.573333
 20
3.607576
  0
LWPOLYLINE
  5
336
330
18
100
AcDbEntity
  8
0
100
AcDbPolyline
 90
        5
 70
     0
 43
0.0
 10
6.109063
 20
3.708397
 10
6.080987
 20
3.708352
 10
6.050875
 20
3.714324
 10
6.002703
 20
3.719264
 10
5.971191999999999
 20
3.722026
  0
LWPOLYLINE
  5
33E
330
18
100
AcDbEntity
  8
0
100
AcDbPolyline
 90
        9
 70
     0
 43
0.0
 10
6.109063
 20
3.543533
 10
6.073235
 20
3.536756
 10
6.035106
 20
3.536695
 10
6.021058
 20
3.536672
 10
5.992959
 20
3.538634
 10
5.962854
 20
3.540592
 10
5.928736
 20
3.541541000000001
 10
5.886593
 20
3.541473
 10
5.881391000000001
 20
3.540917
  0
LWPOLYLINE
  5
34A
330
18
100
AcDbEntity
  8
0
100
AcDbPolyline
 90
        8
 70
     0
 43
0.0
 10
6.109063
 20
3.45998
 10
6.076365
 20
3.462508
 10
6.032215
 20
3.462438
 10
5.9981
 20
3.461379
 10
5.955956
 20
3.462315
 10
5.914814
 20
3.463253
 10
5.888726999999999
 20
3.462207
 10
5.881391000000001
 20
3.460728
  0
LWPOLYLINE
  5
355
330
18
100
AcDbEntity
  8
0
100
AcDbPolyline
 90
        8
 70
     0
 43
0.0
 10
6.109063
 20
3.392003
 10
6.09253
 20
3.393299
 10
6.047385
 20
3.38821
 10
6.017291999999999
 20
3.382141
 10
5.984185
 20
3.379077
 10
5.944052
 20
3.377006
 10
5.909851000000001
 20
3.37204
 10
5.881391000000001
 20
3.364599
  0
LWPOLYLINE
  5
360
330
18
100
AcDbEntity
  8
0
100
AcDbPolyline
 90
        6
 70
     0
 43
0.0
 10
6.109063
 20
3.197028
 10
6.102882
 20
3.195644
 10
6.062762
 20
3.185545
 10
6.023651
 20
3.171434
 10
5.974508
 20
3.156304
 10
5.961248
 20
3.151639
  0
LWPOLYLINE
  5
369
330
18
100
AcDbEntity
  8
0
100
AcDbPolyline
 90
        8
 70
     0
 43
0.0
 10
6.109063
 20
3.271913
 10
6.099749
 20
3.271898
 10
6.052581
 20
3.276839
 10
6.020473
 20
3.275784
 10
5.980201
 20
3.280605
 10
5.956252
 20
3.277688
 10
5.922133000000001
 20
3.27964
 10
5.881391000000001
 20
3.280522
  0
LWPOLYLINE
  5
374
330
18
100
AcDbEntity
  8
0
100
AcDbPolyline
 90
       10
 70
     0
 43
0.0
 10
6.109063
 20
3.645392
 10
6.105169999999999
 20
3.645176
 10
6.084092
 20
3.649155
 10
6.054992
 20
3.650112000000001
 10
6.023885
 20
3.651066
 10
5.990772
 20
3.651012
 10
5.960675
 20
3.647954
 10
5.934589
 20
3.645905
 10
5.898976
 20
3.641566000000001
 10
5.880968
 20
3.641765
  0
LWPOLYLINE
  5
381
330
18
100
AcDbEntity
  8
0
100
AcDbPolyline
 90
        9
 70
     0
 43
0.0
 10
5.881391000000001
 20
3.280522
 10
5.843896
 20
3.261453
 10
5.803931
 20
3.239864
 10
5.773731
 20
3.215183
 10
5.743678
 20
3.185033
 10
5.694577
 20
3.143814
 10
5.655497
 20
3.110639
 10
5.624443
 20
3.07848
 10
5.602441000000001
 20
3.055447
  0
LWPOLYLINE
  5
38D
330
18
100
AcDbEntity
  8
0
100
AcDbPolyline
 90
        8
 70
     0
 43
0.0
 10
6.352924
 20
3.385036
 10
6.350423999999999
 20
3.382676
 10
6.331377
 20
3.371607
 10
6.313337000000001
 20
3.358534
 10
6.294296
 20
3.343452
 10
6.275366
 20
3.323534
 10
6.260736
 20
3.30952
 10
6.244246
 20
3.288028
  0
LWPOLYLINE
  5
398
330
18
100
AcDbEntity
  8
0
100
AcDbPolyline
 90
        8
 70
     0
 43
0.0
 10
6.352924
 20
3.55763
 10
6.350146
 20
3.556265
 10
6.322073000000001
 20
3.542172
 10
6.292001
 20
3.523059
 10
6.250895
 20
3.501922
 10
6.21982
 20
3.482807
 10
6.195762
 20
3.467717
 10
6.175219
 20
3.45563
  0
LWPOLYLINE
  5
3A3
330
18
100
AcDbEntity
  8
0
100
AcDbPolyline
 90
        8
 70
     0
 43
0.0
 10
6.352924
 20
3.635064
 10
6.330966
 20
3.627477
 10
6.294887
 20
3.600327
 10
6.265821
 20
3.580212
 10
6.233747
 20
3.558085
 10
6.204669
 20
3.544994
 10
6.179603
 20
3.532913
 10
6.175219
 20
3.530712
  0
LWPOLYLINE
  5
3AE
330
18
100
AcDbEntity
  8
0
100
AcDbPolyline
 90
        5
 70
     0
 43
0.0
 10
6.252029
 20
3.761724
 10
6.244469000000001
 20
3.754771
 10
6.216405
 20
3.734658
 10
6.190338
 20
3.721572
 10
6.175219
 20
3.713666
  0
LWPOLYLINE
  5
3B6
330
18
100
AcDbEntity
  8
0
100
AcDbPolyline
 90
        7
 70
     0
 43
0.0
 10
6.352924
 20
3.729982
 10
6.338833999999999
 20
3.726827
 10
6.301737
 20
3.708706
 10
6.265643
 20
3.690587
 10
6.229548
 20
3.673471
 10
6.200473000000001
 20
3.658373000000001
 10
6.175219
 20
3.646103
  0
LWPOLYLINE
  5
3C0
330
18
100
AcDbEntity
  8
0
100
AcDbPolyline
 90
        6
 70
     0
 43
0.0
 10
6.175219
 20
3.713666
 10
6.159083
 20
3.714616
 10
6.144186
 20
3.719257
 10
6.129125
 20
3.725253
 10
6.11005
 20
3.731243
 10
6.109063
 20
3.731636
  0
LWPOLYLINE
  5
3C9
330
18
100
AcDbEntity
  8
0
100
AcDbPolyline
 90
        5
 70
     0
 43
0.0
 10
6.175219
 20
3.646103
 10
6.169377
 20
3.64804
 10
6.141283000000001
 20
3.646991
 10
6.124219
 20
3.650978
 10
6.109063
 20
3.656534
  0
LWPOLYLINE
  5
3D1
330
18
100
AcDbEntity
  8
0
100
AcDbPolyline
 90
        5
 70
     0
 43
0.0
 10
6.175219
 20
3.530712
 10
6.169712000000001
 20
3.533062
 10
6.146623
 20
3.540049
 10
6.129561
 20
3.542028
 10
6.109063
 20
3.544557
  0
LWPOLYLINE
  5
3D9
330
18
100
AcDbEntity
  8
0
100
AcDbPolyline
 90
        5
 70
     0
 43
0.0
 10
6.175219
 20
3.45563
 10
6.159158000000001
 20
3.459618
 10
6.132048
 20
3.470612000000001
 10
6.113982
 20
3.473593
 10
6.109063
 20
3.475458
  0
LWPOLYLINE
  5
3E1
330
18
100
AcDbEntity
  8
0
100
AcDbPolyline
 90
        8
 70
     0
 43
0.0
 10
6.352924
 20
3.453181
 10
6.34931
 20
3.451909
 10
6.292152
 20
3.428739
 10
6.272097000000001
 20
3.420679
 10
6.248035
 20
3.4086
 10
6.221965
 20
3.396517
 10
6.193894
 20
3.381421
 10
6.175219
 20
3.369199
  0
LWPOLYLINE
  5
3EC
330
18
100
AcDbEntity
  8
0
100
AcDbPolyline
 90
        4
 70
     0
 43
0.0
 10
6.175219
 20
3.369199
 10
6.150129
 20
3.372169
 10
6.125047
 20
3.370121
 10
6.109063
 20
3.370096
  0
LINE
  5
3F3
330
18
100
AcDbEntity
  8
0
100
AcDbLine
 10
5.038259
 20
7.216063
 30
0.0
 11
4.638722000000001
 21
7.181425999999999
 31
0.0
  0
ARC
  5
3F4
330
18
100
AcDbEntity
  8
0
100
AcDbCircle
 10
5.039123
 20
7.2061
 30
0.0
 40
0.01
100
AcDbArc
 50
297.019248
 51
94.95469399999999
  0
ARC
  5
3F5
330
18
100
AcDbEntity
  8
0
100
AcDbCircle
 10
5.117419
 20
7.12255
 30
0.0
 40
0.1
100
AcDbArc
 50
94.95469399999999
 51
117.019248
  0
LINE
  5
3F6
330
18
100
AcDbEntity
  8
0
100
AcDbLine
 10
2.276425
 20
5.79684
 30
0.0
 11
1.763359
 21
5.781789
 31
0.0
  0
ARC
  5
3F7
330
18
100
AcDbEntity
  8
0
100
AcDbCircle
 10
2.273492
 20
5.896797
 30
0.0
 40
0.1
100
AcDbArc
 50
296.889063
 51
297.019248
  0
ARC
  5
3F8
330
18
100
AcDbEntity
  8
0
100
AcDbCircle
 10
2.32098
 20
5.803148999999999
 30
0.0
 40
0.005
100
AcDbArc
 50
116.889063
 51
271.680297
  0
ARC
  5
3F9
330
18
100
AcDbEntity
  8
0
100
AcDbCircle
 10
2.273492
 20
5.896797
 30
0.0
 40
0.1
100
AcDbArc
 50
271.680297
 51
297.019248
  0
LINE
  5
3FA
330
18
100
AcDbEntity
  8
0
100
AcDbLine
 10
2.765965
 20
3.717395
 30
0.0
 11
2.245932
 21
3.764086
 31
0.0
  0
ARC
  5
3FB
330
18
100
AcDbEntity
  8
0
100
AcDbCircle
 10
2.79182
 20
3.735154
 30
0.0
 40
0.02
100
AcDbArc
 50
192.90176
 51
264.869507
  0
ARC
  5
3FC
330
18
100
AcDbEntity
  8
0
100
AcDbCircle
 10
2.766591
 20
3.724367
 30
0.0
 40
0.007
100
AcDbArc
 50
264.869507
 51
12.90176
  0
LINE
  5
3FD
330
18
100
AcDbEntity
  8
0
100
AcDbLine
 10
4.21589
 20
3.189882
 30
0.0
 11
4.185413
 21
3.180493
 31
0.0
  0
ARC
  5
3FE
330
18
100
AcDbEntity
  8
0
100
AcDbCircle
 10
4.199374
 20
3.190026
 30
0.0
 40
0.005
100
AcDbArc
 50
138.618359
 51
287.122046
  0
ARC
  5
3FF
330
18
100
AcDbEntity
  8
0
100
AcDbCircle
 10
4.155972
 20
3.276061
 30
0.0
 40
0.1
100
AcDbArc
 50
263.884744
 51
287.122046
  0
LINE
  5
400
330
18
100
AcDbEntity
  8
0
100
AcDbLine
 10
4.882632
 20
4.373201
 30
0.0
 11
4.932361
 21
4.382668
 31
0.0
  0
LINE
  5
401
330
18
100
AcDbEntity
  8
0
100
AcDbLine
 10
4.881329
 20
4.042317
 30
0.0
 11
4.930330000000001
 21
4.040737
 31
0.0
  0
ARC
  5
402
330
18
100
AcDbEntity
  8
0
100
AcDbCircle
 10
4.248856
 20
4.450465
 30
0.0
 40
0.01
100
AcDbArc
 50
309.125722
 51
98.374335
  0
LINE
  5
403
330
18
100
AcDbEntity
  8
0
100
AcDbLine
 10
3.817406
 20
4.557930000000001
 30
0.0
 11
3.767406
 21
4.552035
 31
0.0
  0
LINE
  5
404
330
18
100
AcDbEntity
  8
0
100
AcDbLine
 10
3.945923000000001
 20
4.415978
 30
0.0
 11
3.884209
 21
4.417004
 31
0.0
  0
ARC
  5
405
330
18
100
AcDbEntity
  8
0
100
AcDbCircle
 10
4.236338
 20
5.093425
 30
0.0
 40
0.075285
100
AcDbArc
 50
41.393575
 51
83.802059
  0
LINE
  5
406
330
18
100
AcDbEntity
  8
0
100
AcDbLine
 10
4.174761
 20
5.204736000000001
 30
0.0
 11
4.882632
 21
4.373201
 31
0.0
  0
ARC
  5
407
330
18
100
AcDbEntity
  8
0
100
AcDbCircle
 10
4.259771
 20
5.28238
 30
0.0
 40
0.115131
100
AcDbArc
 50
222.407059
 51
262.360755
  0
LINE
  5
408
330
18
100
AcDbEntity
  8
0
100
AcDbLine
 10
4.227534
 20
4.51963
 30
0.0
 11
4.227534
 21
4.509111
 31
0.0
  0
LINE
  5
409
330
18
100
AcDbEntity
  8
0
100
AcDbLine
 10
4.227534
 20
5.082821
 30
0.0
 11
4.227534
 21
4.537168
 31
0.0
  0
LINE
  5
40A
330
18
100
AcDbEntity
  8
0
100
AcDbLine
 10
4.227534
 20
5.100352
 30
0.0
 11
4.227534
 21
5.09335
 31
0.0
  0
LWPOLYLINE
  5
40B
330
18
100
AcDbEntity
  8
0
100
AcDbPolyline
 90
       16
 70
     1
 43
0.0
 10
4.269558999999999
 20
3.662192
 42
0.111783
 10
4.251642
 20
3.652673000000001
 42
0.10304
 10
4.238268
 20
3.635242
 42
0.092686
 10
4.232419
 20
3.613622
 42
0.086493
 10
4.23465
 20
3.589753
 42
0.086493
 10
4.244824
 20
3.568045
 42
0.092686
 10
4.260823
 20
3.552372
 42
0.10304
 10
4.281185
 20
3.544123
 42
0.111783
 10
4.301456
 20
3.544997
 42
0.111783
 10
4.319373000000001
 20
3.554516000000001
 42
0.10304
 10
4.332746
 20
3.571947
 42
0.092686
 10
4.338595
 20
3.593567
 42
0.086493
 10
4.336365
 20
3.617436
 42
0.086493
 10
4.326191000000001
 20
3.639144
 42
0.092686
 10
4.310192
 20
3.654817
 42
0.10304
 10
4.289829
 20
3.663066
 42
0.111783
  0
LWPOLYLINE
  5
41E
330
18
100
AcDbEntity
  8
0
100
AcDbPolyline
 90
        2
 70
     0
 43
0.0
 10
4.284938
 20
3.667684
 42
0.064067
 10
4.27411
 20
3.663186
 42
0.10304
  0
LWPOLYLINE
  5
423
330
18
100
AcDbEntity
  8
0
100
AcDbPolyline
 90
       10
 70
     0
 43
0.0
 10
4.312284
 20
3.549495
 42
0.025363
 10
4.316835
 20
3.550489
 42
0.111783
 10
4.334752
 20
3.560008
 42
0.10304
 10
4.348126000000001
 20
3.577439
 42
0.092686
 10
4.353975
 20
3.599059
 42
0.086493
 10
4.351744
 20
3.622928
 42
0.086493
 10
4.34157
 20
3.644636
 42
0.092686
 10
4.325571
 20
3.660309
 42
0.10304
 10
4.305209
 20
3.668558
 42
0.111783
 10
4.284938
 20
3.667684
 42
0.111783
  0
LWPOLYLINE
  5
430
330
18
100
AcDbEntity
  8
0
100
AcDbPolyline
 90
       16
 70
     1
 43
0.0
 10
4.604955
 20
4.099974
 42
0.111783
 10
4.587038
 20
4.090455
 42
0.10304
 10
4.573665
 20
4.073024
 42
0.092686
 10
4.567816000000001
 20
4.051404
 42
0.086493
 10
4.570046
 20
4.027534999999999
 42
0.086493
 10
4.58022
 20
4.005827
 42
0.092686
 10
4.596219000000001
 20
3.990154
 42
0.10304
 10
4.616582
 20
3.981905
 42
0.111783
 10
4.636851999999999
 20
3.982779
 42
0.111783
 10
4.65477
 20
3.992299
 42
0.10304
 10
4.668143
 20
4.00973
 42
0.092686
 10
4.673992
 20
4.031349
 42
0.086493
 10
4.671761
 20
4.055218
 42
0.086493
 10
4.661587
 20
4.076926
 42
0.092686
 10
4.645588
 20
4.092599
 42
0.10304
 10
4.625226000000001
 20
4.100848
 42
0.111783
  0
LWPOLYLINE
  5
443
330
18
100
AcDbEntity
  8
0
100
AcDbPolyline
 90
        2
 70
     0
 43
0.0
 10
4.620335
 20
4.105466000000001
 42
0.064067
 10
4.609506
 20
4.100968
 42
0.10304
  0
LWPOLYLINE
  5
448
330
18
100
AcDbEntity
  8
0
100
AcDbPolyline
 90
       10
 70
     0
 43
0.0
 10
4.647681
 20
3.987277
 42
0.025363
 10
4.652232
 20
3.988271
 42
0.111783
 10
4.670148999999999
 20
3.99779
 42
0.10304
 10
4.683522
 20
4.015221
 42
0.092686
 10
4.689371
 20
4.036841000000001
 42
0.086493
 10
4.687141
 20
4.06071
 42
0.086493
 10
4.676966
 20
4.082418
 42
0.092686
 10
4.660968
 20
4.098091
 42
0.10304
 10
4.640605
 20
4.10634
 42
0.111783
 10
4.620335
 20
4.105466000000001
 42
0.111783
  0
LWPOLYLINE
  5
455
330
18
100
AcDbEntity
  8
0
100
AcDbPolyline
 90
       10
 70
     0
 43
0.0
 10
4.226999
 20
4.119612
 42
0.025363
 10
4.23155
 20
4.120606
 42
0.111783
 10
4.249467
 20
4.130126000000001
 42
0.10304
 10
4.26284
 20
4.147557
 42
0.092686
 10
4.268689
 20
4.169176
 42
0.086493
 10
4.266458999999999
 20
4.193046
 42
0.086493
 10
4.256284
 20
4.214753
 42
0.092686
 10
4.240286
 20
4.230426000000001
 42
0.10304
 10
4.219923000000001
 20
4.238675
 42
0.111783
 10
4.199653
 20
4.237801
 42
0.111783
  0
LWPOLYLINE
  5
462
330
18
100
AcDbEntity
  8
0
100
AcDbPolyline
 90
        2
 70
     0
 43
0.0
 10
4.199653
 20
4.237801
 42
0.064067
 10
4.188823999999999
 20
4.233303
 42
0.10304
  0
LWPOLYLINE
  5
467
330
18
100
AcDbEntity
  8
0
100
AcDbPolyline
 90
       16
 70
     1
 43
0.0
 10
4.184273
 20
4.23231
 42
0.111783
 10
4.166356
 20
4.22279
 42
0.10304
 10
4.152983
 20
4.205359
 42
0.092686
 10
4.147133999999999
 20
4.18374
 42
0.086493
 10
4.149364
 20
4.15987
 42
0.086493
 10
4.159538
 20
4.138163
 42
0.092686
 10
4.175537
 20
4.12249
 42
0.10304
 10
4.1959
 20
4.114240000000001
 42
0.111783
 10
4.21617
 20
4.115114
 42
0.111783
 10
4.234088
 20
4.124634
 42
0.10304
 10
4.247461
 20
4.142065000000001
 42
0.092686
 10
4.25331
 20
4.163684
 42
0.086493
 10
4.251079
 20
4.187554
 42
0.086493
 10
4.240905000000001
 20
4.209261
 42
0.092686
 10
4.224906
 20
4.224933999999999
 42
0.10304
 10
4.204544
 20
4.233184
 42
0.111783
  0
LWPOLYLINE
  5
47A
330
18
100
AcDbEntity
  8
0
100
AcDbPolyline
 90
       16
 70
     1
 43
0.0
 10
3.173128
 20
3.642991
 42
0.111783
 10
3.15521
 20
3.633471
 42
0.10304
 10
3.141837
 20
3.61604
 42
0.092686
 10
3.135988
 20
3.594421
 42
0.086493
 10
3.138219
 20
3.570552
 42
0.086493
 10
3.148393
 20
3.548844
 42
0.092686
 10
3.164392
 20
3.533171
 42
0.10304
 10
3.184754
 20
3.524922
 42
0.111783
 10
3.205024
 20
3.525796
 42
0.111783
 10
3.222942
 20
3.535315
 42
0.10304
 10
3.236315
 20
3.552746
 42
0.092686
 10
3.242164
 20
3.574366
 42
0.086493
 10
3.239934
 20
3.598235
 42
0.086493
 10
3.229759
 20
3.619943
 42
0.092686
 10
3.213761
 20
3.635616
 42
0.10304
 10
3.193398
 20
3.643865
 42
0.111783
  0
LWPOLYLINE
  5
48D
330
18
100
AcDbEntity
  8
0
100
AcDbPolyline
 90
        2
 70
     0
 43
0.0
 10
3.188507
 20
3.648483
 42
0.064067
 10
3.177678
 20
3.643985
 42
0.10304
  0
LWPOLYLINE
  5
492
330
18
100
AcDbEntity
  8
0
100
AcDbPolyline
 90
       10
 70
     0
 43
0.0
 10
3.215853
 20
3.530294
 42
0.025363
 10
3.220404
 20
3.531288
 42
0.111783
 10
3.238321
 20
3.540807
 42
0.10304
 10
3.251694
 20
3.558238
 42
0.092686
 10
3.257543
 20
3.579857
 42
0.086493
 10
3.255313
 20
3.603727
 42
0.086493
 10
3.245139
 20
3.625435
 42
0.092686
 10
3.22914
 20
3.641108
 42
0.10304
 10
3.208777
 20
3.649357
 42
0.111783
 10
3.188507
 20
3.648483
 42
0.111783
  0
LWPOLYLINE
  5
49F
330
18
100
AcDbEntity
  8
0
100
AcDbPolyline
 90
       16
 70
     1
 43
0.0
 10
4.076459
 20
5.086354
 42
0.114348
 10
4.061767
 20
5.081943
 42
0.103707
 10
4.049147000000001
 20
5.070739
 42
0.09152
 10
4.041551999999999
 20
5.055238
 42
0.084442
 10
4.039602
 20
5.036653
 42
0.084442
 10
4.043907
 20
5.01847
 42
0.09152
 10
4.053416
 20
5.004063
 42
0.103707
 10
4.067362
 20
4.99456
 42
0.114348
 10
4.082497
 20
4.992058999999999
 42
0.114348
 10
4.097189
 20
4.99647
 42
0.103707
 10
4.109808999999999
 20
5.007674
 42
0.09152
 10
4.117404000000001
 20
5.023176
 42
0.084442
 10
4.119354
 20
5.04176
 42
0.084442
 10
4.115049
 20
5.059943
 42
0.09152
 10
4.10554
 20
5.07435
 42
0.103707
 10
4.091594000000001
 20
5.083853
 42
0.114348
  0
LWPOLYLINE
  5
4B2
330
18
100
AcDbEntity
  8
0
100
AcDbPolyline
 90
       10
 70
     0
 43
0.0
 10
4.067979
 20
5.085977
 42
0.114348
 10
4.053286
 20
5.081566000000001
 42
0.103707
 10
4.040666000000001
 20
5.070363
 42
0.09152
 10
4.033072
 20
5.054861
 42
0.084442
 10
4.031122
 20
5.036277
 42
0.084442
 10
4.035426
 20
5.018093
 42
0.09152
 10
4.044936
 20
5.003687
 42
0.103707
 10
4.058881
 20
4.994184
 42
0.114348
 10
4.074016
 20
4.991683
 42
0.026424
 10
4.07758
 20
4.992101
 42
0.103707
  0
LWPOLYLINE
  5
4BF
330
18
100
AcDbEntity
  8
0
100
AcDbPolyline
 90
        2
 70
     0
 43
0.0
 10
4.072895
 20
5.085936
 42
0.036224
 10
4.067979
 20
5.085977
 42
0.114348
  0
LWPOLYLINE
  5
4C4
330
18
100
AcDbEntity
  8
0
100
AcDbPolyline
 90
        2
 70
     0
 43
0.0
 10
3.957545
 20
5.300012000000001
 42
0.036224
 10
3.952629
 20
5.300054
 42
0.114348
  0
LWPOLYLINE
  5
4C9
330
18
100
AcDbEntity
  8
0
100
AcDbPolyline
 90
       10
 70
     0
 43
0.0
 10
3.952629
 20
5.300054
 42
0.114348
 10
3.937936
 20
5.295643
 42
0.103707
 10
3.925317
 20
5.284439
 42
0.09152
 10
3.917722
 20
5.268938
 42
0.084442
 10
3.915772
 20
5.250354
 42
0.084442
 10
3.920076
 20
5.23217
 42
0.09152
 10
3.929586
 20
5.217763
 42
0.103707
 10
3.943531
 20
5.208261
 42
0.114348
 10
3.958666000000001
 20
5.20576
 42
0.026424
 10
3.96223
 20
5.206178
 42
0.103707
  0
LWPOLYLINE
  5
4D6
330
18
100
AcDbEntity
  8
0
100
AcDbPolyline
 90
       16
 70
     1
 43
0.0
 10
3.961109
 20
5.30043
 42
0.114348
 10
3.946417
 20
5.296019
 42
0.103707
 10
3.933797
 20
5.284816
 42
0.09152
 10
3.926203
 20
5.269314
 42
0.084442
 10
3.924253
 20
5.25073
 42
0.084442
 10
3.928557
 20
5.232546
 42
0.09152
 10
3.938066000000001
 20
5.21814
 42
0.103707
 10
3.952012
 20
5.208637
 42
0.114348
 10
3.967147
 20
5.206136
 42
0.114348
 10
3.981839
 20
5.210547
 42
0.103707
 10
3.994459
 20
5.22175
 42
0.09152
 10
4.002054
 20
5.237252
 42
0.084442
 10
4.004004
 20
5.255836
 42
0.084442
 10
3.9997
 20
5.27402
 42
0.09152
 10
3.99019
 20
5.288426
 42
0.103707
 10
3.976244
 20
5.297929
 42
0.114348
  0
LWPOLYLINE
  5
4E9
330
18
100
AcDbEntity
  8
0
100
AcDbPolyline
 90
       16
 70
     1
 43
0.0
 10
3.948343
 20
4.757007
 42
0.114348
 10
3.935283
 20
4.753086
 42
0.103707
 10
3.924065
 20
4.743128
 42
0.09152
 10
3.917314
 20
4.729348
 42
0.084442
 10
3.915581
 20
4.712829
 42
0.084442
 10
3.919407
 20
4.696666000000001
 42
0.09152
 10
3.92786
 20
4.68386
 42
0.103707
 10
3.940256
 20
4.675413
 42
0.114348
 10
3.953709
 20
4.67319
 42
0.114348
 10
3.966769
 20
4.677111
 42
0.103707
 10
3.977987
 20
4.687069
 42
0.09152
 10
3.984738
 20
4.700849
 42
0.084442
 10
3.986471
 20
4.717368
 42
0.084442
 10
3.982645
 20
4.733531
 42
0.09152
 10
3.974192
 20
4.746337000000001
 42
0.103707
 10
3.961796
 20
4.754784
 42
0.114348
  0
LWPOLYLINE
  5
4FC
330
18
100
AcDbEntity
  8
0
100
AcDbPolyline
 90
       10
 70
     0
 43
0.0
 10
3.940804
 20
4.756672
 42
0.114348
 10
3.927744
 20
4.752752
 42
0.103707
 10
3.916527
 20
4.742793
 42
0.09152
 10
3.909776
 20
4.729014
 42
0.084442
 10
3.908043
 20
4.712494
 42
0.084442
 10
3.911868
 20
4.696331
 42
0.09152
 10
3.920322
 20
4.683525
 42
0.103707
 10
3.932718
 20
4.675078
 42
0.114348
 10
3.946171
 20
4.672855
 42
0.026424
 10
3.949339
 20
4.673227
 42
0.103707
  0
LWPOLYLINE
  5
509
330
18
100
AcDbEntity
  8
0
100
AcDbPolyline
 90
        2
 70
     0
 43
0.0
 10
3.945174
 20
4.756635
 42
0.036224
 10
3.940804
 20
4.756672
 42
0.114348
  0
LINE
  5
50E
330
18
100
AcDbEntity
  8
0
100
AcDbLine
 10
3.022091
 20
3.00762
 30
0.0
 11
1.374181
 21
3.184175
 31
0.0
  0
LINE
  5
50F
330
18
100
AcDbEntity
  8
0
100
AcDbLine
 10
1.374181
 20
3.325172
 30
0.0
 11
1.374181
 21
2.979026
 31
0.0
  0
LINE
  5
510
330
18
100
AcDbEntity
  8
0
100
AcDbLine
 10
1.374181
 20
2.979026
 30
0.0
 11
1.230627
 21
3.167901
 31
0.0
  0
LINE
  5
511
330
18
100
AcDbEntity
  8
0
100
AcDbLine
 10
1.230627
 20
3.167901
 30
0.0
 11
1.374181
 21
3.325172
 31
0.0
  0
LINE
  5
512
330
18
100
AcDbEntity
  8
0
100
AcDbLine
 10
3.022091
 20
3.123213
 30
0.0
 11
3.022091
 21
2.756469
 31
0.0
  0
LINE
  5
513
330
18
100
AcDbEntity
  8
0
100
AcDbLine
 10
3.022091
 20
2.756469
 30
0.0
 11
3.191481
 21
2.909736
 31
0.0
  0
LINE
  5
514
330
18
100
AcDbEntity
  8
0
100
AcDbLine
 10
3.191481
 20
2.909736
 30
0.0
 11
3.022091
 21
3.123213
 31
0.0
  0
LINE
  5
515
330
18
100
AcDbEntity
  8
0
100
AcDbLine
 10
5.252985
 20
2.612719
 30
0.0
 11
5.252985
 21
2.166217
 31
0.0
  0
LINE
  5
516
330
18
100
AcDbEntity
  8
0
100
AcDbLine
 10
5.252985
 20
2.166217
 30
0.0
 11
5.085546
 21
2.306843
 31
0.0
  0
LINE
  5
517
330
18
100
AcDbEntity
  8
0
100
AcDbLine
 10
5.085546
 20
2.306843
 30
0.0
 11
5.252985
 21
2.612719
 31
0.0
  0
LINE
  5
518
330
18
100
AcDbEntity
  8
0
100
AcDbLine
 10
6.51427
 20
3.171032
 30
0.0
 11
6.51427
 21
2.751039
 31
0.0
  0
LINE
  5
519
330
18
100
AcDbEntity
  8
0
100
AcDbLine
 10
6.51427
 20
2.751039
 30
0.0
 11
6.669421000000001
 21
3.035668
 31
0.0
  0
LINE
  5
51A
330
18
100
AcDbEntity
  8
0
100
AcDbLine
 10
6.669421000000001
 20
3.035668
 30
0.0
 11
6.51427
 21
3.171032
 31
0.0
  0
LINE
  5
51B
330
18
100
AcDbEntity
  8
0
100
AcDbLine
 10
6.51427
 20
3.018028
 30
0.0
 11
5.252985
 21
2.445008
 31
0.0
  0
SOLID
  5
51C
330
18
100
AcDbEntity
  8
0
100
AcDbTrace
 10
1.230627
 20
3.167901
 30
0.0
 11
1.374181
 21
2.979026
 31
0.0
 12
1.374181
 22
3.325172
 32
0.0
 13
1.374181
 23
3.325172
 33
0.0
  0
SOLID
  5
51D
330
18
100
AcDbEntity
  8
0
100
AcDbTrace
 10
3.022091
 20
3.123213
 30
0.0
 11
3.022091
 21
2.756469
 31
0.0
 12
3.191481
 22
2.909736
 32
0.0
 13
3.191481
 23
2.909736
 33
0.0
  0
SOLID
  5
51E
330
18
100
AcDbEntity
  8
0
100
AcDbTrace
 10
1.374181
 20
3.184175
 30
0.0
 11
3.022091
 21
3.00762
 31
0.0
 12
1.374181
 22
3.089903
 32
0.0
 13
3.022091
 23
2.913348
 33
0.0
  0
SOLID
  5
51F
330
18
100
AcDbEntity
  8
0
100
AcDbTrace
 10
5.085546
 20
2.306843
 30
0.0
 11
5.252985
 21
2.612719
 31
0.0
 12
5.252985
 22
2.166217
 32
0.0
 13
5.252985
 23
2.166217
 33
0.0
  0
SOLID
  5
520
330
18
100
AcDbEntity
  8
0
100
AcDbTrace
 10
6.51427
 20
3.171032
 30
0.0
 11
6.51427
 21
2.751039
 31
0.0
 12
6.669421000000001
 22
3.035668
 32
0.0
 13
6.669421000000001
 23
3.035668
 33
0.0
  0
SOLID
  5
521
330
18
100
AcDbEntity
  8
0
100
AcDbTrace
 10
5.252985
 20
2.445008
 30
0.0
 11
6.51427
 21
3.018028
 31
0.0
 12
5.252985
 22
2.342052
 32
0.0
 13
6.51427
 23
2.915072
 33
0.0
  0
TEXT
  5
522
330
18
100
AcDbEntity
  8
0
100
AcDbText
 10
0.7668010000000001
 20
0.7991060000000001
 30
0.0
 40
0.25
  1
Simpson Strong-Tie
100
AcDbText
  0
TEXT
  5
523
330
18
100
AcDbEntity
  8
0
100
AcDbText
 10
0.7668010000000001
 20
0.394345
 30
0.0
 40
0.25
  1
H10-2
100
AcDbText
  0
TEXT
  5
524
330
18
100
AcDbEntity
  8
0
100
AcDbText
 10
1.996521
 20
2.593687
 30
0.0
 40
0.25
  1
F
100
AcDbText
  0
TEXT
  5
525
330
18
100
AcDbEntity
  8
0
100
AcDbText
 10
2.186058
 20
2.474488
 30
0.0
 40
0.25
  1
1
100
AcDbText
  0
TEXT
  5
526
330
18
100
AcDbEntity
  8
0
100
AcDbText
 10
5.850122
 20
2.215303
 30
0.0
 40
0.25
  1
F
100
AcDbText
  0
TEXT
  5
527
330
18
100
AcDbEntity
  8
0
100
AcDbText
 10
6.061477
 20
2.096104
 30
0.0
 40
0.25
  1
2
100
AcDbText
  0
ENDSEC
  0
SECTION
  2
OBJECTS
  0
DICTIONARY
  5
C
330
0
100
AcDbDictionary
281
     1
  3
ACAD_COLOR
350
52D
  3
ACAD_GROUP
350
D
  3
ACAD_LAYOUT
350
15
  3
ACAD_MATERIAL
350
52F
  3
ACAD_MLINESTYLE
350
12
  3
ACAD_PLOTSETTINGS
350
14
  3
ACAD_PLOTSTYLENAME
350
E
  3
ACDBHEADERROUNDTRIPXREC
350
52C
  0
DICTIONARY
  5
52D
102
{ACAD_REACTORS
330
C
102
}
330
C
100
AcDbDictionary
281
     1
  0
DICTIONARY
  5
D
102
{ACAD_REACTORS
330
C
102
}
330
C
100
AcDbDictionary
281
     1
  0
DICTIONARY
  5
15
102
{ACAD_REACTORS
330
C
102
}
330
C
100
AcDbDictionary
281
     1
  3
Layout1
350
17
  3
Model
350
19
  0
DICTIONARY
  5
52F
102
{ACAD_REACTORS
330
C
102
}
330
C
100
AcDbDictionary
281
     1
  0
DICTIONARY
  5
12
102
{ACAD_REACTORS
330
C
102
}
330
C
100
AcDbDictionary
281
     1
  3
Standard
350
13
  0
DICTIONARY
  5
14
102
{ACAD_REACTORS
330
C
102
}
330
C
100
AcDbDictionary
281
     1
  0
ACDBDICTIONARYWDFLT
  5
E
102
{ACAD_REACTORS
330
C
102
}
330
C
100
AcDbDictionary
281
     1
  3
Normal
350
F
100
AcDbDictionaryWithDefault
340
F
  0
DICTIONARY
  5
52C
102
{ACAD_REACTORS
330
C
102
}
330
C
100
AcDbDictionary
281
     1
  3
COLORDICT
350
52E
  3
MATERIALDICT
350
530
  0
LAYOUT
  5
17
102
{ACAD_REACTORS
330
15
102
}
102
{ACAD_XDICTIONARY
360
531
102
}
330
15
100
AcDbPlotSettings
  1

  2

  4

  6

 40
0.0
 41
0.0
 42
0.0
 43
0.0
 44
0.0
 45
0.0
 46
0.0
 47
0.0
 48
0.0
 49
0.0
140
0.0
141
0.0
142
1.0
143
1.0
 70
   688
 72
     0
 73
     0
 74
     5
  7

 75
    16
147
1.0
148
0.0
149
0.0
100
AcDbLayout
  1
Layout1
 70
     1
 71
     1
 10
0.0
 20
0.0
 11
12.0
 21
9.0
 12
0.0
 22
0.0
 32
0.0
 14
1.000000000000000E+20
 24
1.000000000000000E+20
 34
1.000000000000000E+20
 15
-1.000000000000000E+20
 25
-1.000000000000000E+20
 35
-1.000000000000000E+20
146
0.0
 13
0.0
 23
0.0
 33
0.0
 16
1.0
 26
0.0
 36
0.0
 17
0.0
 27
1.0
 37
0.0
 76
     0
330
16
  0
LAYOUT
  5
19
102
{ACAD_REACTORS
330
15
102
}
102
{ACAD_XDICTIONARY
360
533
102
}
330
15
100
AcDbPlotSettings
  1

  2

  4

  6

 40
0.0
 41
0.0
 42
0.0
 43
0.0
 44
0.0
 45
0.0
 46
0.0
 47
0.0
 48
0.0
 49
0.0
140
0.0
141
0.0
142
1.0
143
1.0
 70
  1712
 72
     0
 73
     0
 74
     0
  7

 75
     0
147
1.0
148
0.0
149
0.0
100
AcDbLayout
  1
Model
 70
     1
 71
     0
 10
0.0
 20
0.0
 11
0.0
 21
0.0
 12
0.0
 22
0.0
 32
0.0
 14
0.0
 24
0.0
 34
0.0
 15
0.0
 25
0.0
 35
0.0
146
0.0
 13
0.0
 23
0.0
 33
0.0
 16
1.0
 26
0.0
 36
0.0
 17
0.0
 27
1.0
 37
0.0
 76
     0
330
18
  0
MLINESTYLE
  5
13
102
{ACAD_REACTORS
330
12
102
}
330
12
100
AcDbMlineStyle
  2
Standard
 70
     0
  3

 62
   256
 51
90.0
 52
90.0
 71
     2
 49
0.5
 62
   256
  6
BYLAYER
 49
-0.5
 62
   256
  6
BYLAYER
  0
ACDBPLACEHOLDER
  5
F
102
{ACAD_REACTORS
330
E
102
}
330
E
  0
XRECORD
  5
52E
102
{ACAD_REACTORS
330
52C
102
}
330
52C
100
AcDbXrecord
340
52D
  0
XRECORD
  5
530
102
{ACAD_REACTORS
330
52C
102
}
330
52C
100
AcDbXrecord
340
52F
  0
DICTIONARY
  5
531
330
17
100
AcDbDictionary
280
     1
281
     1
  3
ACAD_XREC_ROUNDTRIP
360
532
  0
DICTIONARY
  5
533
330
19
100
AcDbDictionary
280
     1
281
     1
  3
ACAD_XREC_ROUNDTRIP
360
534
  0
XRECORD
  5
532
102
{ACAD_REACTORS
330
531
102
}
330
531
100
AcDbXrecord
102
SHADEPLOT
 70
     0
102
SHADEPLOTRESLEVEL
 70
     0
102
SHADEPLOTCUSTOMDPI
 70
     0
  0
XRECORD
  5
534
102
{ACAD_REACTORS
330
533
102
}
330
533
100
AcDbXrecord
102
SHADEPLOT
 70
     0
102
SHADEPLOTRESLEVEL
 70
     0
102
SHADEPLOTCUSTOMDPI
 70
     0
  0
ENDSEC
  0
EOF
