  0
SECTION
  2
HEADER
  9
$ACADVER
  1
AC1015
  9
$ACADMAINTVER
 70
     6
  9
$DWGCODEPAGE
  3
ASCII
  9
$INSBASE
 10
0.0
 20
0.0
 30
0.0
  9
$EXTMIN
 10
0.730945
 20
-4.572718
 30
0.0
  9
$EXTMAX
 10
8.794486809523809
 20
4.491849
 30
0.0
  9
$LIMMIN
 10
0.0
 20
0.0
  9
$LIMMAX
 10
12.0
 20
9.0
  9
$ORTHOMODE
 70
     1
  9
$REGENMODE
 70
     0
  9
$FILLMODE
 70
     1
  9
$QTEXTMODE
 70
     0
  9
$MIRRTEXT
 70
     1
  9
$LTSCALE
 40
0.25
  9
$ATTMODE
 70
     1
  9
$TEXTSIZE
 40
0.2
  9
$TRACEWID
 40
0.05
  9
$TEXTSTYLE
  7
STANDARD
  9
$CLAYER
  8
0
  9
$CELTYPE
  6
ByLayer
  9
$CECOLOR
 62
   256
  9
$CELTSCALE
 40
1.0
  9
$DISPSILH
 70
     0
  9
$DIMSCALE
 40
1.0
  9
$DIMASZ
 40
0.125
  9
$DIMEXO
 40
0.0625
  9
$DIMDLI
 40
0.38
  9
$DIMRND
 40
0.0
  9
$DIMDLE
 40
0.0
  9
$DIMEXE
 40
0.03125
  9
$DIMTP
 40
0.0
  9
$DIMTM
 40
0.0
  9
$DIMTXT
 40
0.1
  9
$DIMCEN
 40
0.09
  9
$DIMTSZ
 40
0.0
  9
$DIMTOL
 70
     0
  9
$DIMLIM
 70
     0
  9
$DIMTIH
 70
     0
  9
$DIMTOH
 70
     0
  9
$DIMSE1
 70
     0
  9
$DIMSE2
 70
     0
  9
$DIMTAD
 70
     0
  9
$DIMZIN
 70
     0
  9
$DIMBLK
  1

  9
$DIMASO
 70
     1
  9
$DIMSHO
 70
     1
  9
$DIMPOST
  1

  9
$DIMAPOST
  1

  9
$DIMALT
 70
     0
  9
$DIMALTD
 70
     2
  9
$DIMALTF
 40
25.4
  9
$DIMLFAC
 40
1.0
  9
$DIMTOFL
 70
     0
  9
$DIMTVP
 40
0.0
  9
$DIMTIX
 70
     0
  9
$DIMSOXD
 70
     0
  9
$DIMSAH
 70
     0
  9
$DIMBLK1
  1

  9
$DIMBLK2
  1

  9
$DIMSTYLE
  2
Standard
  9
$DIMCLRD
 70
     0
  9
$DIMCLRE
 70
     0
  9
$DIMCLRT
 70
     0
  9
$DIMTFAC
 40
1.0
  9
$DIMGAP
 40
0.09
  9
$DIMJUST
 70
     0
  9
$DIMSD1
 70
     0
  9
$DIMSD2
 70
     0
  9
$DIMTOLJ
 70
     1
  9
$DIMTZIN
 70
     0
  9
$DIMALTZ
 70
     0
  9
$DIMALTTZ
 70
     0
  9
$DIMUPT
 70
     0
  9
$DIMDEC
 70
     4
  9
$DIMTDEC
 70
     4
  9
$DIMALTU
 70
     2
  9
$DIMALTTD
 70
     2
  9
$DIMTXSTY
  7
STANDARD
  9
$DIMAUNIT
 70
     0
  9
$DIMADEC
 70
     0
  9
$DIMALTRND
 40
0.0
  9
$DIMAZIN
 70
     0
  9
$DIMDSEP
 70
    46
  9
$DIMATFIT
 70
     3
  9
$DIMFRAC
 70
     0
  9
$DIMLDRBLK
  1

  9
$DIMLUNIT
 70
     2
  9
$DIMLWD
 70
    -2
  9
$DIMLWE
 70
    -2
  9
$DIMTMOVE
 70
     0
  9
$LUNITS
 70
     4
  9
$LUPREC
 70
     4
  9
$SKETCHINC
 40
0.1
  9
$FILLETRAD
 40
0.25
  9
$AUNITS
 70
     0
  9
$AUPREC
 70
     3
  9
$MENU
  1
acad
  9
$ELEVATION
 40
0.0
  9
$PELEVATION
 40
0.0
  9
$THICKNESS
 40
0.0
  9
$LIMCHECK
 70
     0
  9
$CHAMFERA
 40
0.0
  9
$CHAMFERB
 40
0.0
  9
$CHAMFERC
 40
1.0
  9
$CHAMFERD
 40
0.0
  9
$SKPOLY
 70
     0
  9
$TDCREATE
 40
2453955.561741308
  9
$TDUCREATE
 40
2453955.895074641
  9
$TDUPDATE
 40
2453955.603407986
  9
$TDUUPDATE
 40
2453955.895074653
  9
$TDINDWG
 40
0.0000000116
  9
$TDUSRTIMER
 40
0.0000000116
  9
$USRTIMER
 70
     1
  9
$ANGBASE
 50
0.0
  9
$ANGDIR
 70
     0
  9
$PDMODE
 70
     0
  9
$PDSIZE
 40
0.0
  9
$PLINEWID
 40
0.0
  9
$SPLFRAME
 70
     0
  9
$SPLINETYPE
 70
     6
  9
$SPLINESEGS
 70
     8
  9
$HANDSEED
  5
49B
  9
$SURFTAB1
 70
     6
  9
$SURFTAB2
 70
     6
  9
$SURFTYPE
 70
     6
  9
$SURFU
 70
     6
  9
$SURFV
 70
     6
  9
$UCSBASE
  2

  9
$UCSNAME
  2

  9
$UCSORG
 10
0.0
 20
0.0
 30
0.0
  9
$UCSXDIR
 10
1.0
 20
0.0
 30
0.0
  9
$UCSYDIR
 10
0.0
 20
1.0
 30
0.0
  9
$UCSORTHOREF
  2

  9
$UCSORTHOVIEW
 70
     0
  9
$UCSORGTOP
 10
0.0
 20
0.0
 30
0.0
  9
$UCSORGBOTTOM
 10
0.0
 20
0.0
 30
0.0
  9
$UCSORGLEFT
 10
0.0
 20
0.0
 30
0.0
  9
$UCSORGRIGHT
 10
0.0
 20
0.0
 30
0.0
  9
$UCSORGFRONT
 10
0.0
 20
0.0
 30
0.0
  9
$UCSORGBACK
 10
0.0
 20
0.0
 30
0.0
  9
$PUCSBASE
  2

  9
$PUCSNAME
  2

  9
$PUCSORG
 10
0.0
 20
0.0
 30
0.0
  9
$PUCSXDIR
 10
1.0
 20
0.0
 30
0.0
  9
$PUCSYDIR
 10
0.0
 20
1.0
 30
0.0
  9
$PUCSORTHOREF
  2

  9
$PUCSORTHOVIEW
 70
     0
  9
$PUCSORGTOP
 10
0.0
 20
0.0
 30
0.0
  9
$PUCSORGBOTTOM
 10
0.0
 20
0.0
 30
0.0
  9
$PUCSORGLEFT
 10
0.0
 20
0.0
 30
0.0
  9
$PUCSORGRIGHT
 10
0.0
 20
0.0
 30
0.0
  9
$PUCSORGFRONT
 10
0.0
 20
0.0
 30
0.0
  9
$PUCSORGBACK
 10
0.0
 20
0.0
 30
0.0
  9
$USERI1
 70
     0
  9
$USERI2
 70
     0
  9
$USERI3
 70
     0
  9
$USERI4
 70
     0
  9
$USERI5
 70
     0
  9
$USERR1
 40
0.0
  9
$USERR2
 40
0.0
  9
$USERR3
 40
0.0
  9
$USERR4
 40
0.0
  9
$USERR5
 40
0.0
  9
$WORLDVIEW
 70
     1
  9
$SHADEDGE
 70
     3
  9
$SHADEDIF
 70
    70
  9
$TILEMODE
 70
     1
  9
$MAXACTVP
 70
    16
  9
$PINSBASE
 10
0.0
 20
0.0
 30
0.0
  9
$PLIMCHECK
 70
     0
  9
$PEXTMIN
 10
1.000000000000000E+20
 20
1.000000000000000E+20
 30
1.000000000000000E+20
  9
$PEXTMAX
 10
-1.000000000000000E+20
 20
-1.000000000000000E+20
 30
-1.000000000000000E+20
  9
$PLIMMIN
 10
0.0
 20
0.0
  9
$PLIMMAX
 10
12.0
 20
9.0
  9
$UNITMODE
 70
     0
  9
$VISRETAIN
 70
     0
  9
$PLINEGEN
 70
     0
  9
$PSLTSCALE
 70
     1
  9
$TREEDEPTH
 70
  3020
  9
$CMLSTYLE
  2
Standard
  9
$CMLJUST
 70
     0
  9
$CMLSCALE
 40
1.0
  9
$PROXYGRAPHICS
 70
     1
  9
$MEASUREMENT
 70
     0
  9
$CELWEIGHT
370
    -1
  9
$ENDCAPS
280
     0
  9
$JOINSTYLE
280
     0
  9
$LWDISPLAY
290
     0
  9
$INSUNITS
 70
     1
  9
$HYPERLINKBASE
  1

  9
$STYLESHEET
  1

  9
$XEDIT
290
     1
  9
$CEPSNTYPE
380
     0
  9
$PSTYLEMODE
290
     0
  9
$FINGERPRINTGUID
  2
{FAEB1C30-E019-11D5-929B-00C0DF256EC4}
  9
$VERSIONGUID
  2
{FAEB1C32-E019-11D5-929B-00C0DF256EC4}
  9
$EXTNAMES
290
     1
  9
$PSVPSCALE
 40
0.0
  9
$OLESTARTUP
290
     0
  0
ENDSEC
  0
SECTION
  2
CLASSES
  0
CLASS
  1
ACDBDICTIONARYWDFLT
  2
AcDbDictionaryWithDefault
  3
AutoCAD 2000
 90
        0
280
     0
281
     0
  0
CLASS
  1
ACDBPLACEHOLDER
  2
AcDbPlaceHolder
  3
ObjectDBX Classes
 90
        0
280
     0
281
     0
  0
CLASS
  1
LAYOUT
  2
AcDbLayout
  3
ObjectDBX Classes
 90
        0
280
     0
281
     0
  0
ENDSEC
  0
SECTION
  2
TABLES
  0
TABLE
  2
VPORT
  5
471
330
0
100
AcDbSymbolTable
 70
     2
  0
VPORT
  5
489
330
471
100
AcDbSymbolTableRecord
100
AcDbViewportTableRecord
  2
*ACTIVE
 70
     0
 10
0.0
 20
0.0
 11
1.0
 21
1.0
 12
9.415456917675545
 22
2.213641
 13
0.0
 23
0.0
 14
1.0
 24
1.0
 15
0.0
 25
0.0
 16
0.0
 26
0.0
 36
1.0
 17
0.0
 27
0.0
 37
0.0
 40
13.572718
 41
0.7207678883071553
 42
50.0
 43
0.0
 44
0.0
 50
0.0
 51
0.0
 71
     0
 72
  2000
 73
     1
 74
     0
 75
     0
 76
     0
 77
     0
 78
     0
281
     0
 65
     1
110
0.0
120
0.0
130
0.0
111
1.0
121
0.0
131
0.0
112
0.0
122
1.0
132
0.0
 79
     0
146
0.0
  0
ENDTAB
  0
TABLE
  2
LTYPE
  5
46E
330
0
100
AcDbSymbolTable
 70
     3
  0
LTYPE
  5
479
330
46E
100
AcDbSymbolTableRecord
100
AcDbLinetypeTableRecord
  2
ByBlock
 70
     0
  3

 72
    65
 73
     0
 40
0.0
  0
LTYPE
  5
47A
330
46E
100
AcDbSymbolTableRecord
100
AcDbLinetypeTableRecord
  2
ByLayer
 70
     0
  3

 72
    65
 73
     0
 40
0.0
  0
LTYPE
  5
484
330
46E
100
AcDbSymbolTableRecord
100
AcDbLinetypeTableRecord
  2
CONTINUOUS
 70
     0
  3
Solid line
 72
    65
 73
     0
 40
0.0
  0
LTYPE
  5
485
330
46E
100
AcDbSymbolTableRecord
100
AcDbLinetypeTableRecord
  2
DASHED
 70
     0
  3
__ __ __ __ __ __ __ __ __ __ __ __ __ __ __ __
 72
    65
 73
     2
 40
0.75
 49
0.5
 74
     0
 49
-0.25
 74
     0
  0
LTYPE
  5
486
330
46E
100
AcDbSymbolTableRecord
100
AcDbLinetypeTableRecord
  2
HIDDEN
 70
     0
  3
__ __ __ __ __ __ __ __ __ __ __ __ __ __ __ __
 72
    65
 73
     2
 40
0.375
 49
0.25
 74
     0
 49
-0.125
 74
     0
  0
ENDTAB
  0
TABLE
  2
LAYER
  5
46B
330
0
100
AcDbSymbolTable
 70
     1
  0
LAYER
  5
487
330
46B
100
AcDbSymbolTableRecord
100
AcDbLayerTableRecord
  2
0
 70
     0
 62
     7
  6
CONTINUOUS
370
    -3
390
478
  0
ENDTAB
  0
TABLE
  2
STYLE
  5
46C
330
0
100
AcDbSymbolTable
 70
     1
  0
STYLE
  5
48C
330
46C
100
AcDbSymbolTableRecord
100
AcDbTextStyleTableRecord
  2
STANDARD
 70
     0
 40
0.0
 41
1.0
 50
0.0
 71
     0
 42
0.2
  3
ROMANS.SHX
  4

  0
ENDTAB
  0
TABLE
  2
VIEW
  5
46F
330
0
100
AcDbSymbolTable
 70
     1
  0
VIEW
  5
48B
330
46F
100
AcDbSymbolTableRecord
100
AcDbViewTableRecord
  2
1
 70
     0
 40
10.317937
 10
7.926611
 20
-1.293552
 41
13.369918
 11
0.0
 21
0.0
 31
1.0
 12
0.0
 22
0.0
 32
0.0
 42
50.0
 43
0.0
 44
0.0
 50
0.0
 71
     0
281
     0
 72
     0
  0
ENDTAB
  0
TABLE
  2
UCS
  5
470
330
0
100
AcDbSymbolTable
 70
     0
  0
ENDTAB
  0
TABLE
  2
APPID
  5
472
330
0
100
AcDbSymbolTable
 70
     1
  0
APPID
  5
48A
330
472
100
AcDbSymbolTableRecord
100
AcDbRegAppTableRecord
  2
ACAD
 70
     0
  0
ENDTAB
  0
TABLE
  2
DIMSTYLE
  5
473
330
0
100
AcDbSymbolTable
 70
     1
100
AcDbDimStyleTable
  0
DIMSTYLE
105
48D
330
473
100
AcDbSymbolTableRecord
100
AcDbDimStyleTableRecord
  2
Standard
 70
     0
  3

  4

340
48C
  0
ENDTAB
  0
TABLE
  2
BLOCK_RECORD
  5
46A
330
0
100
AcDbSymbolTable
 70
     0
  0
BLOCK_RECORD
  5
481
330
46A
100
AcDbSymbolTableRecord
100
AcDbBlockTableRecord
  2
*Model_Space
340
482
  0
BLOCK_RECORD
  5
47F
330
46A
100
AcDbSymbolTableRecord
100
AcDbBlockTableRecord
  2
*Paper_Space
340
480
  0
ENDTAB
  0
ENDSEC
  0
SECTION
  2
BLOCKS
  0
BLOCK
  5
490
330
481
100
AcDbEntity
  8
0
100
AcDbBlockBegin
  2
*Model_Space
 70
     0
 10
0.0
 20
0.0
 30
0.0
  3
*Model_Space
  1

  4

  0
ENDBLK
  5
491
330
481
100
AcDbEntity
  8
0
100
AcDbBlockEnd
  0
BLOCK
  5
48E
330
47F
100
AcDbEntity
 67
     1
  8
0
100
AcDbBlockBegin
  2
*Paper_Space
 70
     0
 10
0.0
 20
0.0
 30
0.0
  3
*Paper_Space
  1

  4

  0
ENDBLK
  5
48F
330
47F
100
AcDbEntity
 67
     1
  8
0
100
AcDbBlockEnd
  0
ENDSEC
  0
SECTION
  2
ENTITIES
  0
LINE
  5
2
330
481
100
AcDbEntity
  8
0
100
AcDbLine
 10
3.09777
 20
-0.243596
 30
0.0
 11
3.09777
 21
-4.09886
 31
0.0
  0
LINE
  5
3
330
481
100
AcDbEntity
  8
0
100
AcDbLine
 10
3.515438
 20
-0.344835
 30
0.0
 11
3.515438
 21
-4.28016
 31
0.0
  0
LINE
  5
4
330
481
100
AcDbEntity
  8
0
100
AcDbLine
 10
5.426269000000001
 20
0.214098
 30
0.0
 11
5.426269000000001
 21
-0.298505
 31
0.0
  0
LINE
  5
5
330
481
100
AcDbEntity
  8
0
100
AcDbLine
 10
3.09777
 20
-4.09886
 30
0.0
 11
3.515438
 21
-4.28016
 31
0.0
  0
LINE
  5
6
330
481
100
AcDbEntity
  8
0
100
AcDbLine
 10
4.46724
 20
-3.895965
 30
0.0
 11
4.46724
 21
-2.800741
 31
0.0
  0
LINE
  5
7
330
481
100
AcDbEntity
  8
0
100
AcDbLine
 10
3.515438
 20
-4.28016
 30
0.0
 11
3.962833
 21
-4.099569
 31
0.0
  0
LINE
  5
8
330
481
100
AcDbEntity
  8
0
100
AcDbLine
 10
5.177743
 20
-0.747762
 30
0.0
 11
5.177743
 21
-0.8521280000000001
 31
0.0
  0
LINE
  5
9
330
481
100
AcDbEntity
  8
0
100
AcDbLine
 10
5.100185
 20
-1.033136
 30
0.0
 11
4.582753
 21
-1.526079
 31
0.0
  0
LINE
  5
A
330
481
100
AcDbEntity
  8
0
100
AcDbLine
 10
0.730945
 20
0.715457
 30
0.0
 11
0.730945
 21
1.155269
 31
0.0
  0
LINE
  5
B
330
481
100
AcDbEntity
  8
0
100
AcDbLine
 10
0.730945
 20
1.155269
 30
0.0
 11
1.685475
 21
0.963935
 31
0.0
  0
LINE
  5
C
330
481
100
AcDbEntity
  8
0
100
AcDbLine
 10
5.426269000000001
 20
-0.298505
 30
0.0
 11
3.1759
 21
0.187465
 31
0.0
  0
LINE
  5
D
330
481
100
AcDbEntity
  8
0
100
AcDbLine
 10
0.9157280000000001
 20
0.675553
 30
0.0
 11
0.9157280000000001
 21
0.285311
 31
0.0
  0
LINE
  5
E
330
481
100
AcDbEntity
  8
0
100
AcDbLine
 10
5.857952
 20
-0.403029
 30
0.0
 11
5.857952
 21
-0.912638
 31
0.0
  0
LINE
  5
F
330
481
100
AcDbEntity
  8
0
100
AcDbLine
 10
2.839239
 20
-0.18093
 30
0.0
 11
5.857952
 21
-0.912638
 31
0.0
  0
LINE
  5
10
330
481
100
AcDbEntity
  8
0
100
AcDbLine
 10
5.426269000000001
 20
-0.298505
 30
0.0
 11
5.857952
 21
-0.403029
 31
0.0
  0
LINE
  5
11
330
481
100
AcDbEntity
  8
0
  6
DASHED
100
AcDbLine
 10
3.300515
 20
1.008888
 30
0.0
 11
3.300515
 21
-0.382117
 31
0.0
  0
LINE
  5
12
330
481
100
AcDbEntity
  8
0
  6
DASHED
100
AcDbLine
 10
3.423912
 20
-2.904718
 30
0.0
 11
3.423912
 21
-1.756715
 31
0.0
  0
LINE
  5
13
330
481
100
AcDbEntity
  8
0
  6
DASHED
100
AcDbLine
 10
3.937473
 20
0.8401639999999999
 30
0.0
 11
3.937473
 21
-1.58574
 31
0.0
  0
LINE
  5
14
330
481
100
AcDbEntity
  8
0
  6
DASHED
100
AcDbLine
 10
3.495196
 20
-1.499418
 30
0.0
 11
3.937473
 21
-0.7624810000000001
 31
0.0
  0
LINE
  5
15
330
481
100
AcDbEntity
  8
0
  6
DASHED
100
AcDbLine
 10
3.394206
 20
-0.673515
 30
0.0
 11
3.719039
 21
-1.126443
 31
0.0
  0
LINE
  5
16
330
481
100
AcDbEntity
  8
0
100
AcDbLine
 10
3.82471
 20
-2.880356
 30
0.0
 11
3.82471
 21
-1.914433
 31
0.0
  0
LINE
  5
17
330
481
100
AcDbEntity
  8
0
100
AcDbLine
 10
3.888546
 20
-2.924904
 30
0.0
 11
3.888546
 21
-1.928994
 31
0.0
  0
LINE
  5
18
330
481
100
AcDbEntity
  8
0
  6
DASHED
100
AcDbLine
 10
3.423912
 20
-2.904718
 30
0.0
 11
3.82471
 21
-2.791795
 31
0.0
  0
LINE
  5
19
330
481
100
AcDbEntity
  8
0
100
AcDbLine
 10
3.956357
 20
-1.677572
 30
0.0
 11
4.453677
 21
-0.8226899999999999
 31
0.0
  0
LINE
  5
1A
330
481
100
AcDbEntity
  8
0
100
AcDbLine
 10
3.892522
 20
-1.663011
 30
0.0
 11
4.46724
 21
-0.675084
 31
0.0
  0
ARC
  5
1C
330
481
100
AcDbEntity
  8
0
100
AcDbCircle
 10
4.388546
 20
-1.928994
 30
0.0
 40
0.5
100
AcDbArc
 50
149.811658
 51
180.0
  0
ARC
  5
1D
330
481
100
AcDbEntity
  8
0
100
AcDbCircle
 10
4.32471
 20
-1.914433
 30
0.0
 40
0.5
100
AcDbArc
 50
149.811658
 51
180.0
  0
LINE
  5
1E
330
481
100
AcDbEntity
  8
0
  6
DASHED
100
AcDbLine
 10
3.300515
 20
1.008888
 30
0.0
 11
3.937473
 21
0.8401639999999999
 31
0.0
  0
LINE
  5
1F
330
481
100
AcDbEntity
  8
0
  6
DASHED
100
AcDbLine
 10
3.300515
 20
1.008888
 30
0.0
 11
2.826855
 21
1.576228
 31
0.0
  0
LINE
  5
20
330
481
100
AcDbEntity
  8
0
  6
DASHED
100
AcDbLine
 10
3.937473
 20
0.8401639999999999
 30
0.0
 11
3.514635
 21
1.386466
 31
0.0
  0
LINE
  5
21
330
481
100
AcDbEntity
  8
0
  6
DASHED
100
AcDbLine
 10
3.514635
 20
1.386466
 30
0.0
 11
2.677335
 21
1.616397
 31
0.0
  0
LINE
  5
22
330
481
100
AcDbEntity
  8
0
  6
DASHED
100
AcDbLine
 10
2.677335
 20
1.616397
 30
0.0
 11
2.497218
 21
1.805944
 31
0.0
  0
LINE
  5
23
330
481
100
AcDbEntity
  8
0
100
AcDbLine
 10
1.531994
 20
0.297105
 30
0.0
 11
2.935921
 21
1.771496
 31
0.0
  0
LINE
  5
24
330
481
100
AcDbEntity
  8
0
100
AcDbLine
 10
5.539836
 20
4.454378
 30
0.0
 11
5.086580000000001
 21
4.491849
 31
0.0
  0
LINE
  5
25
330
481
100
AcDbEntity
  8
0
100
AcDbLine
 10
1.531994
 20
0.297105
 30
0.0
 11
1.1267
 21
0.384327
 31
0.0
  0
LINE
  5
26
330
481
100
AcDbEntity
  8
0
100
AcDbLine
 10
1.1267
 20
0.384327
 30
0.0
 11
2.531302
 21
1.841298
 31
0.0
  0
LINE
  5
27
330
481
100
AcDbEntity
  8
0
100
AcDbLine
 10
3.568783
 20
0.617382
 30
0.0
 11
5.426269000000001
 21
0.214098
 31
0.0
  0
LINE
  5
28
330
481
100
AcDbEntity
  8
0
100
AcDbLine
 10
1.322726
 20
0.587661
 30
0.0
 11
0.730945
 21
0.715457
 31
0.0
  0
LINE
  5
29
330
481
100
AcDbEntity
  8
0
100
AcDbLine
 10
1.1267
 20
0.384327
 30
0.0
 11
1.1267
 21
-1.524177
 31
0.0
  0
LINE
  5
2A
330
481
100
AcDbEntity
  8
0
100
AcDbLine
 10
1.531994
 20
0.297105
 30
0.0
 11
1.531994
 21
-1.611399
 31
0.0
  0
LINE
  5
2B
330
481
100
AcDbEntity
  8
0
100
AcDbLine
 10
1.531994
 20
-1.611399
 30
0.0
 11
1.1267
 21
-1.524177
 31
0.0
  0
LINE
  5
2C
330
481
100
AcDbEntity
  8
0
100
AcDbLine
 10
1.531994
 20
-1.611399
 30
0.0
 11
3.943055
 21
1.026934
 31
0.0
  0
LINE
  5
2D
330
481
100
AcDbEntity
  8
0
100
AcDbLine
 10
0.730945
 20
1.155269
 30
0.0
 11
1.114017
 21
1.221119
 31
0.0
  0
LINE
  5
2E
330
481
100
AcDbEntity
  8
0
100
AcDbLine
 10
1.712411
 20
1.323983
 30
0.0
 11
1.982273
 21
1.2718
 31
0.0
  0
LINE
  5
2F
330
481
100
AcDbEntity
  8
0
100
AcDbLine
 10
6.352151
 20
0.426801
 30
0.0
 11
6.352151
 21
-0.067808
 31
0.0
  0
LINE
  5
30
330
481
100
AcDbEntity
  8
0
100
AcDbLine
 10
5.426269000000001
 20
0.214098
 30
0.0
 11
5.733419000000001
 21
0.284659
 31
0.0
  0
LINE
  5
31
330
481
100
AcDbEntity
  8
0
100
AcDbLine
 10
6.352151
 20
-0.067808
 30
0.0
 11
6.038363
 21
-0.145993
 31
0.0
  0
LINE
  5
32
330
481
100
AcDbEntity
  8
0
100
AcDbLine
 10
6.352151
 20
-0.067808
 30
0.0
 11
6.783252
 21
-0.160356
 31
0.0
  0
LINE
  5
33
330
481
100
AcDbEntity
  8
0
100
AcDbLine
 10
5.857952
 20
-0.403029
 30
0.0
 11
6.136873000000001
 21
-0.329878
 31
0.0
  0
LINE
  5
34
330
481
100
AcDbEntity
  8
0
100
AcDbLine
 10
5.857952
 20
-0.912638
 30
0.0
 11
6.136873000000001
 21
-0.8394870000000001
 31
0.0
  0
LINE
  5
35
330
481
100
AcDbEntity
  8
0
100
AcDbLine
 10
6.783252
 20
-0.160356
 30
0.0
 11
6.783252
 21
-0.669966
 31
0.0
  0
LINE
  5
36
330
481
100
AcDbEntity
  8
0
100
AcDbLine
 10
3.568783
 20
0.617382
 30
0.0
 11
4.4876
 21
0.74035
 31
0.0
  0
LINE
  5
37
330
481
100
AcDbEntity
  8
0
100
AcDbLine
 10
6.220725
 20
1.082266
 30
0.0
 11
6.220725
 21
1.442325
 31
0.0
  0
LINE
  5
38
330
481
100
AcDbEntity
  8
0
100
AcDbLine
 10
6.220725
 20
2.186258
 30
0.0
 11
5.727269000000001
 21
2.268961
 31
0.0
  0
LINE
  5
39
330
481
100
AcDbEntity
  8
0
100
AcDbLine
 10
5.727269000000001
 20
2.268961
 30
0.0
 11
4.983669
 21
2.165638
 31
0.0
  0
LINE
  5
3A
330
481
100
AcDbEntity
  8
0
100
AcDbLine
 10
5.539836
 20
4.454378
 30
0.0
 11
5.78343
 21
4.067993
 31
0.0
  0
LINE
  5
3B
330
481
100
AcDbEntity
  8
0
100
AcDbLine
 10
6.220725
 20
2.186258
 30
0.0
 11
4.818352
 21
1.984738
 31
0.0
  0
LINE
  5
3C
330
481
100
AcDbEntity
  8
0
100
AcDbLine
 10
4.4876
 20
0.74035
 30
0.0
 11
6.352151
 21
0.426801
 31
0.0
  0
LINE
  5
3D
330
481
100
AcDbEntity
  8
0
100
AcDbLine
 10
4.505194
 20
-2.788043
 30
0.0
 11
3.95441
 21
-2.97232
 31
0.0
  0
ARC
  5
3E
330
481
100
AcDbEntity
  8
0
100
AcDbCircle
 10
3.938546
 20
-2.924904
 30
0.0
 40
0.05
100
AcDbArc
 50
180.0
 51
288.498847
  0
ARC
  5
40
330
481
100
AcDbEntity
  8
0
100
AcDbCircle
 10
3.87471
 20
-2.880356
 30
0.0
 40
0.05
100
AcDbArc
 50
180.0
 51
286.207683
  0
LINE
  5
41
330
481
100
AcDbEntity
  8
0
100
AcDbLine
 10
5.733419000000001
 20
0.284659
 30
0.0
 11
5.733419000000001
 21
-0.221975
 31
0.0
  0
LINE
  5
42
330
481
100
AcDbEntity
  8
0
100
AcDbLine
 10
6.038363
 20
0.354714
 30
0.0
 11
6.038363
 21
-0.145993
 31
0.0
  0
LINE
  5
43
330
481
100
AcDbEntity
  8
0
100
AcDbLine
 10
5.975885
 20
-0.266618
 30
0.0
 11
5.975885
 21
0.240016
 31
0.0
  0
LINE
  5
44
330
481
100
AcDbEntity
  8
0
100
AcDbLine
 10
5.733419000000001
 20
-0.221975
 30
0.0
 11
5.426269000000001
 21
-0.298505
 31
0.0
  0
LINE
  5
45
330
481
100
AcDbEntity
  8
0
100
AcDbLine
 10
5.733419000000001
 20
-0.221975
 30
0.0
 11
5.975885
 21
-0.266618
 31
0.0
  0
LINE
  5
46
330
481
100
AcDbEntity
  8
0
100
AcDbLine
 10
5.733419000000001
 20
0.284659
 30
0.0
 11
5.975885
 21
0.240016
 31
0.0
  0
LINE
  5
48
330
481
100
AcDbEntity
  8
0
100
AcDbLine
 10
5.975885
 20
0.240016
 30
0.0
 11
5.803531
 21
0.36798
 31
0.0
  0
LINE
  5
49
330
481
100
AcDbEntity
  8
0
100
AcDbLine
 10
5.803531
 20
0.36798
 30
0.0
 11
6.038363
 21
0.354714
 31
0.0
  0
LINE
  5
4A
330
481
100
AcDbEntity
  8
0
100
AcDbLine
 10
6.038363
 20
0.354714
 30
0.0
 11
6.352151
 21
0.426801
 31
0.0
  0
LINE
  5
4B
330
481
100
AcDbEntity
  8
0
100
AcDbLine
 10
6.136873000000001
 20
-0.329878
 30
0.0
 11
6.136873000000001
 21
-0.8394870000000001
 31
0.0
  0
LINE
  5
4C
330
481
100
AcDbEntity
  8
0
100
AcDbLine
 10
6.384689
 20
-0.8517889999999999
 30
0.0
 11
6.384689
 21
-0.342179
 31
0.0
  0
LINE
  5
4D
330
481
100
AcDbEntity
  8
0
100
AcDbLine
 10
6.532768
 20
-0.226049
 30
0.0
 11
6.532768
 21
-0.7356590000000001
 31
0.0
  0
LINE
  5
4E
330
481
100
AcDbEntity
  8
0
100
AcDbLine
 10
6.532768
 20
-0.7356590000000001
 30
0.0
 11
6.783252
 21
-0.669966
 31
0.0
  0
LINE
  5
4F
330
481
100
AcDbEntity
  8
0
100
AcDbLine
 10
6.136873000000001
 20
-0.8394870000000001
 30
0.0
 11
6.384689
 21
-0.8517889999999999
 31
0.0
  0
LINE
  5
51
330
481
100
AcDbEntity
  8
0
100
AcDbLine
 10
6.136873000000001
 20
-0.329878
 30
0.0
 11
6.384689
 21
-0.342179
 31
0.0
  0
LINE
  5
52
330
481
100
AcDbEntity
  8
0
100
AcDbLine
 10
6.384689
 20
-0.342179
 30
0.0
 11
6.241217
 21
-0.238188
 31
0.0
  0
LINE
  5
53
330
481
100
AcDbEntity
  8
0
100
AcDbLine
 10
6.241217
 20
-0.238188
 30
0.0
 11
6.532768
 21
-0.226049
 31
0.0
  0
LINE
  5
54
330
481
100
AcDbEntity
  8
0
100
AcDbLine
 10
6.532768
 20
-0.226049
 30
0.0
 11
6.783252
 21
-0.160356
 31
0.0
  0
LINE
  5
55
330
481
100
AcDbEntity
  8
0
100
AcDbLine
 10
6.384689
 20
-0.719155
 30
0.0
 11
6.532768
 21
-0.7356590000000001
 31
0.0
  0
LINE
  5
56
330
481
100
AcDbEntity
  8
0
100
AcDbLine
 10
5.975885
 20
-0.146938
 30
0.0
 11
6.038363
 21
-0.145993
 31
0.0
  0
LINE
  5
57
330
481
100
AcDbEntity
  8
0
  6
DASHED
100
AcDbLine
 10
5.177743
 20
-0.747762
 30
0.0
 11
5.177743
 21
0.263915
 31
0.0
  0
LINE
  5
58
330
481
100
AcDbEntity
  8
0
  6
DASHED
100
AcDbLine
 10
4.46724
 20
-0.575542
 30
0.0
 11
4.46724
 21
0.406334
 31
0.0
  0
LINE
  5
59
330
481
100
AcDbEntity
  8
0
100
AcDbLine
 10
4.46724
 20
-0.772406
 30
0.0
 11
4.46724
 21
-0.575542
 31
0.0
  0
LINE
  5
5A
330
481
100
AcDbEntity
  8
0
100
AcDbLine
 10
4.46724
 20
-1.436616
 30
0.0
 11
4.46724
 21
-0.929034
 31
0.0
  0
ARC
  5
5C
330
481
100
AcDbEntity
  8
0
100
AcDbCircle
 10
4.36724
 20
-0.772406
 30
0.0
 40
0.1
100
AcDbArc
 50
329.811658
 51
0.0
  0
LINE
  5
5D
330
481
100
AcDbEntity
  8
0
100
AcDbLine
 10
3.962833
 20
-4.099569
 30
0.0
 11
3.996447
 21
-3.933988
 31
0.0
  0
LINE
  5
5E
330
481
100
AcDbEntity
  8
0
100
AcDbLine
 10
3.996447
 20
-3.933988
 30
0.0
 11
4.142594
 21
-4.179592
 31
0.0
  0
LINE
  5
5F
330
481
100
AcDbEntity
  8
0
100
AcDbLine
 10
4.142594
 20
-4.179592
 30
0.0
 11
4.236093
 21
-3.989267
 31
0.0
  0
LINE
  5
60
330
481
100
AcDbEntity
  8
0
100
AcDbLine
 10
4.236093
 20
-3.989267
 30
0.0
 11
4.46724
 21
-3.895965
 31
0.0
  0
LINE
  5
61
330
481
100
AcDbEntity
  8
0
100
AcDbLine
 10
4.142594
 20
-4.179592
 30
0.0
 11
3.950998
 21
-4.104346
 31
0.0
  0
LINE
  5
62
330
481
100
AcDbEntity
  8
0
100
AcDbLine
 10
6.220725
 20
1.761398
 30
0.0
 11
6.322593
 21
1.698404
 31
0.0
  0
LINE
  5
63
330
481
100
AcDbEntity
  8
0
100
AcDbLine
 10
6.322593
 20
1.698404
 30
0.0
 11
6.084957
 21
1.547256
 31
0.0
  0
LINE
  5
64
330
481
100
AcDbEntity
  8
0
100
AcDbLine
 10
6.084957
 20
1.547256
 30
0.0
 11
6.220725
 21
1.442325
 31
0.0
  0
LINE
  5
65
330
481
100
AcDbEntity
  8
0
100
AcDbLine
 10
6.220725
 20
1.761398
 30
0.0
 11
6.220725
 21
2.186258
 31
0.0
  0
LINE
  5
66
330
481
100
AcDbEntity
  8
0
100
AcDbLine
 10
5.78343
 20
4.067993
 30
0.0
 11
5.731351
 21
3.934433
 31
0.0
  0
LINE
  5
67
330
481
100
AcDbEntity
  8
0
100
AcDbLine
 10
5.731351
 20
3.934433
 30
0.0
 11
5.958832
 21
3.987866
 31
0.0
  0
LINE
  5
68
330
481
100
AcDbEntity
  8
0
100
AcDbLine
 10
5.958832
 20
3.987866
 30
0.0
 11
5.935336
 21
3.827043
 31
0.0
  0
LINE
  5
69
330
481
100
AcDbEntity
  8
0
100
AcDbLine
 10
5.935336
 20
3.827043
 30
0.0
 11
6.166653
 21
3.460133
 31
0.0
  0
LINE
  5
6A
330
481
100
AcDbEntity
  8
0
100
AcDbLine
 10
5.762828
 20
4.015159
 30
0.0
 11
5.958832
 21
3.987866
 31
0.0
  0
LINE
  5
6B
330
481
100
AcDbEntity
  8
0
100
AcDbLine
 10
1.1267
 20
0.234015
 30
0.0
 11
0.9157280000000001
 21
0.285311
 31
0.0
  0
LINE
  5
6C
330
481
100
AcDbEntity
  8
0
100
AcDbLine
 10
2.531302
 20
1.841298
 30
0.0
 11
2.935921
 21
1.771496
 31
0.0
  0
LINE
  5
6D
330
481
100
AcDbEntity
  8
0
100
AcDbLine
 10
2.935921
 20
1.771496
 30
0.0
 11
3.067211
 21
1.58077
 31
0.0
  0
LINE
  5
6E
330
481
100
AcDbEntity
  8
0
100
AcDbLine
 10
3.067211
 20
1.58077
 30
0.0
 11
4.056132
 21
1.368509
 31
0.0
  0
LINE
  5
70
330
481
100
AcDbEntity
  8
0
100
AcDbLine
 10
5.131545
 20
0.6272439999999999
 30
0.0
 11
4.5154
 21
1.547337
 31
0.0
  0
LINE
  5
71
330
481
100
AcDbEntity
  8
0
100
AcDbLine
 10
4.496665
 20
1.564009
 30
0.0
 11
3.582651
 21
2.032586
 31
0.0
  0
LINE
  5
72
330
481
100
AcDbEntity
  8
0
100
AcDbLine
 10
3.582651
 20
2.032586
 30
0.0
 11
3.439064
 21
2.226122
 31
0.0
  0
LINE
  5
73
330
481
100
AcDbEntity
  8
0
100
AcDbLine
 10
3.378392
 20
2.26459
 30
0.0
 11
3.011619
 21
2.338053
 31
0.0
  0
LINE
  5
74
330
481
100
AcDbEntity
  8
0
100
AcDbLine
 10
2.918488
 20
2.307817
 30
0.0
 11
2.514356
 21
1.854898
 31
0.0
  0
LINE
  5
75
330
481
100
AcDbEntity
  8
0
100
AcDbLine
 10
2.555687
 20
1.866491
 30
0.0
 11
2.907925
 21
1.805955
 31
0.0
  0
LINE
  5
76
330
481
100
AcDbEntity
  8
0
100
AcDbLine
 10
2.979545
 20
1.763236
 30
0.0
 11
3.111726
 21
1.571215
 31
0.0
  0
ARC
  5
77
330
481
100
AcDbEntity
  8
0
100
AcDbCircle
 10
2.897174
 20
1.706535
 30
0.0
 40
0.1
100
AcDbArc
 50
34.542212
 51
83.82835
  0
ARC
  5
78
330
481
100
AcDbEntity
  8
0
100
AcDbCircle
 10
3.358753
 20
2.166538
 30
0.0
 40
0.1
100
AcDbArc
 50
36.572315
 51
78.673801
  0
ARC
  5
79
330
481
100
AcDbEntity
  8
0
100
AcDbCircle
 10
2.991979
 20
2.240001
 30
0.0
 40
0.1
100
AcDbArc
 50
78.673801
 51
137.299852
  0
ARC
  5
7B
330
481
100
AcDbEntity
  8
0
100
AcDbCircle
 10
3.358753
 20
2.166538
 30
0.0
 40
0.1
100
AcDbArc
 50
36.572315
 51
78.673801
  0
LINE
  5
7C
330
481
100
AcDbEntity
  8
0
100
AcDbLine
 10
3.414358
 20
2.249653
 30
0.0
 11
5.539836
 21
4.454378
 31
0.0
  0
LINE
  5
7D
330
481
100
AcDbEntity
  8
0
100
AcDbLine
 10
3.059173
 20
1.881224
 30
0.0
 11
3.236141
 21
2.064791
 31
0.0
  0
LINE
  5
8E
330
481
100
AcDbEntity
  8
0
100
AcDbLine
 10
3.010425
 20
2.338285
 30
0.0
 11
5.086580000000001
 21
4.491849
 31
0.0
  0
LINE
  5
90
330
481
100
AcDbEntity
  8
0
100
AcDbLine
 10
2.497218
 20
1.817214
 30
0.0
 11
2.497218
 21
1.805944
 31
0.0
  0
ARC
  5
91
330
481
100
AcDbEntity
  8
0
100
AcDbCircle
 10
2.547218
 20
1.817214
 30
0.0
 40
0.05
100
AcDbArc
 50
80.248363
 51
180.0
  0
LINE
  5
92
330
481
100
AcDbEntity
  8
0
100
AcDbLine
 10
3.184503
 20
1.909659
 30
0.0
 11
3.249331
 21
1.911533
 31
0.0
  0
LINE
  5
93
330
481
100
AcDbEntity
  8
0
100
AcDbLine
 10
3.249331
 20
1.911533
 30
0.0
 11
3.355725
 21
1.740799
 31
0.0
  0
LINE
  5
94
330
481
100
AcDbEntity
  8
0
100
AcDbLine
 10
3.355725
 20
1.740799
 30
0.0
 11
3.530158
 21
1.690612
 31
0.0
  0
LINE
  5
95
330
481
100
AcDbEntity
  8
0
100
AcDbLine
 10
3.530158
 20
1.690612
 30
0.0
 11
3.54902
 21
1.643704
 31
0.0
  0
LINE
  5
96
330
481
100
AcDbEntity
  8
0
100
AcDbLine
 10
3.312341
 20
2.009152
 30
0.0
 11
3.377168
 21
2.011026
 31
0.0
  0
LINE
  5
97
330
481
100
AcDbEntity
  8
0
100
AcDbLine
 10
3.377168
 20
2.011026
 30
0.0
 11
3.483563
 21
1.840292
 31
0.0
  0
LINE
  5
98
330
481
100
AcDbEntity
  8
0
100
AcDbLine
 10
3.483563
 20
1.840292
 30
0.0
 11
3.657996
 21
1.790104
 31
0.0
  0
LINE
  5
99
330
481
100
AcDbEntity
  8
0
100
AcDbLine
 10
3.657996
 20
1.790104
 30
0.0
 11
3.676858
 21
1.743196
 31
0.0
  0
LINE
  5
9A
330
481
100
AcDbEntity
  8
0
  6
HIDDEN
100
AcDbLine
 10
3.206283
 20
1.822854
 30
0.0
 11
3.317691
 21
1.66707
 31
0.0
  0
LINE
  5
9B
330
481
100
AcDbEntity
  8
0
  6
HIDDEN
100
AcDbLine
 10
3.317691
 20
1.66707
 30
0.0
 11
3.479156
 21
1.614912
 31
0.0
  0
LINE
  5
9C
330
481
100
AcDbEntity
  8
0
  6
HIDDEN
100
AcDbLine
 10
3.347124
 20
1.943266
 30
0.0
 11
3.458532
 21
1.787482
 31
0.0
  0
LINE
  5
9D
330
481
100
AcDbEntity
  8
0
  6
HIDDEN
100
AcDbLine
 10
3.458532
 20
1.787482
 30
0.0
 11
3.619997
 21
1.735323
 31
0.0
  0
LINE
  5
9E
330
481
100
AcDbEntity
  8
0
100
AcDbLine
 10
4.405476999999999
 20
1.526432
 30
0.0
 11
4.49108
 21
1.437514
 31
0.0
  0
LINE
  5
9F
330
481
100
AcDbEntity
  8
0
100
AcDbLine
 10
4.49108
 20
1.437514
 30
0.0
 11
4.395357
 21
1.446667
 31
0.0
  0
LINE
  5
A0
330
481
100
AcDbEntity
  8
0
100
AcDbLine
 10
4.395357
 20
1.446667
 30
0.0
 11
4.405476999999999
 21
1.526432
 31
0.0
  0
LINE
  5
A1
330
481
100
AcDbEntity
  8
0
100
AcDbLine
 10
3.953149
 20
1.390613
 30
0.0
 11
3.959643
 21
0.9637870000000001
 31
0.0
  0
LINE
  5
A2
330
481
100
AcDbEntity
  8
0
100
AcDbLine
 10
3.959643
 20
0.9637870000000001
 30
0.0
 11
4.295108
 21
1.020592
 31
0.0
  0
LINE
  5
A3
330
481
100
AcDbEntity
  8
0
100
AcDbLine
 10
5.305413
 20
1.191669
 30
0.0
 11
5.305831
 21
1.955595
 31
0.0
  0
LINE
  5
A4
330
481
100
AcDbEntity
  8
0
100
AcDbLine
 10
5.305831
 20
1.955595
 30
0.0
 11
4.113081
 21
1.795774
 31
0.0
  0
LINE
  5
A5
330
481
100
AcDbEntity
  8
0
100
AcDbLine
 10
4.719981
 20
1.877095
 30
0.0
 11
6.166653
 21
3.460133
 31
0.0
  0
ARC
  5
A6
330
481
100
AcDbEntity
  8
0
100
AcDbCircle
 10
4.473855
 20
1.519516
 30
0.0
 40
0.05
100
AcDbArc
 50
33.808458
 51
62.857702
  0
LINE
  5
A7
330
481
100
AcDbEntity
  8
0
100
AcDbLine
 10
4.4121
 20
1.332945
 30
0.0
 11
4.316376999999999
 21
1.342097
 31
0.0
  0
LINE
  5
A8
330
481
100
AcDbEntity
  8
0
100
AcDbLine
 10
4.316376999999999
 20
1.342097
 30
0.0
 11
4.326498
 21
1.421862
 31
0.0
  0
LINE
  5
A9
330
481
100
AcDbEntity
  8
0
100
AcDbLine
 10
4.326498
 20
1.421862
 30
0.0
 11
4.4121
 21
1.332945
 31
0.0
  0
LINE
  5
AA
330
481
100
AcDbEntity
  8
0
100
AcDbLine
 10
4.28827
 20
1.243417
 30
0.0
 11
4.192547
 21
1.25257
 31
0.0
  0
LINE
  5
AB
330
481
100
AcDbEntity
  8
0
100
AcDbLine
 10
4.192547
 20
1.25257
 30
0.0
 11
4.202667
 21
1.332335
 31
0.0
  0
LINE
  5
AC
330
481
100
AcDbEntity
  8
0
100
AcDbLine
 10
4.202667
 20
1.332335
 30
0.0
 11
4.28827
 21
1.243417
 31
0.0
  0
LINE
  5
AD
330
481
100
AcDbEntity
  8
0
100
AcDbLine
 10
4.481249
 20
0.975786
 30
0.0
 11
4.385526000000001
 21
0.9849379999999999
 31
0.0
  0
LINE
  5
AE
330
481
100
AcDbEntity
  8
0
100
AcDbLine
 10
4.385526000000001
 20
0.9849379999999999
 30
0.0
 11
4.395647
 21
1.064703
 31
0.0
  0
LINE
  5
AF
330
481
100
AcDbEntity
  8
0
100
AcDbLine
 10
4.395647
 20
1.064703
 30
0.0
 11
4.481249
 21
0.975786
 31
0.0
  0
LINE
  5
B0
330
481
100
AcDbEntity
  8
0
100
AcDbLine
 10
4.59711
 20
1.070314
 30
0.0
 11
4.501387
 21
1.079467
 31
0.0
  0
LINE
  5
B1
330
481
100
AcDbEntity
  8
0
100
AcDbLine
 10
4.501387
 20
1.079467
 30
0.0
 11
4.511508
 21
1.159231
 31
0.0
  0
LINE
  5
B2
330
481
100
AcDbEntity
  8
0
100
AcDbLine
 10
4.511508
 20
1.159231
 30
0.0
 11
4.59711
 21
1.070314
 31
0.0
  0
LINE
  5
B3
330
481
100
AcDbEntity
  8
0
100
AcDbLine
 10
4.704008999999999
 20
1.17184
 30
0.0
 11
4.608285
 21
1.180993
 31
0.0
  0
LINE
  5
B4
330
481
100
AcDbEntity
  8
0
100
AcDbLine
 10
4.608285
 20
1.180993
 30
0.0
 11
4.618405999999999
 21
1.260757
 31
0.0
  0
LINE
  5
B5
330
481
100
AcDbEntity
  8
0
100
AcDbLine
 10
4.618405999999999
 20
1.260757
 30
0.0
 11
4.704008999999999
 21
1.17184
 31
0.0
  0
LINE
  5
B6
330
481
100
AcDbEntity
  8
0
100
AcDbLine
 10
4.924855
 20
0.87324
 30
0.0
 11
4.829130999999999
 21
0.882393
 31
0.0
  0
LINE
  5
B7
330
481
100
AcDbEntity
  8
0
100
AcDbLine
 10
4.829130999999999
 20
0.882393
 30
0.0
 11
4.839252
 21
0.962158
 31
0.0
  0
LINE
  5
B8
330
481
100
AcDbEntity
  8
0
100
AcDbLine
 10
4.839252
 20
0.962158
 30
0.0
 11
4.924855
 21
0.87324
 31
0.0
  0
LINE
  5
B9
330
481
100
AcDbEntity
  8
0
100
AcDbLine
 10
5.07828
 20
-0.8274290000000001
 30
0.0
 11
4.982557
 21
-0.818276
 31
0.0
  0
LINE
  5
BA
330
481
100
AcDbEntity
  8
0
100
AcDbLine
 10
4.982557
 20
-0.818276
 30
0.0
 11
4.992677
 21
-0.7385109999999999
 31
0.0
  0
LINE
  5
BB
330
481
100
AcDbEntity
  8
0
100
AcDbLine
 10
4.992677
 20
-0.7385109999999999
 30
0.0
 11
5.07828
 21
-0.8274290000000001
 31
0.0
  0
LINE
  5
BC
330
481
100
AcDbEntity
  8
0
100
AcDbLine
 10
4.843556
 20
1.113462
 30
0.0
 11
5.305413
 21
1.191669
 31
0.0
  0
LINE
  5
BD
330
481
100
AcDbEntity
  8
0
100
AcDbLine
 10
3.651114
 20
1.958959
 30
0.0
 11
4.010183000000001
 21
1.436204
 31
0.0
  0
LINE
  5
BE
330
481
100
AcDbEntity
  8
0
100
AcDbLine
 10
4.056132
 20
1.368509
 30
0.0
 11
4.4876
 21
0.74035
 31
0.0
  0
LINE
  5
BF
330
481
100
AcDbEntity
  8
0
100
AcDbLine
 10
4.518126000000001
 20
1.588125
 30
0.0
 11
3.540604
 21
2.089259
 31
0.0
  0
LINE
  5
C0
330
481
100
AcDbEntity
  8
0
100
AcDbLine
 10
5.173801999999999
 20
0.620305
 30
0.0
 11
4.536861
 21
1.571452
 31
0.0
  0
ARC
  5
C1
330
481
100
AcDbEntity
  8
0
100
AcDbCircle
 10
4.495316000000001
 20
1.543631
 30
0.0
 40
0.05
100
AcDbArc
 50
33.808458
 51
62.857702
  0
LINE
  5
C2
330
481
100
AcDbEntity
  8
0
100
AcDbLine
 10
5.022717
 20
0.8459200000000001
 30
0.0
 11
6.220725
 21
1.082266
 31
0.0
  0
LINE
  5
C4
330
481
100
AcDbEntity
  8
0
100
AcDbLine
 10
5.084235
 20
1.849295
 30
0.0
 11
5.208931
 21
1.868012
 31
0.0
  0
LINE
  5
C6
330
481
100
AcDbEntity
  8
0
100
AcDbLine
 10
5.088873
 20
1.818391
 30
0.0
 11
5.21357
 21
1.837109
 31
0.0
  0
LINE
  5
C7
330
481
100
AcDbEntity
  8
0
100
AcDbLine
 10
5.084235
 20
1.653789
 30
0.0
 11
5.208931
 21
1.672507
 31
0.0
  0
LINE
  5
C8
330
481
100
AcDbEntity
  8
0
100
AcDbLine
 10
5.088873
 20
1.622885
 30
0.0
 11
5.21357
 21
1.641603
 31
0.0
  0
LINE
  5
C9
330
481
100
AcDbEntity
  8
0
100
AcDbLine
 10
5.058587999999999
 20
1.46339
 30
0.0
 11
5.183284
 21
1.482107
 31
0.0
  0
LINE
  5
CA
330
481
100
AcDbEntity
  8
0
100
AcDbLine
 10
5.063226
 20
1.432486
 30
0.0
 11
5.187923000000001
 21
1.451204
 31
0.0
  0
LINE
  5
CB
330
481
100
AcDbEntity
  8
0
100
AcDbLine
 10
5.084235
 20
1.275912
 30
0.0
 11
5.208931
 21
1.29463
 31
0.0
  0
LINE
  5
CC
330
481
100
AcDbEntity
  8
0
100
AcDbLine
 10
5.088873
 20
1.245009
 30
0.0
 11
5.21357
 21
1.263726
 31
0.0
  0
LINE
  5
CD
330
481
100
AcDbEntity
  8
0
100
AcDbLine
 10
4.962323000000001
 20
1.718875
 30
0.0
 11
5.08702
 21
1.737593
 31
0.0
  0
LINE
  5
CE
330
481
100
AcDbEntity
  8
0
100
AcDbLine
 10
4.966962000000001
 20
1.687971
 30
0.0
 11
5.091658
 21
1.706689
 31
0.0
  0
LINE
  5
CF
330
481
100
AcDbEntity
  8
0
100
AcDbLine
 10
4.957442
 20
1.554293
 30
0.0
 11
5.082138
 21
1.57301
 31
0.0
  0
LINE
  5
D0
330
481
100
AcDbEntity
  8
0
100
AcDbLine
 10
4.962081
 20
1.523389
 30
0.0
 11
5.086777
 21
1.542107
 31
0.0
  0
LINE
  5
DF
330
481
100
AcDbEntity
  8
0
100
AcDbLine
 10
5.004956
 20
1.361727
 30
0.0
 11
5.129652
 21
1.380445
 31
0.0
  0
LINE
  5
E0
330
481
100
AcDbEntity
  8
0
100
AcDbLine
 10
5.009594
 20
1.330823
 30
0.0
 11
5.134291
 21
1.349541
 31
0.0
  0
LINE
  5
E1
330
481
100
AcDbEntity
  8
0
100
AcDbLine
 10
4.831196
 20
1.237387
 30
0.0
 11
4.955893
 21
1.256105
 31
0.0
  0
LINE
  5
E2
330
481
100
AcDbEntity
  8
0
100
AcDbLine
 10
4.835834999999999
 20
1.206484
 30
0.0
 11
4.960531
 21
1.225201
 31
0.0
  0
LINE
  5
E3
330
481
100
AcDbEntity
  8
0
100
AcDbLine
 10
4.716669
 20
1.324364
 30
0.0
 11
4.841365000000001
 21
1.343082
 31
0.0
  0
LINE
  5
E4
330
481
100
AcDbEntity
  8
0
100
AcDbLine
 10
4.721308000000001
 20
1.29346
 30
0.0
 11
4.846004
 21
1.312178
 31
0.0
  0
LINE
  5
E5
330
481
100
AcDbEntity
  8
0
100
AcDbLine
 10
4.822568
 20
1.424895
 30
0.0
 11
4.947264
 21
1.443612
 31
0.0
  0
LINE
  5
E6
330
481
100
AcDbEntity
  8
0
100
AcDbLine
 10
4.827207
 20
1.393991
 30
0.0
 11
4.951903
 21
1.412708
 31
0.0
  0
LINE
  5
E7
330
481
100
AcDbEntity
  8
0
100
AcDbLine
 10
4.835861
 20
1.602388
 30
0.0
 11
4.960558
 21
1.621106
 31
0.0
  0
LINE
  5
E8
330
481
100
AcDbEntity
  8
0
100
AcDbLine
 10
4.8405
 20
1.571484
 30
0.0
 11
4.965197
 21
1.590202
 31
0.0
  0
LINE
  5
E9
330
481
100
AcDbEntity
  8
0
100
AcDbLine
 10
4.835226000000001
 20
1.797859
 30
0.0
 11
4.959923000000001
 21
1.816576
 31
0.0
  0
LINE
  5
EA
330
481
100
AcDbEntity
  8
0
100
AcDbLine
 10
4.839865000000001
 20
1.766955
 30
0.0
 11
4.964561
 21
1.785673
 31
0.0
  0
LINE
  5
EB
330
481
100
AcDbEntity
  8
0
100
AcDbLine
 10
4.574856
 20
1.756455
 30
0.0
 11
4.699552
 21
1.775172
 31
0.0
  0
LINE
  5
EC
330
481
100
AcDbEntity
  8
0
100
AcDbLine
 10
4.579495
 20
1.725551
 30
0.0
 11
4.704191000000001
 21
1.744268
 31
0.0
  0
LINE
  5
ED
330
481
100
AcDbEntity
  8
0
100
AcDbLine
 10
4.302541000000001
 20
1.72704
 30
0.0
 11
4.427237
 21
1.745758
 31
0.0
  0
LINE
  5
EE
330
481
100
AcDbEntity
  8
0
100
AcDbLine
 10
4.307179
 20
1.696136
 30
0.0
 11
4.431876
 21
1.714854
 31
0.0
  0
LINE
  5
EF
330
481
100
AcDbEntity
  8
0
100
AcDbLine
 10
4.573506
 20
1.565974
 30
0.0
 11
4.698201999999999
 21
1.584692
 31
0.0
  0
LINE
  5
F0
330
481
100
AcDbEntity
  8
0
100
AcDbLine
 10
4.578145
 20
1.53507
 30
0.0
 11
4.702841
 21
1.553788
 31
0.0
  0
LINE
  5
F1
330
481
100
AcDbEntity
  8
0
100
AcDbLine
 10
4.714353
 20
1.689378
 30
0.0
 11
4.839049
 21
1.708095
 31
0.0
  0
LINE
  5
F2
330
481
100
AcDbEntity
  8
0
100
AcDbLine
 10
4.718992
 20
1.658474
 30
0.0
 11
4.843687999999999
 21
1.677191
 31
0.0
  0
LINE
  5
F3
330
481
100
AcDbEntity
  8
0
100
AcDbLine
 10
4.715008
 20
1.504877
 30
0.0
 11
4.839705
 21
1.523595
 31
0.0
  0
LINE
  5
F4
330
481
100
AcDbEntity
  8
0
100
AcDbLine
 10
4.719647
 20
1.473973
 30
0.0
 11
4.844344
 21
1.492691
 31
0.0
  0
LINE
  5
F5
330
481
100
AcDbEntity
  8
0
100
AcDbLine
 10
4.089208999999999
 20
1.236767
 30
0.0
 11
4.141255999999999
 21
1.24458
 31
0.0
  0
LINE
  5
F6
330
481
100
AcDbEntity
  8
0
100
AcDbLine
 10
4.093848
 20
1.205863
 30
0.0
 11
4.160933
 21
1.215933
 31
0.0
  0
LINE
  5
F7
330
481
100
AcDbEntity
  8
0
100
AcDbLine
 10
4.15781
 20
1.121951
 30
0.0
 11
4.219161
 21
1.131161
 31
0.0
  0
LINE
  5
F8
330
481
100
AcDbEntity
  8
0
100
AcDbLine
 10
4.162449
 20
1.091048
 30
0.0
 11
4.238837999999999
 21
1.102514
 31
0.0
  0
LINE
  5
F9
330
481
100
AcDbEntity
  8
0
100
AcDbLine
 10
4.644390000000001
 20
1.410878
 30
0.0
 11
4.720356
 21
1.42228
 31
0.0
  0
LINE
  5
FA
330
481
100
AcDbEntity
  8
0
100
AcDbLine
 10
4.663619000000001
 20
1.382164
 30
0.0
 11
4.724995
 21
1.391377
 31
0.0
  0
LINE
  5
FB
330
481
100
AcDbEntity
  8
0
100
AcDbLine
 10
1.114017
 20
1.221119
 30
0.0
 11
1.323195
 21
1.177104
 31
0.0
  0
LINE
  5
FC
330
481
100
AcDbEntity
  8
0
100
AcDbLine
 10
1.323195
 20
1.177104
 30
0.0
 11
1.185833
 21
1.319971
 31
0.0
  0
LINE
  5
FD
330
481
100
AcDbEntity
  8
0
100
AcDbLine
 10
1.185833
 20
1.319971
 30
0.0
 11
1.402878
 21
1.270774
 31
0.0
  0
LINE
  5
FE
330
481
100
AcDbEntity
  8
0
100
AcDbLine
 10
1.402878
 20
1.270774
 30
0.0
 11
1.712411
 21
1.323983
 31
0.0
  0
LINE
  5
FF
330
481
100
AcDbEntity
  8
0
100
AcDbLine
 10
1.185833
 20
1.319971
 30
0.0
 11
1.185833
 21
1.206008
 31
0.0
  0
LINE
  5
320
330
481
100
AcDbEntity
  8
0
100
AcDbLine
 10
6.182347
 20
-0.9905219999999999
 30
0.0
 11
6.713151
 21
-1.119437
 31
0.0
  0
LINE
  5
322
330
481
100
AcDbEntity
  8
0
100
AcDbLine
 10
4.313789
 20
-2.137278
 30
0.0
 11
6.712472999999999
 21
-2.950533
 31
0.0
  0
SOLID
  5
326
330
481
100
AcDbEntity
  8
0
100
AcDbTrace
 10
6.586125999999999
 20
-1.218713
 30
0.0
 11
6.627792
 21
-1.218713
 31
0.0
 12
6.606959
 22
-1.093713
 32
0.0
 13
6.606959
 23
-1.093713
 33
0.0
  0
LINE
  5
327
330
481
100
AcDbEntity
  8
0
100
AcDbLine
 10
6.606959
 20
-1.218713
 30
0.0
 11
6.606959
 21
-1.426747
 31
0.0
  0
SOLID
  5
329
330
481
100
AcDbEntity
  8
0
100
AcDbTrace
 10
6.632681
 20
-2.790563
 30
0.0
 11
6.591015
 21
-2.790563
 31
0.0
 12
6.611847999999999
 22
-2.915563
 32
0.0
 13
6.611847999999999
 23
-2.915563
 33
0.0
  0
LINE
  5
32A
330
481
100
AcDbEntity
  8
0
100
AcDbLine
 10
6.611847999999999
 20
-2.790563
 30
0.0
 11
6.611847999999999
 21
-2.541759
 31
0.0
  0
LINE
  5
32C
330
481
100
AcDbEntity
  8
0
100
AcDbLine
 10
1.1267
 20
-0.027232
 30
0.0
 11
1.19185
 21
-0.277703
 31
0.0
  0
LINE
  5
32D
330
481
100
AcDbEntity
  8
0
100
AcDbLine
 10
1.19185
 20
-0.277703
 30
0.0
 11
1.142626
 21
-0.47009
 31
0.0
  0
LINE
  5
32E
330
481
100
AcDbEntity
  8
0
100
AcDbLine
 10
1.142626
 20
-0.47009
 30
0.0
 11
1.190093
 21
-0.687587
 31
0.0
  0
LINE
  5
32F
330
481
100
AcDbEntity
  8
0
100
AcDbLine
 10
1.190093
 20
-0.687587
 30
0.0
 11
1.165868
 21
-0.844118
 31
0.0
  0
LINE
  5
330
330
481
100
AcDbEntity
  8
0
100
AcDbLine
 10
1.165868
 20
-0.844118
 30
0.0
 11
1.1267
 21
-0.9906209999999999
 31
0.0
  0
LINE
  5
331
330
481
100
AcDbEntity
  8
0
100
AcDbLine
 10
1.1267
 20
0.351662
 30
0.0
 11
1.299464
 21
-0.327767
 31
0.0
  0
LINE
  5
332
330
481
100
AcDbEntity
  8
0
100
AcDbLine
 10
1.299464
 20
-0.327767
 30
0.0
 11
1.303304
 21
-0.408555
 31
0.0
  0
LINE
  5
333
330
481
100
AcDbEntity
  8
0
100
AcDbLine
 10
1.303304
 20
-0.408555
 30
0.0
 11
1.302262
 21
-0.432488
 31
0.0
  0
LINE
  5
334
330
481
100
AcDbEntity
  8
0
100
AcDbLine
 10
1.302262
 20
-0.432488
 30
0.0
 11
1.282283
 21
-0.450402
 31
0.0
  0
LINE
  5
335
330
481
100
AcDbEntity
  8
0
100
AcDbLine
 10
1.282283
 20
-0.450402
 30
0.0
 11
1.255303
 21
-0.479274
 31
0.0
  0
LINE
  5
336
330
481
100
AcDbEntity
  8
0
100
AcDbLine
 10
1.255303
 20
-0.479274
 30
0.0
 11
1.24128
 21
-0.512159
 31
0.0
  0
LINE
  5
337
330
481
100
AcDbEntity
  8
0
100
AcDbLine
 10
1.24128
 20
-0.512159
 30
0.0
 11
1.244227
 21
-0.536099
 31
0.0
  0
LINE
  5
338
330
481
100
AcDbEntity
  8
0
100
AcDbLine
 10
1.244227
 20
-0.536099
 30
0.0
 11
1.267878
 21
-0.6897260000000001
 31
0.0
  0
LINE
  5
339
330
481
100
AcDbEntity
  8
0
100
AcDbLine
 10
1.267878
 20
-0.6897260000000001
 30
0.0
 11
1.267739
 21
-0.764523
 31
0.0
  0
LINE
  5
33A
330
481
100
AcDbEntity
  8
0
100
AcDbLine
 10
1.267739
 20
-0.764523
 30
0.0
 11
1.265627
 21
-0.8283459999999999
 31
0.0
  0
LINE
  5
33B
330
481
100
AcDbEntity
  8
0
100
AcDbLine
 10
1.265627
 20
-0.8283459999999999
 30
0.0
 11
1.271459
 21
-0.910135
 31
0.0
  0
LINE
  5
33C
330
481
100
AcDbEntity
  8
0
100
AcDbLine
 10
1.271459
 20
-0.910135
 30
0.0
 11
1.267361
 21
-0.968967
 31
0.0
  0
LINE
  5
33D
330
481
100
AcDbEntity
  8
0
100
AcDbLine
 10
1.267361
 20
-0.968967
 30
0.0
 11
1.236327
 21
-1.032736
 31
0.0
  0
LINE
  5
33E
330
481
100
AcDbEntity
  8
0
100
AcDbLine
 10
1.236327
 20
-1.032736
 30
0.0
 11
1.219321
 21
-1.060629
 31
0.0
  0
LINE
  5
33F
330
481
100
AcDbEntity
  8
0
100
AcDbLine
 10
1.219321
 20
-1.060629
 30
0.0
 11
1.158602
 21
-1.531042
 31
0.0
  0
LINE
  5
340
330
481
100
AcDbEntity
  8
0
100
AcDbLine
 10
1.213634
 20
0.365618
 30
0.0
 11
1.411804
 21
-0.519456
 31
0.0
  0
LINE
  5
341
330
481
100
AcDbEntity
  8
0
100
AcDbLine
 10
1.411804
 20
-0.519456
 30
0.0
 11
1.409652
 21
-0.604221
 31
0.0
  0
LINE
  5
342
330
481
100
AcDbEntity
  8
0
100
AcDbLine
 10
1.409652
 20
-0.604221
 30
0.0
 11
1.385687
 21
-0.620134
 31
0.0
  0
LINE
  5
343
330
481
100
AcDbEntity
  8
0
100
AcDbLine
 10
1.385687
 20
-0.620134
 30
0.0
 11
1.364678
 21
-0.6559970000000001
 31
0.0
  0
LINE
  5
344
330
481
100
AcDbEntity
  8
0
100
AcDbLine
 10
1.364678
 20
-0.6559970000000001
 30
0.0
 11
1.343665
 21
-0.693856
 31
0.0
  0
LINE
  5
345
330
481
100
AcDbEntity
  8
0
100
AcDbLine
 10
1.343665
 20
-0.693856
 30
0.0
 11
1.339587
 21
-0.741718
 31
0.0
  0
LINE
  5
346
330
481
100
AcDbEntity
  8
0
100
AcDbLine
 10
1.339587
 20
-0.741718
 30
0.0
 11
1.353418
 21
-0.8125520000000001
 31
0.0
  0
LINE
  5
347
330
481
100
AcDbEntity
  8
0
100
AcDbLine
 10
1.353418
 20
-0.8125520000000001
 30
0.0
 11
1.366233
 21
-0.8933559999999999
 31
0.0
  0
LINE
  5
348
330
481
100
AcDbEntity
  8
0
100
AcDbLine
 10
1.366233
 20
-0.8933559999999999
 30
0.0
 11
1.357111
 21
-0.972125
 31
0.0
  0
LINE
  5
349
330
481
100
AcDbEntity
  8
0
100
AcDbLine
 10
1.357111
 20
-0.972125
 30
0.0
 11
1.318006
 21
-1.085744
 31
0.0
  0
LINE
  5
34A
330
481
100
AcDbEntity
  8
0
100
AcDbLine
 10
1.318006
 20
-1.085744
 30
0.0
 11
1.289953
 21
-1.155503
 31
0.0
  0
LINE
  5
34B
330
481
100
AcDbEntity
  8
0
100
AcDbLine
 10
1.289953
 20
-1.155503
 30
0.0
 11
1.271721
 21
-1.307058
 31
0.0
  0
LINE
  5
34C
330
481
100
AcDbEntity
  8
0
100
AcDbLine
 10
1.271721
 20
-1.307058
 30
0.0
 11
1.261479
 21
-1.452643
 31
0.0
  0
LINE
  5
34D
330
481
100
AcDbEntity
  8
0
100
AcDbLine
 10
1.261479
 20
-1.452643
 30
0.0
 11
1.252757
 21
-1.551305
 31
0.0
  0
LINE
  5
34E
330
481
100
AcDbEntity
  8
0
100
AcDbLine
 10
1.302221
 20
0.346554
 30
0.0
 11
1.507198
 21
-0.706126
 31
0.0
  0
LINE
  5
34F
330
481
100
AcDbEntity
  8
0
100
AcDbLine
 10
1.507198
 20
-0.706126
 30
0.0
 11
1.517018
 21
-0.78892
 31
0.0
  0
LINE
  5
350
330
481
100
AcDbEntity
  8
0
100
AcDbLine
 10
1.517018
 20
-0.78892
 30
0.0
 11
1.507896
 21
-0.8676889999999999
 31
0.0
  0
LINE
  5
351
330
481
100
AcDbEntity
  8
0
100
AcDbLine
 10
1.507896
 20
-0.8676889999999999
 30
0.0
 11
1.477907
 21
-0.90553
 31
0.0
  0
LINE
  5
352
330
481
100
AcDbEntity
  8
0
100
AcDbLine
 10
1.477907
 20
-0.90553
 30
0.0
 11
1.455897
 21
-0.9433870000000001
 31
0.0
  0
LINE
  5
353
330
481
100
AcDbEntity
  8
0
100
AcDbLine
 10
1.455897
 20
-0.9433870000000001
 30
0.0
 11
1.442817
 21
-1.005195
 31
0.0
  0
LINE
  5
354
330
481
100
AcDbEntity
  8
0
100
AcDbLine
 10
1.442817
 20
-1.005195
 30
0.0
 11
1.450629
 21
-1.094966
 31
0.0
  0
LINE
  5
355
330
481
100
AcDbEntity
  8
0
100
AcDbLine
 10
1.450629
 20
-1.094966
 30
0.0
 11
1.445523
 21
-1.15978
 31
0.0
  0
LINE
  5
356
330
481
100
AcDbEntity
  8
0
100
AcDbLine
 10
1.445523
 20
-1.15978
 30
0.0
 11
1.42547
 21
-1.217586
 31
0.0
  0
LINE
  5
357
330
481
100
AcDbEntity
  8
0
100
AcDbLine
 10
1.42547
 20
-1.217586
 30
0.0
 11
1.395431
 21
-1.282354
 31
0.0
  0
LINE
  5
358
330
481
100
AcDbEntity
  8
0
100
AcDbLine
 10
1.395431
 20
-1.282354
 30
0.0
 11
1.375286
 21
-1.390025
 31
0.0
  0
LINE
  5
359
330
481
100
AcDbEntity
  8
0
100
AcDbLine
 10
1.375286
 20
-1.390025
 30
0.0
 11
1.378112
 21
-1.578282
 31
0.0
  0
LINE
  5
35A
330
481
100
AcDbEntity
  8
0
100
AcDbLine
 10
1.388368
 20
0.328014
 30
0.0
 11
1.409054
 21
0.149733
 31
0.0
  0
LINE
  5
35B
330
481
100
AcDbEntity
  8
0
100
AcDbLine
 10
1.409054
 20
0.149733
 30
0.0
 11
1.42174
 21
-0.000882
 31
0.0
  0
LINE
  5
35C
330
481
100
AcDbEntity
  8
0
100
AcDbLine
 10
1.42174
 20
-0.000882
 30
0.0
 11
1.433539
 21
-0.091657
 31
0.0
  0
LINE
  5
35D
330
481
100
AcDbEntity
  8
0
100
AcDbLine
 10
1.433539
 20
-0.091657
 30
0.0
 11
1.468252
 21
-0.19544
 31
0.0
  0
LINE
  5
35E
330
481
100
AcDbEntity
  8
0
100
AcDbLine
 10
1.468252
 20
-0.19544
 30
0.0
 11
1.531994
 21
-0.330183
 31
0.0
  0
LINE
  5
35F
330
481
100
AcDbEntity
  8
0
100
AcDbLine
 10
1.467981
 20
0.310881
 30
0.0
 11
1.479732
 21
0.079792
 31
0.0
  0
LINE
  5
360
330
481
100
AcDbEntity
  8
0
100
AcDbLine
 10
1.479732
 20
0.079792
 30
0.0
 11
1.501491
 21
-0.017983
 31
0.0
  0
LINE
  5
361
330
481
100
AcDbEntity
  8
0
100
AcDbLine
 10
1.501491
 20
-0.017983
 30
0.0
 11
1.531994
 21
-0.088833
 31
0.0
  0
LINE
  5
362
330
481
100
AcDbEntity
  8
0
100
AcDbLine
 10
5.426269000000001
 20
0.127317
 30
0.0
 11
5.733419000000001
 21
0.223517
 31
0.0
  0
LINE
  5
363
330
481
100
AcDbEntity
  8
0
100
AcDbLine
 10
5.733419000000001
 20
0.223517
 30
0.0
 11
5.975885
 21
0.18315
 31
0.0
  0
LINE
  5
364
330
481
100
AcDbEntity
  8
0
100
AcDbLine
 10
5.426269000000001
 20
0.046535
 30
0.0
 11
5.975885
 21
0.13531
 31
0.0
  0
LINE
  5
365
330
481
100
AcDbEntity
  8
0
100
AcDbLine
 10
5.426269000000001
 20
-0.054169
 30
0.0
 11
5.733419000000001
 21
0.066939
 31
0.0
  0
LINE
  5
366
330
481
100
AcDbEntity
  8
0
100
AcDbLine
 10
5.733419000000001
 20
0.066939
 30
0.0
 11
5.975885
 21
0.055501
 31
0.0
  0
LINE
  5
368
330
481
100
AcDbEntity
  8
0
100
AcDbLine
 10
5.426269000000001
 20
-0.155906
 30
0.0
 11
5.733419000000001
 21
-0.020808
 31
0.0
  0
LINE
  5
369
330
481
100
AcDbEntity
  8
0
100
AcDbLine
 10
5.733419000000001
 20
-0.019837
 30
0.0
 11
5.975885
 21
-0.066163
 31
0.0
  0
LINE
  5
36A
330
481
100
AcDbEntity
  8
0
100
AcDbLine
 10
5.426269000000001
 20
-0.229707
 30
0.0
 11
5.733419000000001
 21
-0.114564
 31
0.0
  0
LINE
  5
36B
330
481
100
AcDbEntity
  8
0
100
AcDbLine
 10
5.733419000000001
 20
-0.114564
 30
0.0
 11
5.975885
 21
-0.134959
 31
0.0
  0
LINE
  5
36C
330
481
100
AcDbEntity
  8
0
100
AcDbLine
 10
5.975885
 20
-0.19678
 30
0.0
 11
5.733419000000001
 21
-0.21629
 31
0.0
  0
LINE
  5
36D
330
481
100
AcDbEntity
  8
0
100
AcDbLine
 10
5.883461000000001
 20
0.308636
 30
0.0
 11
6.038363
 21
0.307692
 31
0.0
  0
LINE
  5
36E
330
481
100
AcDbEntity
  8
0
100
AcDbLine
 10
6.038363
 20
0.202967
 30
0.0
 11
5.975885
 21
0.212083
 31
0.0
  0
LINE
  5
36F
330
481
100
AcDbEntity
  8
0
100
AcDbLine
 10
5.975885
 20
0.099395
 30
0.0
 11
6.038363
 21
0.099243
 31
0.0
  0
LINE
  5
370
330
481
100
AcDbEntity
  8
0
100
AcDbLine
 10
6.038363
 20
0.099243
 30
0.0
 11
6.352151
 21
0.225373
 31
0.0
  0
LINE
  5
371
330
481
100
AcDbEntity
  8
0
100
AcDbLine
 10
6.352151
 20
0.134625
 30
0.0
 11
5.975885
 21
0.011633
 31
0.0
  0
LINE
  5
372
330
481
100
AcDbEntity
  8
0
100
AcDbLine
 10
5.975885
 20
-0.064164
 30
0.0
 11
6.038363
 21
-0.053327
 31
0.0
  0
LINE
  5
373
330
481
100
AcDbEntity
  8
0
100
AcDbLine
 10
6.038363
 20
-0.053327
 30
0.0
 11
6.352151
 21
0.051842
 31
0.0
  0
LINE
  5
374
330
481
100
AcDbEntity
  8
0
100
AcDbLine
 10
6.030773
 20
0.204074
 30
0.0
 11
6.352151
 21
0.318102
 31
0.0
  0
LINE
  5
375
330
481
100
AcDbEntity
  8
0
100
AcDbLine
 10
6.038363
 20
0.305708
 30
0.0
 11
6.352151
 21
0.3869
 31
0.0
  0
LINE
  5
376
330
481
100
AcDbEntity
  8
0
100
AcDbLine
 10
6.352151
 20
-0.017973
 30
0.0
 11
6.118918
 21
-0.125922
 31
0.0
  0
LINE
  5
377
330
481
100
AcDbEntity
  8
0
100
AcDbLine
 10
6.136873000000001
 20
-0.4154890000000001
 30
0.0
 11
6.384689
 21
-0.442898
 31
0.0
  0
LINE
  5
378
330
481
100
AcDbEntity
  8
0
100
AcDbLine
 10
5.857952
 20
-0.602496
 30
0.0
 11
6.136873000000001
 21
-0.503249
 31
0.0
  0
LINE
  5
379
330
481
100
AcDbEntity
  8
0
100
AcDbLine
 10
6.136873000000001
 20
-0.503249
 30
0.0
 11
6.384689
 21
-0.531659
 31
0.0
  0
LINE
  5
37A
330
481
100
AcDbEntity
  8
0
100
AcDbLine
 10
5.857952
 20
-0.662346
 30
0.0
 11
6.136873000000001
 21
-0.57705
 31
0.0
  0
LINE
  5
37B
330
481
100
AcDbEntity
  8
0
100
AcDbLine
 10
6.136873000000001
 20
-0.57705
 30
0.0
 11
6.384689
 21
-0.6024520000000001
 31
0.0
  0
LINE
  5
37C
330
481
100
AcDbEntity
  8
0
100
AcDbLine
 10
5.857952
 20
-0.773045
 30
0.0
 11
6.136873000000001
 21
-0.675776
 31
0.0
  0
LINE
  5
37D
330
481
100
AcDbEntity
  8
0
100
AcDbLine
 10
6.136873000000001
 20
-0.675776
 30
0.0
 11
6.384689
 21
-0.67923
 31
0.0
  0
LINE
  5
37E
330
481
100
AcDbEntity
  8
0
100
AcDbLine
 10
6.136873000000001
 20
-0.417501
 30
0.0
 11
5.857952
 21
-0.494781
 31
0.0
  0
LINE
  5
37F
330
481
100
AcDbEntity
  8
0
100
AcDbLine
 10
5.953396
 20
-0.8876069999999999
 30
0.0
 11
6.136873000000001
 21
-0.752588
 31
0.0
  0
LINE
  5
380
330
481
100
AcDbEntity
  8
0
100
AcDbLine
 10
6.136873000000001
 20
-0.752588
 30
0.0
 11
6.384689
 21
-0.760035
 31
0.0
  0
LINE
  5
382
330
481
100
AcDbEntity
  8
0
100
AcDbLine
 10
6.318098
 20
-0.293913
 30
0.0
 11
6.532768
 21
-0.282614
 31
0.0
  0
LINE
  5
383
330
481
100
AcDbEntity
  8
0
100
AcDbLine
 10
6.532768
 20
-0.282614
 30
0.0
 11
6.783252
 21
-0.21924
 31
0.0
  0
LINE
  5
384
330
481
100
AcDbEntity
  8
0
100
AcDbLine
 10
6.384689
 20
-0.426942
 30
0.0
 11
6.532768
 21
-0.437184
 31
0.0
  0
LINE
  5
385
330
481
100
AcDbEntity
  8
0
100
AcDbLine
 10
6.532768
 20
-0.437184
 30
0.0
 11
6.783252
 21
-0.3429
 31
0.0
  0
LINE
  5
386
330
481
100
AcDbEntity
  8
0
100
AcDbLine
 10
6.384689
 20
-0.508721
 30
0.0
 11
6.532768
 21
-0.532941
 31
0.0
  0
LINE
  5
387
330
481
100
AcDbEntity
  8
0
100
AcDbLine
 10
6.532768
 20
-0.532941
 30
0.0
 11
6.783252
 21
-0.431679
 31
0.0
  0
LINE
  5
388
330
481
100
AcDbEntity
  8
0
100
AcDbLine
 10
6.384689
 20
-0.593482
 30
0.0
 11
6.532768
 21
-0.6256850000000001
 31
0.0
  0
LINE
  5
389
330
481
100
AcDbEntity
  8
0
100
AcDbLine
 10
6.532768
 20
-0.6256850000000001
 30
0.0
 11
6.783252
 21
-0.546358
 31
0.0
  0
LINE
  5
38B
330
481
100
AcDbEntity
  8
0
100
AcDbLine
 10
3.937526
 20
1.390376
 30
0.0
 11
3.943879
 21
0.9727459999999999
 31
0.0
  0
LINE
  5
38C
330
481
100
AcDbEntity
  8
0
100
AcDbLine
 10
3.959643
 20
0.9637870000000001
 30
0.0
 11
3.943879
 21
0.9727459999999999
 31
0.0
  0
ARC
  5
38D
330
481
100
AcDbEntity
  8
0
  6
DASHED
100
AcDbCircle
 10
3.923912
 20
-1.756715
 30
0.0
 40
0.5
100
AcDbArc
 50
149.029645
 51
180.0
  0
ARC
  5
38E
330
481
100
AcDbEntity
  8
0
  6
DASHED
100
AcDbCircle
 10
3.800515
 20
-0.382117
 30
0.0
 40
0.5
100
AcDbArc
 50
180.0
 51
215.647476
  0
LINE
  5
38F
330
481
100
AcDbEntity
  8
0
100
AcDbLine
 10
4.505194
 20
-2.788043
 30
0.0
 11
4.505194
 21
-1.707087
 31
0.0
  0
ARC
  5
391
330
481
100
AcDbEntity
  8
0
100
AcDbCircle
 10
4.755194
 20
-1.707087
 30
0.0
 40
0.25
100
AcDbArc
 50
133.611564
 51
180.0
  0
ARC
  5
392
330
481
100
AcDbEntity
  8
0
100
AcDbCircle
 10
4.927743
 20
-0.8521280000000001
 30
0.0
 40
0.25
100
AcDbArc
 50
313.611564
 51
0.0
  0
ARC
  5
393
330
481
100
AcDbEntity
  8
0
100
AcDbCircle
 10
4.032823000000001
 20
-2.270416
 30
0.0
 40
0.032729
100
AcDbArc
 50
79.919248
 51
90.0
  0
ARC
  5
394
330
481
100
AcDbEntity
  8
0
100
AcDbCircle
 10
4.032823000000001
 20
-2.270416
 30
0.0
 40
0.032729
100
AcDbArc
 50
90.0
 51
117.286266
  0
ARC
  5
395
330
481
100
AcDbEntity
  8
0
100
AcDbCircle
 10
4.03721
 20
-2.278922
 30
0.0
 40
0.0423
100
AcDbArc
 50
117.286266
 51
141.235665
  0
ARC
  5
396
330
481
100
AcDbEntity
  8
0
100
AcDbCircle
 10
4.044091000000001
 20
-2.284447
 30
0.0
 40
0.051125
100
AcDbArc
 50
141.235665
 51
161.602258
  0
ARC
  5
397
330
481
100
AcDbEntity
  8
0
100
AcDbCircle
 10
4.054915
 20
-2.288047
 30
0.0
 40
0.062531
100
AcDbArc
 50
161.602258
 51
180.0
  0
ARC
  5
398
330
481
100
AcDbEntity
  8
0
100
AcDbCircle
 10
4.054915
 20
-2.288047
 30
0.0
 40
0.062531
100
AcDbArc
 50
180.0
 51
198.397742
  0
ARC
  5
399
330
481
100
AcDbEntity
  8
0
100
AcDbCircle
 10
4.044091000000001
 20
-2.291647
 30
0.0
 40
0.051125
100
AcDbArc
 50
198.397742
 51
218.764335
  0
ARC
  5
39A
330
481
100
AcDbEntity
  8
0
100
AcDbCircle
 10
4.03721
 20
-2.297172
 30
0.0
 40
0.0423
100
AcDbArc
 50
218.764335
 51
242.713734
  0
ARC
  5
39B
330
481
100
AcDbEntity
  8
0
100
AcDbCircle
 10
4.032823000000001
 20
-2.305678
 30
0.0
 40
0.032729
100
AcDbArc
 50
242.713734
 51
270.0
  0
ARC
  5
39C
330
481
100
AcDbEntity
  8
0
100
AcDbCircle
 10
4.032823000000001
 20
-2.305678
 30
0.0
 40
0.032729
100
AcDbArc
 50
270.0
 51
280.080752
  0
ARC
  5
39D
330
481
100
AcDbEntity
  8
0
100
AcDbCircle
 10
4.208684
 20
-2.088237
 30
0.0
 40
0.032729
100
AcDbArc
 50
79.919274
 51
90.0
  0
ARC
  5
39E
330
481
100
AcDbEntity
  8
0
100
AcDbCircle
 10
4.208684
 20
-2.088237
 30
0.0
 40
0.032729
100
AcDbArc
 50
90.0
 51
117.286266
  0
ARC
  5
39F
330
481
100
AcDbEntity
  8
0
100
AcDbCircle
 10
4.213071
 20
-2.096743
 30
0.0
 40
0.0423
100
AcDbArc
 50
117.286266
 51
141.235665
  0
ARC
  5
3A0
330
481
100
AcDbEntity
  8
0
100
AcDbCircle
 10
4.219951999999999
 20
-2.102268
 30
0.0
 40
0.051125
100
AcDbArc
 50
141.235665
 51
161.602258
  0
ARC
  5
3A1
330
481
100
AcDbEntity
  8
0
100
AcDbCircle
 10
4.230776000000001
 20
-2.105868
 30
0.0
 40
0.062531
100
AcDbArc
 50
161.602258
 51
180.0
  0
ARC
  5
3A2
330
481
100
AcDbEntity
  8
0
100
AcDbCircle
 10
4.230776000000001
 20
-2.105868
 30
0.0
 40
0.062531
100
AcDbArc
 50
180.0
 51
198.397742
  0
ARC
  5
3A3
330
481
100
AcDbEntity
  8
0
100
AcDbCircle
 10
4.219951999999999
 20
-2.109468
 30
0.0
 40
0.051125
100
AcDbArc
 50
198.397742
 51
218.764335
  0
ARC
  5
3A4
330
481
100
AcDbEntity
  8
0
100
AcDbCircle
 10
4.213071
 20
-2.114993
 30
0.0
 40
0.0423
100
AcDbArc
 50
218.764335
 51
242.713734
  0
ARC
  5
3A5
330
481
100
AcDbEntity
  8
0
100
AcDbCircle
 10
4.208684
 20
-2.123499
 30
0.0
 40
0.032729
100
AcDbArc
 50
242.713734
 51
270.0
  0
ARC
  5
3A6
330
481
100
AcDbEntity
  8
0
100
AcDbCircle
 10
4.208684
 20
-2.123499
 30
0.0
 40
0.032729
100
AcDbArc
 50
270.0
 51
280.080726
  0
ARC
  5
3A7
330
481
100
AcDbEntity
  8
0
100
AcDbCircle
 10
4.34592
 20
-2.29892
 30
0.0
 40
0.032729
100
AcDbArc
 50
79.919274
 51
90.0
  0
ARC
  5
3A8
330
481
100
AcDbEntity
  8
0
100
AcDbCircle
 10
4.34592
 20
-2.29892
 30
0.0
 40
0.032729
100
AcDbArc
 50
90.0
 51
117.286266
  0
ARC
  5
3A9
330
481
100
AcDbEntity
  8
0
100
AcDbCircle
 10
4.350308
 20
-2.307426
 30
0.0
 40
0.0423
100
AcDbArc
 50
117.286266
 51
141.235665
  0
ARC
  5
3AA
330
481
100
AcDbEntity
  8
0
100
AcDbCircle
 10
4.357189
 20
-2.312951
 30
0.0
 40
0.051125
100
AcDbArc
 50
141.235665
 51
161.602258
  0
ARC
  5
3AB
330
481
100
AcDbEntity
  8
0
100
AcDbCircle
 10
4.368012
 20
-2.316551
 30
0.0
 40
0.062531
100
AcDbArc
 50
161.602258
 51
180.0
  0
ARC
  5
3AC
330
481
100
AcDbEntity
  8
0
100
AcDbCircle
 10
4.368012
 20
-2.316551
 30
0.0
 40
0.062531
100
AcDbArc
 50
180.0
 51
198.397742
  0
ARC
  5
3AD
330
481
100
AcDbEntity
  8
0
100
AcDbCircle
 10
4.357189
 20
-2.320151
 30
0.0
 40
0.051125
100
AcDbArc
 50
198.397742
 51
218.764335
  0
ARC
  5
3AE
330
481
100
AcDbEntity
  8
0
100
AcDbCircle
 10
4.350308
 20
-2.325676
 30
0.0
 40
0.0423
100
AcDbArc
 50
218.764335
 51
242.713734
  0
ARC
  5
3AF
330
481
100
AcDbEntity
  8
0
100
AcDbCircle
 10
4.34592
 20
-2.334182
 30
0.0
 40
0.032729
100
AcDbArc
 50
242.713734
 51
270.0
  0
ARC
  5
3B0
330
481
100
AcDbEntity
  8
0
100
AcDbCircle
 10
4.34592
 20
-2.334182
 30
0.0
 40
0.032729
100
AcDbArc
 50
270.0
 51
280.080726
  0
ARC
  5
3B1
330
481
100
AcDbEntity
  8
0
100
AcDbCircle
 10
4.190005
 20
-2.481136
 30
0.0
 40
0.032729
100
AcDbArc
 50
79.919274
 51
90.0
  0
ARC
  5
3B2
330
481
100
AcDbEntity
  8
0
100
AcDbCircle
 10
4.190005
 20
-2.481136
 30
0.0
 40
0.032729
100
AcDbArc
 50
90.0
 51
117.286266
  0
ARC
  5
3B3
330
481
100
AcDbEntity
  8
0
100
AcDbCircle
 10
4.194392
 20
-2.489642
 30
0.0
 40
0.0423
100
AcDbArc
 50
117.286266
 51
141.235665
  0
ARC
  5
3B4
330
481
100
AcDbEntity
  8
0
100
AcDbCircle
 10
4.201273000000001
 20
-2.495167
 30
0.0
 40
0.051125
100
AcDbArc
 50
141.235665
 51
161.602258
  0
ARC
  5
3B5
330
481
100
AcDbEntity
  8
0
100
AcDbCircle
 10
4.212097
 20
-2.498767
 30
0.0
 40
0.062531
100
AcDbArc
 50
161.602258
 51
180.0
  0
ARC
  5
3B6
330
481
100
AcDbEntity
  8
0
100
AcDbCircle
 10
4.212097
 20
-2.498767
 30
0.0
 40
0.062531
100
AcDbArc
 50
180.0
 51
198.397742
  0
ARC
  5
3B7
330
481
100
AcDbEntity
  8
0
100
AcDbCircle
 10
4.201273000000001
 20
-2.502367
 30
0.0
 40
0.051125
100
AcDbArc
 50
198.397742
 51
218.764335
  0
ARC
  5
3B8
330
481
100
AcDbEntity
  8
0
100
AcDbCircle
 10
4.194392
 20
-2.507892
 30
0.0
 40
0.0423
100
AcDbArc
 50
218.764335
 51
242.713734
  0
ARC
  5
3B9
330
481
100
AcDbEntity
  8
0
100
AcDbCircle
 10
4.190005
 20
-2.516398
 30
0.0
 40
0.032729
100
AcDbArc
 50
242.713734
 51
270.0
  0
ARC
  5
3BA
330
481
100
AcDbEntity
  8
0
100
AcDbCircle
 10
4.190005
 20
-2.516398
 30
0.0
 40
0.032729
100
AcDbArc
 50
270.0
 51
280.080726
  0
ARC
  5
3BB
330
481
100
AcDbEntity
  8
0
100
AcDbCircle
 10
4.347203
 20
-2.68288
 30
0.0
 40
0.032729
100
AcDbArc
 50
79.919274
 51
90.0
  0
ARC
  5
3BC
330
481
100
AcDbEntity
  8
0
100
AcDbCircle
 10
4.347203
 20
-2.68288
 30
0.0
 40
0.032729
100
AcDbArc
 50
90.0
 51
117.286266
  0
ARC
  5
3BD
330
481
100
AcDbEntity
  8
0
100
AcDbCircle
 10
4.351591
 20
-2.691386
 30
0.0
 40
0.0423
100
AcDbArc
 50
117.286266
 51
141.235665
  0
ARC
  5
3BE
330
481
100
AcDbEntity
  8
0
100
AcDbCircle
 10
4.358472
 20
-2.696911
 30
0.0
 40
0.051125
100
AcDbArc
 50
141.235665
 51
161.602258
  0
ARC
  5
3BF
330
481
100
AcDbEntity
  8
0
100
AcDbCircle
 10
4.369295
 20
-2.700511
 30
0.0
 40
0.062531
100
AcDbArc
 50
161.602258
 51
180.0
  0
ARC
  5
3C0
330
481
100
AcDbEntity
  8
0
100
AcDbCircle
 10
4.369295
 20
-2.700511
 30
0.0
 40
0.062531
100
AcDbArc
 50
180.0
 51
198.397742
  0
ARC
  5
3C1
330
481
100
AcDbEntity
  8
0
100
AcDbCircle
 10
4.358472
 20
-2.704111
 30
0.0
 40
0.051125
100
AcDbArc
 50
198.397742
 51
218.764335
  0
ARC
  5
3C2
330
481
100
AcDbEntity
  8
0
100
AcDbCircle
 10
4.351591
 20
-2.709637
 30
0.0
 40
0.0423
100
AcDbArc
 50
218.764335
 51
242.713734
  0
ARC
  5
3C3
330
481
100
AcDbEntity
  8
0
100
AcDbCircle
 10
4.347203
 20
-2.718143
 30
0.0
 40
0.032729
100
AcDbArc
 50
242.713734
 51
270.0
  0
ARC
  5
3C4
330
481
100
AcDbEntity
  8
0
100
AcDbCircle
 10
4.347203
 20
-2.718143
 30
0.0
 40
0.032729
100
AcDbArc
 50
270.0
 51
280.080726
  0
ARC
  5
3C5
330
481
100
AcDbEntity
  8
0
100
AcDbCircle
 10
4.040952
 20
-2.727191
 30
0.0
 40
0.032729
100
AcDbArc
 50
79.919274
 51
90.0
  0
ARC
  5
3C6
330
481
100
AcDbEntity
  8
0
100
AcDbCircle
 10
4.040952
 20
-2.727191
 30
0.0
 40
0.032729
100
AcDbArc
 50
90.0
 51
117.286266
  0
ARC
  5
3C7
330
481
100
AcDbEntity
  8
0
100
AcDbCircle
 10
4.04534
 20
-2.735697
 30
0.0
 40
0.0423
100
AcDbArc
 50
117.286266
 51
141.235665
  0
ARC
  5
3C8
330
481
100
AcDbEntity
  8
0
100
AcDbCircle
 10
4.052221
 20
-2.741222
 30
0.0
 40
0.051125
100
AcDbArc
 50
141.235665
 51
161.602258
  0
ARC
  5
3C9
330
481
100
AcDbEntity
  8
0
100
AcDbCircle
 10
4.063044000000001
 20
-2.744822
 30
0.0
 40
0.062531
100
AcDbArc
 50
161.602258
 51
180.0
  0
ARC
  5
3CA
330
481
100
AcDbEntity
  8
0
100
AcDbCircle
 10
4.063044000000001
 20
-2.744822
 30
0.0
 40
0.062531
100
AcDbArc
 50
180.0
 51
198.397742
  0
ARC
  5
3CB
330
481
100
AcDbEntity
  8
0
100
AcDbCircle
 10
4.052221
 20
-2.748422
 30
0.0
 40
0.051125
100
AcDbArc
 50
198.397742
 51
218.764335
  0
ARC
  5
3CC
330
481
100
AcDbEntity
  8
0
100
AcDbCircle
 10
4.04534
 20
-2.753948
 30
0.0
 40
0.0423
100
AcDbArc
 50
218.764335
 51
242.713734
  0
ARC
  5
3CD
330
481
100
AcDbEntity
  8
0
100
AcDbCircle
 10
4.040952
 20
-2.762454
 30
0.0
 40
0.032729
100
AcDbArc
 50
242.713734
 51
270.0
  0
ARC
  5
3CE
330
481
100
AcDbEntity
  8
0
100
AcDbCircle
 10
4.040952
 20
-2.762454
 30
0.0
 40
0.032729
100
AcDbArc
 50
270.0
 51
280.080726
  0
ARC
  5
3CF
330
481
100
AcDbEntity
  8
0
100
AcDbCircle
 10
3.6565
 20
1.586809
 30
0.0
 40
0.032729
100
AcDbArc
 50
77.687629
 51
90.0
  0
ARC
  5
3D0
330
481
100
AcDbEntity
  8
0
100
AcDbCircle
 10
3.6565
 20
1.586809
 30
0.0
 40
0.032729
100
AcDbArc
 50
90.0
 51
117.286266
  0
ARC
  5
3D1
330
481
100
AcDbEntity
  8
0
100
AcDbCircle
 10
3.660888
 20
1.578303
 30
0.0
 40
0.0423
100
AcDbArc
 50
117.286266
 51
141.235665
  0
ARC
  5
3D2
330
481
100
AcDbEntity
  8
0
100
AcDbCircle
 10
3.667769
 20
1.572778
 30
0.0
 40
0.051125
100
AcDbArc
 50
141.235665
 51
161.602258
  0
ARC
  5
3D3
330
481
100
AcDbEntity
  8
0
100
AcDbCircle
 10
3.678592
 20
1.569178
 30
0.0
 40
0.062531
100
AcDbArc
 50
161.602258
 51
180.0
  0
ARC
  5
3D4
330
481
100
AcDbEntity
  8
0
100
AcDbCircle
 10
3.678592
 20
1.569178
 30
0.0
 40
0.062531
100
AcDbArc
 50
180.0
 51
198.397742
  0
ARC
  5
3D5
330
481
100
AcDbEntity
  8
0
100
AcDbCircle
 10
3.667769
 20
1.565578
 30
0.0
 40
0.051125
100
AcDbArc
 50
198.397742
 51
218.764335
  0
ARC
  5
3D6
330
481
100
AcDbEntity
  8
0
100
AcDbCircle
 10
3.660888
 20
1.560052
 30
0.0
 40
0.0423
100
AcDbArc
 50
218.764335
 51
242.713734
  0
ARC
  5
3D7
330
481
100
AcDbEntity
  8
0
100
AcDbCircle
 10
3.6565
 20
1.551546
 30
0.0
 40
0.032729
100
AcDbArc
 50
242.713734
 51
270.0
  0
ARC
  5
3D8
330
481
100
AcDbEntity
  8
0
100
AcDbCircle
 10
3.6565
 20
1.551546
 30
0.0
 40
0.032729
100
AcDbArc
 50
270.0
 51
282.312371
  0
ARC
  5
3D9
330
481
100
AcDbEntity
  8
0
100
AcDbCircle
 10
3.560378
 20
1.913104
 30
0.0
 40
0.032729
100
AcDbArc
 50
78.589529
 51
90.0
  0
ARC
  5
3DA
330
481
100
AcDbEntity
  8
0
100
AcDbCircle
 10
3.560378
 20
1.913104
 30
0.0
 40
0.032729
100
AcDbArc
 50
90.0
 51
117.286266
  0
ARC
  5
3DB
330
481
100
AcDbEntity
  8
0
100
AcDbCircle
 10
3.564766000000001
 20
1.904598
 30
0.0
 40
0.0423
100
AcDbArc
 50
117.286266
 51
141.235665
  0
ARC
  5
3DC
330
481
100
AcDbEntity
  8
0
100
AcDbCircle
 10
3.571647
 20
1.899072
 30
0.0
 40
0.051125
100
AcDbArc
 50
141.235665
 51
161.602258
  0
ARC
  5
3DD
330
481
100
AcDbEntity
  8
0
100
AcDbCircle
 10
3.58247
 20
1.895472
 30
0.0
 40
0.062531
100
AcDbArc
 50
161.602258
 51
180.0
  0
ARC
  5
3DE
330
481
100
AcDbEntity
  8
0
100
AcDbCircle
 10
3.58247
 20
1.895472
 30
0.0
 40
0.062531
100
AcDbArc
 50
180.0
 51
198.397742
  0
ARC
  5
3DF
330
481
100
AcDbEntity
  8
0
100
AcDbCircle
 10
3.571647
 20
1.891872
 30
0.0
 40
0.051125
100
AcDbArc
 50
198.397742
 51
218.764335
  0
ARC
  5
3E0
330
481
100
AcDbEntity
  8
0
100
AcDbCircle
 10
3.564766000000001
 20
1.886347
 30
0.0
 40
0.0423
100
AcDbArc
 50
218.764335
 51
242.713734
  0
ARC
  5
3E1
330
481
100
AcDbEntity
  8
0
100
AcDbCircle
 10
3.560378
 20
1.877841
 30
0.0
 40
0.032729
100
AcDbArc
 50
242.713734
 51
270.0
  0
ARC
  5
3E2
330
481
100
AcDbEntity
  8
0
100
AcDbCircle
 10
3.560378
 20
1.877841
 30
0.0
 40
0.032729
100
AcDbArc
 50
270.0
 51
281.410471
  0
ARC
  5
3E3
330
481
100
AcDbEntity
  8
0
100
AcDbCircle
 10
3.670458
 20
1.551546
 30
0.0
 40
0.032729
100
AcDbArc
 50
270.0
 51
297.286266
  0
ARC
  5
3E4
330
481
100
AcDbEntity
  8
0
100
AcDbCircle
 10
3.666071
 20
1.560052
 30
0.0
 40
0.0423
100
AcDbArc
 50
297.286266
 51
321.235665
  0
ARC
  5
3E5
330
481
100
AcDbEntity
  8
0
100
AcDbCircle
 10
3.65919
 20
1.565578
 30
0.0
 40
0.051125
100
AcDbArc
 50
321.235665
 51
341.602258
  0
ARC
  5
3E6
330
481
100
AcDbEntity
  8
0
100
AcDbCircle
 10
3.648366
 20
1.569178
 30
0.0
 40
0.062531
100
AcDbArc
 50
341.602258
 51
0.0
  0
ARC
  5
3E7
330
481
100
AcDbEntity
  8
0
100
AcDbCircle
 10
3.648366
 20
1.569178
 30
0.0
 40
0.062531
100
AcDbArc
 50
0.0
 51
18.397742
  0
ARC
  5
3E8
330
481
100
AcDbEntity
  8
0
100
AcDbCircle
 10
3.65919
 20
1.572778
 30
0.0
 40
0.051125
100
AcDbArc
 50
18.397742
 51
38.764335
  0
ARC
  5
3E9
330
481
100
AcDbEntity
  8
0
100
AcDbCircle
 10
3.666071
 20
1.578303
 30
0.0
 40
0.0423
100
AcDbArc
 50
38.764335
 51
62.713734
  0
ARC
  5
3EA
330
481
100
AcDbEntity
  8
0
100
AcDbCircle
 10
3.670458
 20
1.586809
 30
0.0
 40
0.032729
100
AcDbArc
 50
62.713734
 51
90.0
  0
ARC
  5
3EB
330
481
100
AcDbEntity
  8
0
100
AcDbCircle
 10
3.670458
 20
1.586809
 30
0.0
 40
0.032729
100
AcDbArc
 50
90.0
 51
117.286266
  0
ARC
  5
3EC
330
481
100
AcDbEntity
  8
0
100
AcDbCircle
 10
3.674846
 20
1.578303
 30
0.0
 40
0.0423
100
AcDbArc
 50
117.286266
 51
141.235665
  0
ARC
  5
3ED
330
481
100
AcDbEntity
  8
0
100
AcDbCircle
 10
3.681727
 20
1.572778
 30
0.0
 40
0.051125
100
AcDbArc
 50
141.235665
 51
161.602258
  0
ARC
  5
3EE
330
481
100
AcDbEntity
  8
0
100
AcDbCircle
 10
3.69255
 20
1.569178
 30
0.0
 40
0.062531
100
AcDbArc
 50
161.602258
 51
180.0
  0
ARC
  5
3EF
330
481
100
AcDbEntity
  8
0
100
AcDbCircle
 10
3.69255
 20
1.569178
 30
0.0
 40
0.062531
100
AcDbArc
 50
180.0
 51
198.397742
  0
ARC
  5
3F0
330
481
100
AcDbEntity
  8
0
100
AcDbCircle
 10
3.681727
 20
1.565578
 30
0.0
 40
0.051125
100
AcDbArc
 50
198.397742
 51
218.764335
  0
ARC
  5
3F1
330
481
100
AcDbEntity
  8
0
100
AcDbCircle
 10
3.674846
 20
1.560052
 30
0.0
 40
0.0423
100
AcDbArc
 50
218.764335
 51
242.713734
  0
ARC
  5
3F2
330
481
100
AcDbEntity
  8
0
100
AcDbCircle
 10
3.670458
 20
1.551546
 30
0.0
 40
0.032729
100
AcDbArc
 50
242.713734
 51
270.0
  0
ARC
  5
3F3
330
481
100
AcDbEntity
  8
0
100
AcDbCircle
 10
3.573328
 20
1.877841
 30
0.0
 40
0.032729
100
AcDbArc
 50
270.0
 51
297.286266
  0
ARC
  5
3F4
330
481
100
AcDbEntity
  8
0
100
AcDbCircle
 10
3.56894
 20
1.886347
 30
0.0
 40
0.0423
100
AcDbArc
 50
297.286266
 51
321.235665
  0
ARC
  5
3F5
330
481
100
AcDbEntity
  8
0
100
AcDbCircle
 10
3.562059
 20
1.891872
 30
0.0
 40
0.051125
100
AcDbArc
 50
321.235665
 51
341.602258
  0
ARC
  5
3F6
330
481
100
AcDbEntity
  8
0
100
AcDbCircle
 10
3.551236
 20
1.895472
 30
0.0
 40
0.062531
100
AcDbArc
 50
341.602258
 51
0.0
  0
ARC
  5
3F7
330
481
100
AcDbEntity
  8
0
100
AcDbCircle
 10
3.551236
 20
1.895472
 30
0.0
 40
0.062531
100
AcDbArc
 50
0.0
 51
18.397742
  0
ARC
  5
3F8
330
481
100
AcDbEntity
  8
0
100
AcDbCircle
 10
3.562059
 20
1.899072
 30
0.0
 40
0.051125
100
AcDbArc
 50
18.397742
 51
38.764335
  0
ARC
  5
3F9
330
481
100
AcDbEntity
  8
0
100
AcDbCircle
 10
3.56894
 20
1.904598
 30
0.0
 40
0.0423
100
AcDbArc
 50
38.764335
 51
62.713734
  0
ARC
  5
3FA
330
481
100
AcDbEntity
  8
0
100
AcDbCircle
 10
3.573328
 20
1.913104
 30
0.0
 40
0.032729
100
AcDbArc
 50
62.713734
 51
90.0
  0
ARC
  5
3FB
330
481
100
AcDbEntity
  8
0
100
AcDbCircle
 10
3.573328
 20
1.913104
 30
0.0
 40
0.032729
100
AcDbArc
 50
90.0
 51
117.286266
  0
ARC
  5
3FC
330
481
100
AcDbEntity
  8
0
100
AcDbCircle
 10
3.577716000000001
 20
1.904598
 30
0.0
 40
0.0423
100
AcDbArc
 50
117.286266
 51
141.235665
  0
ARC
  5
3FD
330
481
100
AcDbEntity
  8
0
100
AcDbCircle
 10
3.584596
 20
1.899072
 30
0.0
 40
0.051125
100
AcDbArc
 50
141.235665
 51
161.602258
  0
ARC
  5
3FE
330
481
100
AcDbEntity
  8
0
100
AcDbCircle
 10
3.59542
 20
1.895472
 30
0.0
 40
0.062531
100
AcDbArc
 50
161.602258
 51
180.0
  0
ARC
  5
3FF
330
481
100
AcDbEntity
  8
0
100
AcDbCircle
 10
3.59542
 20
1.895472
 30
0.0
 40
0.062531
100
AcDbArc
 50
180.0
 51
198.397742
  0
ARC
  5
400
330
481
100
AcDbEntity
  8
0
100
AcDbCircle
 10
3.584596
 20
1.891872
 30
0.0
 40
0.051125
100
AcDbArc
 50
198.397742
 51
218.764335
  0
ARC
  5
401
330
481
100
AcDbEntity
  8
0
100
AcDbCircle
 10
3.577716000000001
 20
1.886347
 30
0.0
 40
0.0423
100
AcDbArc
 50
218.764335
 51
242.713734
  0
ARC
  5
402
330
481
100
AcDbEntity
  8
0
100
AcDbCircle
 10
3.573328
 20
1.877841
 30
0.0
 40
0.032729
100
AcDbArc
 50
242.713734
 51
270.0
  0
ARC
  5
403
330
481
100
AcDbEntity
  8
0
100
AcDbCircle
 10
4.358661
 20
-2.718143
 30
0.0
 40
0.032729
100
AcDbArc
 50
270.0
 51
297.286266
  0
ARC
  5
404
330
481
100
AcDbEntity
  8
0
100
AcDbCircle
 10
4.354273
 20
-2.709637
 30
0.0
 40
0.0423
100
AcDbArc
 50
297.286266
 51
321.235665
  0
ARC
  5
405
330
481
100
AcDbEntity
  8
0
100
AcDbCircle
 10
4.347392
 20
-2.704111
 30
0.0
 40
0.051125
100
AcDbArc
 50
321.235665
 51
341.602258
  0
ARC
  5
406
330
481
100
AcDbEntity
  8
0
100
AcDbCircle
 10
4.336569
 20
-2.700511
 30
0.0
 40
0.062531
100
AcDbArc
 50
341.602258
 51
0.0
  0
ARC
  5
407
330
481
100
AcDbEntity
  8
0
100
AcDbCircle
 10
4.336569
 20
-2.700511
 30
0.0
 40
0.062531
100
AcDbArc
 50
0.0
 51
18.397742
  0
ARC
  5
408
330
481
100
AcDbEntity
  8
0
100
AcDbCircle
 10
4.347392
 20
-2.696911
 30
0.0
 40
0.051125
100
AcDbArc
 50
18.397742
 51
38.764335
  0
ARC
  5
409
330
481
100
AcDbEntity
  8
0
100
AcDbCircle
 10
4.354273
 20
-2.691386
 30
0.0
 40
0.0423
100
AcDbArc
 50
38.764335
 51
62.713734
  0
ARC
  5
40A
330
481
100
AcDbEntity
  8
0
100
AcDbCircle
 10
4.358661
 20
-2.68288
 30
0.0
 40
0.032729
100
AcDbArc
 50
62.713734
 51
90.0
  0
ARC
  5
40B
330
481
100
AcDbEntity
  8
0
100
AcDbCircle
 10
4.358661
 20
-2.68288
 30
0.0
 40
0.032729
100
AcDbArc
 50
90.0
 51
117.286266
  0
ARC
  5
40C
330
481
100
AcDbEntity
  8
0
100
AcDbCircle
 10
4.363049
 20
-2.691386
 30
0.0
 40
0.0423
100
AcDbArc
 50
117.286266
 51
141.235665
  0
ARC
  5
40D
330
481
100
AcDbEntity
  8
0
100
AcDbCircle
 10
4.369929
 20
-2.696911
 30
0.0
 40
0.051125
100
AcDbArc
 50
141.235665
 51
161.602258
  0
ARC
  5
40E
330
481
100
AcDbEntity
  8
0
100
AcDbCircle
 10
4.380753
 20
-2.700511
 30
0.0
 40
0.062531
100
AcDbArc
 50
161.602258
 51
180.0
  0
ARC
  5
40F
330
481
100
AcDbEntity
  8
0
100
AcDbCircle
 10
4.380753
 20
-2.700511
 30
0.0
 40
0.062531
100
AcDbArc
 50
180.0
 51
198.397742
  0
ARC
  5
410
330
481
100
AcDbEntity
  8
0
100
AcDbCircle
 10
4.369929
 20
-2.704111
 30
0.0
 40
0.051125
100
AcDbArc
 50
198.397742
 51
218.764335
  0
ARC
  5
411
330
481
100
AcDbEntity
  8
0
100
AcDbCircle
 10
4.363049
 20
-2.709637
 30
0.0
 40
0.0423
100
AcDbArc
 50
218.764335
 51
242.713734
  0
ARC
  5
412
330
481
100
AcDbEntity
  8
0
100
AcDbCircle
 10
4.358661
 20
-2.718143
 30
0.0
 40
0.032729
100
AcDbArc
 50
242.713734
 51
270.0
  0
ARC
  5
413
330
481
100
AcDbEntity
  8
0
100
AcDbCircle
 10
4.357377
 20
-2.334182
 30
0.0
 40
0.032729
100
AcDbArc
 50
270.0
 51
297.286266
  0
ARC
  5
414
330
481
100
AcDbEntity
  8
0
100
AcDbCircle
 10
4.35299
 20
-2.325676
 30
0.0
 40
0.0423
100
AcDbArc
 50
297.286266
 51
321.235665
  0
ARC
  5
415
330
481
100
AcDbEntity
  8
0
100
AcDbCircle
 10
4.346108999999999
 20
-2.320151
 30
0.0
 40
0.051125
100
AcDbArc
 50
321.235665
 51
341.602258
  0
ARC
  5
416
330
481
100
AcDbEntity
  8
0
100
AcDbCircle
 10
4.335285
 20
-2.316551
 30
0.0
 40
0.062531
100
AcDbArc
 50
341.602258
 51
0.0
  0
ARC
  5
417
330
481
100
AcDbEntity
  8
0
100
AcDbCircle
 10
4.335285
 20
-2.316551
 30
0.0
 40
0.062531
100
AcDbArc
 50
0.0
 51
18.397742
  0
ARC
  5
418
330
481
100
AcDbEntity
  8
0
100
AcDbCircle
 10
4.346108999999999
 20
-2.312951
 30
0.0
 40
0.051125
100
AcDbArc
 50
18.397742
 51
38.764335
  0
ARC
  5
419
330
481
100
AcDbEntity
  8
0
100
AcDbCircle
 10
4.35299
 20
-2.307426
 30
0.0
 40
0.0423
100
AcDbArc
 50
38.764335
 51
62.713734
  0
ARC
  5
41A
330
481
100
AcDbEntity
  8
0
100
AcDbCircle
 10
4.357377
 20
-2.29892
 30
0.0
 40
0.032729
100
AcDbArc
 50
62.713734
 51
90.0
  0
ARC
  5
41B
330
481
100
AcDbEntity
  8
0
100
AcDbCircle
 10
4.357377
 20
-2.29892
 30
0.0
 40
0.032729
100
AcDbArc
 50
90.0
 51
117.286266
  0
ARC
  5
41C
330
481
100
AcDbEntity
  8
0
100
AcDbCircle
 10
4.361765
 20
-2.307426
 30
0.0
 40
0.0423
100
AcDbArc
 50
117.286266
 51
141.235665
  0
ARC
  5
41D
330
481
100
AcDbEntity
  8
0
100
AcDbCircle
 10
4.368646
 20
-2.312951
 30
0.0
 40
0.051125
100
AcDbArc
 50
141.235665
 51
161.602258
  0
ARC
  5
41E
330
481
100
AcDbEntity
  8
0
100
AcDbCircle
 10
4.379469
 20
-2.316551
 30
0.0
 40
0.062531
100
AcDbArc
 50
161.602258
 51
180.0
  0
ARC
  5
41F
330
481
100
AcDbEntity
  8
0
100
AcDbCircle
 10
4.379469
 20
-2.316551
 30
0.0
 40
0.062531
100
AcDbArc
 50
180.0
 51
198.397742
  0
ARC
  5
420
330
481
100
AcDbEntity
  8
0
100
AcDbCircle
 10
4.368646
 20
-2.320151
 30
0.0
 40
0.051125
100
AcDbArc
 50
198.397742
 51
218.764335
  0
ARC
  5
421
330
481
100
AcDbEntity
  8
0
100
AcDbCircle
 10
4.361765
 20
-2.325676
 30
0.0
 40
0.0423
100
AcDbArc
 50
218.764335
 51
242.713734
  0
ARC
  5
422
330
481
100
AcDbEntity
  8
0
100
AcDbCircle
 10
4.357377
 20
-2.334182
 30
0.0
 40
0.032729
100
AcDbArc
 50
242.713734
 51
270.0
  0
ARC
  5
423
330
481
100
AcDbEntity
  8
0
100
AcDbCircle
 10
4.201462
 20
-2.516398
 30
0.0
 40
0.032729
100
AcDbArc
 50
270.0
 51
297.286266
  0
ARC
  5
424
330
481
100
AcDbEntity
  8
0
100
AcDbCircle
 10
4.197075
 20
-2.507892
 30
0.0
 40
0.0423
100
AcDbArc
 50
297.286266
 51
321.235665
  0
ARC
  5
425
330
481
100
AcDbEntity
  8
0
100
AcDbCircle
 10
4.190194
 20
-2.502367
 30
0.0
 40
0.051125
100
AcDbArc
 50
321.235665
 51
341.602258
  0
ARC
  5
426
330
481
100
AcDbEntity
  8
0
100
AcDbCircle
 10
4.17937
 20
-2.498767
 30
0.0
 40
0.062531
100
AcDbArc
 50
341.602258
 51
0.0
  0
ARC
  5
427
330
481
100
AcDbEntity
  8
0
100
AcDbCircle
 10
4.17937
 20
-2.498767
 30
0.0
 40
0.062531
100
AcDbArc
 50
0.0
 51
18.397742
  0
ARC
  5
428
330
481
100
AcDbEntity
  8
0
100
AcDbCircle
 10
4.190194
 20
-2.495167
 30
0.0
 40
0.051125
100
AcDbArc
 50
18.397742
 51
38.764335
  0
ARC
  5
429
330
481
100
AcDbEntity
  8
0
100
AcDbCircle
 10
4.197075
 20
-2.489642
 30
0.0
 40
0.0423
100
AcDbArc
 50
38.764335
 51
62.713734
  0
ARC
  5
42A
330
481
100
AcDbEntity
  8
0
100
AcDbCircle
 10
4.201462
 20
-2.481136
 30
0.0
 40
0.032729
100
AcDbArc
 50
62.713734
 51
90.0
  0
ARC
  5
42B
330
481
100
AcDbEntity
  8
0
100
AcDbCircle
 10
4.201462
 20
-2.481136
 30
0.0
 40
0.032729
100
AcDbArc
 50
90.0
 51
117.286266
  0
ARC
  5
42C
330
481
100
AcDbEntity
  8
0
100
AcDbCircle
 10
4.20585
 20
-2.489642
 30
0.0
 40
0.0423
100
AcDbArc
 50
117.286266
 51
141.235665
  0
ARC
  5
42D
330
481
100
AcDbEntity
  8
0
100
AcDbCircle
 10
4.212731
 20
-2.495167
 30
0.0
 40
0.051125
100
AcDbArc
 50
141.235665
 51
161.602258
  0
ARC
  5
42E
330
481
100
AcDbEntity
  8
0
100
AcDbCircle
 10
4.223554
 20
-2.498767
 30
0.0
 40
0.062531
100
AcDbArc
 50
161.602258
 51
180.0
  0
ARC
  5
42F
330
481
100
AcDbEntity
  8
0
100
AcDbCircle
 10
4.223554
 20
-2.498767
 30
0.0
 40
0.062531
100
AcDbArc
 50
180.0
 51
198.397742
  0
ARC
  5
430
330
481
100
AcDbEntity
  8
0
100
AcDbCircle
 10
4.212731
 20
-2.502367
 30
0.0
 40
0.051125
100
AcDbArc
 50
198.397742
 51
218.764335
  0
ARC
  5
431
330
481
100
AcDbEntity
  8
0
100
AcDbCircle
 10
4.20585
 20
-2.507892
 30
0.0
 40
0.0423
100
AcDbArc
 50
218.764335
 51
242.713734
  0
ARC
  5
432
330
481
100
AcDbEntity
  8
0
100
AcDbCircle
 10
4.201462
 20
-2.516398
 30
0.0
 40
0.032729
100
AcDbArc
 50
242.713734
 51
270.0
  0
ARC
  5
433
330
481
100
AcDbEntity
  8
0
100
AcDbCircle
 10
4.05241
 20
-2.762454
 30
0.0
 40
0.032729
100
AcDbArc
 50
270.0
 51
297.286266
  0
ARC
  5
434
330
481
100
AcDbEntity
  8
0
100
AcDbCircle
 10
4.048022000000001
 20
-2.753948
 30
0.0
 40
0.0423
100
AcDbArc
 50
297.286266
 51
321.235665
  0
ARC
  5
435
330
481
100
AcDbEntity
  8
0
100
AcDbCircle
 10
4.041141000000001
 20
-2.748422
 30
0.0
 40
0.051125
100
AcDbArc
 50
321.235665
 51
341.602258
  0
ARC
  5
436
330
481
100
AcDbEntity
  8
0
100
AcDbCircle
 10
4.030318
 20
-2.744822
 30
0.0
 40
0.062531
100
AcDbArc
 50
341.602258
 51
0.0
  0
ARC
  5
437
330
481
100
AcDbEntity
  8
0
100
AcDbCircle
 10
4.030318
 20
-2.744822
 30
0.0
 40
0.062531
100
AcDbArc
 50
0.0
 51
18.397742
  0
ARC
  5
438
330
481
100
AcDbEntity
  8
0
100
AcDbCircle
 10
4.041141000000001
 20
-2.741222
 30
0.0
 40
0.051125
100
AcDbArc
 50
18.397742
 51
38.764335
  0
ARC
  5
439
330
481
100
AcDbEntity
  8
0
100
AcDbCircle
 10
4.048022000000001
 20
-2.735697
 30
0.0
 40
0.0423
100
AcDbArc
 50
38.764335
 51
62.713734
  0
ARC
  5
43A
330
481
100
AcDbEntity
  8
0
100
AcDbCircle
 10
4.05241
 20
-2.727191
 30
0.0
 40
0.032729
100
AcDbArc
 50
62.713734
 51
90.0
  0
ARC
  5
43B
330
481
100
AcDbEntity
  8
0
100
AcDbCircle
 10
4.05241
 20
-2.727191
 30
0.0
 40
0.032729
100
AcDbArc
 50
90.0
 51
117.286266
  0
ARC
  5
43C
330
481
100
AcDbEntity
  8
0
100
AcDbCircle
 10
4.056798000000001
 20
-2.735697
 30
0.0
 40
0.0423
100
AcDbArc
 50
117.286266
 51
141.235665
  0
ARC
  5
43D
330
481
100
AcDbEntity
  8
0
100
AcDbCircle
 10
4.063678
 20
-2.741222
 30
0.0
 40
0.051125
100
AcDbArc
 50
141.235665
 51
161.602258
  0
ARC
  5
43E
330
481
100
AcDbEntity
  8
0
100
AcDbCircle
 10
4.074502
 20
-2.744822
 30
0.0
 40
0.062531
100
AcDbArc
 50
161.602258
 51
180.0
  0
ARC
  5
43F
330
481
100
AcDbEntity
  8
0
100
AcDbCircle
 10
4.074502
 20
-2.744822
 30
0.0
 40
0.062531
100
AcDbArc
 50
180.0
 51
198.397742
  0
ARC
  5
440
330
481
100
AcDbEntity
  8
0
100
AcDbCircle
 10
4.063678
 20
-2.748422
 30
0.0
 40
0.051125
100
AcDbArc
 50
198.397742
 51
218.764335
  0
ARC
  5
441
330
481
100
AcDbEntity
  8
0
100
AcDbCircle
 10
4.056798000000001
 20
-2.753948
 30
0.0
 40
0.0423
100
AcDbArc
 50
218.764335
 51
242.713734
  0
ARC
  5
442
330
481
100
AcDbEntity
  8
0
100
AcDbCircle
 10
4.05241
 20
-2.762454
 30
0.0
 40
0.032729
100
AcDbArc
 50
242.713734
 51
270.0
  0
ARC
  5
443
330
481
100
AcDbEntity
  8
0
100
AcDbCircle
 10
4.044280000000001
 20
-2.305678
 30
0.0
 40
0.032729
100
AcDbArc
 50
270.0
 51
297.286266
  0
ARC
  5
444
330
481
100
AcDbEntity
  8
0
100
AcDbCircle
 10
4.039892
 20
-2.297172
 30
0.0
 40
0.0423
100
AcDbArc
 50
297.286266
 51
321.235665
  0
ARC
  5
445
330
481
100
AcDbEntity
  8
0
100
AcDbCircle
 10
4.033012
 20
-2.291647
 30
0.0
 40
0.051125
100
AcDbArc
 50
321.235665
 51
341.602258
  0
ARC
  5
446
330
481
100
AcDbEntity
  8
0
100
AcDbCircle
 10
4.022188
 20
-2.288047
 30
0.0
 40
0.062531
100
AcDbArc
 50
341.602258
 51
0.0
  0
ARC
  5
447
330
481
100
AcDbEntity
  8
0
100
AcDbCircle
 10
4.022188
 20
-2.288047
 30
0.0
 40
0.062531
100
AcDbArc
 50
0.0
 51
18.397742
  0
ARC
  5
448
330
481
100
AcDbEntity
  8
0
100
AcDbCircle
 10
4.033012
 20
-2.284447
 30
0.0
 40
0.051125
100
AcDbArc
 50
18.397742
 51
38.764335
  0
ARC
  5
449
330
481
100
AcDbEntity
  8
0
100
AcDbCircle
 10
4.039892
 20
-2.278922
 30
0.0
 40
0.0423
100
AcDbArc
 50
38.764335
 51
62.713734
  0
ARC
  5
44A
330
481
100
AcDbEntity
  8
0
100
AcDbCircle
 10
4.044280000000001
 20
-2.270416
 30
0.0
 40
0.032729
100
AcDbArc
 50
62.713734
 51
90.0
  0
ARC
  5
44B
330
481
100
AcDbEntity
  8
0
100
AcDbCircle
 10
4.044280000000001
 20
-2.270416
 30
0.0
 40
0.032729
100
AcDbArc
 50
90.0
 51
117.286266
  0
ARC
  5
44C
330
481
100
AcDbEntity
  8
0
100
AcDbCircle
 10
4.048668
 20
-2.278922
 30
0.0
 40
0.0423
100
AcDbArc
 50
117.286266
 51
141.235665
  0
ARC
  5
44D
330
481
100
AcDbEntity
  8
0
100
AcDbCircle
 10
4.055549
 20
-2.284447
 30
0.0
 40
0.051125
100
AcDbArc
 50
141.235665
 51
161.602258
  0
ARC
  5
44E
330
481
100
AcDbEntity
  8
0
100
AcDbCircle
 10
4.066372
 20
-2.288047
 30
0.0
 40
0.062531
100
AcDbArc
 50
161.602258
 51
180.0
  0
ARC
  5
44F
330
481
100
AcDbEntity
  8
0
100
AcDbCircle
 10
4.066372
 20
-2.288047
 30
0.0
 40
0.062531
100
AcDbArc
 50
180.0
 51
198.397742
  0
ARC
  5
450
330
481
100
AcDbEntity
  8
0
100
AcDbCircle
 10
4.055549
 20
-2.291647
 30
0.0
 40
0.051125
100
AcDbArc
 50
198.397742
 51
218.764335
  0
ARC
  5
451
330
481
100
AcDbEntity
  8
0
100
AcDbCircle
 10
4.048668
 20
-2.297172
 30
0.0
 40
0.0423
100
AcDbArc
 50
218.764335
 51
242.713734
  0
ARC
  5
452
330
481
100
AcDbEntity
  8
0
100
AcDbCircle
 10
4.044280000000001
 20
-2.305678
 30
0.0
 40
0.032729
100
AcDbArc
 50
242.713734
 51
270.0
  0
ARC
  5
453
330
481
100
AcDbEntity
  8
0
100
AcDbCircle
 10
4.220141
 20
-2.123499
 30
0.0
 40
0.032729
100
AcDbArc
 50
270.0
 51
297.286266
  0
ARC
  5
454
330
481
100
AcDbEntity
  8
0
100
AcDbCircle
 10
4.215753
 20
-2.114993
 30
0.0
 40
0.0423
100
AcDbArc
 50
297.286266
 51
321.235665
  0
ARC
  5
455
330
481
100
AcDbEntity
  8
0
100
AcDbCircle
 10
4.208873000000001
 20
-2.109468
 30
0.0
 40
0.051125
100
AcDbArc
 50
321.235665
 51
341.602258
  0
ARC
  5
456
330
481
100
AcDbEntity
  8
0
100
AcDbCircle
 10
4.198049
 20
-2.105868
 30
0.0
 40
0.062531
100
AcDbArc
 50
341.602258
 51
0.0
  0
ARC
  5
457
330
481
100
AcDbEntity
  8
0
100
AcDbCircle
 10
4.198049
 20
-2.105868
 30
0.0
 40
0.062531
100
AcDbArc
 50
0.0
 51
18.397742
  0
ARC
  5
458
330
481
100
AcDbEntity
  8
0
100
AcDbCircle
 10
4.208873000000001
 20
-2.102268
 30
0.0
 40
0.051125
100
AcDbArc
 50
18.397742
 51
38.764335
  0
ARC
  5
459
330
481
100
AcDbEntity
  8
0
100
AcDbCircle
 10
4.215753
 20
-2.096743
 30
0.0
 40
0.0423
100
AcDbArc
 50
38.764335
 51
62.713734
  0
ARC
  5
45A
330
481
100
AcDbEntity
  8
0
100
AcDbCircle
 10
4.220141
 20
-2.088237
 30
0.0
 40
0.032729
100
AcDbArc
 50
62.713734
 51
90.0
  0
ARC
  5
45B
330
481
100
AcDbEntity
  8
0
100
AcDbCircle
 10
4.220141
 20
-2.088237
 30
0.0
 40
0.032729
100
AcDbArc
 50
90.0
 51
117.286266
  0
ARC
  5
45C
330
481
100
AcDbEntity
  8
0
100
AcDbCircle
 10
4.224529
 20
-2.096743
 30
0.0
 40
0.0423
100
AcDbArc
 50
117.286266
 51
141.235665
  0
ARC
  5
45D
330
481
100
AcDbEntity
  8
0
100
AcDbCircle
 10
4.231409999999999
 20
-2.102268
 30
0.0
 40
0.051125
100
AcDbArc
 50
141.235665
 51
161.602258
  0
ARC
  5
45E
330
481
100
AcDbEntity
  8
0
100
AcDbCircle
 10
4.242233000000001
 20
-2.105868
 30
0.0
 40
0.062531
100
AcDbArc
 50
161.602258
 51
180.0
  0
ARC
  5
45F
330
481
100
AcDbEntity
  8
0
100
AcDbCircle
 10
4.242233000000001
 20
-2.105868
 30
0.0
 40
0.062531
100
AcDbArc
 50
180.0
 51
198.397742
  0
ARC
  5
460
330
481
100
AcDbEntity
  8
0
100
AcDbCircle
 10
4.231409999999999
 20
-2.109468
 30
0.0
 40
0.051125
100
AcDbArc
 50
198.397742
 51
218.764335
  0
ARC
  5
461
330
481
100
AcDbEntity
  8
0
100
AcDbCircle
 10
4.224529
 20
-2.114993
 30
0.0
 40
0.0423
100
AcDbArc
 50
218.764335
 51
242.713734
  0
ARC
  5
462
330
481
100
AcDbEntity
  8
0
100
AcDbCircle
 10
4.220141
 20
-2.123499
 30
0.0
 40
0.032729
100
AcDbArc
 50
242.713734
 51
270.0
  0
TEXT
  5
463
330
481
100
AcDbEntity
  8
0
100
AcDbText
 10
4.984963
 20
-4.167955999999999
 30
0.0
 40
0.25
  1
Simpson Strong-Tie
100
AcDbText
  0
TEXT
  5
464
330
481
100
AcDbEntity
  8
0
100
AcDbText
 10
4.984963
 20
-4.572718
 30
0.0
 40
0.25
  1
H15
100
AcDbText
  0
TEXT
  5
465
330
481
100
AcDbEntity
  8
0
100
AcDbText
 10
6.444171333333333
 20
-1.76021
 30
0.0
 40
0.2
  1
2"
 72
     1
 11
6.610838
 21
-1.76021
 31
0.0
100
AcDbText
  0
TEXT
  5
466
330
481
100
AcDbEntity
  8
0
100
AcDbText
 10
6.306076095238096
 20
-2.084019
 30
0.0
 40
0.2
  1
MIN.
 72
     1
 11
6.610838
 21
-2.084019
 31
0.0
100
AcDbText
  0
TEXT
  5
467
330
481
100
AcDbEntity
  8
0
100
AcDbText
 10
5.858457047619048
 20
-2.407829
 30
0.0
 40
0.2
  1
END DIST.
 72
     1
 11
6.610838
 21
-2.407829
 31
0.0
100
AcDbText
  0
ENDSEC
  0
SECTION
  2
OBJECTS
  0
DICTIONARY
  5
475
330
0
100
AcDbDictionary
281
     1
  3
ACAD_COLOR
350
493
  3
ACAD_GROUP
350
476
  3
ACAD_LAYOUT
350
47E
  3
ACAD_MATERIAL
350
495
  3
ACAD_MLINESTYLE
350
47B
  3
ACAD_PLOTSETTINGS
350
47D
  3
ACAD_PLOTSTYLENAME
350
477
  3
ACDBHEADERROUNDTRIPXREC
350
492
  0
DICTIONARY
  5
493
102
{ACAD_REACTORS
330
475
102
}
330
475
100
AcDbDictionary
281
     1
  0
DICTIONARY
  5
476
102
{ACAD_REACTORS
330
475
102
}
330
475
100
AcDbDictionary
281
     1
  0
DICTIONARY
  5
47E
102
{ACAD_REACTORS
330
475
102
}
330
475
100
AcDbDictionary
281
     1
  3
Layout1
350
480
  3
Model
350
482
  0
DICTIONARY
  5
495
102
{ACAD_REACTORS
330
475
102
}
330
475
100
AcDbDictionary
281
     1
  0
DICTIONARY
  5
47B
102
{ACAD_REACTORS
330
475
102
}
330
475
100
AcDbDictionary
281
     1
  3
Standard
350
47C
  0
DICTIONARY
  5
47D
102
{ACAD_REACTORS
330
475
102
}
330
475
100
AcDbDictionary
281
     1
  0
ACDBDICTIONARYWDFLT
  5
477
102
{ACAD_REACTORS
330
475
102
}
330
475
100
AcDbDictionary
281
     1
  3
Normal
350
478
100
AcDbDictionaryWithDefault
340
478
  0
DICTIONARY
  5
492
102
{ACAD_REACTORS
330
475
102
}
330
475
100
AcDbDictionary
281
     1
  3
COLORDICT
350
494
  3
MATERIALDICT
350
496
  0
LAYOUT
  5
480
102
{ACAD_REACTORS
330
47E
102
}
102
{ACAD_XDICTIONARY
360
497
102
}
330
47E
100
AcDbPlotSettings
  1

  2

  4

  6

 40
0.0
 41
0.0
 42
0.0
 43
0.0
 44
0.0
 45
0.0
 46
0.0
 47
0.0
 48
0.0
 49
0.0
140
0.0
141
0.0
142
1.0
143
1.0
 70
   688
 72
     0
 73
     0
 74
     5
  7

 75
    16
147
1.0
148
0.0
149
0.0
100
AcDbLayout
  1
Layout1
 70
     1
 71
     1
 10
0.0
 20
0.0
 11
12.0
 21
9.0
 12
0.0
 22
0.0
 32
0.0
 14
1.000000000000000E+20
 24
1.000000000000000E+20
 34
1.000000000000000E+20
 15
-1.000000000000000E+20
 25
-1.000000000000000E+20
 35
-1.000000000000000E+20
146
0.0
 13
0.0
 23
0.0
 33
0.0
 16
1.0
 26
0.0
 36
0.0
 17
0.0
 27
1.0
 37
0.0
 76
     0
330
47F
  0
LAYOUT
  5
482
102
{ACAD_REACTORS
330
47E
102
}
102
{ACAD_XDICTIONARY
360
499
102
}
330
47E
100
AcDbPlotSettings
  1

  2

  4

  6

 40
0.0
 41
0.0
 42
0.0
 43
0.0
 44
0.0
 45
0.0
 46
0.0
 47
0.0
 48
0.0
 49
0.0
140
0.0
141
0.0
142
1.0
143
1.0
 70
  1712
 72
     0
 73
     0
 74
     0
  7

 75
     0
147
1.0
148
0.0
149
0.0
100
AcDbLayout
  1
Model
 70
     1
 71
     0
 10
0.0
 20
0.0
 11
0.0
 21
0.0
 12
0.0
 22
0.0
 32
0.0
 14
0.0
 24
0.0
 34
0.0
 15
0.0
 25
0.0
 35
0.0
146
0.0
 13
0.0
 23
0.0
 33
0.0
 16
1.0
 26
0.0
 36
0.0
 17
0.0
 27
1.0
 37
0.0
 76
     0
330
481
  0
MLINESTYLE
  5
47C
102
{ACAD_REACTORS
330
47B
102
}
330
47B
100
AcDbMlineStyle
  2
Standard
 70
     0
  3

 62
   256
 51
90.0
 52
90.0
 71
     2
 49
0.5
 62
   256
  6
BYLAYER
 49
-0.5
 62
   256
  6
BYLAYER
  0
ACDBPLACEHOLDER
  5
478
102
{ACAD_REACTORS
330
477
102
}
330
477
  0
XRECORD
  5
494
102
{ACAD_REACTORS
330
492
102
}
330
492
100
AcDbXrecord
340
493
  0
XRECORD
  5
496
102
{ACAD_REACTORS
330
492
102
}
330
492
100
AcDbXrecord
340
495
  0
DICTIONARY
  5
497
330
480
100
AcDbDictionary
280
     1
281
     1
  3
ACAD_XREC_ROUNDTRIP
360
498
  0
DICTIONARY
  5
499
330
482
100
AcDbDictionary
280
     1
281
     1
  3
ACAD_XREC_ROUNDTRIP
360
49A
  0
XRECORD
  5
498
102
{ACAD_REACTORS
330
497
102
}
330
497
100
AcDbXrecord
102
SHADEPLOT
 70
     0
102
SHADEPLOTRESLEVEL
 70
     0
102
SHADEPLOTCUSTOMDPI
 70
     0
  0
XRECORD
  5
49A
102
{ACAD_REACTORS
330
499
102
}
330
499
100
AcDbXrecord
102
SHADEPLOT
 70
     0
102
SHADEPLOTRESLEVEL
 70
     0
102
SHADEPLOTCUSTOMDPI
 70
     0
  0
ENDSEC
  0
EOF
