  0
SECTION
  2
HEADER
  9
$ACADVER
  1
AC1015
  9
$ACADMAINTVER
 70
     6
  9
$DWGCODEPAGE
  3
ANSI_1252
  9
$INSBASE
 10
0.0
 20
0.0
 30
0.0
  9
$EXTMIN
 10
-0.275
 20
0.0
 30
-0.0000000349181948
  9
$EXTMAX
 10
30.01382454672576
 20
25.65087897336446
 30
0.0000000814935746
  9
$LIMMIN
 10
0.0
 20
0.0
  9
$LIMMAX
 10
42.0
 20
32.0
  9
$ORTHOMODE
 70
     0
  9
$REGENMODE
 70
     1
  9
$FILLMODE
 70
     1
  9
$QTEXTMODE
 70
     0
  9
$MIRRTEXT
 70
     0
  9
$LTSCALE
 40
1.0
  9
$ATTMODE
 70
     1
  9
$TEXTSIZE
 40
0.36
  9
$TRACEWID
 40
0.025
  9
$TEXTSTYLE
  7
STANDARD
  9
$CLAYER
  8
NOTE
  9
$CELTYPE
  6
ByLayer
  9
$CECOLOR
 62
   256
  9
$CELTSCALE
 40
1.0
  9
$DISPSILH
 70
     0
  9
$DIMSCALE
 40
1.0
  9
$DIMASZ
 40
0.5
  9
$DIMEXO
 40
0.125
  9
$DIMDLI
 40
0.38
  9
$DIMRND
 40
0.0
  9
$DIMDLE
 40
0.0
  9
$DIMEXE
 40
0.32
  9
$DIMTP
 40
2.0
  9
$DIMTM
 40
0.0
  9
$DIMTXT
 40
0.36
  9
$DIMCEN
 40
-0.1
  9
$DIMTSZ
 40
0.0
  9
$DIMTOL
 70
     0
  9
$DIMLIM
 70
     0
  9
$DIMTIH
 70
     1
  9
$DIMTOH
 70
     1
  9
$DIMSE1
 70
     0
  9
$DIMSE2
 70
     0
  9
$DIMTAD
 70
     0
  9
$DIMZIN
 70
     0
  9
$DIMBLK
  1

  9
$DIMASO
 70
     0
  9
$DIMSHO
 70
     0
  9
$DIMPOST
  1

  9
$DIMAPOST
  1

  9
$DIMALT
 70
     0
  9
$DIMALTD
 70
     2
  9
$DIMALTF
 40
25.4
  9
$DIMLFAC
 40
1.0
  9
$DIMTOFL
 70
     0
  9
$DIMTVP
 40
0.0
  9
$DIMTIX
 70
     0
  9
$DIMSOXD
 70
     0
  9
$DIMSAH
 70
     0
  9
$DIMBLK1
  1

  9
$DIMBLK2
  1

  9
$DIMSTYLE
  2
STANDARD
  9
$DIMCLRD
 70
     0
  9
$DIMCLRE
 70
     0
  9
$DIMCLRT
 70
     0
  9
$DIMTFAC
 40
1.0
  9
$DIMGAP
 40
0.09
  9
$DIMJUST
 70
     0
  9
$DIMSD1
 70
     0
  9
$DIMSD2
 70
     0
  9
$DIMTOLJ
 70
     1
  9
$DIMTZIN
 70
     0
  9
$DIMALTZ
 70
     0
  9
$DIMALTTZ
 70
     0
  9
$DIMUPT
 70
     0
  9
$DIMDEC
 70
     4
  9
$DIMTDEC
 70
     4
  9
$DIMALTU
 70
     2
  9
$DIMALTTD
 70
     2
  9
$DIMTXSTY
  7
STANDARD
  9
$DIMAUNIT
 70
     0
  9
$DIMADEC
 70
     0
  9
$DIMALTRND
 40
0.0
  9
$DIMAZIN
 70
     0
  9
$DIMDSEP
 70
    46
  9
$DIMATFIT
 70
     3
  9
$DIMFRAC
 70
     0
  9
$DIMLDRBLK
  1

  9
$DIMLUNIT
 70
     2
  9
$DIMLWD
 70
    -2
  9
$DIMLWE
 70
    -2
  9
$DIMTMOVE
 70
     0
  9
$LUNITS
 70
     2
  9
$LUPREC
 70
     3
  9
$SKETCHINC
 40
0.1
  9
$FILLETRAD
 40
0.0
  9
$AUNITS
 70
     0
  9
$AUPREC
 70
     0
  9
$MENU
  1
ACAD
  9
$ELEVATION
 40
0.0
  9
$PELEVATION
 40
0.0
  9
$THICKNESS
 40
0.0
  9
$LIMCHECK
 70
     0
  9
$CHAMFERA
 40
0.375
  9
$CHAMFERB
 40
0.375
  9
$CHAMFERC
 40
1.0
  9
$CHAMFERD
 40
0.0
  9
$SKPOLY
 70
     0
  9
$TDCREATE
 40
2453955.5617386
  9
$TDUCREATE
 40
2453955.895071933
  9
$TDUPDATE
 40
2453955.603405278
  9
$TDUUPDATE
 40
2453955.895071944
  9
$TDINDWG
 40
0.0000000116
  9
$TDUSRTIMER
 40
0.0000000116
  9
$USRTIMER
 70
     1
  9
$ANGBASE
 50
0.0
  9
$ANGDIR
 70
     0
  9
$PDMODE
 70
     0
  9
$PDSIZE
 40
0.0
  9
$PLINEWID
 40
0.0
  9
$SPLFRAME
 70
     0
  9
$SPLINETYPE
 70
     6
  9
$SPLINESEGS
 70
     8
  9
$HANDSEED
  5
24B4
  9
$SURFTAB1
 70
     6
  9
$SURFTAB2
 70
     6
  9
$SURFTYPE
 70
     6
  9
$SURFU
 70
     6
  9
$SURFV
 70
     6
  9
$UCSBASE
  2

  9
$UCSNAME
  2

  9
$UCSORG
 10
0.0
 20
0.0
 30
0.0
  9
$UCSXDIR
 10
1.0
 20
0.0
 30
0.0
  9
$UCSYDIR
 10
0.0
 20
1.0
 30
0.0
  9
$UCSORTHOREF
  2

  9
$UCSORTHOVIEW
 70
     0
  9
$UCSORGTOP
 10
0.0
 20
0.0
 30
0.0
  9
$UCSORGBOTTOM
 10
0.0
 20
0.0
 30
0.0
  9
$UCSORGLEFT
 10
0.0
 20
0.0
 30
0.0
  9
$UCSORGRIGHT
 10
0.0
 20
0.0
 30
0.0
  9
$UCSORGFRONT
 10
0.0
 20
0.0
 30
0.0
  9
$UCSORGBACK
 10
0.0
 20
0.0
 30
0.0
  9
$PUCSBASE
  2

  9
$PUCSNAME
  2

  9
$PUCSORG
 10
0.0
 20
0.0
 30
0.0
  9
$PUCSXDIR
 10
1.0
 20
0.0
 30
0.0
  9
$PUCSYDIR
 10
0.0
 20
1.0
 30
0.0
  9
$PUCSORTHOREF
  2

  9
$PUCSORTHOVIEW
 70
     0
  9
$PUCSORGTOP
 10
0.0
 20
0.0
 30
0.0
  9
$PUCSORGBOTTOM
 10
0.0
 20
0.0
 30
0.0
  9
$PUCSORGLEFT
 10
0.0
 20
0.0
 30
0.0
  9
$PUCSORGRIGHT
 10
0.0
 20
0.0
 30
0.0
  9
$PUCSORGFRONT
 10
0.0
 20
0.0
 30
0.0
  9
$PUCSORGBACK
 10
0.0
 20
0.0
 30
0.0
  9
$USERI1
 70
     0
  9
$USERI2
 70
     0
  9
$USERI3
 70
     0
  9
$USERI4
 70
     0
  9
$USERI5
 70
     0
  9
$USERR1
 40
0.0
  9
$USERR2
 40
0.0
  9
$USERR3
 40
0.0
  9
$USERR4
 40
0.0
  9
$USERR5
 40
0.0
  9
$WORLDVIEW
 70
     1
  9
$SHADEDGE
 70
     3
  9
$SHADEDIF
 70
    70
  9
$TILEMODE
 70
     1
  9
$MAXACTVP
 70
    16
  9
$PINSBASE
 10
0.0
 20
0.0
 30
0.0
  9
$PLIMCHECK
 70
     0
  9
$PEXTMIN
 10
1.000000000000000E+20
 20
1.000000000000000E+20
 30
1.000000000000000E+20
  9
$PEXTMAX
 10
-1.000000000000000E+20
 20
-1.000000000000000E+20
 30
-1.000000000000000E+20
  9
$PLIMMIN
 10
0.0
 20
0.0
  9
$PLIMMAX
 10
12.0
 20
9.0
  9
$UNITMODE
 70
     0
  9
$VISRETAIN
 70
     0
  9
$PLINEGEN
 70
     1
  9
$PSLTSCALE
 70
     0
  9
$TREEDEPTH
 70
  3020
  9
$CMLSTYLE
  2
Standard
  9
$CMLJUST
 70
     0
  9
$CMLSCALE
 40
1.0
  9
$PROXYGRAPHICS
 70
     1
  9
$MEASUREMENT
 70
     0
  9
$CELWEIGHT
370
    -1
  9
$ENDCAPS
280
     0
  9
$JOINSTYLE
280
     0
  9
$LWDISPLAY
290
     0
  9
$INSUNITS
 70
     1
  9
$HYPERLINKBASE
  1

  9
$STYLESHEET
  1

  9
$XEDIT
290
     1
  9
$CEPSNTYPE
380
     0
  9
$PSTYLEMODE
290
     0
  9
$FINGERPRINTGUID
  2
{FAEB1C30-E019-11D5-929B-00C0DF256EC4}
  9
$VERSIONGUID
  2
{FAEB1C32-E019-11D5-929B-00C0DF256EC4}
  9
$EXTNAMES
290
     1
  9
$PSVPSCALE
 40
0.0
  9
$OLESTARTUP
290
     0
  0
ENDSEC
  0
SECTION
  2
CLASSES
  0
CLASS
  1
ACDBDICTIONARYWDFLT
  2
AcDbDictionaryWithDefault
  3
AutoCAD 2000
 90
        0
280
     0
281
     0
  0
CLASS
  1
ACDBPLACEHOLDER
  2
AcDbPlaceHolder
  3
ObjectDBX Classes
 90
        0
280
     0
281
     0
  0
CLASS
  1
LAYOUT
  2
AcDbLayout
  3
ObjectDBX Classes
 90
        0
280
     0
281
     0
  0
ENDSEC
  0
SECTION
  2
TABLES
  0
TABLE
  2
VPORT
  5
23AB
330
0
100
AcDbSymbolTable
 70
     2
  0
VPORT
  5
23E7
330
23AB
100
AcDbSymbolTableRecord
100
AcDbViewportTableRecord
  2
*ACTIVE
 70
     0
 10
0.0
 20
0.0
 11
1.0
 21
1.0
 12
5.622995919626297
 22
6.108144332716307
 13
0.0
 23
0.0
 14
0.0625
 24
0.0625
 15
0.25
 25
0.25
 16
0.0
 26
0.0
 36
1.0
 17
0.0
 27
0.0
 37
0.0
 40
6.389344590211454
 41
0.689102564102564
 42
50.0
 43
0.0
 44
0.0
 50
0.0
 51
0.0
 71
     0
 72
   100
 73
     1
 74
     0
 75
     0
 76
     0
 77
     0
 78
     1
281
     0
 65
     1
110
0.0
120
0.0
130
0.0
111
1.0
121
0.0
131
0.0
112
0.0
122
1.0
132
0.0
 79
     0
146
0.0
  0
ENDTAB
  0
TABLE
  2
LTYPE
  5
23A8
330
0
100
AcDbSymbolTable
 70
     6
  0
LTYPE
  5
23B3
330
23A8
100
AcDbSymbolTableRecord
100
AcDbLinetypeTableRecord
  2
ByBlock
 70
     0
  3

 72
    65
 73
     0
 40
0.0
  0
LTYPE
  5
23B4
330
23A8
100
AcDbSymbolTableRecord
100
AcDbLinetypeTableRecord
  2
ByLayer
 70
     0
  3

 72
    65
 73
     0
 40
0.0
  0
LTYPE
  5
23CC
330
23A8
100
AcDbSymbolTableRecord
100
AcDbLinetypeTableRecord
  2
CONTINUOUS
 70
     0
  3
Solid line
 72
    65
 73
     0
 40
0.0
  0
LTYPE
  5
23CD
330
23A8
100
AcDbSymbolTableRecord
100
AcDbLinetypeTableRecord
  2
HIDDEN
 70
     0
  3
_ _ _ _ _ _ _ _ _ _ _ _ _ _ _ _ _ _ _ _ _ _ _
 72
    65
 73
     2
 40
0.375
 49
0.25
 74
     0
 49
-0.125
 74
     0
  0
LTYPE
  5
23CE
330
23A8
100
AcDbSymbolTableRecord
100
AcDbLinetypeTableRecord
  2
CENTER
 70
     0
  3
____ _ ____ _ ____ _ ____ _ ____ _ ____ _ ____
 72
    65
 73
     4
 40
2.0
 49
1.25
 74
     0
 49
-0.25
 74
     0
 49
0.25
 74
     0
 49
-0.25
 74
     0
  0
LTYPE
  5
23CF
330
23A8
100
AcDbSymbolTableRecord
100
AcDbLinetypeTableRecord
  2
DASHED
 70
     0
  3
__ __ __ __ __ __ __ __ __ __ __ __ __ __ __ __
 72
    65
 73
     2
 40
0.75
 49
0.5
 74
     0
 49
-0.25
 74
     0
  0
LTYPE
  5
23D0
330
23A8
100
AcDbSymbolTableRecord
100
AcDbLinetypeTableRecord
  2
PHANTOM
 70
     0
  3
_____ _ _ _____ _ _ _____ _ _ _____ _ _ ____
 72
    65
 73
     6
 40
2.5
 49
1.25
 74
     0
 49
-0.25
 74
     0
 49
0.25
 74
     0
 49
-0.25
 74
     0
 49
0.25
 74
     0
 49
-0.25
 74
     0
  0
LTYPE
  5
23D1
330
23A8
100
AcDbSymbolTableRecord
100
AcDbLinetypeTableRecord
  2
DASHDOT
 70
     0
  3
__ . __ . __ . __ . __ . __ . __ . __ . __ . __
 72
    65
 73
     4
 40
1.0
 49
0.5
 74
     0
 49
-0.25
 74
     0
 49
0.0
 74
     0
 49
-0.25
 74
     0
  0
ENDTAB
  0
TABLE
  2
LAYER
  5
23A5
330
0
100
AcDbSymbolTable
 70
    20
  0
LAYER
  5
23D2
330
23A5
100
AcDbSymbolTableRecord
100
AcDbLayerTableRecord
  2
0
 70
     0
 62
     7
  6
CONTINUOUS
370
    -3
390
23B2
  0
LAYER
  5
23D3
330
23A5
100
AcDbSymbolTableRecord
100
AcDbLayerTableRecord
  2
DIM
 70
     0
 62
     5
  6
CONTINUOUS
370
    -3
390
0
  0
LAYER
  5
23D4
330
23A5
100
AcDbSymbolTableRecord
100
AcDbLayerTableRecord
  2
BORDER
 70
     0
 62
     7
  6
CONTINUOUS
370
    -3
390
0
  0
LAYER
  5
23D5
330
23A5
100
AcDbSymbolTableRecord
100
AcDbLayerTableRecord
  2
H
 70
     0
 62
     7
  6
HIDDEN
370
    -3
390
0
  0
LAYER
  5
23D6
330
23A5
100
AcDbSymbolTableRecord
100
AcDbLayerTableRecord
  2
CENTER
 70
     0
 62
     6
  6
CENTER
370
    -3
390
0
  0
LAYER
  5
23D7
330
23A5
100
AcDbSymbolTableRecord
100
AcDbLayerTableRecord
  2
ATTRIBUTE
 70
     0
 62
     7
  6
CONTINUOUS
370
    -3
390
0
  0
LAYER
  5
23D8
330
23A5
100
AcDbSymbolTableRecord
100
AcDbLayerTableRecord
  2
NOTE
 70
     0
 62
     7
  6
CONTINUOUS
370
    -3
390
0
  0
LAYER
  5
23D9
330
23A5
100
AcDbSymbolTableRecord
100
AcDbLayerTableRecord
  2
ATTRIBUTES
 70
     0
 62
     7
  6
CONTINUOUS
370
    -3
390
0
  0
LAYER
  5
23DA
330
23A5
100
AcDbSymbolTableRecord
100
AcDbLayerTableRecord
  2
OBJECT
 70
     0
 62
     7
  6
CONTINUOUS
370
    -3
390
0
  0
LAYER
  5
23DB
330
23A5
100
AcDbSymbolTableRecord
100
AcDbLayerTableRecord
  2
REV
 70
     0
 62
     7
  6
CONTINUOUS
370
    -3
390
0
  0
LAYER
  5
23DC
330
23A5
100
AcDbSymbolTableRecord
100
AcDbLayerTableRecord
  2
HIDDEN
 70
     0
 62
   253
  6
HIDDEN
370
    -3
390
0
  0
LAYER
  5
23DD
330
23A5
100
AcDbSymbolTableRecord
100
AcDbLayerTableRecord
  2
DASHED
 70
     0
 62
     8
  6
DASHED
370
    -3
390
0
  0
LAYER
  5
23DE
330
23A5
100
AcDbSymbolTableRecord
100
AcDbLayerTableRecord
  2
TITLE
 70
     0
 62
     5
  6
CONTINUOUS
370
    -3
390
0
  0
LAYER
  5
23DF
330
23A5
100
AcDbSymbolTableRecord
100
AcDbLayerTableRecord
  2
CON
 70
     0
 62
     7
  6
CONTINUOUS
370
    -3
390
0
  0
LAYER
  5
23E0
330
23A5
100
AcDbSymbolTableRecord
100
AcDbLayerTableRecord
  2
HEAVY
 70
     0
 62
    13
  6
CONTINUOUS
370
    -3
390
0
  0
LAYER
  5
23E1
330
23A5
100
AcDbSymbolTableRecord
100
AcDbLayerTableRecord
  2
C-LINE
 70
     0
 62
     6
  6
CENTER
370
    -3
390
0
  0
LAYER
  5
23E2
330
23A5
100
AcDbSymbolTableRecord
100
AcDbLayerTableRecord
  2
PHANTOM
 70
     0
 62
     5
  6
PHANTOM
370
    -3
390
0
  0
LAYER
  5
23E3
330
23A5
100
AcDbSymbolTableRecord
100
AcDbLayerTableRecord
  2
SECTION
 70
     0
 62
     7
  6
CONTINUOUS
370
    -3
390
0
  0
LAYER
  5
23E4
330
23A5
100
AcDbSymbolTableRecord
100
AcDbLayerTableRecord
  2
PV-1065
 70
     2
 62
     7
  6
CONTINUOUS
370
    -3
390
0
  0
LAYER
  5
23E5
330
23A5
100
AcDbSymbolTableRecord
100
AcDbLayerTableRecord
  2
DETAIL
 70
     0
 62
    28
  6
CONTINUOUS
370
    -3
390
0
  0
ENDTAB
  0
TABLE
  2
STYLE
  5
23A6
330
0
100
AcDbSymbolTable
 70
     4
  0
STYLE
  5
23EA
330
23A6
100
AcDbSymbolTableRecord
100
AcDbTextStyleTableRecord
  2
STANDARD
 70
     0
 40
0.0
 41
1.0
 50
0.0
 71
     0
 42
0.36
  3
TXT
  4

  0
STYLE
  5
23EB
330
23A6
100
AcDbSymbolTableRecord
100
AcDbTextStyleTableRecord
  2
COMPLEX
 70
     0
 40
0.0
 41
1.0
 50
0.0
 71
     0
 42
0.01
  3
COMPLEX
  4

  0
STYLE
  5
23EC
330
23A6
100
AcDbSymbolTableRecord
100
AcDbTextStyleTableRecord
  2
ORIGINAL
 70
     0
 40
0.125
 41
1.0
 50
0.0
 71
     0
 42
0.125
  3
TXT
  4

  0
STYLE
  5
23ED
330
23A6
100
AcDbSymbolTableRecord
100
AcDbTextStyleTableRecord
  2
HELVETICA
 70
     0
 40
0.0
 41
1.0
 50
0.0
 71
     0
 42
0.09
  3
SIMPLEX.SHX
  4

  0
ENDTAB
  0
TABLE
  2
VIEW
  5
23A9
330
0
100
AcDbSymbolTable
 70
     1
  0
VIEW
  5
23E9
330
23A9
100
AcDbSymbolTableRecord
100
AcDbViewTableRecord
  2
A
 70
     0
 40
27.67202109575717
 10
21.625
 20
21.83601054787858
 41
1.0
 11
0.0
 21
0.0
 31
1.0
 12
0.0
 22
0.0
 32
0.0
 42
50.0
 43
0.0
 44
0.0
 50
0.0
 71
    24
281
     0
 72
     0
  0
ENDTAB
  0
TABLE
  2
UCS
  5
23AA
330
0
100
AcDbSymbolTable
 70
     0
  0
ENDTAB
  0
TABLE
  2
APPID
  5
23AC
330
0
100
AcDbSymbolTable
 70
     1
  0
APPID
  5
23E8
330
23AC
100
AcDbSymbolTableRecord
100
AcDbRegAppTableRecord
  2
ACAD
 70
     0
  0
ENDTAB
  0
TABLE
  2
DIMSTYLE
  5
23AD
330
0
100
AcDbSymbolTable
 70
     1
100
AcDbDimStyleTable
  0
DIMSTYLE
105
23EE
330
23AD
100
AcDbSymbolTableRecord
100
AcDbDimStyleTableRecord
  2
STANDARD
 70
     0
  3

  4

340
23EA
  0
ENDTAB
  0
TABLE
  2
BLOCK_RECORD
  5
23A4
330
0
100
AcDbSymbolTable
 70
    14
  0
BLOCK_RECORD
  5
23BB
330
23A4
100
AcDbSymbolTableRecord
100
AcDbBlockTableRecord
  2
*Model_Space
340
23BC
  0
BLOCK_RECORD
  5
23B9
330
23A4
100
AcDbSymbolTableRecord
100
AcDbBlockTableRecord
  2
*Paper_Space
340
23BA
  0
BLOCK_RECORD
  5
23BE
330
23A4
100
AcDbSymbolTableRecord
100
AcDbBlockTableRecord
  2
REV
340
0
  0
BLOCK_RECORD
  5
23BF
330
23A4
100
AcDbSymbolTableRecord
100
AcDbBlockTableRecord
  2
TRIANGLE
340
0
102
{BLKREFS
331
49
102
}
  0
BLOCK_RECORD
  5
23C0
330
23A4
100
AcDbSymbolTableRecord
100
AcDbBlockTableRecord
  2
DIA281
340
0
  0
BLOCK_RECORD
  5
23C1
330
23A4
100
AcDbSymbolTableRecord
100
AcDbBlockTableRecord
  2
ROBORDER
340
0
  0
BLOCK_RECORD
  5
23C2
330
23A4
100
AcDbSymbolTableRecord
100
AcDbBlockTableRecord
  2
UPBORDER
340
0
  0
BLOCK_RECORD
  5
23C3
330
23A4
100
AcDbSymbolTableRecord
100
AcDbBlockTableRecord
  2
03A1T152
340
0
  0
BLOCK_RECORD
  5
23C4
330
23A4
100
AcDbSymbolTableRecord
100
AcDbBlockTableRecord
  2
BLRBORDR
340
0
  0
BLOCK_RECORD
  5
23C5
330
23A4
100
AcDbSymbolTableRecord
100
AcDbBlockTableRecord
  2
03A1T2A
340
0
  0
BLOCK_RECORD
  5
23C6
330
23A4
100
AcDbSymbolTableRecord
100
AcDbBlockTableRecord
  2
SREV
340
0
  0
BLOCK_RECORD
  5
23C7
330
23A4
100
AcDbSymbolTableRecord
100
AcDbBlockTableRecord
  2
NOTES5RO
340
0
  0
BLOCK_RECORD
  5
23C8
330
23A4
100
AcDbSymbolTableRecord
100
AcDbBlockTableRecord
  2
A*C25803704
340
0
  0
BLOCK_RECORD
  5
23C9
330
23A4
100
AcDbSymbolTableRecord
100
AcDbBlockTableRecord
  2
H16W
340
0
102
{BLKREFS
331
23A3
102
}
  0
BLOCK_RECORD
  5
23CA
330
23A4
100
AcDbSymbolTableRecord
100
AcDbBlockTableRecord
  2
A*C6B4F5082
340
0
102
{BLKREFS
331
20D0
331
21F8
331
22CD
102
}
  0
BLOCK_RECORD
  5
23CB
330
23A4
100
AcDbSymbolTableRecord
100
AcDbBlockTableRecord
  2
A*C404314E8
340
0
102
{BLKREFS
331
1DDF
331
1DE0
331
20DE
331
20E2
331
2115
331
2116
331
2117
331
2147
331
2178
331
2179
331
21A9
331
21F6
331
21FA
331
2250
331
2256
102
}
  0
ENDTAB
  0
ENDSEC
  0
SECTION
  2
BLOCKS
  0
BLOCK
  5
24A9
330
23BB
100
AcDbEntity
  8
0
100
AcDbBlockBegin
  2
*Model_Space
 70
     0
 10
0.0
 20
0.0
 30
0.0
  3
*Model_Space
  1

  4

  0
ENDBLK
  5
24AA
330
23BB
100
AcDbEntity
  8
0
100
AcDbBlockEnd
  0
BLOCK
  5
24A7
330
23B9
100
AcDbEntity
 67
     1
  8
0
100
AcDbBlockBegin
  2
*Paper_Space
 70
     0
 10
0.0
 20
0.0
 30
0.0
  3
*Paper_Space
  1

  4

  0
ENDBLK
  5
24A8
330
23B9
100
AcDbEntity
 67
     1
  8
0
100
AcDbBlockEnd
  0
BLOCK
  5
23EF
330
23BE
100
AcDbEntity
  8
0
100
AcDbBlockBegin
  2
REV
 70
     2
 10
5.421199442119944
 20
5.289661785216179
 30
0.0
  3
REV
  1

  4

  0
INSERT
  5
49
330
23BE
100
AcDbEntity
  8
0
100
AcDbBlockReference
  2
TRIANGLE
 10
5.450488145048814
 20
5.353120641562065
 30
0.0
 41
0.9
 42
0.9
 43
0.9
  0
ATTDEF
  5
4A
330
23BE
100
AcDbEntity
  8
0
100
AcDbText
 10
5.391039051603904
 20
5.245118549511855
 30
0.0
 40
0.09
  1
A
100
AcDbAttributeDefinition
  3
Enter revision letter
  2
REVISION
 70
     0
  0
ENDBLK
  5
23F0
330
23BE
100
AcDbEntity
  8
0
100
AcDbBlockEnd
  0
BLOCK
  5
23F1
330
23BF
100
AcDbEntity
  8
0
100
AcDbBlockBegin
  2
TRIANGLE
 70
     0
 10
5.45170850767085
 20
5.353120641562065
 30
0.0
  3
TRIANGLE
  1

  4

  0
LINE
  5
4E
330
23BF
100
AcDbEntity
  8
0
100
AcDbLine
 10
5.418627963737795
 20
5.413702928870293
 30
0.0
 11
5.324877963737795
 21
5.226202928870293
 31
0.0
  0
LINE
  5
4F
330
23BF
100
AcDbEntity
  8
0
100
AcDbLine
 10
5.418627963737795
 20
5.413702928870293
 30
0.0
 11
5.512377963737795
 21
5.226202928870293
 31
0.0
  0
LINE
  5
50
330
23BF
100
AcDbEntity
  8
0
100
AcDbLine
 10
5.324877963737795
 20
5.226202928870293
 30
0.0
 11
5.512377963737795
 21
5.226202928870293
 31
0.0
  0
ENDBLK
  5
23F2
330
23BF
100
AcDbEntity
  8
0
100
AcDbBlockEnd
  0
BLOCK
  5
23F4
330
23C0
100
AcDbEntity
  8
0
100
AcDbBlockBegin
  2
DIA281
 70
     0
 10
0.0
 20
0.0
 30
0.0
  3
DIA281
  1

  4

  0
LWPOLYLINE
  5
53
330
23C0
100
AcDbEntity
  8
OBJECT
100
AcDbPolyline
 90
        4
 70
     1
 43
0.0
 10
0.0
 20
0.1988737822087165
 10
-0.1988737822087165
 20
0.0
 10
0.0
 20
-0.1988737822087165
 10
0.1988737822087165
 20
0.0
  0
ENDBLK
  5
23F5
330
23C0
100
AcDbEntity
  8
0
100
AcDbBlockEnd
  0
BLOCK
  5
23F6
330
23C1
100
AcDbEntity
  8
0
100
AcDbBlockBegin
  2
ROBORDER
 70
     2
 10
0.0
 20
0.0
 30
0.0
  3
ROBORDER
  1

  4

  0
ATTDEF
  5
5B
330
23C1
100
AcDbEntity
  8
ATTRIBUTES
100
AcDbText
 10
9.018000000000003
 20
0.0961885494287746
 30
0.0
 40
0.1
  1

100
AcDbAttributeDefinition
  3
Enter model number.
  2
MODEL#
 70
     0
  0
ATTDEF
  5
5C
330
23C1
100
AcDbEntity
  8
ATTRIBUTES
100
AcDbText
 10
7.91957718193242
 20
0.3399264622917857
 30
0.0
 40
0.1
  1

100
AcDbAttributeDefinition
  3
Enter drawing scale.
  2
SCALE
 70
     0
  0
ATTDEF
  5
5D
330
23C1
100
AcDbEntity
  8
ATTRIBUTES
100
AcDbText
 10
6.087000000000002
 20
0.094830044279353
 30
0.0
 40
0.1
  1

100
AcDbAttributeDefinition
  3
Enter drawing number.
  2
DRAWING#
 70
     0
  0
ATTDEF
  5
5E
330
23C1
100
AcDbEntity
  8
ATTRIBUTES
100
AcDbText
 10
0.0686991294291747
 20
1.72905996321396
 30
0.0
 40
0.15
  1

 50
270.0
100
AcDbAttributeDefinition
  3
Enter corner model no.
  2
MODEL#
 70
     0
  0
ATTDEF
  5
5F
330
23C1
100
AcDbEntity
  8
ATTRIBUTES
100
AcDbText
 10
10.46849321555439
 20
0.0072334209423021
 30
0.0
 40
0.01
  1

100
AcDbAttributeDefinition
  3
Do not enter any value.
  2
DIE
 70
     0
  0
ATTDEF
  5
60
330
23C1
100
AcDbEntity
  8
ATTRIBUTES
100
AcDbText
 10
9.655234734916602
 20
0.3395819024234602
 30
0.0
 40
0.1
  1

100
AcDbAttributeDefinition
  3
Enter date.
  2
DATE
 70
     0
  0
TRACE
  5
61
330
23C1
100
AcDbEntity
  8
BORDER
100
AcDbTrace
 10
7.506000000000002
 20
0.2670000000000001
 30
0.0
 11
7.506000000000002
 21
0.2920000000000002
 31
0.0
 12
5.443000000000001
 22
0.2670000000000001
 32
0.0
 13
5.443000000000001
 23
0.2920000000000002
 33
0.0
  0
LINE
  5
62
330
23C1
100
AcDbEntity
  8
BORDER
100
AcDbLine
 10
9.236000000000002
 20
0.2750000000000002
 30
0.0
 11
9.236000000000006
 21
0.519
 31
0.0
  0
LINE
  5
63
330
23C1
100
AcDbEntity
  8
BORDER
100
AcDbLine
 10
8.136000000000001
 20
0.2750000000000002
 30
0.0
 11
8.136000000000001
 21
0.025
 31
0.0
  0
TRACE
  5
64
330
23C1
100
AcDbEntity
  8
BORDER
100
AcDbTrace
 10
0.0
 20
0.025
 30
0.0
 11
0.0
 21
0.0
 31
0.0
 12
10.475
 22
0.025
 32
0.0
 13
10.5
 23
0.0
 33
0.0
  0
TRACE
  5
65
330
23C1
100
AcDbEntity
  8
BORDER
100
AcDbTrace
 10
10.475
 20
0.025
 30
0.0
 11
10.5
 21
0.0
 31
0.0
 12
10.475
 22
7.75
 32
0.0
 13
10.5
 23
7.75
 33
0.0
  0
TRACE
  5
66
330
23C1
100
AcDbEntity
  8
BORDER
100
AcDbTrace
 10
10.475
 20
7.725
 30
0.0
 11
10.5
 21
7.75
 31
0.0
 12
0.025
 22
7.725
 32
0.0
 13
0.0
 23
7.75
 33
0.0
  0
TRACE
  5
67
330
23C1
100
AcDbEntity
  8
BORDER
100
AcDbTrace
 10
0.262
 20
0.024
 30
0.0
 11
0.287
 21
0.024
 31
0.0
 12
0.262
 22
3.012
 32
0.0
 13
0.287
 23
3.037
 33
0.0
  0
TRACE
  5
68
330
23C1
100
AcDbEntity
  8
BORDER
100
AcDbTrace
 10
0.262
 20
3.012
 30
0.0
 11
0.287
 21
3.037
 31
0.0
 12
0.024
 22
3.012
 32
0.0
 13
0.024
 23
3.037
 33
0.0
  0
TRACE
  5
69
330
23C1
100
AcDbEntity
  8
BORDER
100
AcDbTrace
 10
5.418000000000001
 20
0.0269999999999999
 30
0.0
 11
5.443000000000001
 21
0.0269999999999999
 31
0.0
 12
5.418000000000001
 22
1.285
 32
0.0
 13
5.443000000000001
 23
1.285
 33
0.0
  0
TEXT
  5
6A
330
23C1
100
AcDbEntity
  8
NOTE
100
AcDbText
 10
8.288871360691536
 20
0.5850000000000001
 30
0.0
 40
0.1
  1
MARIA PANN
100
AcDbText
  0
LINE
  5
6B
330
23C1
100
AcDbEntity
  8
BORDER
100
AcDbLine
 10
10.475
 20
1.769
 30
0.0
 11
7.486000000000005
 21
1.769
 31
0.0
  0
LINE
  5
6C
330
23C1
100
AcDbEntity
  8
BORDER
100
AcDbLine
 10
10.475
 20
0.7690000000000001
 30
0.0
 11
7.506000000000002
 21
0.7690000000000001
 31
0.0
  0
LINE
  5
6D
330
23C1
100
AcDbEntity
  8
BORDER
100
AcDbLine
 10
7.506000000000002
 20
0.519
 30
0.0
 11
10.475
 21
0.519
 31
0.0
  0
LINE
  5
6E
330
23C1
100
AcDbEntity
  8
BORDER
100
AcDbLine
 10
10.475
 20
0.269
 30
0.0
 11
7.475000000000002
 21
0.269
 31
0.0
  0
TRACE
  5
6F
330
23C1
100
AcDbEntity
  8
BORDER
100
AcDbTrace
 10
7.486000000000002
 20
0.0239999999999998
 30
0.0
 11
7.506000000000002
 21
0.0239999999999998
 31
0.0
 12
7.486000000000002
 22
1.285
 32
0.0
 13
7.506000000000002
 23
1.285
 33
0.0
  0
TRACE
  5
70
330
23C1
100
AcDbEntity
  8
BORDER
100
AcDbTrace
 10
7.493000000000001
 20
1.26
 30
0.0
 11
7.493000000000001
 21
1.285
 31
0.0
 12
5.443000000000001
 22
1.26
 32
0.0
 13
5.418000000000001
 23
1.285
 33
0.0
  0
TRACE
  5
71
330
23C1
100
AcDbEntity
  8
BORDER
100
AcDbTrace
 10
0.025
 20
7.75
 30
0.0
 11
0.0
 21
7.75
 31
0.0
 12
0.025
 22
0.0
 32
0.0
 13
0.0
 23
0.0
 33
0.0
  0
LINE
  5
72
330
23C1
100
AcDbEntity
  8
BORDER
100
AcDbLine
 10
7.486000000000005
 20
1.769
 30
0.0
 11
7.486000000000002
 21
1.285
 31
0.0
  0
TEXT
  5
73
330
23C1
100
AcDbEntity
  8
TITLE
100
AcDbText
 10
0.0875641833564045
 20
2.945155811706886
 30
0.0
 40
0.131
  1
%%UMODEL NO.:
 50
270.0
100
AcDbText
  0
TEXT
  5
74
330
23C1
100
AcDbEntity
  8
TITLE
100
AcDbText
 10
6.169000000000001
 20
1.129
 30
0.0
 40
0.07
  1
CONFIDENTIAL
 72
     1
 11
6.554000000000001
 21
1.129
 31
0.0
100
AcDbText
  0
TEXT
  5
75
330
23C1
100
AcDbEntity
  8
TITLE
100
AcDbText
 10
5.604000000000002
 20
0.9790000000000001
 30
0.0
 40
0.062
  1
THIS DRAWING IS THE EXCLUSIVE
100
AcDbText
  0
TEXT
  5
76
330
23C1
100
AcDbEntity
  8
TITLE
100
AcDbText
 10
5.604000000000002
 20
0.8250000000000002
 30
0.0
 40
0.062
  1
PROPERTY OF SIMPSON STRONG TIE
100
AcDbText
  0
TEXT
  5
77
330
23C1
100
AcDbEntity
  8
TITLE
100
AcDbText
 10
5.704000000000002
 20
0.6710000000000002
 30
0.0
 40
0.062
  1
COMPANY INC. AND MAY NOT BE
100
AcDbText
  0
TEXT
  5
78
330
23C1
100
AcDbEntity
  8
TITLE
100
AcDbText
 10
5.754000000000001
 20
0.5170000000000002
 30
0.0
 40
0.062
  1
REPRODUCED WITHOUT THEIR
100
AcDbText
  0
TEXT
  5
79
330
23C1
100
AcDbEntity
  8
TITLE
100
AcDbText
 10
5.754000000000001
 20
0.3630000000000001
 30
0.0
 40
0.062
  1
EXPRESS WRITTEN CONSENT!
100
AcDbText
  0
TEXT
  5
7A
330
23C1
100
AcDbEntity
  8
TITLE
100
AcDbText
 10
7.718494014531243
 20
1.091238038592483
 30
0.0
 40
0.1
  1
SIMPSON STRONG-TIE CO., INC.
  7
COMPLEX
100
AcDbText
  0
TEXT
  5
7C
330
23C1
100
AcDbEntity
  8
TITLE
100
AcDbText
 10
7.5893566548264
 20
1.375
 30
0.0
 40
0.062
  1
REV.
 72
     1
 11
7.692689988159733
 21
1.375
 31
0.0
100
AcDbText
  0
TEXT
  5
7D
330
23C1
100
AcDbEntity
  8
TITLE
100
AcDbText
 10
8.097181599627669
 20
1.375
 30
0.0
 40
0.062
  1
DATE
 72
     1
 11
8.210848266294336
 21
1.375
 31
0.0
100
AcDbText
  0
TEXT
  5
7E
330
23C1
100
AcDbEntity
  8
TITLE
100
AcDbText
 10
8.818832214896805
 20
1.375
 30
0.0
 40
0.062
  1
DESCRIPTION
 72
     1
 11
9.128832214896805
 21
1.375
 31
0.0
100
AcDbText
  0
TEXT
  5
7F
330
23C1
100
AcDbEntity
  8
TITLE
100
AcDbText
 10
9.790496644690414
 20
1.375
 30
0.0
 40
0.062
  1
APPR.
 72
     1
 11
9.914496644690415
 21
1.375
 31
0.0
100
AcDbText
  0
TEXT
  5
80
330
23C1
100
AcDbEntity
  8
TITLE
100
AcDbText
 10
8.192000000000002
 20
0.8407458176423773
 30
0.0
 40
0.1
  1
PRODUCTION DRAWING
100
AcDbText
  0
TEXT
  5
81
330
23C1
100
AcDbEntity
  8
TITLE
100
AcDbText
 10
7.542993123190581
 20
0.8996387107011834
 30
0.0
 40
0.062
  1
TITLE:
100
AcDbText
  0
TEXT
  5
82
330
23C1
100
AcDbEntity
  8
TITLE
100
AcDbText
 10
7.542993123190581
 20
0.6536555505036714
 30
0.0
 40
0.062
  1
DRAWN BY:
100
AcDbText
  0
TEXT
  5
83
330
23C1
100
AcDbEntity
  8
TITLE
100
AcDbText
 10
7.542993123190581
 20
0.402983270569509
 30
0.0
 40
0.062
  1
SCALE:
100
AcDbText
  0
TEXT
  5
84
330
23C1
100
AcDbEntity
  8
TITLE
100
AcDbText
 10
7.543832214896805
 20
0.1570902671387058
 30
0.0
 40
0.062
  1
REV.
100
AcDbText
  0
TEXT
  5
85
330
23C1
100
AcDbEntity
  8
TITLE
100
AcDbText
 10
8.192993123190579
 20
0.1572373425551345
 30
0.0
 40
0.062
  1
%%UMODEL NO.:
100
AcDbText
  0
TEXT
  5
86
330
23C1
100
AcDbEntity
  8
TITLE
100
AcDbText
 10
5.490751377786803
 20
0.1546755362864969
 30
0.0
 40
0.062
  1
DWG. NO.:
100
AcDbText
  0
TEXT
  5
87
330
23C1
100
AcDbEntity
  8
TITLE
100
AcDbText
 10
9.28871405686002
 20
0.4036554401316745
 30
0.0
 40
0.062
  1
DATE:
100
AcDbText
  0
TRACE
  5
88
330
23C1
100
AcDbEntity
  8
TITLE
100
AcDbTrace
 10
10.486
 20
1.265
 30
0.0
 11
10.486
 21
1.285
 31
0.0
 12
7.486000000000002
 22
1.265
 32
0.0
 13
7.486000000000002
 23
1.285
 33
0.0
  0
TRACE
  5
89
330
23C1
100
AcDbEntity
  8
TITLE
100
AcDbTrace
 10
7.489000000000003
 20
1.041
 30
0.0
 11
7.489000000000003
 21
1.016
 31
0.0
 12
10.498
 22
1.041
 32
0.0
 13
10.498
 23
1.016
 33
0.0
  0
LINE
  5
8A
330
23C1
100
AcDbEntity
  8
TITLE
100
AcDbLine
 10
7.886000000000003
 20
1.775
 30
0.0
 11
7.886000000000003
 21
1.275
 31
0.0
  0
LINE
  5
8B
330
23C1
100
AcDbEntity
  8
TITLE
100
AcDbLine
 10
8.536000000000003
 20
1.775
 30
0.0
 11
8.536000000000003
 21
1.275
 31
0.0
  0
LINE
  5
8C
330
23C1
100
AcDbEntity
  8
TITLE
100
AcDbLine
 10
9.736000000000002
 20
1.775
 30
0.0
 11
9.736000000000002
 21
1.275
 31
0.0
  0
LINE
  5
8D
330
23C1
100
AcDbEntity
  8
TITLE
100
AcDbLine
 10
10.486
 20
1.525
 30
0.0
 11
7.486000000000003
 21
1.525
 31
0.0
  0
LINE
  5
8E
330
23C1
100
AcDbEntity
  8
TITLE
100
AcDbLine
 10
8.480000000000002
 20
0.519
 30
0.0
 11
8.480000000000002
 21
0.269
 31
0.0
  0
TEXT
  5
8F
330
23C1
100
AcDbEntity
  8
TITLE
100
AcDbText
 10
8.534087247861192
 20
0.4026690325377278
 30
0.0
 40
0.062
  1
CHK.
100
AcDbText
  0
LINE
  5
90
330
23C1
100
AcDbEntity
  8
TITLE
100
AcDbLine
 10
10.093
 20
1.769
 30
0.0
 11
10.093
 21
1.281
 31
0.0
  0
TEXT
  5
91
330
23C1
100
AcDbEntity
  8
TITLE
100
AcDbText
 10
10.22492393650411
 20
1.351
 30
0.0
 40
0.062
  1
 BY
 72
     1
 11
10.33859060317078
 21
1.351
 31
0.0
100
AcDbText
  0
ENDBLK
  5
23F7
330
23C1
100
AcDbEntity
  8
0
100
AcDbBlockEnd
  0
BLOCK
  5
23F8
330
23C2
100
AcDbEntity
  8
0
100
AcDbBlockBegin
  2
UPBORDER
 70
     2
 10
0.0
 20
0.0
 30
0.0
  3
UPBORDER
  1

  4

  0
ATTDEF
  5
94
330
23C2
100
AcDbEntity
  8
ATTRIBUTES
100
AcDbText
 10
5.457999999999999
 20
0.333
 30
0.0
 40
0.1
  1

100
AcDbAttributeDefinition
  3
Enter drawing scale
  2
SCALE
 70
     0
  0
ATTDEF
  5
95
330
23C2
100
AcDbEntity
  8
ATTRIBUTES
100
AcDbText
 10
7.247999999999999
 20
0.333
 30
0.0
 40
0.1
  1

100
AcDbAttributeDefinition
  3
Enter date
  2
DATE
 70
     0
  0
ATTDEF
  5
96
330
23C2
100
AcDbEntity
  8
ATTRIBUTES
100
AcDbText
 10
6.513999999999999
 20
0.084
 30
0.0
 40
0.1
  1

100
AcDbAttributeDefinition
  3
Enter model number
  2
MODEL#
 70
     0
  0
ATTDEF
  5
97
330
23C2
100
AcDbEntity
  8
ATTRIBUTES
100
AcDbText
 10
3.562
 20
0.071
 30
0.0
 40
0.1
  1

100
AcDbAttributeDefinition
  3
Enter drawing number
  2
DRAWING#
 70
     0
  0
ATTDEF
  5
98
330
23C2
100
AcDbEntity
  8
ATTRIBUTES
100
AcDbText
 10
7.215
 20
0.583
 30
0.0
 40
0.1
  1

100
AcDbAttributeDefinition
  3
Enter die number
  2
DIE
 70
     0
  0
LINE
  5
99
330
23C2
100
AcDbEntity
  8
TITLE
100
AcDbLine
 10
5.978
 20
0.516
 30
0.0
 11
5.978
 21
0.266
 31
0.0
  0
TEXT
  5
9A
330
23C2
100
AcDbEntity
  8
TITLE
100
AcDbText
 10
6.007000000000001
 20
0.424
 30
0.0
 40
0.062
  1
CHK.
100
AcDbText
  0
TEXT
  5
9B
330
23C2
100
AcDbEntity
  8
TITLE
100
AcDbText
 10
7.677333333333333
 20
1.367
 30
0.0
 40
0.062
  1
 BY
 72
     1
 11
7.791
 21
1.367
 31
0.0
100
AcDbText
  0
LINE
  5
9C
330
23C2
100
AcDbEntity
  8
TITLE
100
AcDbLine
 10
7.592000000000001
 20
1.767
 30
0.0
 11
7.592000000000001
 21
1.267
 31
0.0
  0
LINE
  5
9D
330
23C2
100
AcDbEntity
  8
TITLE
100
AcDbLine
 10
7.978
 20
1.517
 30
0.0
 11
4.978
 21
1.517
 31
0.0
  0
LINE
  5
9E
330
23C2
100
AcDbEntity
  8
TITLE
100
AcDbLine
 10
7.228
 20
1.767
 30
0.0
 11
7.228
 21
1.267
 31
0.0
  0
LINE
  5
9F
330
23C2
100
AcDbEntity
  8
TITLE
100
AcDbLine
 10
6.028
 20
1.767
 30
0.0
 11
6.028
 21
1.267
 31
0.0
  0
LINE
  5
A0
330
23C2
100
AcDbEntity
  8
TITLE
100
AcDbLine
 10
5.377999999999999
 20
1.767
 30
0.0
 11
5.377999999999999
 21
1.267
 31
0.0
  0
TEXT
  5
A1
330
23C2
100
AcDbEntity
  8
TITLE
100
AcDbText
 10
5.074666666666666
 20
1.367
 30
0.0
 40
0.062
  1
REV.
 72
     1
 11
5.178
 21
1.367
 31
0.0
100
AcDbText
  0
TEXT
  5
A2
330
23C2
100
AcDbEntity
  8
TITLE
100
AcDbText
 10
5.564333333333333
 20
1.367
 30
0.0
 40
0.062
  1
DATE
 72
     1
 11
5.678
 21
1.367
 31
0.0
100
AcDbText
  0
TEXT
  5
A3
330
23C2
100
AcDbEntity
  8
TITLE
100
AcDbText
 10
6.318
 20
1.367
 30
0.0
 40
0.062
  1
DESCRIPTION
 72
     1
 11
6.627999999999999
 21
1.367
 31
0.0
100
AcDbText
  0
TEXT
  5
A4
330
23C2
100
AcDbEntity
  8
TITLE
100
AcDbText
 10
7.304
 20
1.367
 30
0.0
 40
0.062
  1
APPR.
 72
     1
 11
7.428
 21
1.367
 31
0.0
100
AcDbText
  0
TRACE
  5
A5
330
23C2
100
AcDbEntity
  8
TITLE
100
AcDbTrace
 10
4.979
 20
1.038
 30
0.0
 11
4.979
 21
1.013
 31
0.0
 12
7.988
 22
1.038
 32
0.0
 13
7.988
 23
1.013
 33
0.0
  0
TRACE
  5
A6
330
23C2
100
AcDbEntity
  8
BORDER
100
AcDbTrace
 10
4.975
 20
0.26
 30
0.0
 11
4.975
 21
0.285
 31
0.0
 12
2.913
 22
0.26
 32
0.0
 13
2.913
 23
0.285
 33
0.0
  0
TEXT
  5
A7
330
23C2
100
AcDbEntity
  8
TITLE
100
AcDbText
 10
3.013
 20
0.075
 30
0.0
 40
0.062
  1
DWG. NO.
100
AcDbText
  0
TEXT
  5
A8
330
23C2
100
AcDbEntity
  8
TITLE
100
AcDbText
 10
5.682
 20
0.8270000000000001
 30
0.0
 40
0.1
  1
PRODUCTION DRAWING
100
AcDbText
  0
TEXT
  5
A9
330
23C2
100
AcDbEntity
  8
TITLE
100
AcDbText
 10
5.075
 20
0.825
 30
0.0
 40
0.062
  1
TITLE:
100
AcDbText
  0
TRACE
  5
AA
330
23C2
100
AcDbEntity
  8
TITLE
100
AcDbTrace
 10
7.975
 20
1.262
 30
0.0
 11
7.975
 21
1.282
 31
0.0
 12
4.975
 22
1.262
 32
0.0
 13
4.975
 23
1.282
 33
0.0
  0
LINE
  5
AB
330
23C2
100
AcDbEntity
  8
BORDER
100
AcDbLine
 10
6.725
 20
0.272
 30
0.0
 11
6.725
 21
0.7659999999999999
 31
0.0
  0
LINE
  5
AC
330
23C2
100
AcDbEntity
  8
BORDER
100
AcDbLine
 10
5.625
 20
0.272
 30
0.0
 11
5.625
 21
0.022
 31
0.0
  0
TEXT
  5
AD
330
23C2
100
AcDbEntity
  8
TITLE
100
AcDbText
 10
3.640000000000001
 20
1.122
 30
0.0
 40
0.07
  1
CONFIDENTIAL
 72
     1
 11
4.025
 21
1.122
 31
0.0
100
AcDbText
  0
TEXT
  5
AE
330
23C2
100
AcDbEntity
  8
TITLE
100
AcDbText
 10
3.075
 20
0.972
 30
0.0
 40
0.062
  1
THIS DRAWING IS THE EXCLUSIVE
100
AcDbText
  0
TEXT
  5
AF
330
23C2
100
AcDbEntity
  8
TITLE
100
AcDbText
 10
3.075
 20
0.818
 30
0.0
 40
0.062
  1
PROPERTY OF SIMPSON STRONG TIE
100
AcDbText
  0
TEXT
  5
B0
330
23C2
100
AcDbEntity
  8
TITLE
100
AcDbText
 10
3.175
 20
0.664
 30
0.0
 40
0.062
  1
COMPANY INC. AND MAY NOT BE
100
AcDbText
  0
TEXT
  5
B1
330
23C2
100
AcDbEntity
  8
TITLE
100
AcDbText
 10
3.225
 20
0.51
 30
0.0
 40
0.062
  1
REPRODUCED WITHOUT THEIR
100
AcDbText
  0
TEXT
  5
B2
330
23C2
100
AcDbEntity
  8
TITLE
100
AcDbText
 10
3.225
 20
0.355
 30
0.0
 40
0.062
  1
EXPRESS WRITTEN CONSENT!
100
AcDbText
  0
TEXT
  5
B3
330
23C2
100
AcDbEntity
  8
TITLE
100
AcDbText
 10
5.075
 20
0.622
 30
0.0
 40
0.062
  1
DR. BY
100
AcDbText
  0
TEXT
  5
B4
330
23C2
100
AcDbEntity
  8
TITLE
100
AcDbText
 10
6.814
 20
0.604
 30
0.0
 40
0.062
  1
DIE NO.
100
AcDbText
  0
TEXT
  5
B5
330
23C2
100
AcDbEntity
  8
TITLE
100
AcDbText
 10
6.811
 20
0.354
 30
0.0
 40
0.062
  1
DATE
100
AcDbText
  0
TEXT
  5
B6
330
23C2
100
AcDbEntity
  8
TITLE
100
AcDbText
 10
5.021
 20
0.172
 30
0.0
 40
0.062
  1
REV.
100
AcDbText
  0
TEXT
  5
B7
330
23C2
100
AcDbEntity
  8
TITLE
100
AcDbText
 10
5.702999999999999
 20
0.104
 30
0.0
 40
0.062
  1
%%UMODEL NO:
100
AcDbText
  0
TEXT
  5
B8
330
23C2
100
AcDbEntity
  8
TITLE
100
AcDbText
 10
5.175
 20
1.072
 30
0.0
 40
0.1
  1
SIMPSON STRONG-TIE CO., INC.
  7
COMPLEX
100
AcDbText
  0
TEXT
  5
B9
330
23C2
100
AcDbEntity
  8
TITLE
100
AcDbText
 10
5.075
 20
0.357
 30
0.0
 40
0.062
  1
SCALE:
100
AcDbText
  0
TRACE
  5
BA
330
23C2
100
AcDbEntity
  8
BORDER
100
AcDbTrace
 10
0.275
 20
10.475
 30
0.0
 11
0.25
 21
10.5
 31
0.0
 12
0.275
 22
0.0
 32
0.0
 13
0.25
 23
0.0
 33
0.0
  0
TRACE
  5
BB
330
23C2
100
AcDbEntity
  8
BORDER
100
AcDbTrace
 10
7.975
 20
10.475
 30
0.0
 11
8.0
 21
10.5
 31
0.0
 12
0.25
 22
10.475
 32
0.0
 13
0.25
 23
10.5
 33
0.0
  0
TRACE
  5
BC
330
23C2
100
AcDbEntity
  8
BORDER
100
AcDbTrace
 10
7.975
 20
0.025
 30
0.0
 11
8.0
 21
0.0
 31
0.0
 12
7.975
 22
10.475
 32
0.0
 13
8.0
 23
10.5
 33
0.0
  0
TRACE
  5
BD
330
23C2
100
AcDbEntity
  8
BORDER
100
AcDbTrace
 10
4.971
 20
1.254
 30
0.0
 11
4.971
 21
1.279
 31
0.0
 12
2.921
 22
1.254
 32
0.0
 13
2.896
 23
1.279
 33
0.0
  0
TRACE
  5
BE
330
23C2
100
AcDbEntity
  8
BORDER
100
AcDbTrace
 10
4.961
 20
0.016
 30
0.0
 11
4.981
 21
0.016
 31
0.0
 12
4.961
 22
1.279
 32
0.0
 13
4.981
 23
1.279
 33
0.0
  0
LINE
  5
BF
330
23C2
100
AcDbEntity
  8
BORDER
100
AcDbLine
 10
7.971
 20
0.266
 30
0.0
 11
4.971
 21
0.266
 31
0.0
  0
LINE
  5
C0
330
23C2
100
AcDbEntity
  8
BORDER
100
AcDbLine
 10
4.971
 20
0.516
 30
0.0
 11
7.971
 21
0.516
 31
0.0
  0
LINE
  5
C1
330
23C2
100
AcDbEntity
  8
BORDER
100
AcDbLine
 10
7.971
 20
0.7659999999999999
 30
0.0
 11
4.971
 21
0.7659999999999999
 31
0.0
  0
LINE
  5
C2
330
23C2
100
AcDbEntity
  8
BORDER
100
AcDbLine
 10
7.971
 20
1.766
 30
0.0
 11
4.971
 21
1.766
 31
0.0
  0
TEXT
  5
C3
330
23C2
100
AcDbEntity
  8
NOTE
100
AcDbText
 10
5.685
 20
0.583
 30
0.0
 40
0.1
  1
G. MOLINA
100
AcDbText
  0
TRACE
  5
C4
330
23C2
100
AcDbEntity
  8
BORDER
100
AcDbTrace
 10
2.896
 20
0.021
 30
0.0
 11
2.921
 21
0.021
 31
0.0
 12
2.896
 22
1.279
 32
0.0
 13
2.921
 23
1.279
 33
0.0
  0
LINE
  5
C5
330
23C2
100
AcDbEntity
  8
BORDER
100
AcDbLine
 10
4.971
 20
1.766
 30
0.0
 11
4.971
 21
1.27
 31
0.0
  0
TRACE
  5
C6
330
23C2
100
AcDbEntity
  8
BORDER
100
AcDbTrace
 10
0.25
 20
0.025
 30
0.0
 11
0.25
 21
0.0
 31
0.0
 12
7.975
 22
0.025
 32
0.0
 13
8.0
 23
0.0
 33
0.0
  0
ENDBLK
  5
23F9
330
23C2
100
AcDbEntity
  8
0
100
AcDbBlockEnd
  0
BLOCK
  5
23FA
330
23C3
100
AcDbEntity
  8
0
100
AcDbBlockBegin
  2
03A1T152
 70
     2
 10
0.0
 20
0.0
 30
0.0
  3
03A1T152
  1

  4

  0
CIRCLE
  5
C9
330
23C3
100
AcDbEntity
  8
0
100
AcDbCircle
 10
0.3817960423419891
 20
-0.0274036331059051
 30
0.0
 40
0.046875
  0
TEXT
  5
CA
330
23C3
100
AcDbEntity
  8
0
100
AcDbText
 10
0.3607127621657185
 20
-0.0648961941056996
 30
0.0
 40
0.075
  1
R
  7
HELVETICA
100
AcDbText
  0
ATTDEF
  5
CC
330
23C3
100
AcDbEntity
  8
ATTRIBUTE
100
AcDbText
 10
-0.0203028886996606
 20
-0.3858199586549631
 30
0.0
 40
0.09
  1

  7
HELVETICA
 72
     1
 11
-0.0203028886996606
 21
-0.3858199586549631
 31
0.0
100
AcDbAttributeDefinition
  3
Enter pat.# or ICBO #
  2
APPROVAL
 70
     0
  0
ATTDEF
  5
CD
330
23C3
100
AcDbEntity
  8
ATTRIBUTE
100
AcDbText
 10
-0.0101514443498445
 20
-0.2487103865709059
 30
0.0
 40
0.09
  1

  7
HELVETICA
 72
     1
 11
-0.0101514443498445
 21
-0.2487103865709059
 31
0.0
100
AcDbAttributeDefinition
  3
Enter model number
  2
MODEL
 70
     0
  0
TEXT
  5
CE
330
23C3
100
AcDbEntity
  8
0
100
AcDbText
 10
-0.4328272362997438
 20
-0.1019871183447663
 30
0.0
 40
0.08999991
  1
Strong-Tie
  7
HELVETICA
100
AcDbText
  0
TEXT
  5
CF
330
23C3
100
AcDbEntity
  8
0
100
AcDbText
 10
-0.4328272362997438
 20
0.0480127316552625
 30
0.0
 40
0.08999991
  1
 SIMPSON
  7
HELVETICA
100
AcDbText
  0
ENDBLK
  5
23FB
330
23C3
100
AcDbEntity
  8
0
100
AcDbBlockEnd
  0
BLOCK
  5
23FC
330
23C4
100
AcDbEntity
  8
0
100
AcDbBlockBegin
  2
BLRBORDR
 70
     2
 10
0.0
 20
0.0
 30
0.0
  3
BLRBORDR
  1

  4

  0
ATTDEF
  5
D2
330
23C4
100
AcDbEntity
  8
ATTRIBUTES
100
AcDbText
 10
9.013999999999999
 20
0.102
 30
0.0
 40
0.1
  1

100
AcDbAttributeDefinition
  3
Enter model number
  2
MODEL#
 70
     0
  0
ATTDEF
  5
D3
330
23C4
100
AcDbEntity
  8
ATTRIBUTES
100
AcDbText
 10
7.955
 20
0.381
 30
0.0
 40
0.1
  1

100
AcDbAttributeDefinition
  3
Enter drawing scale
  2
SCALE
 70
     0
  0
ATTDEF
  5
D4
330
23C4
100
AcDbEntity
  8
ATTRIBUTES
100
AcDbText
 10
6.062
 20
0.089
 30
0.0
 40
0.1
  1

100
AcDbAttributeDefinition
  3
Enter drawing number
  2
DRAWING#
 70
     0
  0
ATTDEF
  5
D5
330
23C4
100
AcDbEntity
  8
ATTRIBUTES
100
AcDbText
 10
0.072
 20
1.574
 30
0.0
 40
0.15
  1

 50
270.0
100
AcDbAttributeDefinition
  3
Enter corner model no.
  2
MODEL#
 70
     0
  0
ATTDEF
  5
D6
330
23C4
100
AcDbEntity
  8
ATTRIBUTES
100
AcDbText
 10
9.734999999999999
 20
0.601
 30
0.0
 40
0.1
  1

100
AcDbAttributeDefinition
  3
Enter die number
  2
DIE
 70
     0
  0
ATTDEF
  5
D7
330
23C4
100
AcDbEntity
  8
ATTRIBUTES
100
AcDbText
 10
9.747999999999999
 20
0.352
 30
0.0
 40
0.1
  1

100
AcDbAttributeDefinition
  3
Enter date
  2
DATE
 70
     0
  0
TRACE
  5
D8
330
23C4
100
AcDbEntity
  8
TITLE
100
AcDbTrace
 10
7.482
 20
0.279
 30
0.0
 11
7.482
 21
0.304
 31
0.0
 12
5.419
 22
0.279
 32
0.0
 13
5.419
 23
0.304
 33
0.0
  0
LINE
  5
D9
330
23C4
100
AcDbEntity
  8
TITLE
100
AcDbLine
 10
9.232000000000001
 20
0.291
 30
0.0
 11
9.232000000000001
 21
0.7909999999999999
 31
0.0
  0
LINE
  5
DA
330
23C4
100
AcDbEntity
  8
TITLE
100
AcDbLine
 10
8.132
 20
0.291
 30
0.0
 11
8.132
 21
0.041
 31
0.0
  0
TRACE
  5
DB
330
23C4
100
AcDbEntity
  8
TITLE
100
AcDbTrace
 10
0.0
 20
0.025
 30
0.0
 11
0.0
 21
0.0
 31
0.0
 12
10.475
 22
0.025
 32
0.0
 13
10.5
 23
0.0
 33
0.0
  0
TRACE
  5
DC
330
23C4
100
AcDbEntity
  8
TITLE
100
AcDbTrace
 10
10.475
 20
0.025
 30
0.0
 11
10.5
 21
0.0
 31
0.0
 12
10.475
 22
7.75
 32
0.0
 13
10.5
 23
7.75
 33
0.0
  0
TRACE
  5
DD
330
23C4
100
AcDbEntity
  8
TITLE
100
AcDbTrace
 10
10.475
 20
7.725
 30
0.0
 11
10.5
 21
7.75
 31
0.0
 12
0.025
 22
7.725
 32
0.0
 13
0.0
 23
7.75
 33
0.0
  0
TRACE
  5
DE
330
23C4
100
AcDbEntity
  8
TITLE
100
AcDbTrace
 10
0.262
 20
0.024
 30
0.0
 11
0.287
 21
0.024
 31
0.0
 12
0.262
 22
3.012
 32
0.0
 13
0.287
 23
3.037
 33
0.0
  0
TRACE
  5
DF
330
23C4
100
AcDbEntity
  8
TITLE
100
AcDbTrace
 10
0.262
 20
3.012
 30
0.0
 11
0.287
 21
3.037
 31
0.0
 12
0.024
 22
3.012
 32
0.0
 13
0.024
 23
3.037
 33
0.0
  0
TRACE
  5
E0
330
23C4
100
AcDbEntity
  8
TITLE
100
AcDbTrace
 10
5.396
 20
0.039
 30
0.0
 11
5.421
 21
0.039
 31
0.0
 12
5.396
 22
1.297
 32
0.0
 13
5.421
 23
1.297
 33
0.0
  0
TEXT
  5
E1
330
23C4
100
AcDbEntity
  8
NOTE
100
AcDbText
 10
8.185000000000001
 20
0.601
 30
0.0
 40
0.1
  1

100
AcDbText
  0
LINE
  5
E2
330
23C4
100
AcDbEntity
  8
TITLE
100
AcDbLine
 10
10.471
 20
1.785
 30
0.0
 11
7.471
 21
1.785
 31
0.0
  0
LINE
  5
E3
330
23C4
100
AcDbEntity
  8
TITLE
100
AcDbLine
 10
10.471
 20
0.785
 30
0.0
 11
7.471
 21
0.785
 31
0.0
  0
LINE
  5
E4
330
23C4
100
AcDbEntity
  8
TITLE
100
AcDbLine
 10
7.471
 20
0.535
 30
0.0
 11
10.471
 21
0.535
 31
0.0
  0
LINE
  5
E5
330
23C4
100
AcDbEntity
  8
TITLE
100
AcDbLine
 10
10.471
 20
0.285
 30
0.0
 11
7.471
 21
0.285
 31
0.0
  0
TRACE
  5
E6
330
23C4
100
AcDbEntity
  8
TITLE
100
AcDbTrace
 10
7.461
 20
0.035
 30
0.0
 11
7.481
 21
0.035
 31
0.0
 12
7.461
 22
1.296
 32
0.0
 13
7.481
 23
1.296
 33
0.0
  0
TRACE
  5
E7
330
23C4
100
AcDbEntity
  8
TITLE
100
AcDbTrace
 10
7.471
 20
1.272
 30
0.0
 11
7.471
 21
1.297
 31
0.0
 12
5.421
 22
1.272
 32
0.0
 13
5.396
 23
1.297
 33
0.0
  0
TRACE
  5
E8
330
23C4
100
AcDbEntity
  8
TITLE
100
AcDbTrace
 10
0.025
 20
7.75
 30
0.0
 11
0.0
 21
7.75
 31
0.0
 12
0.025
 22
0.0
 32
0.0
 13
0.0
 23
0.0
 33
0.0
  0
LINE
  5
E9
330
23C4
100
AcDbEntity
  8
TITLE
100
AcDbLine
 10
7.471
 20
1.785
 30
0.0
 11
7.471
 21
1.293
 31
0.0
  0
TEXT
  5
EA
330
23C4
100
AcDbEntity
  8
TITLE
100
AcDbText
 10
0.096
 20
2.903
 30
0.0
 40
0.131
  1
MODEL NO.
 50
270.0
100
AcDbText
  0
LINE
  5
EB
330
23C4
100
AcDbEntity
  8
TITLE
100
AcDbLine
 10
0.072
 20
2.939
 30
0.0
 11
0.072
 21
1.828
 31
0.0
  0
TEXT
  5
EC
330
23C4
100
AcDbEntity
  8
TITLE
100
AcDbText
 10
6.147
 20
1.141
 30
0.0
 40
0.07
  1
CONFIDENTIAL
 72
     1
 11
6.532
 21
1.141
 31
0.0
100
AcDbText
  0
TEXT
  5
ED
330
23C4
100
AcDbEntity
  8
TITLE
100
AcDbText
 10
5.582000000000001
 20
0.991
 30
0.0
 40
0.062
  1
THIS DRAWING IS THE EXCLUSIVE
100
AcDbText
  0
TEXT
  5
EE
330
23C4
100
AcDbEntity
  8
TITLE
100
AcDbText
 10
5.582000000000001
 20
0.8370000000000001
 30
0.0
 40
0.062
  1
PROPERTY OF SIMPSON STRONG TIE
100
AcDbText
  0
TEXT
  5
EF
330
23C4
100
AcDbEntity
  8
TITLE
100
AcDbText
 10
5.682
 20
0.6829999999999999
 30
0.0
 40
0.062
  1
COMPANY INC. AND MAY NOT BE
100
AcDbText
  0
TEXT
  5
F0
330
23C4
100
AcDbEntity
  8
TITLE
100
AcDbText
 10
5.732
 20
0.529
 30
0.0
 40
0.062
  1
REPRODUCED WITHOUT THEIR
100
AcDbText
  0
TEXT
  5
F1
330
23C4
100
AcDbEntity
  8
TITLE
100
AcDbText
 10
5.732
 20
0.375
 30
0.0
 40
0.062
  1
EXPRESS WRITTEN CONSENT!
100
AcDbText
  0
TEXT
  5
F2
330
23C4
100
AcDbEntity
  8
TITLE
100
AcDbText
 10
7.682
 20
1.091
 30
0.0
 40
0.1
  1
SIMPSON STRONG-TIE CO., INC.
  7
COMPLEX
100
AcDbText
  0
TEXT
  5
F3
330
23C4
100
AcDbEntity
  8
TITLE
100
AcDbText
 10
7.578666666666667
 20
1.391
 30
0.0
 40
0.062
  1
REV.
 72
     1
 11
7.682
 21
1.391
 31
0.0
100
AcDbText
  0
TEXT
  5
F4
330
23C4
100
AcDbEntity
  8
TITLE
100
AcDbText
 10
8.068333333333333
 20
1.391
 30
0.0
 40
0.062
  1
DATE
 72
     1
 11
8.182
 21
1.391
 31
0.0
100
AcDbText
  0
TEXT
  5
F5
330
23C4
100
AcDbEntity
  8
TITLE
100
AcDbText
 10
8.821999999999999
 20
1.391
 30
0.0
 40
0.062
  1
DESCRIPTION
 72
     1
 11
9.132
 21
1.391
 31
0.0
100
AcDbText
  0
TEXT
  5
F6
330
23C4
100
AcDbEntity
  8
TITLE
100
AcDbText
 10
9.808
 20
1.391
 30
0.0
 40
0.062
  1
APPR.
 72
     1
 11
9.932
 21
1.391
 31
0.0
100
AcDbText
  0
TEXT
  5
F7
330
23C4
100
AcDbEntity
  8
TITLE
100
AcDbText
 10
8.187999999999999
 20
0.846
 30
0.0
 40
0.1
  1
PRODUCTION DRAWING
100
AcDbText
  0
TEXT
  5
F8
330
23C4
100
AcDbEntity
  8
TITLE
100
AcDbText
 10
7.582000000000001
 20
0.8440000000000001
 30
0.0
 40
0.062
  1
TITLE:
100
AcDbText
  0
TEXT
  5
F9
330
23C4
100
AcDbEntity
  8
TITLE
100
AcDbText
 10
7.582000000000001
 20
0.6409999999999999
 30
0.0
 40
0.062
  1
DR. BY
100
AcDbText
  0
TEXT
  5
FA
330
23C4
100
AcDbEntity
  8
TITLE
100
AcDbText
 10
7.582000000000001
 20
0.376
 30
0.0
 40
0.062
  1
SCALE:
100
AcDbText
  0
TEXT
  5
FB
330
23C4
100
AcDbEntity
  8
TITLE
100
AcDbText
 10
7.547000000000001
 20
0.191
 30
0.0
 40
0.062
  1
REV.
100
AcDbText
  0
TEXT
  5
FC
330
23C4
100
AcDbEntity
  8
TITLE
100
AcDbText
 10
8.232000000000001
 20
0.141
 30
0.0
 40
0.062
  1
%%UMODEL NO:
100
AcDbText
  0
TEXT
  5
FD
330
23C4
100
AcDbEntity
  8
TITLE
100
AcDbText
 10
5.449
 20
0.142
 30
0.0
 40
0.062
  1
DWG. NO.
100
AcDbText
  0
TEXT
  5
FE
330
23C4
100
AcDbEntity
  8
TITLE
100
AcDbText
 10
9.332000000000001
 20
0.391
 30
0.0
 40
0.062
  1
DATE
100
AcDbText
  0
TEXT
  5
FF
330
23C4
100
AcDbEntity
  8
TITLE
100
AcDbText
 10
9.332000000000001
 20
0.631
 30
0.0
 40
0.062
  1
DIE NO.
100
AcDbText
  0
TRACE
  5
100
330
23C4
100
AcDbEntity
  8
TITLE
100
AcDbTrace
 10
10.482
 20
1.281
 30
0.0
 11
10.482
 21
1.301
 31
0.0
 12
7.482
 22
1.281
 32
0.0
 13
7.482
 23
1.301
 33
0.0
  0
TRACE
  5
101
330
23C4
100
AcDbEntity
  8
TITLE
100
AcDbTrace
 10
7.485
 20
1.057
 30
0.0
 11
7.485
 21
1.032
 31
0.0
 12
10.494
 22
1.057
 32
0.0
 13
10.494
 23
1.032
 33
0.0
  0
LINE
  5
102
330
23C4
100
AcDbEntity
  8
TITLE
100
AcDbLine
 10
7.882000000000001
 20
1.791
 30
0.0
 11
7.882000000000001
 21
1.291
 31
0.0
  0
LINE
  5
103
330
23C4
100
AcDbEntity
  8
TITLE
100
AcDbLine
 10
8.532
 20
1.791
 30
0.0
 11
8.532
 21
1.291
 31
0.0
  0
LINE
  5
104
330
23C4
100
AcDbEntity
  8
TITLE
100
AcDbLine
 10
9.732000000000001
 20
1.791
 30
0.0
 11
9.732000000000001
 21
1.291
 31
0.0
  0
LINE
  5
105
330
23C4
100
AcDbEntity
  8
TITLE
100
AcDbLine
 10
10.482
 20
1.541
 30
0.0
 11
7.482
 21
1.541
 31
0.0
  0
LINE
  5
106
330
23C4
100
AcDbEntity
  8
TITLE
100
AcDbLine
 10
8.476000000000001
 20
0.516
 30
0.0
 11
8.476000000000001
 21
0.266
 31
0.0
  0
TEXT
  5
107
330
23C4
100
AcDbEntity
  8
TITLE
100
AcDbText
 10
8.505000000000001
 20
0.424
 30
0.0
 40
0.062
  1
CHK.
100
AcDbText
  0
LINE
  5
108
330
23C4
100
AcDbEntity
  8
TITLE
100
AcDbLine
 10
10.089
 20
1.777
 30
0.0
 11
10.089
 21
1.297
 31
0.0
  0
TEXT
  5
109
330
23C4
100
AcDbEntity
  8
TITLE
100
AcDbText
 10
10.17433333333333
 20
1.367
 30
0.0
 40
0.062
  1
 BY
 72
     1
 11
10.288
 21
1.367
 31
0.0
100
AcDbText
  0
ATTDEF
  5
10A
330
23C4
100
AcDbEntity
  8
ATTRIBUTES
100
AcDbText
 10
7.991000000000001
 20
0.603
 30
0.0
 40
0.09
  1

100
AcDbAttributeDefinition
  3
Enter Drafter's Name
  2
DRAFTER
 70
     0
  0
ENDBLK
  5
23FD
330
23C4
100
AcDbEntity
  8
0
100
AcDbBlockEnd
  0
BLOCK
  5
23FE
330
23C5
100
AcDbEntity
  8
0
100
AcDbBlockBegin
  2
03A1T2A
 70
     2
 10
0.0
 20
0.0
 30
0.0
  3
03A1T2A
  1

  4

  0
ATTDEF
  5
10D
330
23C5
100
AcDbEntity
  8
ATTRIBUTES
100
AcDbText
 10
0.7447463828066248
 20
0.4504334198794595
 30
0.0
 40
0.09
  1
REFER TO WORK ORDER
100
AcDbAttributeDefinition
  3
Enter type of finish: 
  2
FINISH
 70
     4
  0
ATTDEF
  5
10E
330
23C5
100
AcDbEntity
  8
ATTRIBUTES
100
AcDbText
 10
1.653231332046062
 20
0.3011184740630597
 30
0.0
 40
0.09
  1
1/16
100
AcDbAttributeDefinition
  3
Enter fractional tolerance
  2
1/16
 70
     4
  0
TEXT
  5
10F
330
23C5
100
AcDbEntity
  8
0
100
AcDbText
 10
0.0
 20
1.0
 30
0.0
 40
0.09
  1
UNLESS OTHERWISE NOTED
  7
COMPLEX
100
AcDbText
  0
TEXT
  5
110
330
23C5
100
AcDbEntity
  8
0
100
AcDbText
 10
0.0
 20
0.1500000000000341
 30
0.0
 40
0.09
  1
5. ALL ANGLES: %%P1%%D
100
AcDbText
  0
TEXT
  5
111
330
23C5
100
AcDbEntity
  8
0
100
AcDbText
 10
0.0
 20
0.3000000000000114
 30
0.0
 40
0.09
  1
4. ALL DIMENSIONS: %%P
100
AcDbText
  0
TEXT
  5
112
330
23C5
100
AcDbEntity
  8
0
100
AcDbText
 10
0.0
 20
0.4500000000000455
 30
0.0
 40
0.09
  1
3. FINISH:
100
AcDbText
  0
TEXT
  5
113
330
23C5
100
AcDbEntity
  8
0
100
AcDbText
 10
0.0
 20
0.6000000000000227
 30
0.0
 40
0.09
  1
2. NO BURRS
100
AcDbText
  0
TEXT
  5
114
330
23C5
100
AcDbEntity
  8
0
100
AcDbText
 10
0.0349570815724292
 20
0.75
 30
0.0
 40
0.09
  1
1. NO VISIBLE OIL
100
AcDbText
  0
TEXT
  5
115
330
23C5
100
AcDbEntity
  8
0
100
AcDbText
 10
0.006214592279548
 20
0.0
 30
0.0
 40
0.09
  1
6. MATERIAL:
100
AcDbText
  0
ATTDEF
  5
116
330
23C5
100
AcDbEntity
  8
ATTRIBUTES
100
AcDbText
 10
0.9728003231563207
 20
0.0
 30
0.0
 40
0.09
  1

100
AcDbAttributeDefinition
  3
Enter material specification
  2
GAUGE
 70
     4
  0
ENDBLK
  5
23FF
330
23C5
100
AcDbEntity
  8
0
100
AcDbBlockEnd
  0
BLOCK
  5
2400
330
23C6
100
AcDbEntity
  8
0
100
AcDbBlockBegin
  2
SREV
 70
     0
 10
0.0
 20
0.0
 30
0.0
  3
SREV
  1

  4

  0
LINE
  5
119
330
23C6
100
AcDbEntity
  8
BORDER
100
AcDbLine
 10
6.98855463771327
 20
2.261749298276198
 30
0.0
 11
6.988554637713255
 21
-0.0000000000000001
 31
0.0
  0
LINE
  5
11A
330
23C6
100
AcDbEntity
  8
TITLE
100
AcDbLine
 10
6.595554637713251
 20
2.261749298276198
 30
0.0
 11
6.595554637713255
 21
-0.0040000000000001
 31
0.0
  0
LINE
  5
11B
330
23C6
100
AcDbEntity
  8
TITLE
100
AcDbLine
 10
6.238554637713255
 20
2.261749298276198
 30
0.0
 11
6.238554637713255
 21
-0.0100000000000001
 31
0.0
  0
LINE
  5
11C
330
23C6
100
AcDbEntity
  8
TITLE
100
AcDbLine
 10
5.038554637713256
 20
2.261749298276198
 30
0.0
 11
5.038554637713256
 21
-0.0100000000000001
 31
0.0
  0
LINE
  5
11D
330
23C6
100
AcDbEntity
  8
TITLE
100
AcDbLine
 10
4.388554637713254
 20
2.261749298276198
 30
0.0
 11
4.388554637713254
 21
-0.0100000000000001
 31
0.0
  0
LINE
  5
11E
330
23C6
100
AcDbEntity
  8
BORDER
100
AcDbLine
 10
3.988554637713264
 20
2.261749298276198
 30
0.0
 11
3.988554637713255
 21
-0.0000000000000001
 31
0.0
  0
LINE
  5
11F
330
23C6
100
AcDbEntity
  8
BORDER
100
AcDbLine
 10
6.977554637713253
 20
1.46
 30
0.0
 11
3.988554637713257
 21
1.46
 31
0.0
  0
LINE
  5
120
330
23C6
100
AcDbEntity
  8
BORDER
100
AcDbLine
 10
6.977554637713253
 20
1.216
 30
0.0
 11
3.988554637713257
 21
1.216
 31
0.0
  0
LINE
  5
121
330
23C6
100
AcDbEntity
  8
BORDER
100
AcDbLine
 10
6.977554637713253
 20
0.9719999999999999
 30
0.0
 11
3.988554637713257
 21
0.9719999999999999
 31
0.0
  0
LINE
  5
122
330
23C6
100
AcDbEntity
  8
BORDER
100
AcDbLine
 10
6.977554637713253
 20
0.7279999999999999
 30
0.0
 11
3.988554637713257
 21
0.7279999999999999
 31
0.0
  0
TEXT
  5
123
330
23C6
100
AcDbEntity
  8
TITLE
100
AcDbText
 10
6.293051282403668
 20
0.09
 30
0.0
 40
0.062
  1
APPR.
 72
     1
 11
6.417051282403667
 21
0.09
 31
0.0
100
AcDbText
  0
LINE
  5
124
330
23C6
100
AcDbEntity
  8
TITLE
100
AcDbLine
 10
6.988554637713255
 20
0.2399999999999999
 30
0.0
 11
3.988554637713255
 21
0.2400000000000001
 31
0.0
  0
TRACE
  5
125
330
23C6
100
AcDbEntity
  8
TITLE
100
AcDbTrace
 10
6.988554637713255
 20
-0.0200000000000001
 30
0.0
 11
6.988554637713255
 21
-0.0000000000000001
 31
0.0
 12
3.988554637713255
 22
-0.0200000000000001
 32
0.0
 13
3.988554637713255
 23
-0.0000000000000001
 33
0.0
  0
LINE
  5
126
330
23C6
100
AcDbEntity
  8
BORDER
100
AcDbLine
 10
6.977554637713253
 20
0.4839999999999999
 30
0.0
 11
3.988554637713257
 21
0.4839999999999999
 31
0.0
  0
TEXT
  5
127
330
23C6
100
AcDbEntity
  8
TITLE
100
AcDbText
 10
4.091911292539653
 20
0.09
 30
0.0
 40
0.062
  1
REV.
 72
     1
 11
4.195244625872986
 21
0.09
 31
0.0
100
AcDbText
  0
TEXT
  5
128
330
23C6
100
AcDbEntity
  8
TITLE
100
AcDbText
 10
4.599736237340922
 20
0.09
 30
0.0
 40
0.062
  1
DATE
 72
     1
 11
4.713402904007589
 21
0.09
 31
0.0
100
AcDbText
  0
TEXT
  5
129
330
23C6
100
AcDbEntity
  8
TITLE
100
AcDbText
 10
5.321386852610059
 20
0.09
 30
0.0
 40
0.062
  1
DESCRIPTION
 72
     1
 11
5.631386852610058
 21
0.09
 31
0.0
100
AcDbText
  0
TEXT
  5
12A
330
23C6
100
AcDbEntity
  8
TITLE
100
AcDbText
 10
6.727478574217367
 20
0.066
 30
0.0
 40
0.062
  1
 BY
 72
     1
 11
6.841145240884034
 21
0.066
 31
0.0
100
AcDbText
  0
LINE
  5
12B
330
23C6
100
AcDbEntity
  8
BORDER
100
AcDbLine
 10
6.977554637713253
 20
1.948
 30
0.0
 11
3.988554637713257
 21
1.948
 31
0.0
  0
LINE
  5
12C
330
23C6
100
AcDbEntity
  8
BORDER
100
AcDbLine
 10
6.977554637713253
 20
1.704
 30
0.0
 11
3.988554637713257
 21
1.704
 31
0.0
  0
ENDBLK
  5
2401
330
23C6
100
AcDbEntity
  8
0
100
AcDbBlockEnd
  0
BLOCK
  5
2402
330
23C7
100
AcDbEntity
  8
0
100
AcDbBlockBegin
  2
NOTES5RO
 70
     2
 10
0.0
 20
0.0
 30
0.0
  3
NOTES5RO
  1

  4

  0
ATTDEF
  5
12F
330
23C7
100
AcDbEntity
  8
ATTRIBUTES
100
AcDbText
 10
0.8099217096123539
 20
0.8960803346910211
 30
0.0
 40
0.09
  1
REFER TO WORK ORDER
100
AcDbAttributeDefinition
  3
Enter type of finish.
  2
FINISH
 70
     4
  0
ATTDEF
  5
130
330
23C7
100
AcDbEntity
  8
ATTRIBUTES
100
AcDbText
 10
1.620195846630168
 20
0.747281644276768
 30
0.0
 40
0.09
  1
1/16
100
AcDbAttributeDefinition
  3
Enter fractional tolerance.
  2
1/16
 70
     4
  0
TEXT
  5
131
330
23C7
100
AcDbEntity
  8
0
100
AcDbText
 10
0.0
 20
1.298581757106149
 30
0.0
 40
0.09
  1
UNLESS OTHERWISE NOTED
  7
COMPLEX
100
AcDbText
  0
TEXT
  5
132
330
23C7
100
AcDbEntity
  8
0
100
AcDbText
 10
0.0
 20
0.5977737718184812
 30
0.0
 40
0.09
  1
4. ALL ANGLES: %%P1%%D
100
AcDbText
  0
TEXT
  5
133
330
23C7
100
AcDbEntity
  8
0
100
AcDbText
 10
0.0
 20
0.7477737718184585
 30
0.0
 40
0.09
  1
3. ALL DIMENSIONS: %%P
100
AcDbText
  0
TEXT
  5
134
330
23C7
100
AcDbEntity
  8
0
100
AcDbText
 10
0.0299007313252559
 20
1.047991222763983
 30
0.0
 40
0.09
  1
1. NO BURRS GREATER THAN 0.015
100
AcDbText
  0
TEXT
  5
135
330
23C7
100
AcDbEntity
  8
0
100
AcDbText
 10
0.0005841662912189
 20
0.0057020844353701
 30
0.0
 40
0.09
  1
7. MATERIAL:
100
AcDbText
  0
ATTDEF
  5
136
330
23C7
100
AcDbEntity
  8
ATTRIBUTES
100
AcDbText
 10
0.9671698971679916
 20
0.0057020844353701
 30
0.0
 40
0.09
  1
(MAT'L. SPEC.)
100
AcDbAttributeDefinition
  3
Enter material specification.
  2
GAUGE
 70
     4
  0
TEXT
  5
137
330
23C7
100
AcDbEntity
  8
0
100
AcDbText
 10
0.0
 20
0.4525821975702229
 30
0.0
 40
0.09
  1
5. ALL BEND RADII:
100
AcDbText
  0
ATTDEF
  5
138
330
23C7
100
AcDbEntity
  8
ATTRIBUTES
100
AcDbText
 10
1.53469337040076
 20
0.4522195728184215
 30
0.0
 40
0.09
  1
1T
100
AcDbAttributeDefinition
  3
Enter bend radius.
  2
BEND
 70
     4
  0
TEXT
  5
139
330
23C7
100
AcDbEntity
  8
0
100
AcDbText
 10
0.0
 20
0.8983276866212009
 30
0.0
 40
0.09
  1
2. FINISH:
100
AcDbText
  0
TEXT
  5
13A
330
23C7
100
AcDbEntity
  8
0
100
AcDbText
 10
0.2109944016025338
 20
0.1505702207268769
 30
0.0
 40
0.09
  1
LABEL MUST ADHERE AND UPC BARCODE BE SCANNABLE.
100
AcDbText
  0
TEXT
  5
13B
330
23C7
100
AcDbEntity
  8
0
100
AcDbText
 10
0.0000337232914944
 20
0.3005702207268541
 30
0.0
 40
0.09
  1
6. OIL CHECK REQUIRED IF PART IS LABELED;
100
AcDbText
  0
ENDBLK
  5
2403
330
23C7
100
AcDbEntity
  8
0
100
AcDbBlockEnd
  0
BLOCK
  5
2404
330
23C8
100
AcDbEntity
  8
0
100
AcDbBlockBegin
  2
A*C25803704
 70
     0
 10
0.0
 20
0.0
 30
0.0
  3
A*C25803704
  1

  4

  0
TEXT
  5
25A
330
23C8
100
AcDbEntity
  8
ATTRIBUTES
100
AcDbText
 10
-0.0000000559681439
 20
0.8420618642841689
 30
0.0
 40
0.3162500000000001
  1
Strong-Tie
100
AcDbText
  0
TEXT
  5
25B
330
23C8
100
AcDbEntity
  8
ATTRIBUTES
100
AcDbText
 10
0.4124999440318575
 20
1.36914061428417
 30
0.0
 40
0.3162500000000001
  1
SIMPSON
100
AcDbText
  0
TEXT
  5
25C
330
23C8
100
AcDbEntity
  8
ATTRIBUTES
100
AcDbText
 10
0.6771201860581542
 20
-0.0000000041700083
 30
0.0
 40
0.3712500000000001
  1
CBQ66
100
AcDbText
  0
TEXT
  5
25D
330
23C8
100
AcDbEntity
  8
ATTRIBUTES
100
AcDbText
 10
3.024999944031848
 20
1.266015614284168
 30
0.0
 40
0.2475
  1
R
100
AcDbText
  0
CIRCLE
  5
25E
330
23C8
100
AcDbEntity
  8
ATTRIBUTES
100
AcDbCircle
 10
3.093749944031849
 20
1.403515614284171
 30
0.0
 40
0.20625
  0
ENDBLK
  5
2405
330
23C8
100
AcDbEntity
  8
0
100
AcDbBlockEnd
  0
BLOCK
  5
249C
330
23C9
100
AcDbEntity
  8
0
100
AcDbBlockBegin
  2
H16W
 70
     0
 10
0.0
 20
0.0
 30
0.0
  3
H16W
  1

  4

  0
INSERT
  5
1DDF
330
23C9
100
AcDbEntity
  8
0
100
AcDbBlockReference
  2
A*C404314E8
 10
4.482816352271454
 20
5.561529620965619
 30
0.0
 41
0.5
 42
0.5
 43
0.5
  0
INSERT
  5
1DE0
330
23C9
100
AcDbEntity
  8
0
100
AcDbBlockReference
  2
A*C404314E8
 10
3.977873174669346
 20
5.620300889455583
 30
0.0
 41
0.5
 42
0.5
 43
0.5
  0
LWPOLYLINE
  5
1DE1
330
23C9
100
AcDbEntity
  8
DETAIL
 62
    28
100
AcDbPolyline
 90
        4
 70
     0
 43
0.0
 10
4.713533201717636
 20
6.836040026208579
 10
4.83428791869877
 20
6.866228705453857
 10
4.83428791869877
 20
6.896417384699142
 10
4.713533201717636
 20
6.866228705453864
  0
LWPOLYLINE
  5
1DE7
330
23C9
100
AcDbEntity
  8
DETAIL
 62
    28
100
AcDbPolyline
 90
        4
 70
     0
 43
0.0
 10
4.589033797464969
 20
6.873692626351704
 10
4.709788514446101
 20
6.903881305596982
 10
4.709788514446101
 20
6.934069984842266
 10
4.589033797464969
 20
6.903881305596989
  0
LWPOLYLINE
  5
1DED
330
23C9
100
AcDbEntity
  8
DETAIL
 62
    28
100
AcDbPolyline
 90
        4
 70
     0
 43
0.0
 10
4.589033797464969
 20
6.723692626351705
 10
4.709788514446101
 20
6.753881305596982
 10
4.709788514446101
 20
6.784069984842267
 10
4.589033797464969
 20
6.753881305596989
  0
LWPOLYLINE
  5
1DF3
330
23C9
100
AcDbEntity
  8
DETAIL
 62
    28
100
AcDbPolyline
 90
        4
 70
     0
 43
0.0
 10
4.713533201717636
 20
6.686040026208579
 10
4.83428791869877
 20
6.716228705453856
 10
4.83428791869877
 20
6.746417384699141
 10
4.713533201717636
 20
6.716228705453863
  0
LWPOLYLINE
  5
1DF9
330
23C9
100
AcDbEntity
  8
DETAIL
 62
    28
100
AcDbPolyline
 90
        4
 70
     0
 43
0.0
 10
4.589033797464969
 20
6.573692626351704
 10
4.709788514446101
 20
6.603881305596982
 10
4.709788514446101
 20
6.634069984842267
 10
4.589033797464969
 20
6.603881305596989
  0
LWPOLYLINE
  5
1DFF
330
23C9
100
AcDbEntity
  8
DETAIL
 62
    28
100
AcDbPolyline
 90
        4
 70
     0
 43
0.0
 10
4.713533201717636
 20
6.536040026208578
 10
4.83428791869877
 20
6.566228705453856
 10
4.83428791869877
 20
6.596417384699141
 10
4.713533201717636
 20
6.566228705453863
  0
LWPOLYLINE
  5
1E05
330
23C9
100
AcDbEntity
  8
DETAIL
 62
    28
100
AcDbPolyline
 90
        4
 70
     0
 43
0.0
 10
4.982533172913156
 20
6.613751128998396
 10
5.10328788989429
 20
6.643939808243673
 10
5.10328788989429
 20
6.674128487488958
 10
4.982533172913156
 20
6.643939808243681
  0
LWPOLYLINE
  5
1E0B
330
23C9
100
AcDbEntity
  8
DETAIL
 62
    28
100
AcDbPolyline
 90
        4
 70
     0
 43
0.0
 10
4.858033768660489
 20
6.651403729141522
 10
4.978788485641623
 20
6.681592408386799
 10
4.978788485641623
 20
6.711781087632084
 10
4.858033768660489
 20
6.681592408386806
  0
LWPOLYLINE
  5
1E11
330
23C9
100
AcDbEntity
  8
DETAIL
 62
    28
100
AcDbPolyline
 90
        4
 70
     0
 43
0.0
 10
4.858033768660489
 20
6.801403729141521
 10
4.978788485641623
 20
6.831592408386799
 10
4.978788485641623
 20
6.861781087632084
 10
4.858033768660489
 20
6.831592408386806
  0
LWPOLYLINE
  5
1E17
330
23C9
100
AcDbEntity
  8
DETAIL
 62
    28
100
AcDbPolyline
 90
        4
 70
     0
 43
0.0
 10
4.982533172913156
 20
6.763751128998396
 10
5.10328788989429
 20
6.793939808243674
 10
5.10328788989429
 20
6.824128487488959
 10
4.982533172913156
 20
6.793939808243681
  0
LWPOLYLINE
  5
1E1D
330
23C9
100
AcDbEntity
  8
DETAIL
 62
    28
100
AcDbPolyline
 90
        4
 70
     0
 43
0.0
 10
5.127033739856008
 20
6.879114831931338
 10
5.247788456837142
 20
6.909303511176616
 10
5.247788456837142
 20
6.939492190421901
 10
5.127033739856008
 20
6.909303511176623
  0
LWPOLYLINE
  5
1E23
330
23C9
100
AcDbEntity
  8
DETAIL
 62
    28
100
AcDbPolyline
 90
        4
 70
     0
 43
0.0
 10
5.127033739856008
 20
6.729114831931339
 10
5.247788456837142
 20
6.759303511176617
 10
5.247788456837142
 20
6.789492190421901
 10
5.127033739856008
 20
6.759303511176624
  0
LWPOLYLINE
  5
1E29
330
23C9
100
AcDbEntity
  8
DETAIL
 62
    28
100
AcDbPolyline
 90
        4
 70
     0
 43
0.0
 10
5.251533144108675
 20
6.691462231788213
 10
5.372287861089811
 20
6.721650911033491
 10
5.372287861089811
 20
6.751839590278776
 10
5.251533144108675
 20
6.721650911033498
  0
LWPOLYLINE
  5
1E2F
330
23C9
100
AcDbEntity
  8
DETAIL
 62
    28
100
AcDbPolyline
 90
        4
 70
     0
 43
0.0
 10
5.251533144108675
 20
6.841462231788213
 10
5.372287861089811
 20
6.871650911033491
 10
5.372287861089811
 20
6.901839590278776
 10
5.251533144108675
 20
6.871650911033498
  0
LWPOLYLINE
  5
1E35
330
23C9
100
AcDbEntity
  8
DETAIL
 62
    28
100
AcDbPolyline
 90
        4
 70
     0
 43
0.0
 10
5.396033711051528
 20
6.806825934721156
 10
5.516788428032662
 20
6.837014613966433
 10
5.516788428032662
 20
6.867203293211718
 10
5.396033711051528
 20
6.83701461396644
  0
LWPOLYLINE
  5
1E3B
330
23C9
100
AcDbEntity
  8
DETAIL
 62
    28
100
AcDbPolyline
 90
        4
 70
     0
 43
0.0
 10
5.520533115304195
 20
6.769173334578031
 10
5.641287832285331
 20
6.799362013823308
 10
5.641287832285331
 20
6.829550693068593
 10
5.520533115304195
 20
6.799362013823315
  0
LWPOLYLINE
  5
1E41
330
23C9
100
AcDbEntity
  8
DETAIL
 62
    28
100
AcDbPolyline
 90
        4
 70
     0
 43
0.0
 10
5.396033711051528
 20
6.956825934721156
 10
5.516788428032662
 20
6.987014613966434
 10
5.516788428032662
 20
7.017203293211718
 10
5.396033711051528
 20
6.987014613966441
  0
LWPOLYLINE
  5
1E47
330
23C9
100
AcDbEntity
  8
DETAIL
 62
    28
100
AcDbPolyline
 90
        4
 70
     0
 43
0.0
 10
5.520533115304195
 20
6.91917333457803
 10
5.641287832285331
 20
6.949362013823308
 10
5.641287832285331
 20
6.979550693068592
 10
5.520533115304195
 20
6.949362013823315
  0
LWPOLYLINE
  5
1E4D
330
23C9
100
AcDbEntity
  8
DETAIL
 62
    28
100
AcDbPolyline
 90
        4
 70
     0
 43
0.0
 10
5.665033682247048
 20
6.884537037510973
 10
5.785788399228181
 20
6.914725716756251
 10
5.785788399228181
 20
6.944914396001535
 10
5.665033682247048
 20
6.914725716756258
  0
LWPOLYLINE
  5
1E53
330
23C9
100
AcDbEntity
  8
DETAIL
 62
    28
100
AcDbPolyline
 90
        4
 70
     0
 43
0.0
 10
5.665033682247048
 20
7.034537037510972
 10
5.785788399228181
 20
7.06472571675625
 10
5.785788399228181
 20
7.094914396001535
 10
5.665033682247048
 20
7.064725716756257
  0
LWPOLYLINE
  5
1E59
330
23C9
100
AcDbEntity
  8
DETAIL
 62
    28
100
AcDbPolyline
 90
        4
 70
     0
 43
0.0
 10
5.396033711051528
 20
7.106825934721155
 10
5.516788428032662
 20
7.137014613966433
 10
5.516788428032662
 20
7.167203293211718
 10
5.396033711051528
 20
7.13701461396644
  0
LWPOLYLINE
  5
1E5F
330
23C9
100
AcDbEntity
  8
DETAIL
 62
    28
100
AcDbPolyline
 90
        4
 70
     0
 43
0.0
 10
5.520533115304195
 20
7.06917333457803
 10
5.641287832285331
 20
7.099362013823308
 10
5.641287832285331
 20
7.129550693068593
 10
5.520533115304195
 20
7.099362013823315
  0
LWPOLYLINE
  5
1E65
330
23C9
100
AcDbEntity
  8
DETAIL
 62
    28
100
AcDbPolyline
 90
        4
 70
     0
 43
0.0
 10
5.396033711051528
 20
7.256825934721156
 10
5.516788428032662
 20
7.287014613966433
 10
5.516788428032662
 20
7.317203293211718
 10
5.396033711051528
 20
7.287014613966441
  0
LWPOLYLINE
  5
1E6B
330
23C9
100
AcDbEntity
  8
DETAIL
 62
    28
100
AcDbPolyline
 90
        4
 70
     0
 43
0.0
 10
5.665033682247048
 20
7.184537037510973
 10
5.785788399228181
 20
7.21472571675625
 10
5.785788399228181
 20
7.244914396001535
 10
5.665033682247048
 20
7.214725716756258
  0
LWPOLYLINE
  5
1E71
330
23C9
100
AcDbEntity
  8
DETAIL
 62
    28
100
AcDbPolyline
 90
        4
 70
     0
 43
0.0
 10
5.520533115304195
 20
7.219173334578031
 10
5.641287832285331
 20
7.249362013823308
 10
5.641287832285331
 20
7.279550693068593
 10
5.520533115304195
 20
7.249362013823316
  0
LWPOLYLINE
  5
1E77
330
23C9
100
AcDbEntity
  8
DETAIL
 62
    28
100
AcDbPolyline
 90
        4
 70
     0
 43
0.0
 10
5.665033682247048
 20
7.334537037510973
 10
5.785788399228181
 20
7.364725716756251
 10
5.785788399228181
 20
7.394914396001536
 10
5.665033682247048
 20
7.364725716756258
  0
LWPOLYLINE
  5
1E7D
330
23C9
100
AcDbEntity
  8
DETAIL
 62
    28
100
AcDbPolyline
 90
        4
 70
     0
 43
0.0
 10
5.520533115304195
 20
7.36917333457803
 10
5.641287832285331
 20
7.399362013823308
 10
5.641287832285331
 20
7.429550693068593
 10
5.520533115304195
 20
7.399362013823315
  0
LWPOLYLINE
  5
1E83
330
23C9
100
AcDbEntity
  8
DETAIL
 62
    28
100
AcDbPolyline
 90
        4
 70
     0
 43
0.0
 10
5.396033711051528
 20
7.406825934721156
 10
5.516788428032662
 20
7.437014613966434
 10
5.516788428032662
 20
7.467203293211719
 10
5.396033711051528
 20
7.437014613966441
  0
LWPOLYLINE
  5
1E89
330
23C9
100
AcDbEntity
  8
DETAIL
 62
    28
100
AcDbPolyline
 90
        4
 70
     0
 43
0.0
 10
5.665033682247048
 20
7.484537037510973
 10
5.785788399228181
 20
7.514725716756251
 10
5.785788399228181
 20
7.544914396001536
 10
5.665033682247048
 20
7.514725716756258
  0
LWPOLYLINE
  5
1E8F
330
23C9
100
AcDbEntity
  8
DETAIL
 62
    28
100
AcDbPolyline
 90
        4
 70
     0
 43
0.0
 10
5.520533115304195
 20
7.519173334578031
 10
5.641287832285331
 20
7.549362013823309
 10
5.641287832285331
 20
7.579550693068594
 10
5.520533115304195
 20
7.549362013823316
  0
LWPOLYLINE
  5
1E95
330
23C9
100
AcDbEntity
  8
DETAIL
 62
    28
100
AcDbPolyline
 90
        4
 70
     0
 43
0.0
 10
5.665033682247048
 20
7.634537037510974
 10
5.785788399228181
 20
7.664725716756252
 10
5.785788399228181
 20
7.694914396001536
 10
5.665033682247048
 20
7.664725716756259
  0
LWPOLYLINE
  5
1E9B
330
23C9
100
AcDbEntity
  8
DETAIL
 62
    28
100
AcDbPolyline
 90
        4
 70
     0
 43
0.0
 10
5.396033711051528
 20
7.556825934721156
 10
5.516788428032662
 20
7.587014613966433
 10
5.516788428032662
 20
7.617203293211718
 10
5.396033711051528
 20
7.58701461396644
  0
LWPOLYLINE
  5
1EA1
330
23C9
100
AcDbEntity
  8
DETAIL
 62
    28
100
AcDbPolyline
 90
        4
 70
     0
 43
0.0
 10
5.127033739856008
 20
7.479114831931339
 10
5.247788456837142
 20
7.509303511176617
 10
5.247788456837142
 20
7.539492190421901
 10
5.127033739856008
 20
7.509303511176624
  0
LWPOLYLINE
  5
1EA7
330
23C9
100
AcDbEntity
  8
DETAIL
 62
    28
100
AcDbPolyline
 90
        4
 70
     0
 43
0.0
 10
5.251533144108675
 20
6.991462231788213
 10
5.372287861089811
 20
7.021650911033491
 10
5.372287861089811
 20
7.051839590278775
 10
5.251533144108675
 20
7.021650911033498
  0
LWPOLYLINE
  5
1EAD
330
23C9
100
AcDbEntity
  8
DETAIL
 62
    28
100
AcDbPolyline
 90
        4
 70
     0
 43
0.0
 10
5.251533144108675
 20
7.141462231788213
 10
5.372287861089811
 20
7.171650911033491
 10
5.372287861089811
 20
7.201839590278776
 10
5.251533144108675
 20
7.171650911033498
  0
LWPOLYLINE
  5
1EB3
330
23C9
100
AcDbEntity
  8
DETAIL
 62
    28
100
AcDbPolyline
 90
        4
 70
     0
 43
0.0
 10
5.251533144108675
 20
7.291462231788213
 10
5.372287861089811
 20
7.32165091103349
 10
5.372287861089811
 20
7.351839590278775
 10
5.251533144108675
 20
7.321650911033498
  0
LWPOLYLINE
  5
1EB9
330
23C9
100
AcDbEntity
  8
DETAIL
 62
    28
100
AcDbPolyline
 90
        4
 70
     0
 43
0.0
 10
5.251533144108675
 20
7.441462231788213
 10
5.372287861089811
 20
7.471650911033491
 10
5.372287861089811
 20
7.501839590278776
 10
5.251533144108675
 20
7.471650911033498
  0
LWPOLYLINE
  5
1EBF
330
23C9
100
AcDbEntity
  8
DETAIL
 62
    28
100
AcDbPolyline
 90
        4
 70
     0
 43
0.0
 10
5.127033739856008
 20
7.029114831931338
 10
5.247788456837142
 20
7.059303511176616
 10
5.247788456837142
 20
7.0894921904219
 10
5.127033739856008
 20
7.059303511176623
  0
LWPOLYLINE
  5
1EC5
330
23C9
100
AcDbEntity
  8
DETAIL
 62
    28
100
AcDbPolyline
 90
        4
 70
     0
 43
0.0
 10
5.127033739856008
 20
7.179114831931338
 10
5.247788456837142
 20
7.209303511176616
 10
5.247788456837142
 20
7.239492190421901
 10
5.127033739856008
 20
7.209303511176623
  0
LWPOLYLINE
  5
1ECB
330
23C9
100
AcDbEntity
  8
DETAIL
 62
    28
100
AcDbPolyline
 90
        4
 70
     0
 43
0.0
 10
5.127033739856008
 20
7.329114831931339
 10
5.247788456837142
 20
7.359303511176616
 10
5.247788456837142
 20
7.389492190421901
 10
5.127033739856008
 20
7.359303511176623
  0
LWPOLYLINE
  5
1ED1
330
23C9
100
AcDbEntity
  8
DETAIL
 62
    28
100
AcDbPolyline
 90
        4
 70
     0
 43
0.0
 10
4.982533172913156
 20
6.913751128998396
 10
5.10328788989429
 20
6.943939808243673
 10
5.10328788989429
 20
6.974128487488958
 10
4.982533172913156
 20
6.94393980824368
  0
LWPOLYLINE
  5
1ED7
330
23C9
100
AcDbEntity
  8
DETAIL
 62
    28
100
AcDbPolyline
 90
        4
 70
     0
 43
0.0
 10
4.982533172913156
 20
7.063751128998396
 10
5.10328788989429
 20
7.093939808243674
 10
5.10328788989429
 20
7.124128487488958
 10
4.982533172913156
 20
7.093939808243681
  0
LWPOLYLINE
  5
1EDD
330
23C9
100
AcDbEntity
  8
DETAIL
 62
    28
100
AcDbPolyline
 90
        4
 70
     0
 43
0.0
 10
4.982533172913156
 20
7.213751128998396
 10
5.10328788989429
 20
7.243939808243674
 10
5.10328788989429
 20
7.274128487488959
 10
4.982533172913156
 20
7.243939808243681
  0
LWPOLYLINE
  5
1EE3
330
23C9
100
AcDbEntity
  8
DETAIL
 62
    28
100
AcDbPolyline
 90
        4
 70
     0
 43
0.0
 10
4.982533172913156
 20
7.363751128998396
 10
5.10328788989429
 20
7.393939808243673
 10
5.10328788989429
 20
7.424128487488958
 10
4.982533172913156
 20
7.393939808243681
  0
LWPOLYLINE
  5
1EE9
330
23C9
100
AcDbEntity
  8
DETAIL
 62
    28
100
AcDbPolyline
 90
        4
 70
     0
 43
0.0
 10
4.858033768660489
 20
6.951403729141521
 10
4.978788485641623
 20
6.981592408386799
 10
4.978788485641623
 20
7.011781087632084
 10
4.858033768660489
 20
6.981592408386806
  0
LWPOLYLINE
  5
1EEF
330
23C9
100
AcDbEntity
  8
DETAIL
 62
    28
100
AcDbPolyline
 90
        4
 70
     0
 43
0.0
 10
4.858033768660489
 20
7.101403729141522
 10
4.978788485641623
 20
7.131592408386799
 10
4.978788485641623
 20
7.161781087632084
 10
4.858033768660489
 20
7.131592408386807
  0
LWPOLYLINE
  5
1EF5
330
23C9
100
AcDbEntity
  8
DETAIL
 62
    28
100
AcDbPolyline
 90
        4
 70
     0
 43
0.0
 10
4.858033768660489
 20
7.251403729141521
 10
4.978788485641623
 20
7.281592408386799
 10
4.978788485641623
 20
7.311781087632084
 10
4.858033768660489
 20
7.281592408386806
  0
LWPOLYLINE
  5
1EFB
330
23C9
100
AcDbEntity
  8
DETAIL
 62
    28
100
AcDbPolyline
 90
        4
 70
     0
 43
0.0
 10
4.858033768660489
 20
7.401403729141522
 10
4.978788485641623
 20
7.431592408386799
 10
4.978788485641623
 20
7.461781087632084
 10
4.858033768660489
 20
7.431592408386806
  0
LWPOLYLINE
  5
1F01
330
23C9
100
AcDbEntity
  8
DETAIL
 62
    28
100
AcDbPolyline
 90
        4
 70
     0
 43
0.0
 10
4.713533201717636
 20
6.986040026208579
 10
4.83428791869877
 20
7.016228705453857
 10
4.83428791869877
 20
7.046417384699142
 10
4.713533201717636
 20
7.016228705453864
  0
LWPOLYLINE
  5
1F07
330
23C9
100
AcDbEntity
  8
DETAIL
 62
    28
100
AcDbPolyline
 90
        4
 70
     0
 43
0.0
 10
4.713533201717636
 20
7.136040026208579
 10
4.83428791869877
 20
7.166228705453857
 10
4.83428791869877
 20
7.196417384699141
 10
4.713533201717636
 20
7.166228705453864
  0
LWPOLYLINE
  5
1F0D
330
23C9
100
AcDbEntity
  8
DETAIL
 62
    28
100
AcDbPolyline
 90
        4
 70
     0
 43
0.0
 10
4.713533201717636
 20
7.286040026208578
 10
4.83428791869877
 20
7.316228705453856
 10
4.83428791869877
 20
7.346417384699141
 10
4.713533201717636
 20
7.316228705453863
  0
LWPOLYLINE
  5
1F13
330
23C9
100
AcDbEntity
  8
DETAIL
 62
    28
100
AcDbPolyline
 90
        4
 70
     0
 43
0.0
 10
4.589033797464969
 20
7.023692626351704
 10
4.709788514446101
 20
7.053881305596982
 10
4.709788514446101
 20
7.084069984842267
 10
4.589033797464969
 20
7.053881305596989
  0
LWPOLYLINE
  5
1F19
330
23C9
100
AcDbEntity
  8
DETAIL
 62
    28
100
AcDbPolyline
 90
        4
 70
     0
 43
0.0
 10
4.589033797464969
 20
7.173692626351704
 10
4.709788514446101
 20
7.203881305596982
 10
4.709788514446101
 20
7.234069984842266
 10
4.589033797464969
 20
7.203881305596989
  0
LWPOLYLINE
  5
1F1F
330
23C9
100
AcDbEntity
  8
DETAIL
 62
    28
100
AcDbPolyline
 90
        4
 70
     0
 43
0.0
 10
4.589033797464969
 20
7.323692626351704
 10
4.709788514446101
 20
7.353881305596982
 10
4.709788514446101
 20
7.384069984842267
 10
4.589033797464969
 20
7.353881305596989
  0
LWPOLYLINE
  5
1F25
330
23C9
100
AcDbEntity
  8
DETAIL
 62
    28
100
AcDbPolyline
 90
        5
 70
     0
 43
0.0
 10
6.103610078315878
 20
7.939801362079334
 10
6.118978566701902
 20
7.802360626884283
 10
6.088789887456619
 20
7.772171947638999
 10
6.088789887456619
 20
7.711794589148429
 10
6.058601208211334
 20
7.621228551412582
  0
LWPOLYLINE
  5
1F2C
330
23C9
100
AcDbEntity
  8
DETAIL
 62
    28
100
AcDbPolyline
 90
        3
 70
     0
 43
0.0
 10
5.470122403052477
 20
7.575348107721389
 10
5.396033711051528
 20
7.58701461396644
 10
5.396033711051528
 20
7.586142098308251
  0
LWPOLYLINE
  5
1F31
330
23C9
100
AcDbEntity
  8
DETAIL
 62
    28
100
AcDbPolyline
 90
        3
 70
     0
 43
0.0
 10
5.739122374247996
 20
7.653059210511207
 10
5.665033682247048
 20
7.664725716756259
 10
5.665033682247048
 20
7.663854611488034
  0
LINE
  5
1F36
330
23C9
100
AcDbEntity
  8
0
100
AcDbLine
 10
6.360488000664166
 20
7.862737985374842
 30
0.0
 11
6.058601208211334
 21
7.953304023110697
 31
0.0
  0
LWPOLYLINE
  5
1F37
330
23C9
100
AcDbEntity
  8
DETAIL
 62
    28
100
AcDbPolyline
 90
        6
 70
     0
 43
0.0
 10
6.286612492285883
 20
7.462259128454368
 10
6.300110642173598
 20
7.379719117450318
 10
6.330299321418883
 20
7.319341758959755
 10
6.329647988628786
 20
7.238027724834518
 10
6.343882962159093
 20
7.17536869267078
 10
6.333748163861351
 20
7.094351685660719
  0
LWPOLYLINE
  5
1F3F
330
23C9
100
AcDbEntity
  8
DETAIL
 62
    28
100
AcDbPolyline
 90
        6
 70
     0
 43
0.0
 10
6.215204568800564
 20
7.483681505499963
 10
6.254817344014034
 20
7.409907796695602
 10
6.269921962928317
 20
7.349530438205033
 10
6.275340685241245
 20
7.254319915850781
 10
6.269561194442638
 20
7.155114440918265
 10
6.259751191182209
 20
7.047676009351509
  0
LWPOLYLINE
  5
1F47
330
23C9
100
AcDbEntity
  8
DETAIL
 62
    28
100
AcDbPolyline
 90
        6
 70
     0
 43
0.0
 10
6.154196206788221
 20
7.501984014103665
 10
6.205534489122158
 20
7.416578924773563
 10
6.213253807311032
 20
7.349530438205033
 10
6.221842388398729
 20
7.270369404903535
 10
6.200306825875053
 20
7.192247232165595
 10
6.215843425056269
 20
7.060848339189291
  0
LWPOLYLINE
  5
1F4F
330
23C9
100
AcDbEntity
  8
DETAIL
 62
    28
100
AcDbPolyline
 90
        5
 70
     0
 43
0.0
 10
6.333748163861351
 20
7.094351685660719
 10
6.318546003472022
 20
7.031901052480627
 10
6.330299321418883
 20
6.957077608016355
 10
6.330299321418883
 20
6.896700249525789
 10
6.360488000664166
 20
6.83632289103522
  0
LWPOLYLINE
  5
1F56
330
23C9
100
AcDbEntity
  8
DETAIL
 62
    28
100
AcDbPolyline
 90
        5
 70
     0
 43
0.0
 10
6.259751191182209
 20
7.047676009351509
 10
6.269921962928317
 20
6.957077608016355
 10
6.294938323232294
 20
6.884545787981818
 10
6.330410043159823
 20
6.800153046920361
 10
6.360814438053055
 20
6.665124687374462
  0
LWPOLYLINE
  5
1F5D
330
23C9
100
AcDbEntity
  8
DETAIL
 62
    28
100
AcDbPolyline
 90
        3
 70
     0
 43
0.0
 10
6.360488000664166
 20
6.564624777827678
 10
6.330299321418883
 20
6.504247419337109
 10
6.321264541178078
 20
6.451714752743763
  0
LWPOLYLINE
  5
1F62
330
23C9
100
AcDbEntity
  8
DETAIL
 62
    28
100
AcDbPolyline
 90
        4
 70
     0
 43
0.0
 10
6.215843425056269
 20
7.060848339189291
 10
6.209544604437751
 20
6.957077608016355
 10
6.300110642173598
 20
6.775945532544657
 10
6.277182727956127
 20
6.460531115388153
  0
LWPOLYLINE
  5
1F68
330
23C9
100
AcDbEntity
  8
DETAIL
 62
    28
100
AcDbPolyline
 90
        5
 70
     0
 43
0.0
 10
6.149167245947183
 20
7.077832324997488
 10
6.179355925192468
 20
7.017454966506922
 10
6.179355925192468
 20
6.866511570280505
 10
6.239733283683032
 20
6.745756853299373
 10
6.23164771394859
 20
6.46963811818966
  0
LWPOLYLINE
  5
1F6F
330
23C9
100
AcDbEntity
  8
DETAIL
 62
    28
100
AcDbPolyline
 90
        6
 70
     0
 43
0.0
 10
6.060108943337838
 20
7.496061073834405
 10
6.088789887456619
 20
7.440096475940884
 10
6.088789887456619
 20
7.379719117450318
 10
6.10583371166763
 20
7.305172007922867
 10
6.087135010369671
 20
7.220940764562364
 10
6.104026353218345
 20
7.165241577691369
  0
LWPOLYLINE
  5
1F77
330
23C9
100
AcDbEntity
  8
DETAIL
 62
    28
100
AcDbPolyline
 90
        2
 70
     0
 43
0.0
 10
5.594621807305144
 20
7.387695507578264
 10
5.52271979689623
 20
7.399017684158957
  0
LWPOLYLINE
  5
1F7B
330
23C9
100
AcDbEntity
  8
DETAIL
 62
    28
100
AcDbPolyline
 90
        2
 70
     0
 43
0.0
 10
5.325621836109624
 20
7.459984404788447
 10
5.252174127082241
 20
7.471549977521756
  0
LWPOLYLINE
  5
1F7F
330
23C9
100
AcDbEntity
  8
DETAIL
 62
    28
100
AcDbPolyline
 90
        3
 70
     0
 43
0.0
 10
5.470122403052477
 20
7.42534810772139
 10
5.396033711051528
 20
7.437014613966441
 10
5.396033711051528
 20
7.437014613966441
  0
LWPOLYLINE
  5
1F84
330
23C9
100
AcDbEntity
  8
DETAIL
 62
    28
100
AcDbPolyline
 90
        3
 70
     0
 43
0.0
 10
5.594621807305144
 20
7.237695507578264
 10
5.520533115304195
 20
7.249362013823316
 10
5.520533115304195
 20
7.249362013823316
  0
LWPOLYLINE
  5
1F89
330
23C9
100
AcDbEntity
  8
DETAIL
 62
    28
100
AcDbPolyline
 90
        3
 70
     0
 43
0.0
 10
5.325621836109624
 20
7.159984404788447
 10
5.251533144108675
 20
7.171650911033498
 10
5.251533144108675
 20
7.171650911033498
  0
LWPOLYLINE
  5
1F8E
330
23C9
100
AcDbEntity
  8
DETAIL
 62
    28
100
AcDbPolyline
 90
        3
 70
     0
 43
0.0
 10
5.470122403052477
 20
7.275348107721389
 10
5.396033711051528
 20
7.287014613966441
 10
5.396033711051528
 20
7.287014613966441
  0
LWPOLYLINE
  5
1F93
330
23C9
100
AcDbEntity
  8
DETAIL
 62
    28
100
AcDbPolyline
 90
        3
 70
     0
 43
0.0
 10
5.325621836109624
 20
7.309984404788446
 10
5.251533144108675
 20
7.321650911033498
 10
5.251533144108675
 20
7.321650911033498
  0
LWPOLYLINE
  5
1F98
330
23C9
100
AcDbEntity
  8
DETAIL
 62
    28
100
AcDbPolyline
 90
        3
 70
     0
 43
0.0
 10
5.739122374247996
 20
7.353059210511207
 10
5.665033682247048
 20
7.364725716756258
 10
5.665033682247048
 20
7.363797962690597
  0
LWPOLYLINE
  5
1F9D
330
23C9
100
AcDbEntity
  8
DETAIL
 62
    28
100
AcDbPolyline
 90
        3
 70
     0
 43
0.0
 10
5.739122374247996
 20
7.203059210511206
 10
5.665033682247048
 20
7.214725716756258
 10
5.665033682247048
 20
7.214725716756258
  0
LWPOLYLINE
  5
1FA2
330
23C9
100
AcDbEntity
  8
DETAIL
 62
    28
100
AcDbPolyline
 90
        3
 70
     0
 43
0.0
 10
5.594621807305144
 20
6.937695507578264
 10
5.520533115304195
 20
6.949362013823315
 10
5.520533115304195
 20
6.948394731557329
  0
LWPOLYLINE
  5
1FA7
330
23C9
100
AcDbEntity
  8
DETAIL
 62
    28
100
AcDbPolyline
 90
        2
 70
     0
 43
0.0
 10
5.325621836109624
 20
7.009984404788447
 10
5.252187187583019
 20
7.02154792092702
  0
LWPOLYLINE
  5
1FAB
330
23C9
100
AcDbEntity
  8
DETAIL
 62
    28
100
AcDbPolyline
 90
        3
 70
     0
 43
0.0
 10
5.470122403052477
 20
6.97534810772139
 10
5.396033711051528
 20
6.987014613966441
 10
5.396033711051528
 20
6.985092314778242
  0
LWPOLYLINE
  5
1FB0
330
23C9
100
AcDbEntity
  8
DETAIL
 62
    28
100
AcDbPolyline
 90
        3
 70
     0
 43
0.0
 10
5.594621807305144
 20
6.787695507578264
 10
5.520533115304195
 20
6.799362013823315
 10
5.520533115304195
 20
6.795128390925676
  0
LWPOLYLINE
  5
1FB5
330
23C9
100
AcDbEntity
  8
DETAIL
 62
    28
100
AcDbPolyline
 90
        3
 70
     0
 43
0.0
 10
5.325621836109624
 20
6.859984404788447
 10
5.251533144108675
 20
6.871650911033498
 10
5.251533144108675
 20
6.870682218377546
  0
LWPOLYLINE
  5
1FBA
330
23C9
100
AcDbEntity
  8
DETAIL
 62
    28
100
AcDbPolyline
 90
        2
 70
     0
 43
0.0
 10
5.470122403052477
 20
6.825348107721389
 10
5.396033711051528
 20
6.83701461396644
  0
LWPOLYLINE
  5
1FBE
330
23C9
100
AcDbEntity
  8
DETAIL
 62
    28
100
AcDbPolyline
 90
        3
 70
     0
 43
0.0
 10
5.739122374247996
 20
7.053059210511206
 10
5.665033682247048
 20
7.064725716756257
 10
5.665033682247048
 20
7.063884183180917
  0
LWPOLYLINE
  5
1FC3
330
23C9
100
AcDbEntity
  8
DETAIL
 62
    28
100
AcDbPolyline
 90
        3
 70
     0
 43
0.0
 10
5.739122374247996
 20
6.903059210511207
 10
5.665033682247048
 20
6.914725716756258
 10
5.665033682247048
 20
6.910617817831394
  0
LWPOLYLINE
  5
1FC8
330
23C9
100
AcDbEntity
  8
DETAIL
 62
    28
100
AcDbPolyline
 90
        3
 70
     0
 43
0.0
 10
5.470122403052477
 20
7.125348107721389
 10
5.396033711051528
 20
7.13701461396644
 10
5.396033711051528
 20
7.13701461396644
  0
LWPOLYLINE
  5
1FCD
330
23C9
100
AcDbEntity
  8
DETAIL
 62
    28
100
AcDbPolyline
 90
        3
 70
     0
 43
0.0
 10
5.594621807305144
 20
7.087695507578264
 10
5.520533115304195
 20
7.099362013823315
 10
5.520533115304195
 20
7.099362013823315
  0
LWPOLYLINE
  5
1FD2
330
23C9
100
AcDbEntity
  8
DETAIL
 62
    28
100
AcDbPolyline
 90
        3
 70
     0
 43
0.0
 10
4.932122460661436
 20
7.419925902141755
 10
4.858033768660489
 20
7.431592408386806
 10
4.858033768660489
 20
7.430316321124753
  0
LWPOLYLINE
  5
1FD7
330
23C9
100
AcDbEntity
  8
DETAIL
 62
    28
100
AcDbPolyline
 90
        3
 70
     0
 43
0.0
 10
5.056621864914105
 20
7.382273301998629
 10
4.982533172913156
 20
7.393939808243681
 10
4.982533172913156
 20
7.392539382680948
  0
LWPOLYLINE
  5
1FDC
330
23C9
100
AcDbEntity
  8
DETAIL
 62
    28
100
AcDbPolyline
 90
        3
 70
     0
 43
0.0
 10
4.932122460661436
 20
7.269925902141755
 10
4.858033768660489
 20
7.281592408386806
 10
4.858033768660489
 20
7.281592408386806
  0
LWPOLYLINE
  5
1FE1
330
23C9
100
AcDbEntity
  8
DETAIL
 62
    28
100
AcDbPolyline
 90
        3
 70
     0
 43
0.0
 10
5.056621864914105
 20
7.23227330199863
 10
4.982533172913156
 20
7.243939808243681
 10
4.982533172913156
 20
7.243939808243681
  0
LWPOLYLINE
  5
1FE6
330
23C9
100
AcDbEntity
  8
DETAIL
 62
    28
100
AcDbPolyline
 90
        3
 70
     0
 43
0.0
 10
4.663122489465916
 20
7.342214799351938
 10
4.589033797464969
 20
7.353881305596989
 10
4.589033797464969
 20
7.353881305596989
  0
LWPOLYLINE
  5
1FEB
330
23C9
100
AcDbEntity
  8
DETAIL
 62
    28
100
AcDbPolyline
 90
        3
 70
     0
 43
0.0
 10
4.663122489465916
 20
7.192214799351937
 10
4.589033797464969
 20
7.203881305596989
 10
4.589033797464969
 20
7.203881305596989
  0
LWPOLYLINE
  5
1FF0
330
23C9
100
AcDbEntity
  8
DETAIL
 62
    28
100
AcDbPolyline
 90
        3
 70
     0
 43
0.0
 10
4.787621893718585
 20
7.304562199208812
 10
4.713533201717636
 20
7.316228705453863
 10
4.713533201717636
 20
7.316228705453863
  0
LWPOLYLINE
  5
1FF5
330
23C9
100
AcDbEntity
  8
DETAIL
 62
    28
100
AcDbPolyline
 90
        3
 70
     0
 43
0.0
 10
4.787621893718585
 20
7.154562199208812
 10
4.713533201717636
 20
7.166228705453864
 10
4.713533201717636
 20
7.161560528869511
  0
LWPOLYLINE
  5
1FFA
330
23C9
100
AcDbEntity
  8
DETAIL
 62
    28
100
AcDbPolyline
 90
        3
 70
     0
 43
0.0
 10
4.932122460661436
 20
6.969925902141755
 10
4.858033768660489
 20
6.981592408386806
 10
4.858033768660489
 20
6.981310653715749
  0
LWPOLYLINE
  5
1FFF
330
23C9
100
AcDbEntity
  8
DETAIL
 62
    28
100
AcDbPolyline
 90
        3
 70
     0
 43
0.0
 10
5.056621864914105
 20
6.932273301998629
 10
4.982533172913156
 20
6.94393980824368
 10
4.982533172913156
 20
6.940295699039009
  0
LWPOLYLINE
  5
2004
330
23C9
100
AcDbEntity
  8
DETAIL
 62
    28
100
AcDbPolyline
 90
        3
 70
     0
 43
0.0
 10
4.932122460661436
 20
6.819925902141755
 10
4.858033768660489
 20
6.831592408386806
 10
4.858033768660489
 20
6.831592408386806
  0
LWPOLYLINE
  5
2009
330
23C9
100
AcDbEntity
  8
DETAIL
 62
    28
100
AcDbPolyline
 90
        3
 70
     0
 43
0.0
 10
5.056621864914105
 20
6.78227330199863
 10
4.982533172913156
 20
6.793939808243681
 10
4.982533172913156
 20
6.793939808243681
  0
LWPOLYLINE
  5
200E
330
23C9
100
AcDbEntity
  8
DETAIL
 62
    28
100
AcDbPolyline
 90
        3
 70
     0
 43
0.0
 10
4.663122489465916
 20
7.042214799351938
 10
4.589033797464969
 20
7.053881305596989
 10
4.589033797464969
 20
7.053881305596989
  0
LWPOLYLINE
  5
2013
330
23C9
100
AcDbEntity
  8
DETAIL
 62
    28
100
AcDbPolyline
 90
        3
 70
     0
 43
0.0
 10
4.663122489465916
 20
6.742214799351938
 10
4.589033797464969
 20
6.753881305596989
 10
4.589033797464969
 20
6.753881305596989
  0
LWPOLYLINE
  5
2018
330
23C9
100
AcDbEntity
  8
DETAIL
 62
    28
100
AcDbPolyline
 90
        3
 70
     0
 43
0.0
 10
4.663122489465916
 20
6.892214799351938
 10
4.589033797464969
 20
6.903881305596989
 10
4.589033797464969
 20
6.9027945873049
  0
LWPOLYLINE
  5
201D
330
23C9
100
AcDbEntity
  8
DETAIL
 62
    28
100
AcDbPolyline
 90
        3
 70
     0
 43
0.0
 10
4.787621893718585
 20
7.004562199208813
 10
4.713533201717636
 20
7.016228705453864
 10
4.713533201717636
 20
7.016228705453864
  0
LWPOLYLINE
  5
2022
330
23C9
100
AcDbEntity
  8
DETAIL
 62
    28
100
AcDbPolyline
 90
        3
 70
     0
 43
0.0
 10
4.787621893718585
 20
6.854562199208813
 10
4.713533201717636
 20
6.866228705453864
 10
4.713533201717636
 20
6.863938318356073
  0
LWPOLYLINE
  5
2027
330
23C9
100
AcDbEntity
  8
DETAIL
 62
    28
100
AcDbPolyline
 90
        3
 70
     0
 43
0.0
 10
4.932122460661436
 20
7.119925902141755
 10
4.858033768660489
 20
7.131592408386807
 10
4.858033768660489
 20
7.131592408386807
  0
LWPOLYLINE
  5
202C
330
23C9
100
AcDbEntity
  8
DETAIL
 62
    28
100
AcDbPolyline
 90
        3
 70
     0
 43
0.0
 10
5.056621864914105
 20
7.08227330199863
 10
4.982533172913156
 20
7.093939808243681
 10
4.982533172913156
 20
7.090324048155598
  0
LWPOLYLINE
  5
2031
330
23C9
100
AcDbEntity
  8
DETAIL
 62
    28
100
AcDbPolyline
 90
        3
 70
     0
 43
0.0
 10
5.201122431856957
 20
6.897637004931572
 10
5.127033739856008
 20
6.909303511176623
 10
5.127033739856008
 20
6.908459132103481
  0
LWPOLYLINE
  5
2036
330
23C9
100
AcDbEntity
  8
DETAIL
 62
    28
100
AcDbPolyline
 90
        3
 70
     0
 43
0.0
 10
5.201122431856957
 20
6.747637004931573
 10
5.127033739856008
 20
6.759303511176624
 10
5.127033739856008
 20
6.759303511176624
  0
LWPOLYLINE
  5
203B
330
23C9
100
AcDbEntity
  8
DETAIL
 62
    28
100
AcDbPolyline
 90
        3
 70
     0
 43
0.0
 10
5.201122431856957
 20
7.347637004931572
 10
5.127033739856008
 20
7.359303511176623
 10
5.127033739856008
 20
7.359079840410839
  0
LWPOLYLINE
  5
2040
330
23C9
100
AcDbEntity
  8
DETAIL
 62
    28
100
AcDbPolyline
 90
        3
 70
     0
 43
0.0
 10
5.201122431856957
 20
7.197637004931572
 10
5.127033739856008
 20
7.209303511176623
 10
5.127033739856008
 20
7.209303511176623
  0
LWPOLYLINE
  5
2045
330
23C9
100
AcDbEntity
  8
DETAIL
 62
    28
100
AcDbPolyline
 90
        3
 70
     0
 43
0.0
 10
5.201122431856957
 20
7.047637004931572
 10
5.127033739856008
 20
7.059303511176623
 10
5.127033739856008
 20
7.059303511176623
  0
LWPOLYLINE
  5
204A
330
23C9
100
AcDbEntity
  8
DETAIL
 62
    28
100
AcDbPolyline
 90
        3
 70
     0
 43
0.0
 10
5.056621864914105
 20
6.632273301998629
 10
4.982533172913156
 20
6.643939808243681
 10
4.982533172913156
 20
6.643939808243681
  0
LWPOLYLINE
  5
204F
330
23C9
100
AcDbEntity
  8
DETAIL
 62
    28
100
AcDbPolyline
 90
        3
 70
     0
 43
0.0
 10
4.663122489465916
 20
6.592214799351938
 10
4.589033797464969
 20
6.603881305596989
 10
4.589033797464969
 20
6.603881305596989
  0
LWPOLYLINE
  5
2054
330
23C9
100
AcDbEntity
  8
DETAIL
 62
    28
100
AcDbPolyline
 90
        2
 70
     0
 43
0.0
 10
4.787621893718585
 20
6.554562199208812
 10
4.715176162249528
 20
6.565969993782918
  0
LWPOLYLINE
  5
2058
330
23C9
100
AcDbEntity
  8
0
100
AcDbPolyline
 90
        3
 70
     0
 43
0.0
 10
5.907657811984921
 20
6.745756853299373
 10
4.549167245947183
 20
6.443870060846546
 10
4.5189785667019
 20
6.443870060846546
  0
LWPOLYLINE
  5
205D
330
23C9
100
AcDbEntity
  8
DETAIL
 62
    28
100
AcDbPolyline
 90
        3
 70
     0
 43
0.0
 10
4.787621893718585
 20
6.704562199208812
 10
4.713533201717636
 20
6.716228705453863
 10
4.713533201717636
 20
6.716228705453863
  0
LWPOLYLINE
  5
2062
330
23C9
100
AcDbEntity
  8
DETAIL
 62
    28
100
AcDbPolyline
 90
        3
 70
     0
 43
0.0
 10
4.932122460661436
 20
6.669925902141755
 10
4.858033768660489
 20
6.681592408386806
 10
4.858033768660489
 20
6.681592408386806
  0
LWPOLYLINE
  5
2067
330
23C9
100
AcDbEntity
  8
DETAIL
 62
    28
100
AcDbPolyline
 90
        3
 70
     0
 43
0.0
 10
5.325621836109624
 20
6.709984404788447
 10
5.251533144108675
 20
6.721650911033498
 10
5.251533144108675
 20
6.720653893978827
  0
LINE
  5
206C
330
23C9
100
AcDbEntity
  8
0
100
AcDbLine
 10
6.360488000664166
 20
6.443870060846546
 30
0.0
 11
4.368035170475483
 21
6.051417230657865
 31
0.0
  0
LINE
  5
206D
330
23C9
100
AcDbEntity
  8
0
100
AcDbLine
 10
6.058601208211334
 20
6.504247419337109
 30
0.0
 11
6.360488000664166
 21
6.443870060846546
 31
0.0
  0
LWPOLYLINE
  5
206E
330
23C9
100
AcDbEntity
  8
DETAIL
 62
    28
100
AcDbPolyline
 90
        6
 70
     0
 43
0.0
 10
6.104026353218345
 20
7.165241577691369
 10
6.112472006114039
 20
7.033588908609477
 10
6.131052420250185
 20
6.974514009480782
 10
6.136119819399056
 20
6.900248405192432
 10
6.180037229279563
 20
6.766907901775383
 10
6.168188951311345
 20
6.482329870717108
  0
LWPOLYLINE
  5
2076
330
23C9
100
AcDbEntity
  8
DETAIL
 62
    28
100
AcDbPolyline
 90
        6
 70
     0
 43
0.0
 10
6.05673065253373
 20
7.190559397830437
 10
6.088789887456619
 20
6.957077608016355
 10
6.118978566701902
 20
6.83632289103522
 10
6.10237734086158
 20
6.746141716178219
 10
6.12264693745707
 20
6.622928327740581
 10
6.097309978769999
 20
6.49296351478754
 42
1.415133889798546
  0
LWPOLYLINE
  5
207E
330
23C9
100
AcDbEntity
  8
DETAIL
 62
    28
100
AcDbPolyline
 90
        6
 70
     0
 43
0.0
 10
6.104164422366241
 20
7.516993549430259
 10
6.133905232443402
 20
7.470285155186168
 10
6.149167245947183
 20
7.349530438205033
 10
6.148239435705962
 20
7.292450290711367
 10
6.136119819399056
 20
7.198998656680995
 10
6.149167245947183
 20
7.077832324997488
  0
LINE
  5
2086
330
23C9
100
AcDbEntity
  8
0
100
AcDbLine
 10
5.907657811984921
 20
7.500473834431453
 30
0.0
 11
6.058601208211334
 21
7.530662513676731
 31
0.0
  0
LWPOLYLINE
  5
2087
330
23C9
100
AcDbEntity
  8
0
100
AcDbPolyline
 90
        4
 70
     0
 43
0.0
 10
5.877469132739636
 20
7.772171947638999
 10
5.907657811984921
 20
7.772171947638999
 10
5.907657811984921
 20
6.745756853299373
 10
5.877469132739636
 20
6.745756853299373
  0
LINE
  5
208D
330
23C9
100
AcDbEntity
  8
0
100
AcDbLine
 10
6.360488000664166
 20
6.443870060846546
 30
0.0
 11
6.360488000664166
 21
7.862737985374842
 31
0.0
  0
LINE
  5
208E
330
23C9
100
AcDbEntity
  8
0
100
AcDbLine
 10
6.058601208211334
 20
7.953304023110697
 30
0.0
 11
6.058601208211334
 21
6.504247419337109
 31
0.0
  0
LINE
  5
208F
330
23C9
100
AcDbEntity
  8
0
100
AcDbLine
 10
6.058601208211334
 20
7.530662513676731
 30
0.0
 11
6.360488000664166
 21
7.440096475940884
 31
0.0
  0
LWPOLYLINE
  5
2090
330
23C9
100
AcDbEntity
  8
0
100
AcDbPolyline
 90
        5
 70
     0
 43
0.0
 10
4.5189785667019
 20
6.443870060846546
 10
4.5189785667019
 20
7.379719117450318
 10
5.877469132739636
 20
7.772171947638999
 10
5.877469132739636
 20
6.745756853299373
 10
4.5189785667019
 20
6.443870060846546
  0
LWPOLYLINE
  5
2097
330
23C9
100
AcDbEntity
  8
DETAIL
 62
    28
100
AcDbPolyline
 90
        3
 70
     0
 43
0.0
 10
5.201122431856957
 20
7.497637004931573
 10
5.127033739856008
 20
7.509303511176624
 10
5.127033739856008
 20
7.509303511176624
  0
LWPOLYLINE
  5
209C
330
23C9
100
AcDbEntity
  8
DETAIL
 62
    28
100
AcDbPolyline
 90
        3
 70
     0
 43
0.0
 10
5.594621807305144
 20
7.537695507578264
 10
5.520533115304195
 20
7.549362013823316
 10
5.520533115304195
 20
7.549362013823316
  0
LWPOLYLINE
  5
20A1
330
23C9
100
AcDbEntity
  8
DETAIL
 62
    28
100
AcDbPolyline
 90
        3
 70
     0
 43
0.0
 10
5.739122374247996
 20
7.503059210511207
 10
5.665033682247048
 20
7.514725716756258
 10
5.665033682247048
 20
7.514725716756258
  0
LWPOLYLINE
  5
20A6
330
23C9
100
AcDbEntity
  8
DETAIL
 62
    28
100
AcDbPolyline
 90
        4
 70
     0
 43
0.0
 10
6.330299321418883
 20
7.862737985374842
 10
6.344241906187213
 20
7.681605909903148
 10
6.330299321418883
 20
7.530662513676731
 10
6.360488000664166
 20
7.470285155186168
  0
LWPOLYLINE
  5
20AC
330
23C9
100
AcDbEntity
  8
DETAIL
 62
    28
100
AcDbPolyline
 90
        4
 70
     0
 43
0.0
 10
6.291365602536908
 20
7.883474704813021
 10
6.312754383180161
 20
7.711794589148429
 10
6.300110642173598
 20
7.560851192922016
 10
6.343807836212088
 20
7.445100525276507
  0
LWPOLYLINE
  5
20B2
330
23C9
100
AcDbEntity
  8
DETAIL
 62
    28
100
AcDbPolyline
 90
        6
 70
     0
 43
0.0
 10
6.261195737635239
 20
7.892525664283522
 10
6.254817344014034
 20
7.736948251240957
 10
6.269921962928317
 20
7.621228551412582
 10
6.269921962928317
 20
7.560851192922016
 10
6.311917620437813
 20
7.454667590008789
 10
6.311917620437813
 20
7.454667590008789
  0
LWPOLYLINE
  5
20BA
330
23C9
100
AcDbEntity
  8
DETAIL
 62
    28
100
AcDbPolyline
 90
        4
 70
     0
 43
0.0
 10
6.21863479500772
 20
7.905293947071778
 10
6.209544604437751
 20
7.651417230657867
 10
6.239733283683032
 20
7.591039872167301
 10
6.258419323595296
 20
7.470717079061544
  0
LWPOLYLINE
  5
20C0
330
23C9
100
AcDbEntity
  8
DETAIL
 62
    28
100
AcDbPolyline
 90
        4
 70
     0
 43
0.0
 10
6.190080564720622
 20
7.913860216157908
 10
6.179355925192468
 20
7.681605909903148
 10
6.179355925192468
 20
7.560851192922016
 10
6.192672941737959
 20
7.490440993618744
  0
LWPOLYLINE
  5
20C6
330
23C9
100
AcDbEntity
  8
DETAIL
 62
    28
100
AcDbPolyline
 90
        4
 70
     0
 43
0.0
 10
6.154522990368992
 20
7.924527488463397
 10
6.149167245947183
 20
7.862737985374842
 10
6.149167245947183
 20
7.651417230657867
 10
6.074585235908284
 20
7.525867305367646
  0
LINE
  5
20CC
330
23C9
100
AcDbEntity
  8
0
100
AcDbLine
 10
3.933049140277912
 20
8.286715503062755
 30
0.0
 11
4.131017715547705
 21
8.232877201435954
 31
0.0
  0
ARC
  5
20CD
330
23C9
100
AcDbEntity
  8
0
100
AcDbCircle
 10
3.943454399802983
 20
8.234776828447641
 30
0.0
 40
0.025
100
AcDbArc
 50
81.74747095286399
 51
154.4189721340632
  0
ARC
  5
20CE
330
23C9
100
AcDbEntity
  8
0
100
AcDbCircle
 10
3.604113979731194
 20
8.306422775472822
 30
0.0
 40
0.0321185403054263
100
AcDbArc
 50
85.4550054130993
 51
177.3381714653072
  0
ARC
  5
20CF
330
23C9
100
AcDbEntity
  8
0
100
AcDbCircle
 10
3.500168337901283
 20
8.329382693307547
 30
0.0
 40
0.075
100
AcDbArc
 50
267.502910276254
 51
343.3667756719953
  0
INSERT
  5
20D0
330
23C9
100
AcDbEntity
  8
0
100
AcDbBlockReference
  2
A*C6B4F5082
 10
3.620287836556978
 20
8.042723684124256
 30
0.0
 41
0.5
 42
0.5
 43
0.5
  0
LINE
  5
20D1
330
23C9
100
AcDbEntity
  8
0
100
AcDbLine
 10
3.601084589707133
 20
8.339326948141153
 30
0.0
 11
3.930338010758058
 21
8.286958979682083
 31
0.0
  0
ARC
  5
20D2
330
23C9
100
AcDbEntity
  8
0
100
AcDbCircle
 10
3.929460732646387
 20
8.261974376761188
 30
0.0
 40
0.025
100
AcDbArc
 50
81.74747095286399
 51
154.4189721340632
  0
LINE
  5
20D3
330
23C9
100
AcDbEntity
  8
0
100
AcDbLine
 10
3.130299321418882
 20
7.651417230657867
 30
0.0
 11
3.160488000664165
 21
7.651417230657867
 31
0.0
  0
LINE
  5
20D4
330
23C9
100
AcDbEntity
  8
0
100
AcDbLine
 10
3.160488000664165
 20
7.651417230657867
 30
0.0
 11
3.425890204227027
 21
8.211710652300759
 31
0.0
  0
LINE
  5
20D5
330
23C9
100
AcDbEntity
  8
0
100
AcDbLine
 10
3.130299321418882
 20
7.651417230657867
 30
0.0
 11
3.394248109447794
 21
8.208642449830014
 31
0.0
  0
ARC
  5
20D6
330
23C9
100
AcDbEntity
  8
0
100
AcDbCircle
 10
3.4989626325104
 20
8.17064545843497
 30
0.0
 40
0.0838338133737751
100
AcDbArc
 50
91.40936606020104
 51
158.7681025274931
  0
ARC
  5
20D7
330
23C9
100
AcDbEntity
  8
0
100
AcDbCircle
 10
3.489655912072227
 20
8.137300640086004
 30
0.0
 40
0.1191314510075906
100
AcDbArc
 50
84.38638902552408
 51
143.2124565617721
  0
LINE
  5
20D8
330
23C9
100
AcDbEntity
  8
0
100
AcDbLine
 10
2.043506868588692
 20
8.194813457072957
 30
0.0
 11
1.983129510098128
 21
8.194813457072957
 31
0.0
  0
LINE
  5
20D9
330
23C9
100
AcDbEntity
  8
0
100
AcDbLine
 10
2.103884227079259
 20
8.074058740091825
 30
0.0
 11
2.023445664898807
 21
8.084476836778588
 31
0.0
  0
LINE
  5
20DA
330
23C9
100
AcDbEntity
  8
0
100
AcDbLine
 10
1.983129510098128
 20
8.194813457072957
 30
0.0
 11
2.103884227079259
 21
8.074058740091825
 31
0.0
  0
LINE
  5
20DB
330
23C9
100
AcDbEntity
  8
0
100
AcDbLine
 10
2.023445664898806
 20
8.084476836778588
 30
0.0
 11
1.967280453494352
 21
7.775568174054093
 31
0.0
  0
LINE
  5
20DC
330
23C9
100
AcDbEntity
  8
0
100
AcDbLine
 10
2.103884227079259
 20
8.526888928771069
 30
0.0
 11
2.043506868588692
 21
8.194813457072957
 31
0.0
  0
LINE
  5
20DD
330
23C9
100
AcDbEntity
  8
0
100
AcDbLine
 10
2.103884227079259
 20
8.526888928771069
 30
0.0
 11
3.570360711326547
 21
8.314193866170317
 31
0.0
  0
INSERT
  5
20DE
330
23C9
100
AcDbEntity
  8
0
100
AcDbBlockReference
  2
A*C404314E8
 10
3.97164912415734
 20
7.231440695922041
 30
0.0
 41
0.5
 42
0.5
 43
0.5
  0
ARC
  5
20DF
330
23C9
100
AcDbEntity
  8
0
100
AcDbCircle
 10
3.469558188039867
 20
7.541991907804069
 30
0.0
 40
0.1034827629991306
100
AcDbArc
 50
277.2327708560671
 51
331.0810284568521
  0
ARC
  5
20E0
330
23C9
100
AcDbEntity
  8
0
100
AcDbCircle
 10
3.455273776381509
 20
7.514460450155372
 30
0.0
 40
0.079938700370695
100
AcDbArc
 50
289.978884267665
 51
334.2097581728712
  0
LINE
  5
20E1
330
23C9
100
AcDbEntity
  8
0
100
AcDbLine
 10
3.482586736438053
 20
7.43933257230763
 30
0.0
 11
3.476198221500916
 21
7.436139660427418
 31
0.0
  0
INSERT
  5
20E2
330
23C9
100
AcDbEntity
  8
0
100
AcDbBlockReference
  2
A*C404314E8
 10
3.800863071589104
 20
7.245253636354988
 30
0.0
 41
0.5
 42
0.5
 43
0.5
  0
LWPOLYLINE
  5
20E3
330
23C9
100
AcDbEntity
  8
0
100
AcDbPolyline
 90
       10
 70
   128
 43
0.0
 10
-3.890482447557154
 20
7.108478080624831
 10
-3.892723638527995
 20
7.103444170853243
 10
-3.894370946291514
 20
7.097856573942854
 10
-3.895372348365316
 20
7.091891747911006
 10
-3.895696220166
 20
7.08573806378593
 10
-3.895332333723165
 20
7.079589856792137
 10
-3.894292180681833
 20
7.073641289184658
 10
-3.8926086093928
 20
7.068080218545717
 10
-3.890334787551675
 20
7.0630822651849
 10
-3.88754252314681
 20
7.058805265996125
210
0.0
220
0.0
230
-1.0
  0
LINE
  5
20EF
330
23C9
100
AcDbEntity
  8
0
100
AcDbLine
 10
3.734072906324544
 20
7.396969791304766
 30
0.0
 11
3.734072906324544
 21
6.883762244134957
 31
0.0
  0
LINE
  5
20F0
330
23C9
100
AcDbEntity
  8
0
100
AcDbLine
 10
4.035959698777372
 20
7.332279764350589
 30
0.0
 11
4.035959698777372
 21
6.970015613407193
 31
0.0
  0
LINE
  5
20F1
330
23C9
100
AcDbEntity
  8
0
100
AcDbLine
 10
3.764261585569823
 20
7.39050078860935
 30
0.0
 11
3.764261585569823
 21
6.892387581062179
 31
0.0
  0
LWPOLYLINE
  5
20F2
330
23C9
100
AcDbEntity
  8
0
100
AcDbPolyline
 90
       33
 70
   129
 43
0.0
 10
-3.904113970679921
 20
7.116122288990797
 10
-3.908235424525209
 20
7.115493455730047
 10
-3.912207660025777
 20
7.113631378655844
 10
-3.915887110241076
 20
7.110603358085244
 10
-3.919140790253613
 20
7.106518834571096
 10
-3.921851103590353
 20
7.101525433435326
 10
-3.923920092465652
 20
7.09580362920516
 10
-3.925272978230861
 20
7.089560222793493
 10
-3.925860864069515
 20
7.083020867175076
 10
-3.925662502255684
 20
7.076421911700087
 10
-3.924685062102146
 20
7.070001859812801
 10
-3.922963870842746
 20
7.063992748915707
 10
-3.920561136814118
 20
7.058611763933212
 10
-3.917563701084319
 20
7.054053387682602
 10
-3.914079898790367
 20
7.050482371758308
 10
-3.910235643624124
 20
7.048027781980026
 10
-3.906169876983406
 20
7.046778333617714
 10
-3.902029546267862
 20
7.046779184990592
 10
-3.897964293817077
 20
7.048030305327825
 10
-3.894121048446535
 20
7.050486475880664
 10
-3.890638715057404
 20
7.054058924245839
 10
-3.8876431542515
 20
7.058618532831511
 10
-3.885242633401206
 20
7.064000505503446
 10
-3.883523913584547
 20
7.07001032374669
 10
-3.882549113813777
 20
7.076430777071503
 10
-3.882353465892429
 20
7.083029813566397
 10
-3.882944041046136
 20
7.089568926858827
 10
-3.884299494350114
 20
7.095811776356909
 10
-3.886370836190359
 20
7.101532729214197
 10
-3.889083202875935
 20
7.106525015288632
 10
-3.892338562407823
 20
7.110608200354209
 10
-3.896019257610784
 20
7.113634707464023
 10
-3.899992258570226
 20
7.115495150765638
210
0.0
220
0.0
230
-1.0
  0
INSERT
  5
2115
330
23C9
100
AcDbEntity
  8
0
100
AcDbBlockReference
  2
A*C404314E8
 10
3.396308429551203
 20
7.322632668199345
 30
0.0
 41
0.5
 42
0.5
 43
0.5
  0
INSERT
  5
2116
330
23C9
100
AcDbEntity
  8
0
100
AcDbBlockReference
  2
A*C404314E8
 10
3.201715173854238
 20
7.269042849327263
 30
0.0
 41
0.5
 42
0.5
 43
0.5
  0
INSERT
  5
2117
330
23C9
100
AcDbEntity
  8
0
100
AcDbBlockReference
  2
A*C404314E8
 10
3.396308429551203
 20
6.943473994325753
 30
0.0
 41
0.5
 42
0.5
 43
0.5
  0
LWPOLYLINE
  5
2118
330
23C9
100
AcDbEntity
  8
0
100
AcDbPolyline
 90
       33
 70
   129
 43
0.0
 10
-3.304966072945055
 20
6.784542028122054
 10
-3.309087526790342
 20
6.783913194861305
 10
-3.313059762290911
 20
6.782051117787102
 10
-3.316739212506211
 20
6.779023097216501
 10
-3.319992892518747
 20
6.774938573702354
 10
-3.322703205855486
 20
6.769945172566584
 10
-3.324772194730786
 20
6.764223368336418
 10
-3.326125080495995
 20
6.75797996192475
 10
-3.326712966334649
 20
6.751440606306334
 10
-3.326514604520818
 20
6.744841650831345
 10
-3.32553716436728
 20
6.738421598944059
 10
-3.323815973107879
 20
6.732412488046965
 10
-3.321413239079251
 20
6.727031503064469
 10
-3.318415803349452
 20
6.72247312681386
 10
-3.3149320010555
 20
6.718902110889566
 10
-3.311087745889257
 20
6.716447521111284
 10
-3.30702197924854
 20
6.715198072748971
 10
-3.302881648532996
 20
6.715198924121849
 10
-3.298816396082211
 20
6.716450044459083
 10
-3.294973150711668
 20
6.718906215011922
 10
-3.291490817322538
 20
6.722478663377097
 10
-3.288495256516634
 20
6.727038271962768
 10
-3.28609473566634
 20
6.732420244634704
 10
-3.28437601584968
 20
6.738430062877947
 10
-3.283401216078911
 20
6.74485051620276
 10
-3.283205568157563
 20
6.751449552697655
 10
-3.28379614331127
 20
6.757988665990085
 10
-3.285151596615248
 20
6.764231515488167
 10
-3.287222938455493
 20
6.769952468345455
 10
-3.289935305141069
 20
6.77494475441989
 10
-3.293190664672957
 20
6.779027939485466
 10
-3.296871359875918
 20
6.78205444659528
 10
-3.30084436083536
 20
6.783914889896896
210
0.0
220
0.0
230
-1.0
  0
LWPOLYLINE
  5
213B
330
23C9
100
AcDbEntity
  8
0
100
AcDbPolyline
 90
       10
 70
   128
 43
0.0
 10
-3.291334549822288
 20
6.776897819756089
 10
-3.293575740793129
 20
6.771863909984501
 10
-3.295223048556648
 20
6.766276313074112
 10
-3.296224450630449
 20
6.760311487042263
 10
-3.296548322431134
 20
6.754157802917187
 10
-3.296184435988298
 20
6.748009595923395
 10
-3.295144282946967
 20
6.742061028315916
 10
-3.293460711657934
 20
6.736499957676974
 10
-3.291186889816808
 20
6.731502004316157
 10
-3.288394625411944
 20
6.727225005127383
210
0.0
220
0.0
230
-1.0
  0
INSERT
  5
2147
330
23C9
100
AcDbEntity
  8
0
100
AcDbBlockReference
  2
A*C404314E8
 10
3.201715173854238
 20
6.889884175453672
 30
0.0
 41
0.5
 42
0.5
 43
0.5
  0
LWPOLYLINE
  5
2148
330
23C9
100
AcDbEntity
  8
0
100
AcDbPolyline
 90
       33
 70
   129
 43
0.0
 10
-3.304966072945055
 20
7.163700701995646
 10
-3.309087526790342
 20
7.163071868734897
 10
-3.313059762290911
 20
7.161209791660694
 10
-3.316739212506211
 20
7.158181771090093
 10
-3.319992892518747
 20
7.154097247575946
 10
-3.322703205855486
 20
7.149103846440176
 10
-3.324772194730786
 20
7.14338204221001
 10
-3.326125080495995
 20
7.137138635798342
 10
-3.326712966334649
 20
7.130599280179926
 10
-3.326514604520818
 20
7.124000324704936
 10
-3.32553716436728
 20
7.117580272817651
 10
-3.323815973107879
 20
7.111571161920557
 10
-3.321413239079251
 20
7.106190176938061
 10
-3.318415803349452
 20
7.101631800687452
 10
-3.3149320010555
 20
7.098060784763158
 10
-3.311087745889257
 20
7.095606194984875
 10
-3.30702197924854
 20
7.094356746622563
 10
-3.302881648532996
 20
7.094357597995441
 10
-3.298816396082211
 20
7.095608718332675
 10
-3.294973150711668
 20
7.098064888885514
 10
-3.291490817322538
 20
7.101637337250689
 10
-3.288495256516634
 20
7.10619694583636
 10
-3.28609473566634
 20
7.111578918508296
 10
-3.28437601584968
 20
7.117588736751539
 10
-3.283401216078911
 20
7.124009190076352
 10
-3.283205568157563
 20
7.130608226571247
 10
-3.28379614331127
 20
7.137147339863676
 10
-3.285151596615248
 20
7.143390189361758
 10
-3.287222938455493
 20
7.149111142219047
 10
-3.289935305141069
 20
7.154103428293482
 10
-3.293190664672957
 20
7.158186613359058
 10
-3.296871359875918
 20
7.161213120468872
 10
-3.30084436083536
 20
7.163073563770488
210
0.0
220
0.0
230
-1.0
  0
LWPOLYLINE
  5
216B
330
23C9
100
AcDbEntity
  8
0
100
AcDbPolyline
 90
       10
 70
   128
 43
0.0
 10
-3.291334549822288
 20
7.156056493629681
 10
-3.293575740793129
 20
7.151022583858093
 10
-3.295223048556648
 20
7.145434986947704
 10
-3.296224450630449
 20
7.139470160915855
 10
-3.296548322431134
 20
7.133316476790779
 10
-3.296184435988298
 20
7.127168269796987
 10
-3.295144282946967
 20
7.121219702189507
 10
-3.293460711657934
 20
7.115658631550566
 10
-3.291186889816808
 20
7.110660678189749
 10
-3.288394625411944
 20
7.106383679000975
210
0.0
220
0.0
230
-1.0
  0
ARC
  5
2177
330
23C9
100
AcDbEntity
  8
0
100
AcDbCircle
 10
3.487374793116995
 20
7.413777096913575
 30
0.0
 40
0.025
100
AcDbArc
 50
116.5553959717748
 51
180.0
  0
INSERT
  5
2178
330
23C9
100
AcDbEntity
  8
0
100
AcDbBlockReference
  2
A*C404314E8
 10
3.396308429551203
 20
6.589032374672701
 30
0.0
 41
0.5
 42
0.5
 43
0.5
  0
INSERT
  5
2179
330
23C9
100
AcDbEntity
  8
0
100
AcDbBlockReference
  2
A*C404314E8
 10
3.201715173854238
 20
6.524910376885096
 30
0.0
 41
0.5
 42
0.5
 43
0.5
  0
LWPOLYLINE
  5
217A
330
23C9
100
AcDbEntity
  8
0
100
AcDbPolyline
 90
       10
 70
   128
 43
0.0
 10
-3.291334549822288
 20
6.411924021187513
 10
-3.293575740793129
 20
6.406890111415925
 10
-3.295223048556648
 20
6.401302514505536
 10
-3.296224450630449
 20
6.395337688473687
 10
-3.296548322431134
 20
6.389184004348611
 10
-3.296184435988298
 20
6.383035797354819
 10
-3.295144282946967
 20
6.37708722974734
 10
-3.293460711657934
 20
6.371526159108399
 10
-3.291186889816808
 20
6.366528205747581
 10
-3.288394625411944
 20
6.362251206558807
210
0.0
220
0.0
230
-1.0
  0
LWPOLYLINE
  5
2186
330
23C9
100
AcDbEntity
  8
0
100
AcDbPolyline
 90
       33
 70
   129
 43
0.0
 10
-3.304966072945055
 20
6.419568229553478
 10
-3.309087526790342
 20
6.418939396292729
 10
-3.313059762290911
 20
6.417077319218526
 10
-3.316739212506211
 20
6.414049298647925
 10
-3.319992892518747
 20
6.409964775133778
 10
-3.322703205855486
 20
6.404971373998008
 10
-3.324772194730786
 20
6.399249569767842
 10
-3.326125080495995
 20
6.393006163356175
 10
-3.326712966334649
 20
6.386466807737758
 10
-3.326514604520818
 20
6.379867852262769
 10
-3.32553716436728
 20
6.373447800375483
 10
-3.323815973107879
 20
6.367438689478389
 10
-3.321413239079251
 20
6.362057704495894
 10
-3.318415803349452
 20
6.357499328245284
 10
-3.3149320010555
 20
6.35392831232099
 10
-3.311087745889257
 20
6.351473722542708
 10
-3.30702197924854
 20
6.350224274180396
 10
-3.302881648532996
 20
6.350225125553274
 10
-3.298816396082211
 20
6.351476245890507
 10
-3.294973150711668
 20
6.353932416443346
 10
-3.291490817322538
 20
6.357504864808521
 10
-3.288495256516634
 20
6.362064473394193
 10
-3.28609473566634
 20
6.367446446066128
 10
-3.28437601584968
 20
6.373456264309372
 10
-3.283401216078911
 20
6.379876717634184
 10
-3.283205568157563
 20
6.386475754129079
 10
-3.28379614331127
 20
6.393014867421509
 10
-3.285151596615248
 20
6.399257716919591
 10
-3.287222938455493
 20
6.404978669776879
 10
-3.289935305141069
 20
6.409970955851314
 10
-3.293190664672957
 20
6.414054140916891
 10
-3.296871359875918
 20
6.417080648026705
 10
-3.30084436083536
 20
6.41894109132832
210
0.0
220
0.0
230
-1.0
  0
INSERT
  5
21A9
330
23C9
100
AcDbEntity
  8
0
100
AcDbBlockReference
  2
A*C404314E8
 10
3.396308429551203
 20
6.22096895079641
 30
0.0
 41
0.5
 42
0.5
 43
0.5
  0
LINE
  5
21AA
330
23C9
100
AcDbEntity
  8
0
100
AcDbLine
 10
3.462374793116995
 20
6.189876586594878
 30
0.0
 11
3.462374793116995
 21
7.413777096913575
 31
0.0
  0
LINE
  5
21AB
330
23C9
100
AcDbEntity
  8
DETAIL
100
AcDbLine
 10
2.315204981796239
 20
6.292926664620133
 30
0.0
 11
2.238586970024476
 21
6.318466001877384
 31
0.0
  0
LINE
  5
21AC
330
23C9
100
AcDbEntity
  8
DETAIL
100
AcDbLine
 10
2.375582340286806
 20
6.330304411738705
 30
0.0
 11
2.315204981796239
 21
6.292926664620133
 31
0.0
  0
LINE
  5
21AD
330
23C9
100
AcDbEntity
  8
0
100
AcDbLine
 10
2.375582340286806
 20
6.353304023110695
 30
0.0
 11
2.103930725849983
 21
6.284222822091339
 31
0.0
  0
LINE
  5
21AE
330
23C9
100
AcDbEntity
  8
DETAIL
100
AcDbLine
 10
2.375582340286806
 20
6.232549306129563
 30
0.0
 11
2.315204981796239
 21
6.262737985374848
 31
0.0
  0
LINE
  5
21AF
330
23C9
100
AcDbEntity
  8
DETAIL
100
AcDbLine
 10
2.285016302550957
 20
5.991039872167296
 30
0.0
 11
2.224638944060391
 21
6.02122855141258
 31
0.0
  0
LINE
  5
21B0
330
23C9
100
AcDbEntity
  8
0
100
AcDbLine
 10
2.164261585569825
 20
5.930662513676733
 30
0.0
 11
2.375582340286806
 21
5.900473834431448
 31
0.0
  0
LINE
  5
21B1
330
23C9
100
AcDbEntity
  8
DETAIL
100
AcDbLine
 10
2.375582340286806
 20
5.930662513676733
 30
0.0
 11
2.315204981796239
 21
5.960851192922018
 31
0.0
  0
LINE
  5
21B2
330
23C9
100
AcDbEntity
  8
DETAIL
100
AcDbLine
 10
2.375582340286806
 20
5.991039872167296
 30
0.0
 11
2.285016302550957
 21
5.991039872167296
 31
0.0
  0
LINE
  5
21B3
330
23C9
100
AcDbEntity
  8
DETAIL
100
AcDbLine
 10
2.375582340286806
 20
6.047625939677214
 30
0.0
 11
2.285016302550957
 21
6.08160590990315
 31
0.0
  0
LINE
  5
21B4
330
23C9
100
AcDbEntity
  8
DETAIL
100
AcDbLine
 10
2.01331818934341
 20
6.08160590990315
 30
0.0
 11
1.922752151607561
 21
6.111794589148431
 31
0.0
  0
LINE
  5
21B5
330
23C9
100
AcDbEntity
  8
DETAIL
100
AcDbLine
 10
2.01331818934341
 20
6.172171947638997
 30
0.0
 11
1.983129510098128
 21
6.172171947638997
 31
0.0
  0
LINE
  5
21B6
330
23C9
100
AcDbEntity
  8
DETAIL
100
AcDbLine
 10
2.103884227079259
 20
6.141983268393716
 30
0.0
 11
2.01331818934341
 21
6.172171947638997
 31
0.0
  0
LINE
  5
21B7
330
23C9
100
AcDbEntity
  8
DETAIL
100
AcDbLine
 10
1.983129510098128
 20
6.172171947638997
 30
0.0
 11
1.922752151607561
 21
6.202360626884278
 31
0.0
  0
LINE
  5
21B8
330
23C9
100
AcDbEntity
  8
DETAIL
100
AcDbLine
 10
1.892563472362278
 20
6.111794589148431
 30
0.0
 11
1.771808755381147
 21
6.111794589148431
 31
0.0
  0
LINE
  5
21B9
330
23C9
100
AcDbEntity
  8
DETAIL
100
AcDbLine
 10
1.832186113871711
 20
6.172171947638997
 30
0.0
 11
1.771808755381147
 21
6.172171947638997
 31
0.0
  0
LINE
  5
21BA
330
23C9
100
AcDbEntity
  8
0
100
AcDbLine
 10
1.922752151607561
 20
6.238148980293678
 30
0.0
 11
1.771808755381148
 21
6.19976396602134
 31
0.0
  0
LINE
  5
21BB
330
23C9
100
AcDbEntity
  8
DETAIL
100
AcDbLine
 10
1.922752151607561
 20
6.178357162024526
 30
0.0
 11
1.847484731454145
 21
6.217495822098879
 31
0.0
  0
LINE
  5
21BC
330
23C9
100
AcDbEntity
  8
DETAIL
100
AcDbLine
 10
1.922752151607561
 20
6.08160590990315
 30
0.0
 11
1.892563472362278
 21
6.111794589148431
 31
0.0
  0
LINE
  5
21BD
330
23C9
100
AcDbEntity
  8
DETAIL
100
AcDbLine
 10
1.922752151607561
 20
6.141983268393716
 30
0.0
 11
1.832186113871711
 21
6.172171947638997
 31
0.0
  0
LINE
  5
21BE
330
23C9
100
AcDbEntity
  8
DETAIL
100
AcDbLine
 10
2.103930725849981
 20
5.993981602325444
 30
0.0
 11
2.043506868588692
 21
6.02122855141258
 31
0.0
  0
LINE
  5
21BF
330
23C9
100
AcDbEntity
  8
DETAIL
100
AcDbLine
 10
1.971923671023005
 20
6.02122855141258
 30
0.0
 11
1.922752151607561
 21
6.051417230657865
 31
0.0
  0
LINE
  5
21C0
330
23C9
100
AcDbEntity
  8
DETAIL
100
AcDbLine
 10
1.983129510098128
 20
5.991039872167296
 30
0.0
 11
1.922752151607561
 21
5.991039872167296
 31
0.0
  0
LINE
  5
21C1
330
23C9
100
AcDbEntity
  8
DETAIL
100
AcDbLine
 10
2.043506868588692
 20
6.02122855141258
 30
0.0
 11
1.971923671023005
 21
6.02122855141258
 31
0.0
  0
LINE
  5
21C2
330
23C9
100
AcDbEntity
  8
DETAIL
100
AcDbLine
 10
1.971760864987752
 20
5.875969477741354
 30
0.0
 11
1.922752151607561
 21
5.900473834431448
 31
0.0
  0
LINE
  5
21C3
330
23C9
100
AcDbEntity
  8
DETAIL
100
AcDbLine
 10
2.043506868588692
 20
5.900473834431448
 30
0.0
 11
1.922752151607561
 21
5.960851192922018
 31
0.0
  0
LINE
  5
21C4
330
23C9
100
AcDbEntity
  8
DETAIL
100
AcDbLine
 10
2.103930725849981
 20
5.933604243834882
 30
0.0
 11
1.983129510098128
 21
5.991039872167296
 31
0.0
  0
LINE
  5
21C5
330
23C9
100
AcDbEntity
  8
DETAIL
100
AcDbLine
 10
1.862374793116996
 20
6.02122855141258
 30
0.0
 11
1.771808755381147
 21
6.051417230657865
 31
0.0
  0
LINE
  5
21C6
330
23C9
100
AcDbEntity
  8
DETAIL
100
AcDbLine
 10
1.832186113871711
 20
5.991039872167296
 30
0.0
 11
1.771808755381147
 21
5.991039872167296
 31
0.0
  0
LINE
  5
21C7
330
23C9
100
AcDbEntity
  8
DETAIL
100
AcDbLine
 10
1.862374793116996
 20
5.900473834431448
 30
0.0
 11
1.771808755381147
 21
5.930662513676733
 31
0.0
  0
LINE
  5
21C8
330
23C9
100
AcDbEntity
  8
DETAIL
100
AcDbLine
 10
1.922752151607561
 20
5.900473834431448
 30
0.0
 11
1.862374793116996
 21
5.900473834431448
 31
0.0
  0
LINE
  5
21C9
330
23C9
100
AcDbEntity
  8
DETAIL
100
AcDbLine
 10
1.922752151607561
 20
5.960851192922018
 30
0.0
 11
1.832186113871711
 21
5.991039872167296
 31
0.0
  0
LINE
  5
21CA
330
23C9
100
AcDbEntity
  8
DETAIL
100
AcDbLine
 10
1.922752151607561
 20
6.02122855141258
 30
0.0
 11
1.862374793116996
 21
6.02122855141258
 31
0.0
  0
LINE
  5
21CB
330
23C9
100
AcDbEntity
  8
DETAIL
100
AcDbLine
 10
2.103930725849983
 20
6.063091252592258
 30
0.0
 11
2.01331818934341
 21
6.08160590990315
 31
0.0
  0
LINE
  5
21CC
330
23C9
100
AcDbEntity
  8
0
100
AcDbLine
 10
2.164261585569825
 20
5.930662513676733
 30
0.0
 11
1.952940830852843
 21
5.870285155186167
 31
0.0
  0
LINE
  5
21CD
330
23C9
100
AcDbEntity
  8
DETAIL
100
AcDbLine
 10
2.315204981796239
 20
5.960851192922018
 30
0.0
 11
2.103930725849981
 21
5.963792923080167
 31
0.0
  0
LINE
  5
21CE
330
23C9
100
AcDbEntity
  8
DETAIL
100
AcDbLine
 10
2.164261585569825
 20
5.900473834431448
 30
0.0
 11
2.007839919885405
 21
5.886866641054366
 31
0.0
  0
LINE
  5
21CF
330
23C9
100
AcDbEntity
  8
DETAIL
100
AcDbLine
 10
2.224638944060391
 20
6.02122855141258
 30
0.0
 11
2.103930725849981
 21
6.024170281570729
 31
0.0
  0
LINE
  5
21D0
330
23C9
100
AcDbEntity
  8
DETAIL
100
AcDbLine
 10
2.285016302550957
 20
6.08160590990315
 30
0.0
 11
2.103930725849981
 21
6.084547640061299
 31
0.0
  0
LINE
  5
21D1
330
23C9
100
AcDbEntity
  8
DETAIL
100
AcDbLine
 10
2.375582340286806
 20
6.141983268393716
 30
0.0
 11
2.103930725849981
 21
6.144924998551865
 31
0.0
  0
LINE
  5
21D2
330
23C9
100
AcDbEntity
  8
DETAIL
100
AcDbLine
 10
2.375582340286806
 20
6.202360626884278
 30
0.0
 11
2.103930725849981
 21
6.205302357042427
 31
0.0
  0
LINE
  5
21D3
330
23C9
100
AcDbEntity
  8
DETAIL
100
AcDbLine
 10
2.315204981796239
 20
6.262737985374848
 30
0.0
 11
2.103930725849981
 21
6.265679715532997
 31
0.0
  0
LINE
  5
21D4
330
23C9
100
AcDbEntity
  8
0
100
AcDbLine
 10
2.103930725849983
 20
6.284222822091339
 30
0.0
 11
2.103930725849982
 21
5.913425125185349
 31
0.0
  0
LINE
  5
21D5
330
23C9
100
AcDbEntity
  8
0
100
AcDbLine
 10
2.375582340286806
 20
5.900473834431448
 30
0.0
 11
2.375582340286806
 21
6.353304023110695
 31
0.0
  0
LINE
  5
21D6
330
23C9
100
AcDbEntity
  8
0
100
AcDbLine
 10
2.103930725849981
 20
6.175113677797146
 30
0.0
 11
1.922752151607561
 21
6.292926664620133
 31
0.0
  0
LINE
  5
21D7
330
23C9
100
AcDbEntity
  8
0
100
AcDbLine
 10
2.103930725849981
 20
6.235491036287712
 30
0.0
 11
1.922752151607561
 21
6.292926664620133
 31
0.0
  0
LINE
  5
21D8
330
23C9
100
AcDbEntity
  8
0
100
AcDbLine
 10
1.922752151607561
 20
6.292926664620133
 30
0.0
 11
1.922752151607561
 21
6.232549306129563
 31
0.0
  0
LINE
  5
21D9
330
23C9
100
AcDbEntity
  8
0
100
AcDbLine
 10
1.228412528966052
 20
6.202360626884278
 30
0.0
 11
1.228412528966052
 21
5.930662513676733
 31
0.0
  0
LINE
  5
21DA
330
23C9
100
AcDbEntity
  8
0
100
AcDbLine
 10
1.228412528966052
 20
5.930662513676733
 30
0.0
 11
1.288789887456618
 21
5.900473834431448
 31
0.0
  0
LINE
  5
21DB
330
23C9
100
AcDbEntity
  8
0
100
AcDbLine
 10
3.130299321418881
 20
6.723742514589983
 30
0.0
 11
1.228412528966052
 21
6.202360626884278
 31
0.0
  0
LINE
  5
21DC
330
23C9
100
AcDbEntity
  8
0
100
AcDbLine
 10
1.967280453494352
 20
7.775568174054093
 30
0.0
 11
3.130299321418883
 21
7.526349845213123
 31
0.0
  0
LINE
  5
21DD
330
23C9
100
AcDbEntity
  8
0
100
AcDbLine
 10
3.160488000664163
 20
6.23527309673816
 30
0.0
 11
3.160488000664165
 21
7.651417230657867
 31
0.0
  0
LINE
  5
21DE
330
23C9
100
AcDbEntity
  8
0
100
AcDbLine
 10
3.130299321418881
 20
6.239812747752488
 30
0.0
 11
3.130299321418882
 21
7.651417230657867
 31
0.0
  0
LINE
  5
21DF
330
23C9
100
AcDbEntity
  8
0
100
AcDbLine
 10
3.560137111667384
 20
7.49195051661223
 30
0.0
 11
3.92090501100607
 21
8.245571506066067
 31
0.0
  0
LINE
  5
21E0
330
23C9
100
AcDbEntity
  8
DETAIL
100
AcDbLine
 10
3.512635924475871
 20
8.225183573612274
 30
0.0
 11
3.512635924475871
 21
7.521496133451539
 31
0.0
  0
LINE
  5
21E1
330
23C9
100
AcDbEntity
  8
DETAIL
100
AcDbLine
 10
3.491095439607781
 20
8.175154367641188
 30
0.0
 11
3.491095439607781
 21
7.478903267116476
 31
0.0
  0
LINE
  5
21E2
330
23C9
100
AcDbEntity
  8
0
100
AcDbLine
 10
3.527250013313763
 20
7.479680899640342
 30
0.0
 11
3.906911343849476
 21
8.272769054379614
 31
0.0
  0
LINE
  5
21E3
330
23C9
100
AcDbEntity
  8
0
100
AcDbLine
 10
6.058601208211334
 20
6.504247419337109
 30
0.0
 11
4.114362981393025
 21
6.091833250012016
 31
0.0
  0
LINE
  5
21E4
330
23C9
100
AcDbEntity
  8
0
100
AcDbLine
 10
4.5189785667019
 20
7.108021004242772
 30
0.0
 11
3.462374793116995
 21
6.806134211789942
 31
0.0
  0
LINE
  5
21E5
330
23C9
100
AcDbEntity
  8
0
100
AcDbLine
 10
3.947048863069263
 20
8.259559706757255
 30
0.0
 11
6.058601208211334
 21
7.953304023110697
 31
0.0
  0
LINE
  5
21E6
330
23C9
100
AcDbEntity
  8
0
100
AcDbLine
 10
3.507179105983253
 20
7.4455898913779
 30
0.0
 11
4.5189785667019
 21
7.228775721223904
 31
0.0
  0
LINE
  5
21E7
330
23C9
100
AcDbEntity
  8
0
100
AcDbLine
 10
6.253447316285845
 20
5.288192222134871
 30
0.0
 11
6.253447316285845
 21
5.333239374431646
 31
0.0
  0
LINE
  5
21E8
330
23C9
100
AcDbEntity
  8
0
100
AcDbLine
 10
6.149167245947183
 20
5.326888928771075
 30
0.0
 11
6.149167245947183
 21
5.326888928771075
 31
0.0
  0
LWPOLYLINE
  5
21E9
330
23C9
100
AcDbEntity
  8
0
100
AcDbPolyline
 90
        3
 70
     0
 43
0.0
 10
6.21956536963661
 20
5.328428637452391
 10
6.251235110008347
 20
5.288192222134871
 10
6.149167245947183
 20
5.311972455789592
  0
LINE
  5
21EE
330
23C9
100
AcDbEntity
  8
0
100
AcDbLine
 10
6.21956536963661
 20
5.328428637452391
 30
0.0
 11
6.390676679909447
 21
5.35442100424277
 31
0.0
  0
LINE
  5
21EF
330
23C9
100
AcDbEntity
  8
0
100
AcDbLine
 10
6.390676679909447
 20
5.749530438205035
 30
0.0
 11
6.390676679909447
 21
5.35442100424277
 31
0.0
  0
LINE
  5
21F0
330
23C9
100
AcDbEntity
  8
0
100
AcDbLine
 10
6.149167245947183
 20
5.025002136318241
 30
0.0
 11
6.149167245947183
 21
5.387266287261639
 31
0.0
  0
LINE
  5
21F1
330
23C9
100
AcDbEntity
  8
0
100
AcDbLine
 10
4.560210557891409
 20
5.788154725556622
 30
0.0
 11
4.530021878646124
 21
5.788154725556622
 31
0.0
  0
LINE
  5
21F2
330
23C9
100
AcDbEntity
  8
0
100
AcDbLine
 10
4.445517318798592
 20
5.701609888046935
 30
0.0
 11
4.415328639553307
 21
5.701609888046935
 31
0.0
  0
LINE
  5
21F3
330
23C9
100
AcDbEntity
  8
0
100
AcDbLine
 10
4.445517318798592
 20
5.701609888046935
 30
0.0
 11
4.560210557891409
 21
5.788154725556622
 31
0.0
  0
LINE
  5
21F4
330
23C9
100
AcDbEntity
  8
0
100
AcDbLine
 10
4.415328639553307
 20
5.701609888046935
 30
0.0
 11
4.530721756232895
 21
5.788154725556622
 31
0.0
  0
LINE
  5
21F5
330
23C9
100
AcDbEntity
  8
0
100
AcDbLine
 10
4.672725455987388
 20
5.761927843304973
 30
0.0
 11
4.560210557891407
 21
5.788154725556622
 31
0.0
  0
INSERT
  5
21F6
330
23C9
100
AcDbEntity
  8
0
100
AcDbBlockReference
  2
A*C404314E8
 10
4.665122026036675
 20
5.622252254034656
 30
0.0
 41
0.5
 42
0.5
 43
0.5
  0
LINE
  5
21F7
330
23C9
100
AcDbEntity
  8
0
100
AcDbLine
 10
4.672725455987388
 20
5.761927843304973
 30
0.0
 11
4.74740411125142
 21
5.649628428162756
 31
0.0
  0
INSERT
  5
21F8
330
23C9
100
AcDbEntity
  8
0
100
AcDbBlockReference
  2
A*C6B4F5082
 10
4.629997826366733
 20
5.342013758590483
 30
0.0
 41
-0.5
 42
0.5
 43
0.5
  0
ARC
  5
21F9
330
23C9
100
AcDbEntity
  8
0
100
AcDbCircle
 10
4.722404111251418
 20
5.171020980099534
 30
0.0
 40
0.025
100
AcDbArc
 50
278.1301023541558
 51
0.0
  0
INSERT
  5
21FA
330
23C9
100
AcDbEntity
  8
0
100
AcDbBlockReference
  2
A*C404314E8
 10
4.706665109796669
 20
5.159396981350376
 30
0.0
 41
0.5
 42
0.5
 43
0.5
  0
LINE
  5
21FB
330
23C9
100
AcDbEntity
  8
0
100
AcDbLine
 10
4.411035746334497
 20
5.202248985350346
 30
0.0
 11
4.398223849720768
 21
5.200418714405528
 31
0.0
  0
LINE
  5
21FC
330
23C9
100
AcDbEntity
  8
0
100
AcDbLine
 10
4.398223849720768
 20
5.174542703623856
 30
0.0
 11
4.424052852704522
 21
5.178232561192964
 31
0.0
  0
ARC
  5
21FD
330
23C9
100
AcDbEntity
  8
0
100
AcDbCircle
 10
4.41032863955331
 20
5.207198732818652
 30
0.0
 40
0.005
100
AcDbArc
 50
278.130102354156
 51
0.0000000000002036
  0
ARC
  5
21FE
330
23C9
100
AcDbEntity
  8
0
100
AcDbCircle
 10
4.42051731879859
 20
5.202981298534493
 30
0.0
 40
0.025
100
AcDbArc
 50
278.1301023541558
 51
0.0
  0
LINE
  5
21FF
330
23C9
100
AcDbEntity
  8
0
100
AcDbLine
 10
4.415328639553307
 20
5.218591020122405
 30
0.0
 11
4.415328639553307
 21
5.218591020122405
 31
0.0
  0
LINE
  5
2200
330
23C9
100
AcDbEntity
  8
0
100
AcDbLine
 10
4.52122296388772
 20
5.132518588334008
 30
-0.0000000000000001
 11
4.52122296388772
 21
5.139142454695989
 31
-0.0000000000000001
  0
LINE
  5
2201
330
23C9
100
AcDbEntity
  8
0
100
AcDbLine
 10
4.441467210460957
 20
5.132518588334008
 30
-0.0000000000000001
 11
4.441467210460957
 21
5.139142454695989
 31
-0.0000000000000001
  0
LWPOLYLINE
  5
2202
330
23C9
100
AcDbEntity
  8
0
100
AcDbPolyline
 90
       18
 70
   128
 43
0.0
 10
-4.441467210460957
 20
5.139142454695989
 10
-4.442448352236831
 20
5.141081193758078
 10
-4.44475407566951
 20
5.142953911386669
 10
-4.448305862112906
 20
5.144696834428998
 10
-4.452982759739586
 20
5.146250609731262
 10
-4.458625502410193
 20
5.147562325339093
 10
-4.465041933290805
 20
5.148587312350695
 10
-4.472013548523443
 20
5.149290666062724
 10
-4.47930293811289
 20
5.149648434608096
 10
-4.486661870639337
 20
5.149648434608096
 10
-4.493839746481663
 20
5.149290666062724
 10
-4.500592131686969
 20
5.148587312350695
 10
-4.506689081875684
 20
5.147562325339093
 10
-4.511922972721615
 20
5.146250609731262
 10
-4.516115570349365
 20
5.144696834428998
 10
-4.519124100875188
 20
5.142953911386669
 10
-4.520846112400361
 20
5.141081193758078
 10
-4.52122296388772
 20
5.139142454695989
210
0.0
220
0.0
230
-1.0
  0
LWPOLYLINE
  5
2216
330
23C9
100
AcDbEntity
  8
0
100
AcDbPolyline
 90
       33
 70
   129
 43
0.0
 10
-4.521256660027065
 20
5.132985875034668
 10
-4.520558761462948
 20
5.130982602114995
 10
-4.518443578539809
 20
5.12903484373925
 10
-4.514987559479544
 20
5.127212996969967
 10
-4.510315613815563
 20
5.125582908096164
 10
-4.504596597836797
 20
5.124203492776895
 10
-4.498037211681471
 20
5.123124606675831
 10
-4.490874528655549
 20
5.122385243547674
 10
-4.48336742678578
 20
5.122012125902267
 10
-4.475787232293298
 20
5.122018739183464
 10
-4.468407913157067
 20
5.122404844370053
 10
-4.461496177197298
 20
5.123156486614601
 10
-4.45530183255993
 20
5.124246499608006
 10
-4.450048758999365
 20
5.125635487440687
 10
-4.445926816280831
 20
5.127273248473396
 10
-4.443084982153793
 20
5.129100589755268
 10
-4.441625967907928
 20
5.131051466411283
 10
-4.441602506119508
 20
5.133055368676136
 10
-4.443015444758695
 20
5.135039870300855
 10
-4.445813716541691
 20
5.136933246226158
 10
-4.449896184635435
 20
5.138667064912958
 10
-4.455115298006251
 20
5.140178661636496
 10
-4.461282424298651
 20
5.141413403352756
 10
-4.468174667500136
 20
5.142326663279024
 10
-4.475542923983841
 20
5.142885433822089
 10
-4.48312088576264
 20
5.143069519558662
 10
-4.490634665553658
 20
5.142872267150593
 10
-4.497812695778289
 20
5.142300805813846
 10
-4.504395543722036
 20
5.141375789650058
 10
-4.510145288108771
 20
5.140130651153496
 10
-4.514854118195544
 20
5.1386103928736
 10
-4.518351844594282
 20
5.136869960905602
 10
-4.520512050359696
 20
5.134972258995476
210
0.0
220
0.0
230
-1.0
  0
LINE
  5
2239
330
23C9
100
AcDbEntity
  8
0
100
AcDbLine
 10
4.725936137643927
 20
5.146571165672361
 30
0.0
 11
4.398223849720768
 21
5.102049242866958
 31
0.0
  0
LINE
  5
223A
330
23C9
100
AcDbEntity
  8
DETAIL
100
AcDbLine
 10
4.658355643245582
 20
5.165306843923291
 30
0.0
 11
4.48020034466172
 21
5.184202102864004
 31
0.0
  0
LINE
  5
223B
330
23C9
100
AcDbEntity
  8
0
100
AcDbLine
 10
4.415328639553307
 20
5.701609888046935
 30
0.0
 11
4.415328639553311
 21
5.207198732818652
 31
0.0
  0
LINE
  5
223C
330
23C9
100
AcDbEntity
  8
0
100
AcDbLine
 10
4.44551731879859
 20
5.202981298534493
 30
0.0
 11
4.445517318798592
 21
5.701609888046935
 31
0.0
  0
LINE
  5
223D
330
23C9
100
AcDbEntity
  8
0
100
AcDbLine
 10
4.74740411125142
 20
5.649628428162757
 30
0.0
 11
4.74740411125142
 21
5.171020980099534
 31
0.0
  0
LINE
  5
223E
330
23C9
100
AcDbEntity
  8
0
100
AcDbLine
 10
6.009725676046083
 20
4.958773354210342
 30
0.0
 11
6.009725676046083
 21
5.003820506507116
 31
0.0
  0
LWPOLYLINE
  5
223F
330
23C9
100
AcDbEntity
  8
0
100
AcDbPolyline
 90
        4
 70
     0
 43
0.0
 10
5.978055935674346
 20
4.999009769527862
 10
6.009725676046083
 20
4.958773354210342
 10
5.789746139402928
 20
5.010025183850831
 10
5.818001757224536
 20
4.974697017168203
  0
LINE
  5
2245
330
23C9
100
AcDbEntity
  8
0
100
AcDbLine
 10
5.671526819654923
 20
4.93524474604383
 30
0.0
 11
5.818001757224536
 21
4.974697017168203
 31
0.0
  0
LINE
  5
2246
330
23C9
100
AcDbEntity
  8
0
100
AcDbLine
 10
5.671526819654923
 20
4.93524474604383
 30
0.0
 11
4.398223849720766
 21
5.069341758959753
 31
0.0
  0
LINE
  5
2247
330
23C9
100
AcDbEntity
  8
0
100
AcDbLine
 10
6.149167245947183
 20
5.025002136318241
 30
0.0
 11
4.74740411125142
 21
5.173673983937489
 31
0.0
  0
LINE
  5
2248
330
23C9
100
AcDbEntity
  8
0
100
AcDbLine
 10
6.390676679909447
 20
5.35442100424277
 30
0.0
 11
4.747404111251422
 21
5.577906073580262
 31
0.0
  0
LINE
  5
2249
330
23C9
100
AcDbEntity
  8
0
100
AcDbLine
 10
5.978055935674346
 20
4.999009769527862
 30
0.0
 11
6.149167245947183
 21
5.025002136318241
 31
0.0
  0
LINE
  5
224A
330
23C9
100
AcDbEntity
  8
0
100
AcDbLine
 10
4.398223849720768
 20
3.636322891035224
 30
0.0
 11
4.398223849720768
 21
5.21070825409983
 31
0.0
  0
LINE
  5
224B
330
23C9
100
AcDbEntity
  8
0
100
AcDbLine
 10
3.98433938712156
 20
5.837591508595852
 30
0.0
 11
4.059018042385592
 21
5.725292093453635
 31
0.0
  0
LINE
  5
224C
330
23C9
100
AcDbEntity
  8
0
100
AcDbLine
 10
3.871824489025581
 20
5.863818373062165
 30
0.0
 11
3.841635809780296
 21
5.863818373062165
 31
0.0
  0
LINE
  5
224D
330
23C9
100
AcDbEntity
  8
0
100
AcDbLine
 10
3.757131249932764
 20
5.777273535552478
 30
0.0
 11
3.726942570687479
 21
5.777273535552478
 31
0.0
  0
LINE
  5
224E
330
23C9
100
AcDbEntity
  8
0
100
AcDbLine
 10
3.757131249932764
 20
5.777273535552478
 30
0.0
 11
3.871824489025581
 21
5.863818373062165
 31
0.0
  0
LINE
  5
224F
330
23C9
100
AcDbEntity
  8
0
100
AcDbLine
 10
3.726942570687479
 20
5.777273535552478
 30
0.0
 11
3.842335687367067
 21
5.863818373062165
 31
0.0
  0
INSERT
  5
2250
330
23C9
100
AcDbEntity
  8
0
100
AcDbBlockReference
  2
A*C404314E8
 10
3.825951773688784
 20
5.732258227831357
 30
0.0
 41
0.5
 42
0.5
 43
0.5
  0
LINE
  5
2251
330
23C9
100
AcDbEntity
  8
0
100
AcDbLine
 10
3.98433938712156
 20
5.837591508595852
 30
0.0
 11
3.871824489025579
 21
5.863818373062165
 31
0.0
  0
ARC
  5
2252
330
23C9
100
AcDbEntity
  8
0
100
AcDbCircle
 10
4.03401804238559
 20
5.246684627605077
 30
0.0
 40
0.025
100
AcDbArc
 50
278.1301023541558
 51
0.0
  0
LINE
  5
2253
330
23C9
100
AcDbEntity
  8
0
100
AcDbLine
 10
3.726942570687479
 20
5.294254667627948
 30
0.0
 11
3.726942570687479
 21
5.294254667627948
 31
0.0
  0
ARC
  5
2254
330
23C9
100
AcDbEntity
  8
0
100
AcDbCircle
 10
3.721942570687482
 20
5.282862380324195
 30
0.0
 40
0.005
100
AcDbArc
 50
278.130102354156
 51
0.0000000000002036
  0
ARC
  5
2255
330
23C9
100
AcDbEntity
  8
0
100
AcDbCircle
 10
3.732131249932762
 20
5.278644946040036
 30
0.0
 40
0.025
100
AcDbArc
 50
278.1301023541558
 51
0.0
  0
INSERT
  5
2256
330
23C9
100
AcDbEntity
  8
0
100
AcDbBlockReference
  2
A*C404314E8
 10
3.782331545641798
 20
5.26525176972268
 30
0.0
 41
0.5
 42
0.5
 43
0.5
  0
LINE
  5
2257
330
23C9
100
AcDbEntity
  8
0
100
AcDbLine
 10
3.723595817302069
 20
5.190634951360957
 30
-0.0000000000000001
 11
3.723595817302069
 21
5.197258817722938
 31
-0.0000000000000001
  0
LINE
  5
2258
330
23C9
100
AcDbEntity
  8
0
100
AcDbLine
 10
3.643840063875306
 20
5.190634951360957
 30
-0.0000000000000001
 11
3.643840063875306
 21
5.197258817722938
 31
-0.0000000000000001
  0
LWPOLYLINE
  5
2259
330
23C9
100
AcDbEntity
  8
0
100
AcDbPolyline
 90
       18
 70
   128
 43
0.0
 10
-3.496362115427207
 20
5.207636729525127
 10
-3.497343257203081
 20
5.209575468587216
 10
-3.499648980635761
 20
5.211448186215807
 10
-3.503200767079156
 20
5.213191109258136
 10
-3.507877664705836
 20
5.214744884560401
 10
-3.513520407376443
 20
5.216056600168232
 10
-3.519936838257055
 20
5.217081587179833
 10
-3.526908453489694
 20
5.217784940891862
 10
-3.534197843079141
 20
5.218142709437235
 10
-3.541556775605588
 20
5.218142709437235
 10
-3.548734651447913
 20
5.217784940891862
 10
-3.555487036653219
 20
5.217081587179833
 10
-3.561583986841934
 20
5.216056600168232
 10
-3.566817877687865
 20
5.214744884560401
 10
-3.571010475315616
 20
5.213191109258136
 10
-3.574019005841438
 20
5.211448186215807
 10
-3.575741017366611
 20
5.209575468587216
 10
-3.57611786885397
 20
5.207636729525127
210
0.0
220
0.0
230
-1.0
  0
LWPOLYLINE
  5
226D
330
23C9
100
AcDbEntity
  8
0
100
AcDbPolyline
 90
       33
 70
   129
 43
0.0
 10
-3.576151564993316
 20
5.201480149863807
 10
-3.575453666429198
 20
5.199476876944133
 10
-3.573338483506058
 20
5.197529118568388
 10
-3.569882464445795
 20
5.195707271799106
 10
-3.565210518781814
 20
5.194077182925303
 10
-3.559491502803048
 20
5.192697767606034
 10
-3.552932116647721
 20
5.19161888150497
 10
-3.5457694336218
 20
5.190879518376812
 10
-3.53826233175203
 20
5.190506400731406
 10
-3.530682137259548
 20
5.190513014012603
 10
-3.523302818123317
 20
5.190899119199191
 10
-3.516391082163549
 20
5.191650761443739
 10
-3.51019673752618
 20
5.192740774437144
 10
-3.504943663965615
 20
5.194129762269825
 10
-3.500821721247081
 20
5.195767523302535
 10
-3.497979887120043
 20
5.197594864584406
 10
-3.496520872874179
 20
5.199545741240422
 10
-3.496497411085759
 20
5.201549643505274
 10
-3.497910349724945
 20
5.203534145129994
 10
-3.500708621507942
 20
5.205427521055296
 10
-3.504791089601685
 20
5.207161339742097
 10
-3.510010202972501
 20
5.208672936465635
 10
-3.516177329264902
 20
5.209907678181894
 10
-3.523069572466387
 20
5.210820938108163
 10
-3.530437828950092
 20
5.211379708651228
 10
-3.53801579072889
 20
5.211563794387801
 10
-3.545529570519909
 20
5.211366541979731
 10
-3.552707600744539
 20
5.210795080642984
 10
-3.559290448688286
 20
5.209870064479197
 10
-3.565040193075021
 20
5.208624925982634
 10
-3.569749023161794
 20
5.207104667702739
 10
-3.573246749560532
 20
5.205364235734741
 10
-3.575406955325946
 20
5.203466533824614
210
0.0
220
0.0
230
-1.0
  0
LINE
  5
2290
330
23C9
100
AcDbEntity
  8
0
100
AcDbLine
 10
3.496362115427207
 20
5.201012863163147
 30
-0.0000000000000001
 11
3.496362115427207
 21
5.207636729525127
 31
-0.0000000000000001
  0
LINE
  5
2291
330
23C9
100
AcDbEntity
  8
0
100
AcDbLine
 10
3.57611786885397
 20
5.201012863163147
 30
-0.0000000000000001
 11
3.57611786885397
 21
5.207636729525127
 31
-0.0000000000000001
  0
LWPOLYLINE
  5
2292
330
23C9
100
AcDbEntity
  8
0
100
AcDbPolyline
 90
       18
 70
   128
 43
0.0
 10
-3.643840063875306
 20
5.197258817722938
 10
-3.64482120565118
 20
5.199197556785027
 10
-3.64712692908386
 20
5.201070274413618
 10
-3.650678715527255
 20
5.202813197455947
 10
-3.655355613153935
 20
5.204366972758211
 10
-3.660998355824543
 20
5.205678688366042
 10
-3.667414786705154
 20
5.206703675377644
 10
-3.674386401937793
 20
5.207407029089673
 10
-3.68167579152724
 20
5.207764797635045
 10
-3.689034724053687
 20
5.207764797635045
 10
-3.696212599896012
 20
5.207407029089673
 10
-3.702964985101318
 20
5.206703675377644
 10
-3.709061935290033
 20
5.205678688366042
 10
-3.714295826135964
 20
5.204366972758211
 10
-3.718488423763715
 20
5.202813197455947
 10
-3.721496954289537
 20
5.201070274413618
 10
-3.72321896581471
 20
5.199197556785027
 10
-3.723595817302069
 20
5.197258817722938
210
0.0
220
0.0
230
-1.0
  0
LWPOLYLINE
  5
22A6
330
23C9
100
AcDbEntity
  8
0
100
AcDbPolyline
 90
       33
 70
   129
 43
0.0
 10
-3.723629513441415
 20
5.191102238061617
 10
-3.722931614877297
 20
5.189098965141944
 10
-3.720816431954158
 20
5.187151206766199
 10
-3.717360412893894
 20
5.185329359996916
 10
-3.712688467229913
 20
5.183699271123113
 10
-3.706969451251147
 20
5.182319855803844
 10
-3.70041006509582
 20
5.18124096970278
 10
-3.693247382069899
 20
5.180501606574623
 10
-3.685740280200129
 20
5.180128488929216
 10
-3.678160085707647
 20
5.180135102210413
 10
-3.670780766571416
 20
5.180521207397002
 10
-3.663869030611648
 20
5.18127284964155
 10
-3.657674685974279
 20
5.182362862634955
 10
-3.652421612413714
 20
5.183751850467636
 10
-3.64829966969518
 20
5.185389611500345
 10
-3.645457835568142
 20
5.187216952782217
 10
-3.643998821322278
 20
5.189167829438232
 10
-3.643975359533858
 20
5.191171731703085
 10
-3.645388298173044
 20
5.193156233327804
 10
-3.648186569956041
 20
5.195049609253107
 10
-3.652269038049784
 20
5.196783427939907
 10
-3.6574881514206
 20
5.198295024663445
 10
-3.663655277713001
 20
5.199529766379705
 10
-3.670547520914486
 20
5.200443026305973
 10
-3.677915777398191
 20
5.201001796849038
 10
-3.685493739176989
 20
5.201185882585611
 10
-3.693007518968008
 20
5.200988630177542
 10
-3.700185549192638
 20
5.200417168840795
 10
-3.706768397136385
 20
5.199492152677007
 10
-3.71251814152312
 20
5.198247014180445
 10
-3.717226971609893
 20
5.196726755900549
 10
-3.720724698008631
 20
5.194986323932551
 10
-3.722884903774046
 20
5.193088622022425
210
0.0
220
0.0
230
-1.0
  0
LINE
  5
22C9
330
23C9
100
AcDbEntity
  8
DETAIL
100
AcDbLine
 10
3.999897801953338
 20
5.240027883949326
 30
0.0
 11
3.821742503369476
 21
5.258923142890039
 31
0.0
  0
LINE
  5
22CA
330
23C9
100
AcDbEntity
  8
0
100
AcDbLine
 10
4.059018042385592
 20
5.725292093453636
 30
0.0
 11
4.059018042385592
 21
5.246684627605077
 31
0.0
  0
LINE
  5
22CB
330
23C9
100
AcDbEntity
  8
0
100
AcDbLine
 10
3.726942570687479
 20
5.777273535552478
 30
0.0
 11
3.726942570687482
 21
5.282862380324195
 31
0.0
  0
LINE
  5
22CC
330
23C9
100
AcDbEntity
  8
0
100
AcDbLine
 10
3.757131249932762
 20
5.278644946040036
 30
0.0
 11
3.757131249932764
 21
5.777273535552478
 31
0.0
  0
INSERT
  5
22CD
330
23C9
100
AcDbEntity
  8
0
100
AcDbBlockReference
  2
A*C6B4F5082
 10
3.923765468453532
 20
5.41050804635932
 30
0.0
 41
-0.5
 42
0.5
 43
0.5
  0
LINE
  5
22CE
330
23C9
100
AcDbEntity
  8
0
100
AcDbLine
 10
3.439025707847556
 20
5.147047672620895
 30
-0.0000000000000001
 11
3.439025707847556
 21
5.153671538982875
 31
-0.0000000000000001
  0
ARC
  5
22CF
330
23C9
100
AcDbEntity
  8
0
100
AcDbCircle
 10
3.328019748080502
 20
5.167604195827535
 30
0.0
 40
0.025
100
AcDbArc
 50
264.6441749571448
 51
276.392113983318
  0
LINE
  5
22D0
330
23C9
100
AcDbEntity
  8
0
100
AcDbLine
 10
3.287393470825474
 20
5.161576756907781
 30
-0.0000000000000001
 11
3.287393470825474
 21
5.168200623269762
 31
-0.0000000000000001
  0
LINE
  5
22D1
330
23C9
100
AcDbEntity
  8
0
100
AcDbLine
 10
3.359269954420793
 20
5.147047672620895
 30
-0.0000000000000001
 11
3.359269954420793
 21
5.153671538982875
 31
-0.0000000000000001
  0
LWPOLYLINE
  5
22D2
330
23C9
100
AcDbEntity
  8
0
100
AcDbPolyline
 90
       18
 70
   128
 43
0.0
 10
-3.359269954420793
 20
5.153671538982875
 10
-3.360251096196667
 20
5.155610278044964
 10
-3.362556819629347
 20
5.157482995673555
 10
-3.366108606072742
 20
5.159225918715884
 10
-3.370785503699421
 20
5.160779694018149
 10
-3.376428246370029
 20
5.16209140962598
 10
-3.382844677250641
 20
5.163116396637581
 10
-3.389816292483279
 20
5.16381975034961
 10
-3.397105682072726
 20
5.164177518894983
 10
-3.404464614599173
 20
5.164177518894983
 10
-3.411642490441499
 20
5.16381975034961
 10
-3.418394875646805
 20
5.163116396637581
 10
-3.424491825835519
 20
5.16209140962598
 10
-3.429725716681451
 20
5.160779694018149
 10
-3.433918314309201
 20
5.159225918715884
 10
-3.436926844835024
 20
5.157482995673555
 10
-3.438648856360197
 20
5.155610278044964
 10
-3.439025707847555
 20
5.153671538982875
210
0.0
220
0.0
230
-1.0
  0
LWPOLYLINE
  5
22E6
330
23C9
100
AcDbEntity
  8
0
100
AcDbPolyline
 90
       33
 70
   129
 43
0.0
 10
-3.439059403986901
 20
5.147514959321555
 10
-3.438361505422784
 20
5.145511686401881
 10
-3.436246322499644
 20
5.143563928026136
 10
-3.43279030343938
 20
5.141742081256854
 10
-3.428118357775399
 20
5.140111992383051
 10
-3.422399341796633
 20
5.138732577063782
 10
-3.415839955641306
 20
5.137653690962718
 10
-3.408677272615385
 20
5.13691432783456
 10
-3.401170170745616
 20
5.136541210189153
 10
-3.393589976253134
 20
5.136547823470351
 10
-3.386210657116903
 20
5.136933928656939
 10
-3.379298921157134
 20
5.137685570901487
 10
-3.373104576519766
 20
5.138775583894892
 10
-3.3678515029592
 20
5.140164571727573
 10
-3.363729560240667
 20
5.141802332760283
 10
-3.360887726113628
 20
5.143629674042154
 10
-3.359428711867764
 20
5.14558055069817
 10
-3.359405250079344
 20
5.147584452963022
 10
-3.36081818871853
 20
5.149568954587742
 10
-3.363616460501527
 20
5.151462330513044
 10
-3.367698928595271
 20
5.153196149199845
 10
-3.372918041966087
 20
5.154707745923383
 10
-3.379085168258487
 20
5.155942487639642
 10
-3.385977411459973
 20
5.156855747565911
 10
-3.393345667943677
 20
5.157414518108975
 10
-3.400923629722476
 20
5.157598603845549
 10
-3.408437409513495
 20
5.157401351437479
 10
-3.415615439738124
 20
5.156829890100732
 10
-3.422198287681872
 20
5.155904873936945
 10
-3.427948032068607
 20
5.154659735440382
 10
-3.43265686215538
 20
5.153139477160487
 10
-3.436154588554117
 20
5.151399045192489
 10
-3.438314794319532
 20
5.149501343282362
210
0.0
220
0.0
230
-1.0
  0
LINE
  5
2309
330
23C9
100
AcDbEntity
  8
0
100
AcDbLine
 10
3.207637717398711
 20
5.161576756907781
 30
-0.0000000000000001
 11
3.207637717398711
 21
5.168200623269762
 31
-0.0000000000000001
  0
ARC
  5
230A
330
23C9
100
AcDbEntity
  8
0
100
AcDbCircle
 10
3.101786848288576
 20
5.189617195968995
 30
0.0
 40
0.0260469061278849
100
AcDbArc
 50
172.4937036219685
 51
281.1311813309779
  0
LINE
  5
230B
330
23C9
100
AcDbEntity
  8
0
100
AcDbLine
 10
3.397697182987171
 20
5.135962313367553
 30
0.0
 11
3.106815359121633
 21
5.164060290881785
 31
0.0
  0
LWPOLYLINE
  5
230C
330
23C9
100
AcDbEntity
  8
0
100
AcDbPolyline
 90
       18
 70
   128
 43
0.0
 10
-3.207637717398712
 20
5.168200623269762
 10
-3.208618859174586
 20
5.170139362331851
 10
-3.210924582607265
 20
5.172012079960441
 10
-3.214476369050661
 20
5.17375500300277
 10
-3.21915326667734
 20
5.175308778305035
 10
-3.224796009347948
 20
5.176620493912866
 10
-3.23121244022856
 20
5.177645480924467
 10
-3.238184055461198
 20
5.178348834636497
 10
-3.245473445050645
 20
5.178706603181869
 10
-3.252832377577092
 20
5.178706603181869
 10
-3.260010253419417
 20
5.178348834636497
 10
-3.266762638624724
 20
5.177645480924467
 10
-3.272859588813438
 20
5.176620493912866
 10
-3.278093479659369
 20
5.175308778305035
 10
-3.28228607728712
 20
5.17375500300277
 10
-3.285294607812943
 20
5.172012079960441
 10
-3.287016619338115
 20
5.170139362331851
 10
-3.287393470825474
 20
5.168200623269762
210
0.0
220
0.0
230
-1.0
  0
LWPOLYLINE
  5
2320
330
23C9
100
AcDbEntity
  8
0
100
AcDbPolyline
 90
       33
 70
   129
 43
0.0
 10
-3.28742716696482
 20
5.162044043608441
 10
-3.286729268400702
 20
5.160040770688767
 10
-3.284614085477563
 20
5.158093012313023
 10
-3.281158066417299
 20
5.15627116554374
 10
-3.276486120753318
 20
5.154641076669937
 10
-3.270767104774552
 20
5.153261661350668
 10
-3.264207718619225
 20
5.152182775249604
 10
-3.257045035593304
 20
5.151443412121447
 10
-3.249537933723534
 20
5.15107029447604
 10
-3.241957739231053
 20
5.151076907757237
 10
-3.234578420094822
 20
5.151463012943825
 10
-3.227666684135053
 20
5.152214655188374
 10
-3.221472339497685
 20
5.153304668181779
 10
-3.216219265937119
 20
5.15469365601446
 10
-3.212097323218585
 20
5.156331417047169
 10
-3.209255489091547
 20
5.158158758329041
 10
-3.207796474845683
 20
5.160109634985056
 10
-3.207773013057263
 20
5.162113537249908
 10
-3.209185951696449
 20
5.164098038874628
 10
-3.211984223479446
 20
5.16599141479993
 10
-3.21606669157319
 20
5.167725233486731
 10
-3.221285804944006
 20
5.169236830210269
 10
-3.227452931236406
 20
5.170471571926528
 10
-3.234345174437892
 20
5.171384831852797
 10
-3.241713430921596
 20
5.171943602395862
 10
-3.249291392700394
 20
5.172127688132435
 10
-3.256805172491414
 20
5.171930435724366
 10
-3.263983202716043
 20
5.171358974387618
 10
-3.270566050659791
 20
5.170433958223831
 10
-3.276315795046525
 20
5.169188819727268
 10
-3.281024625133298
 20
5.167668561447373
 10
-3.284522351532036
 20
5.165928129479375
 10
-3.286682557297451
 20
5.164030427569249
210
0.0
220
0.0
230
-1.0
  0
LINE
  5
2343
330
23C9
100
AcDbEntity
  8
0
100
AcDbLine
 10
3.722649677468668
 20
5.277912632855889
 30
0.0
 11
3.107623200774627
 21
5.190051707613884
 31
0.0
  0
LINE
  5
2344
330
23C9
100
AcDbEntity
  8
0
100
AcDbLine
 10
3.104115411313267
 20
5.163674584052018
 30
0.0
 11
3.735666783838694
 21
5.253896208698507
 31
0.0
  0
LINE
  5
2345
330
23C9
100
AcDbEntity
  8
0
100
AcDbLine
 10
4.037553576291522
 20
5.221935890263547
 30
0.0
 11
3.403396202563522
 21
5.136080736816345
 31
0.0
  0
LINE
  5
2346
330
23C9
100
AcDbEntity
  8
DETAIL
100
AcDbLine
 10
2.103884227079259
 20
5.840096475940882
 30
0.0
 11
1.952940830852843
 21
5.840096475940882
 31
0.0
  0
LINE
  5
2347
330
23C9
100
AcDbEntity
  8
0
100
AcDbLine
 10
1.952940830852843
 20
5.689153079714469
 30
0.0
 11
1.922752151607561
 21
5.719341758959754
 31
0.0
  0
LINE
  5
2348
330
23C9
100
AcDbEntity
  8
DETAIL
100
AcDbLine
 10
2.073695547833977
 20
5.719341758959754
 30
0.0
 11
1.952940830852843
 21
5.719341758959754
 31
0.0
  0
LINE
  5
2349
330
23C9
100
AcDbEntity
  8
0
100
AcDbLine
 10
1.952940830852843
 20
5.742104204775814
 30
0.0
 11
1.922752151607561
 21
5.772292884021098
 31
0.0
  0
LINE
  5
234A
330
23C9
100
AcDbEntity
  8
DETAIL
100
AcDbLine
 10
1.862374793116996
 20
5.772292884021098
 30
0.0
 11
1.746678482627708
 21
5.860851342445574
 31
0.0
  0
LINE
  5
234B
330
23C9
100
AcDbEntity
  8
DETAIL
100
AcDbLine
 10
1.801997434626429
 20
5.749530438205035
 30
0.0
 11
1.741620076135862
 21
5.749530438205035
 31
0.0
  0
LINE
  5
234C
330
23C9
100
AcDbEntity
  8
DETAIL
100
AcDbLine
 10
1.862374793116996
 20
5.719341758959754
 30
0.0
 11
1.801997434626429
 21
5.749530438205035
 31
0.0
  0
LINE
  5
234D
330
23C9
100
AcDbEntity
  8
0
100
AcDbLine
 10
1.741620076135862
 20
5.749530438205035
 30
0.0
 11
1.711431396890579
 21
5.779719117450316
 31
0.0
  0
LINE
  5
234E
330
23C9
100
AcDbEntity
  8
DETAIL
100
AcDbLine
 10
1.922752151607561
 20
5.719341758959754
 30
0.0
 11
1.862374793116996
 21
5.719341758959754
 31
0.0
  0
LINE
  5
234F
330
23C9
100
AcDbEntity
  8
DETAIL
100
AcDbLine
 10
1.922752151607561
 20
5.772292884021098
 30
0.0
 11
1.862374793116996
 21
5.772292884021098
 31
0.0
  0
LINE
  5
2350
330
23C9
100
AcDbEntity
  8
0
100
AcDbLine
 10
1.952940830852843
 20
5.628775721223901
 30
0.0
 11
1.922752151607561
 21
5.628775721223901
 31
0.0
  0
LINE
  5
2351
330
23C9
100
AcDbEntity
  8
DETAIL
100
AcDbLine
 10
2.01331818934341
 20
5.598587041978622
 30
0.0
 11
1.952940830852843
 21
5.598587041978622
 31
0.0
  0
LINE
  5
2352
330
23C9
100
AcDbEntity
  8
DETAIL
100
AcDbLine
 10
2.073695547833977
 20
5.568398362733337
 30
0.0
 11
2.01331818934341
 21
5.598587041978622
 31
0.0
  0
LINE
  5
2353
330
23C9
100
AcDbEntity
  8
DETAIL
100
AcDbLine
 10
2.060887954067892
 20
5.658964400469184
 30
0.0
 11
1.952940830852843
 21
5.658964400469184
 31
0.0
  0
LINE
  5
2354
330
23C9
100
AcDbEntity
  8
DETAIL
100
AcDbLine
 10
2.103884227079259
 20
5.477832324997488
 30
0.0
 11
1.952940830852843
 21
5.477832324997488
 31
0.0
  0
LINE
  5
2355
330
23C9
100
AcDbEntity
  8
DETAIL
100
AcDbLine
 10
2.103884227079259
 20
5.538209683488052
 30
0.0
 11
1.952940830852843
 21
5.538209683488052
 31
0.0
  0
LINE
  5
2356
330
23C9
100
AcDbEntity
  8
DETAIL
100
AcDbLine
 10
1.771808755381147
 20
5.568398362733337
 30
0.0
 11
1.71143139689058
 21
5.568398362733337
 31
0.0
  0
LINE
  5
2357
330
23C9
100
AcDbEntity
  8
DETAIL
100
AcDbLine
 10
1.771808755381147
 20
5.598587041978622
 30
0.0
 11
1.71143139689058
 21
5.628775721223901
 31
0.0
  0
LINE
  5
2358
330
23C9
100
AcDbEntity
  8
DETAIL
100
AcDbLine
 10
1.832186113871711
 20
5.598587041978622
 30
0.0
 11
1.771808755381147
 21
5.598587041978622
 31
0.0
  0
LINE
  5
2359
330
23C9
100
AcDbEntity
  8
DETAIL
100
AcDbLine
 10
1.862374793116996
 20
5.658964400469184
 30
0.0
 11
1.801997434626429
 21
5.658964400469184
 31
0.0
  0
LINE
  5
235A
330
23C9
100
AcDbEntity
  8
DETAIL
100
AcDbLine
 10
1.892563472362278
 20
5.477832324997488
 30
0.0
 11
1.832186113871711
 21
5.477832324997488
 31
0.0
  0
LINE
  5
235B
330
23C9
100
AcDbEntity
  8
DETAIL
100
AcDbLine
 10
1.832186113871711
 20
5.477832324997488
 30
0.0
 11
1.71143139689058
 21
5.538209683488052
 31
0.0
  0
LINE
  5
235C
330
23C9
100
AcDbEntity
  8
DETAIL
100
AcDbLine
 10
1.952940830852843
 20
5.508021004242773
 30
0.0
 11
1.771808755381147
 21
5.568398362733337
 31
0.0
  0
LINE
  5
235D
330
23C9
100
AcDbEntity
  8
DETAIL
100
AcDbLine
 10
1.922752151607561
 20
5.628775721223901
 30
0.0
 11
1.862374793116996
 21
5.658964400469184
 31
0.0
  0
LINE
  5
235E
330
23C9
100
AcDbEntity
  8
DETAIL
100
AcDbLine
 10
1.952940830852843
 20
5.568398362733337
 30
0.0
 11
1.832186113871711
 21
5.598587041978622
 31
0.0
  0
LINE
  5
235F
330
23C9
100
AcDbEntity
  8
DETAIL
100
AcDbLine
 10
1.801997434626429
 20
5.658964400469184
 30
0.0
 11
1.71143139689058
 21
5.689153079714469
 31
0.0
  0
LINE
  5
2360
330
23C9
100
AcDbEntity
  8
DETAIL
100
AcDbLine
 10
2.164261585569825
 20
5.628775721223901
 30
0.0
 11
2.060887954067892
 21
5.658964400469184
 31
0.0
  0
LINE
  5
2361
330
23C9
100
AcDbEntity
  8
DETAIL
100
AcDbLine
 10
2.164261585569825
 20
5.508021004242773
 30
0.0
 11
2.103884227079259
 21
5.538209683488052
 31
0.0
  0
LINE
  5
2362
330
23C9
100
AcDbEntity
  8
DETAIL
100
AcDbLine
 10
2.164261585569825
 20
5.568398362733337
 30
0.0
 11
2.073695547833977
 21
5.568398362733337
 31
0.0
  0
LINE
  5
2363
330
23C9
100
AcDbEntity
  8
DETAIL
100
AcDbLine
 10
2.164261585569825
 20
5.77971911745032
 30
0.0
 11
1.952940830852843
 21
5.77971911745032
 31
0.0
  0
LINE
  5
2364
330
23C9
100
AcDbEntity
  8
DETAIL
100
AcDbLine
 10
2.164261585569825
 20
5.809907796695601
 30
0.0
 11
2.103884227079259
 21
5.840096475940882
 31
0.0
  0
LINE
  5
2365
330
23C9
100
AcDbEntity
  8
DETAIL
100
AcDbLine
 10
2.164261585569825
 20
5.719341758959754
 30
0.0
 11
2.073695547833977
 21
5.719341758959754
 31
0.0
  0
LINE
  5
2366
330
23C9
100
AcDbEntity
  8
0
100
AcDbLine
 10
1.971434532737207
 20
5.3931137759421
 30
0.0
 11
1.922752151607561
 21
5.417454966506924
 31
0.0
  0
LINE
  5
2367
330
23C9
100
AcDbEntity
  8
0
100
AcDbLine
 10
2.01331818934341
 20
5.357077608016354
 30
0.0
 11
1.952940830852842
 21
5.409025522925884
 31
0.0
  0
LINE
  5
2368
330
23C9
100
AcDbEntity
  8
0
100
AcDbLine
 10
1.756972948584713
 20
5.371913414812786
 30
0.0
 11
1.71143139689058
 21
5.417454966506924
 31
0.0
  0
LINE
  5
2369
330
23C9
100
AcDbEntity
  8
DETAIL
100
AcDbLine
 10
1.799471431022246
 20
5.399846959680589
 30
0.0
 11
1.71143139689058
 21
5.447643645752203
 31
0.0
  0
LINE
  5
236A
330
23C9
100
AcDbEntity
  8
DETAIL
100
AcDbLine
 10
1.862374793116996
 20
5.417454966506924
 30
0.0
 11
1.771808755381147
 21
5.447643645752203
 31
0.0
  0
LINE
  5
236B
330
23C9
100
AcDbEntity
  8
0
100
AcDbLine
 10
1.71143139689058
 20
5.417454966506924
 30
0.0
 11
2.01331818934341
 21
5.357077608016354
 31
0.0
  0
LINE
  5
236C
330
23C9
100
AcDbEntity
  8
0
100
AcDbLine
 10
1.922752151607561
 20
5.417454966506924
 30
0.0
 11
1.862374793116996
 21
5.417454966506924
 31
0.0
  0
LINE
  5
236D
330
23C9
100
AcDbEntity
  8
0
100
AcDbLine
 10
1.952940830852842
 20
5.408351192922015
 30
0.0
 11
2.164261585569825
 21
5.447643645752203
 31
0.0
  0
LINE
  5
236E
330
23C9
100
AcDbEntity
  8
DETAIL
100
AcDbLine
 10
1.771808755381147
 20
5.447643645752203
 30
0.0
 11
1.71143139689058
 21
5.477832324997488
 31
0.0
  0
LINE
  5
236F
330
23C9
100
AcDbEntity
  8
DETAIL
100
AcDbLine
 10
1.952940830852843
 20
5.447643645752203
 30
0.0
 11
1.892563472362278
 21
5.477832324997488
 31
0.0
  0
LINE
  5
2370
330
23C9
100
AcDbEntity
  8
DETAIL
100
AcDbLine
 10
2.164261585569825
 20
5.447643645752203
 30
0.0
 11
2.103884227079259
 21
5.477832324997488
 31
0.0
  0
LINE
  5
2371
330
23C9
100
AcDbEntity
  8
DETAIL
100
AcDbLine
 10
1.681242717645297
 20
5.689153079714469
 30
0.0
 11
1.560488000664165
 21
5.689153079714469
 31
0.0
  0
LINE
  5
2372
330
23C9
100
AcDbEntity
  8
DETAIL
100
AcDbLine
 10
1.62086535915473
 20
5.749530438205035
 30
0.0
 11
1.560488000664165
 21
5.749530438205035
 31
0.0
  0
LINE
  5
2373
330
23C9
100
AcDbEntity
  8
DETAIL
100
AcDbLine
 10
1.62086535915473
 20
5.568398362733337
 30
0.0
 11
1.560488000664165
 21
5.568398362733337
 31
0.0
  0
LINE
  5
2374
330
23C9
100
AcDbEntity
  8
0
100
AcDbLine
 10
1.500110642173599
 20
5.477832324997488
 30
0.0
 11
1.560488000664165
 21
5.488810026541227
 31
0.0
  0
LINE
  5
2375
330
23C9
100
AcDbEntity
  8
0
100
AcDbLine
 10
1.168035170475485
 20
5.809907796695601
 30
0.0
 11
1.228412528966052
 21
5.77971911745032
 31
0.0
  0
LINE
  5
2376
330
23C9
100
AcDbEntity
  8
0
100
AcDbLine
 10
1.228412528966052
 20
5.77971911745032
 30
0.0
 11
1.228412528966052
 21
5.508021004242773
 31
0.0
  0
LINE
  5
2377
330
23C9
100
AcDbEntity
  8
0
100
AcDbLine
 10
1.228412528966052
 20
5.508021004242773
 30
0.0
 11
1.500110642173599
 21
5.477832324997488
 31
0.0
  0
LINE
  5
2378
330
23C9
100
AcDbEntity
  8
0
100
AcDbLine
 10
1.228412528966052
 20
5.508021004242773
 30
0.0
 11
1.560488000664165
 21
5.568398362733337
 31
0.0
  0
LINE
  5
2379
330
23C9
100
AcDbEntity
  8
DETAIL
100
AcDbLine
 10
1.680142446875533
 20
5.357627743401236
 30
0.0
 11
1.62086535915473
 21
5.387266287261639
 31
0.0
  0
LINE
  5
237A
330
23C9
100
AcDbEntity
  8
DETAIL
100
AcDbLine
 10
1.62086535915473
 20
5.387266287261639
 30
0.0
 11
1.560488000664165
 21
5.387266287261639
 31
0.0
  0
LINE
  5
237B
330
23C9
100
AcDbEntity
  8
DETAIL
100
AcDbLine
 10
1.62086535915473
 20
5.417454966506924
 30
0.0
 11
1.560488000664165
 21
5.447643645752203
 31
0.0
  0
LINE
  5
237C
330
23C9
100
AcDbEntity
  8
0
100
AcDbLine
 10
1.560488000664165
 20
5.77971911745032
 30
0.0
 11
1.560488000664166
 21
5.335379494808811
 31
0.0
  0
LINE
  5
237D
330
23C9
100
AcDbEntity
  8
0
100
AcDbLine
 10
1.71143139689058
 20
5.809907796695601
 30
0.0
 11
1.560488000664165
 21
5.77971911745032
 31
0.0
  0
LINE
  5
237E
330
23C9
100
AcDbEntity
  8
0
100
AcDbLine
 10
1.71143139689058
 20
5.658964400469184
 30
0.0
 11
1.681242717645297
 21
5.689153079714469
 31
0.0
  0
LINE
  5
237F
330
23C9
100
AcDbEntity
  8
0
100
AcDbLine
 10
1.560488000664166
 20
5.335379494808811
 30
0.0
 11
1.756972948584714
 21
5.371913414812786
 31
0.0
  0
LINE
  5
2380
330
23C9
100
AcDbEntity
  8
DETAIL
100
AcDbLine
 10
1.71143139689058
 20
5.477832324997488
 30
0.0
 11
1.560488000664165
 21
5.477832324997488
 31
0.0
  0
LINE
  5
2381
330
23C9
100
AcDbEntity
  8
DETAIL
100
AcDbLine
 10
1.711431396890579
 20
5.598587041978622
 30
0.0
 11
1.560488000664165
 21
5.598587041978622
 31
0.0
  0
LINE
  5
2382
330
23C9
100
AcDbEntity
  8
DETAIL
100
AcDbLine
 10
1.71143139689058
 20
5.429687210267669
 30
0.0
 11
1.62086535915473
 21
5.417454966506924
 31
0.0
  0
LINE
  5
2383
330
23C9
100
AcDbEntity
  8
DETAIL
100
AcDbLine
 10
1.71143139689058
 20
5.538209683488052
 30
0.0
 11
1.62086535915473
 21
5.568398362733337
 31
0.0
  0
LINE
  5
2384
330
23C9
100
AcDbEntity
  8
DETAIL
100
AcDbLine
 10
1.71143139689058
 20
5.719341758959754
 30
0.0
 11
1.62086535915473
 21
5.749530438205035
 31
0.0
  0
LINE
  5
2385
330
23C9
100
AcDbEntity
  8
DETAIL
100
AcDbLine
 10
1.71143139689058
 20
5.766409423704801
 30
0.0
 11
1.629871947532823
 21
5.79359590682405
 31
0.0
  0
LINE
  5
2386
330
23C9
100
AcDbEntity
  8
0
100
AcDbLine
 10
3.726851876255566
 20
5.281914372497655
 30
0.0
 11
2.164261585569825
 21
5.447643645752203
 31
0.0
  0
LINE
  5
2387
330
23C9
100
AcDbEntity
  8
0
100
AcDbLine
 10
3.108822920196208
 20
5.190223096102681
 30
0.0
 11
1.560488000664166
 21
5.335379494808811
 31
0.0
  0
LINE
  5
2388
330
23C9
100
AcDbEntity
  8
0
100
AcDbLine
 10
3.673695547833974
 20
3.666511570280507
 30
0.0
 11
3.703884227079259
 21
3.757077608016356
 31
0.0
  0
LINE
  5
2389
330
23C9
100
AcDbEntity
  8
0
100
AcDbLine
 10
3.703884227079259
 20
3.757077608016356
 30
0.0
 11
3.794450264815108
 21
3.545756853299375
 31
0.0
  0
LINE
  5
238A
330
23C9
100
AcDbEntity
  8
0
100
AcDbLine
 10
3.794450264815108
 20
3.545756853299375
 30
0.0
 11
3.854827623305674
 21
3.666511570280507
 31
0.0
  0
LINE
  5
238B
330
23C9
100
AcDbEntity
  8
0
100
AcDbLine
 10
3.854827623305674
 20
3.666511570280507
 30
0.0
 11
4.066148378022657
 21
3.666511570280507
 31
0.0
  0
LINE
  5
238C
330
23C9
100
AcDbEntity
  8
0
100
AcDbLine
 10
3.401997434626431
 20
3.666511570280507
 30
0.0
 11
3.673695547833974
 21
3.666511570280507
 31
0.0
  0
TEXT
  5
238D
330
23C9
100
AcDbEntity
  8
0
100
AcDbText
 10
2.34018071329038
 20
3.387243932494753
 30
0.0
 40
0.11
  1
Simpson Strong-Tie
100
AcDbText
  0
TEXT
  5
238E
330
23C9
100
AcDbEntity
  8
0
100
AcDbText
 10
2.34018071329038
 20
3.209148432494753
 30
0.0
 40
0.11
  1
H16IN
100
AcDbText
  0
LINE
  5
238F
330
23C9
100
AcDbEntity
  8
0
100
AcDbLine
 10
4.066148378022657
 20
5.245928379885994
 30
0.0
 11
4.066148378022657
 21
3.666511570280507
 31
0.0
  0
LINE
  5
2390
330
23C9
100
AcDbEntity
  8
0
100
AcDbLine
 10
3.401997434626431
 20
3.666511570280507
 30
0.0
 11
3.401997434626429
 21
5.135930649931264
 31
0.0
  0
LINE
  5
2391
330
23C9
100
AcDbEntity
  8
0
100
AcDbLine
 10
4.066148378022657
 20
3.666511570280507
 30
0.0
 11
4.398223849720768
 21
3.636322891035224
 31
0.0
  0
LINE
  5
2392
330
23C9
100
AcDbEntity
  8
0
100
AcDbLine
 10
4.415328639553312
 20
5.208894109723651
 30
0.0
 11
4.05901804238559
 21
5.246684627605077
 31
0.0
  0
LINE
  5
2393
330
23C9
100
AcDbEntity
  8
0
100
AcDbLine
 10
4.415328639553311
 20
5.623068337731205
 30
0.0
 11
4.059018042385592
 21
5.671526578946015
 31
0.0
  0
LINE
  5
2394
330
23C9
100
AcDbEntity
  8
0
100
AcDbLine
 10
2.375582340286806
 20
6.353304023110695
 30
0.0
 11
6.390676679909447
 21
5.749530438205035
 31
0.0
  0
LINE
  5
2395
330
23C9
100
AcDbEntity
  8
0
100
AcDbLine
 10
1.922752151607561
 20
6.232549306129563
 30
0.0
 11
1.92275215160756
 21
5.813725573407723
 31
0.0
  0
LINE
  5
2396
330
23C9
100
AcDbEntity
  8
0
100
AcDbLine
 10
1.771808755381148
 20
6.19976396602134
 30
0.0
 11
1.771808755381147
 21
5.85412527467804
 31
0.0
  0
LINE
  5
2397
330
23C9
100
AcDbEntity
  8
0
100
AcDbLine
 10
1.288789887456618
 20
5.900473834431448
 30
0.0
 11
1.168035170475485
 21
5.809907796695601
 31
0.0
  0
LINE
  5
2398
330
23C9
100
AcDbEntity
  8
0
100
AcDbLine
 10
1.952940830852843
 20
5.805645633153659
 30
0.0
 11
1.71143139689058
 21
5.870285155186167
 31
0.0
  0
LINE
  5
2399
330
23C9
100
AcDbEntity
  8
0
100
AcDbLine
 10
1.71143139689058
 20
5.870285155186167
 30
0.0
 11
1.71143139689058
 21
5.417454966506924
 31
0.0
  0
LINE
  5
239A
330
23C9
100
AcDbEntity
  8
0
100
AcDbLine
 10
2.164261585569825
 20
5.447643645752203
 30
0.0
 11
2.164261585569825
 21
5.930662513676733
 31
0.0
  0
LINE
  5
239B
330
23C9
100
AcDbEntity
  8
0
100
AcDbLine
 10
1.952940830852843
 20
5.870285155186167
 30
0.0
 11
1.952940830852842
 21
5.408351192922015
 31
0.0
  0
LINE
  5
239C
330
23C9
100
AcDbEntity
  8
0
100
AcDbLine
 10
3.726942570687477
 20
5.716688843096957
 30
0.0
 11
2.375582340286806
 21
5.900473834431448
 31
0.0
  0
LINE
  5
239D
330
23C9
100
AcDbEntity
  8
DETAIL
100
AcDbLine
 10
1.832186113871711
 20
5.840096475940882
 30
0.0
 11
1.771808755381147
 21
5.870285155186167
 31
0.0
  0
TEXT
  5
239E
330
23C9
100
AcDbEntity
  8
DIM
100
AcDbText
 10
2.348021692102713
 20
8.87401059735155
 30
0.0
 40
0.09
  1
   
 72
     2
 11
2.618021692102713
 21
8.91901059735155
 31
0.0
100
AcDbText
 73
     2
  0
TEXT
  5
239F
330
23C9
100
AcDbEntity
  8
OBJECT
100
AcDbText
 10
-0.275
 20
0.0
 30
0.0
 40
0.09
  1
.
100
AcDbText
  0
ENDBLK
  5
249D
330
23C9
100
AcDbEntity
  8
0
100
AcDbBlockEnd
  0
BLOCK
  5
24A2
330
23CA
100
AcDbEntity
  8
0
100
AcDbBlockBegin
  2
A*C6B4F5082
 70
     0
 10
0.0
 20
0.0
 30
0.0
  3
A*C6B4F5082
  1

  4

  0
LINE
  5
8D9
330
23CA
100
AcDbEntity
  8
PV-1065
100
AcDbLine
 10
0.0386904542622801
 20
0.0000000098193844
 30
0.000000000000001
 11
0.0678396075732088
 21
0.0000080017087267
 31
-0.0000000000000003
210
-0.8744745993278911
220
-0.0002397566802884584
230
0.4850712500726659
  0
LWPOLYLINE
  5
8DA
330
23CA
100
AcDbEntity
  8
0
100
AcDbPolyline
 90
       33
 70
   129
 43
0.0
 10
0.0386576240744354
 20
0.1596572395122644
 10
0.0313306620899167
 20
0.1582131257479721
 10
0.0242691088859952
 20
0.1539359918857453
 10
0.0177281873941582
 20
0.1469804246873287
 10
0.0119443035593253
 20
0.1375978164738264
 10
0.0071265020130498
 20
0.1261272791522218
 10
0.0034489106558734
 20
0.1129833878275112
 10
0.0010444472213155
 20
0.0986411969782443
 10
0.0000000152826692
 20
0.0836190707499275
 10
0.0003533633314382
 20
0.0684599479242202
 10
0.0020917204485006
 20
0.0537117186967528
 10
0.0051522578784004
 20
0.0399074224979424
 10
0.0094243598242686
 20
0.027545982559157
 10
0.0147536213909284
 20
0.0170741735272019
 10
0.0209474291801052
 20
0.0088704738645242
 10
0.0277819228404894
 20
0.0032313866514641
 10
0.035010085964095
 20
0.0003607231924
 10
0.0423706739028398
 20
0.0003622367441832
 10
0.0495976558307926
 20
0.0032358726031087
 10
0.0564298297913594
 20
0.0088777700820497
 10
0.0626202632165498
 20
0.0170840163062969
 10
0.0679452177133604
 20
0.0275580161561399
 10
0.0722122355522428
 20
0.039921211987265
 10
0.0752670955908933
 20
0.0537267656903428
 10
0.0769993872281549
 20
0.0684757085845247
 10
0.0773465009308152
 20
0.083634975445619
 10
0.0762958911052639
 20
0.0986566708721814
 10
0.0738855295279338
 20
0.1129978716528501
 10
0.0702025329463654
 20
0.1261402494257775
 10
0.0653800144529706
 20
0.1376088044161189
 10
0.05959227243105
 20
0.1469890331654947
 10
0.0530484909570906
 20
0.1539419097669548
 10
0.0459851793432177
 20
0.1582161391445792
  0
LWPOLYLINE
  5
8DB
330
23CA
100
AcDbEntity
  8
PV-1065
100
AcDbPolyline
 90
        5
 70
   128
 43
0.0
 10
0.0160004035344337
 20
0.0151281643500683
 10
0.0211676067269413
 20
0.0086339536974506
 10
0.0267621032790445
 20
0.0038779910547374
 10
0.0326473011909061
 20
0.0009763952616611
 10
0.0386795108660218
 20
0.0000000100069083
  0
LWPOLYLINE
  5
8DC
330
23CA
100
AcDbEntity
  8
PV-1065
100
AcDbPolyline
 90
        4
 70
   128
 43
0.0
 10
0.0386576240744356
 20
0.1596572395122661
 10
0.0311130996466365
 20
0.1581296427106666
 10
0.0238581779143944
 20
0.153600751165587
 10
0.0171709415773867
 20
0.1462441582573399
  0
LINE
  5
8DD
330
23CA
100
AcDbEntity
  8
PV-1065
100
AcDbLine
 10
0.0171709415773875
 20
0.1462441582573411
 30
-0.0000000000000001
 11
0.015961049469703
 21
0.1445108598546739
 31
-0.0000000000000001
  0
LWPOLYLINE
  5
8DE
330
23CA
100
AcDbEntity
  8
PV-1065
100
AcDbPolyline
 90
       17
 70
   128
 43
0.0
 10
0.0678286641769505
 20
0.0000080018962506
 10
0.0753828526858615
 20
0.0015395562375356
 10
0.0826463174182495
 20
0.0060800227009332
 10
0.0893399274978469
 20
0.0134549137065777
 10
0.0952064512431145
 20
0.023380816329009
 10
0.100020441436506
 20
0.0354762836969572
 10
0.1035968991346063
 20
0.0492764937826883
 10
0.105798383073778
 20
0.0642511122518548
 10
0.106540291460845
 20
0.0798246729145493
 10
0.1057941131725595
 20
0.0953986925682578
 10
0.1035885234220786
 20
0.1103746703716993
 10
0.1000082817866044
 20
0.1241770878965126
 10
0.0951909749443654
 20
0.1362755259777041
 10
0.0893217292957321
 20
0.1462050484246957
 10
0.0826260966594706
 20
0.15358406925839
 10
0.0753613864428384
 20
0.1581290168463507
 10
0.0678067773853643
 20
0.1596652314016083
  0
LINE
  5
8DF
330
23CA
100
AcDbEntity
  8
PV-1065
100
AcDbLine
 10
0.0677958339891056
 20
0.1596652315891323
 30
0.0000000000000003
 11
0.0386466806781769
 21
0.1596572396997891
 31
0.0000000000000003
210
-0.8744745993278911
220
-0.0002397566802884584
230
0.4850712500726659
  0
ENDBLK
  5
24A3
330
23CA
100
AcDbEntity
  8
0
100
AcDbBlockEnd
  0
BLOCK
  5
24A5
330
23CB
100
AcDbEntity
  8
0
100
AcDbBlockBegin
  2
A*C404314E8
 70
     0
 10
0.0
 20
0.0
 30
0.0
  3
A*C404314E8
  1

  4

  0
LWPOLYLINE
  5
8E3
330
23CB
100
AcDbEntity
  8
0
100
AcDbPolyline
 90
       33
 70
   129
 43
0.0
 10
-0.0217605326638762
 20
0.0693439472064266
 10
-0.0258819865091638
 20
0.068715113945678
 10
-0.029854222009732
 20
0.0668530368714749
 10
-0.0335336722250318
 20
0.0638250163008737
 10
-0.036787352237568
 20
0.0597404927867265
 10
-0.0394976655743071
 20
0.0547470916509567
 10
-0.0415666544496069
 20
0.049025287420791
 10
-0.0429195402148159
 20
0.0427818810091229
 10
-0.0435074260534702
 20
0.0362425253907069
 10
-0.0433090642396391
 20
0.0296435699157174
 10
-0.0423316240861012
 20
0.0232235180284314
 10
-0.0406104328267007
 20
0.0172144071313373
 10
-0.0382076987980725
 20
0.011833422148842
 10
-0.0352102630682737
 20
0.0072750458982323
 10
-0.0317264607743219
 20
0.0037040299739389
 10
-0.0278822056080787
 20
0.0012494401956568
 10
-0.0238164389673614
 20
-0.0000000081666554
 10
-0.0196761082518171
 20
0.0000008432062222
 10
-0.0156108558010321
 20
0.0012519635434554
 10
-0.0117676104304897
 20
0.0037081340962945
 10
-0.0082852770413594
 20
0.0072805824614699
 10
-0.0052897162354555
 20
0.0118401910471407
 10
-0.002889195385161
 20
0.0172221637190765
 10
-0.0011704755685016
 20
0.0232319819623206
 10
-0.0001956757977322
 20
0.0296524352871333
 10
-0.0000000278763843
 20
0.0362514717820279
 10
-0.0005906030300912
 20
0.0427905850744572
 10
-0.0019460563340694
 20
0.0490334345725391
 10
-0.004017398174314
 20
0.0547543874298274
 10
-0.0067297648598899
 20
0.0597466735042622
 10
-0.0099851243917781
 20
0.0638298585698391
 10
-0.0136658195947395
 20
0.0668563656796532
 10
-0.0176388205541813
 20
0.0687168089812684
210
0.0
220
0.0
230
-1.0
  0
ENDBLK
  5
24A6
330
23CB
100
AcDbEntity
  8
0
100
AcDbBlockEnd
  0
ENDSEC
  0
SECTION
  2
ENTITIES
  0
TEXT
  5
1E4
330
23BB
100
AcDbEntity
  8
DIM
100
AcDbText
 10
5.118618491553427
 20
16.47777542670481
 30
0.0
 40
0.36
  1
   
 72
     2
 11
6.198618491553427
 21
16.65777542670481
 31
0.0
100
AcDbText
 73
     2
  0
TEXT
  5
1F8
330
23BB
100
AcDbEntity
  8
DIM
100
AcDbText
 10
3.421822549748632
 20
20.65621286506622
 30
0.0
 40
0.36
  1
   
 72
     2
 11
4.501822549748632
 21
20.83621286506622
 31
0.0
100
AcDbText
 73
     2
  0
TEXT
  5
1FC
330
23BB
100
AcDbEntity
  8
DIM
100
AcDbText
 10
14.98864835119193
 20
28.50288859730027
 30
0.0
 40
0.36
  1
   
 11
14.98864835119193
 21
28.68288859730027
 31
0.0
100
AcDbText
 73
     2
  0
INSERT
  5
23A3
330
23BB
100
AcDbEntity
  8
NOTE
100
AcDbBlockReference
  2
H16W
 10
0.0
 20
0.0
 30
0.0
  0
ENDSEC
  0
SECTION
  2
OBJECTS
  0
DICTIONARY
  5
23AF
330
0
100
AcDbDictionary
281
     1
  3
ACAD_COLOR
350
24AC
  3
ACAD_GROUP
350
23B0
  3
ACAD_LAYOUT
350
23B8
  3
ACAD_MATERIAL
350
24AE
  3
ACAD_MLINESTYLE
350
23B5
  3
ACAD_PLOTSETTINGS
350
23B7
  3
ACAD_PLOTSTYLENAME
350
23B1
  3
ACDBHEADERROUNDTRIPXREC
350
24AB
  0
DICTIONARY
  5
24AC
102
{ACAD_REACTORS
330
23AF
102
}
330
23AF
100
AcDbDictionary
281
     1
  0
DICTIONARY
  5
23B0
102
{ACAD_REACTORS
330
23AF
102
}
330
23AF
100
AcDbDictionary
281
     1
  0
DICTIONARY
  5
23B8
102
{ACAD_REACTORS
330
23AF
102
}
330
23AF
100
AcDbDictionary
281
     1
  3
Layout1
350
23BA
  3
Model
350
23BC
  0
DICTIONARY
  5
24AE
102
{ACAD_REACTORS
330
23AF
102
}
330
23AF
100
AcDbDictionary
281
     1
  0
DICTIONARY
  5
23B5
102
{ACAD_REACTORS
330
23AF
102
}
330
23AF
100
AcDbDictionary
281
     1
  3
Standard
350
23B6
  0
DICTIONARY
  5
23B7
102
{ACAD_REACTORS
330
23AF
102
}
330
23AF
100
AcDbDictionary
281
     1
  0
ACDBDICTIONARYWDFLT
  5
23B1
102
{ACAD_REACTORS
330
23AF
102
}
330
23AF
100
AcDbDictionary
281
     1
  3
Normal
350
23B2
100
AcDbDictionaryWithDefault
340
23B2
  0
DICTIONARY
  5
24AB
102
{ACAD_REACTORS
330
23AF
102
}
330
23AF
100
AcDbDictionary
281
     1
  3
COLORDICT
350
24AD
  3
MATERIALDICT
350
24AF
  0
LAYOUT
  5
23BA
102
{ACAD_REACTORS
330
23B8
102
}
102
{ACAD_XDICTIONARY
360
24B0
102
}
330
23B8
100
AcDbPlotSettings
  1

  2

  4

  6

 40
0.0
 41
0.0
 42
0.0
 43
0.0
 44
0.0
 45
0.0
 46
0.0
 47
0.0
 48
0.0
 49
0.0
140
0.0
141
0.0
142
1.0
143
1.0
 70
   688
 72
     0
 73
     0
 74
     5
  7

 75
    16
147
1.0
148
0.0
149
0.0
100
AcDbLayout
  1
Layout1
 70
     1
 71
     1
 10
0.0
 20
0.0
 11
12.0
 21
9.0
 12
0.0
 22
0.0
 32
0.0
 14
1.000000000000000E+20
 24
1.000000000000000E+20
 34
1.000000000000000E+20
 15
-1.000000000000000E+20
 25
-1.000000000000000E+20
 35
-1.000000000000000E+20
146
0.0
 13
0.0
 23
0.0
 33
0.0
 16
1.0
 26
0.0
 36
0.0
 17
0.0
 27
1.0
 37
0.0
 76
     0
330
23B9
  0
LAYOUT
  5
23BC
102
{ACAD_REACTORS
330
23B8
102
}
102
{ACAD_XDICTIONARY
360
24B2
102
}
330
23B8
100
AcDbPlotSettings
  1

  2

  4

  6

 40
0.0
 41
0.0
 42
0.0
 43
0.0
 44
0.0
 45
0.0
 46
0.0
 47
0.0
 48
0.0
 49
0.0
140
0.0
141
0.0
142
1.0
143
1.0
 70
  1712
 72
     0
 73
     0
 74
     0
  7

 75
     0
147
1.0
148
0.0
149
0.0
100
AcDbLayout
  1
Model
 70
     1
 71
     0
 10
0.0
 20
0.0
 11
0.0
 21
0.0
 12
0.0
 22
0.0
 32
0.0
 14
0.0
 24
0.0
 34
0.0
 15
0.0
 25
0.0
 35
0.0
146
0.0
 13
0.0
 23
0.0
 33
0.0
 16
1.0
 26
0.0
 36
0.0
 17
0.0
 27
1.0
 37
0.0
 76
     0
330
23BB
  0
MLINESTYLE
  5
23B6
102
{ACAD_REACTORS
330
23B5
102
}
330
23B5
100
AcDbMlineStyle
  2
Standard
 70
     0
  3

 62
   256
 51
90.0
 52
90.0
 71
     2
 49
0.5
 62
   256
  6
BYLAYER
 49
-0.5
 62
   256
  6
BYLAYER
  0
ACDBPLACEHOLDER
  5
23B2
102
{ACAD_REACTORS
330
23B1
102
}
330
23B1
  0
XRECORD
  5
24AD
102
{ACAD_REACTORS
330
24AB
102
}
330
24AB
100
AcDbXrecord
340
24AC
  0
XRECORD
  5
24AF
102
{ACAD_REACTORS
330
24AB
102
}
330
24AB
100
AcDbXrecord
340
24AE
  0
DICTIONARY
  5
24B0
330
23BA
100
AcDbDictionary
280
     1
281
     1
  3
ACAD_XREC_ROUNDTRIP
360
24B1
  0
DICTIONARY
  5
24B2
330
23BC
100
AcDbDictionary
280
     1
281
     1
  3
ACAD_XREC_ROUNDTRIP
360
24B3
  0
XRECORD
  5
24B1
102
{ACAD_REACTORS
330
24B0
102
}
330
24B0
100
AcDbXrecord
102
SHADEPLOT
 70
 15296
102
SHADEPLOTRESLEVEL
 70
 22216
102
SHADEPLOTCUSTOMDPI
 70
 22256
  0
XRECORD
  5
24B3
102
{ACAD_REACTORS
330
24B2
102
}
330
24B2
100
AcDbXrecord
102
SHADEPLOT
 70
  4264
102
SHADEPLOTRESLEVEL
 70
-31226
102
SHADEPLOTCUSTOMDPI
 70
-32688
  0
ENDSEC
  0
EOF
