  0
SECTION
  2
HEADER
  9
$ACADVER
  1
AC1015
  9
$ACADMAINTVER
 70
     6
  9
$DWGCODEPAGE
  3
ANSI_1252
  9
$INSBASE
 10
0.0
 20
0.0
 30
0.0
  9
$EXTMIN
 10
7.417752026994869
 20
1.334874965077827
 30
-0.0000000000085188
  9
$EXTMAX
 10
13.70850268785404
 20
9.34797603781794
 30
0.0000000000003626
  9
$LIMMIN
 10
0.0
 20
0.0
  9
$LIMMAX
 10
12.0
 20
9.0
  9
$ORTHOMODE
 70
     0
  9
$REGENMODE
 70
     0
  9
$FILLMODE
 70
     1
  9
$QTEXTMODE
 70
     0
  9
$MIRRTEXT
 70
     1
  9
$LTSCALE
 40
0.25
  9
$ATTMODE
 70
     1
  9
$TEXTSIZE
 40
0.2
  9
$TRACEWID
 40
0.05
  9
$TEXTSTYLE
  7
STANDARD
  9
$CLAYER
  8
0
  9
$CELTYPE
  6
BYLAYER
  9
$CECOLOR
 62
   256
  9
$CELTSCALE
 40
1.0
  9
$DISPSILH
 70
     0
  9
$DIMSCALE
 40
1.0
  9
$DIMASZ
 40
0.18
  9
$DIMEXO
 40
0.0625
  9
$DIMDLI
 40
0.38
  9
$DIMRND
 40
0.0
  9
$DIMDLE
 40
0.0
  9
$DIMEXE
 40
0.18
  9
$DIMTP
 40
0.0
  9
$DIMTM
 40
0.0
  9
$DIMTXT
 40
0.18
  9
$DIMCEN
 40
0.09
  9
$DIMTSZ
 40
0.0
  9
$DIMTOL
 70
     0
  9
$DIMLIM
 70
     0
  9
$DIMTIH
 70
     1
  9
$DIMTOH
 70
     1
  9
$DIMSE1
 70
     0
  9
$DIMSE2
 70
     0
  9
$DIMTAD
 70
     0
  9
$DIMZIN
 70
     0
  9
$DIMBLK
  1

  9
$DIMASO
 70
     1
  9
$DIMSHO
 70
     1
  9
$DIMPOST
  1

  9
$DIMAPOST
  1

  9
$DIMALT
 70
     0
  9
$DIMALTD
 70
     2
  9
$DIMALTF
 40
25.4
  9
$DIMLFAC
 40
1.0
  9
$DIMTOFL
 70
     0
  9
$DIMTVP
 40
0.0
  9
$DIMTIX
 70
     0
  9
$DIMSOXD
 70
     0
  9
$DIMSAH
 70
     0
  9
$DIMBLK1
  1

  9
$DIMBLK2
  1

  9
$DIMSTYLE
  2
STANDARD
  9
$DIMCLRD
 70
     0
  9
$DIMCLRE
 70
     0
  9
$DIMCLRT
 70
     0
  9
$DIMTFAC
 40
1.0
  9
$DIMGAP
 40
0.09
  9
$DIMJUST
 70
     0
  9
$DIMSD1
 70
     0
  9
$DIMSD2
 70
     0
  9
$DIMTOLJ
 70
     1
  9
$DIMTZIN
 70
     0
  9
$DIMALTZ
 70
     0
  9
$DIMALTTZ
 70
     0
  9
$DIMUPT
 70
     0
  9
$DIMDEC
 70
     4
  9
$DIMTDEC
 70
     4
  9
$DIMALTU
 70
     2
  9
$DIMALTTD
 70
     2
  9
$DIMTXSTY
  7
STANDARD
  9
$DIMAUNIT
 70
     0
  9
$DIMADEC
 70
     0
  9
$DIMALTRND
 40
0.0
  9
$DIMAZIN
 70
     0
  9
$DIMDSEP
 70
    46
  9
$DIMATFIT
 70
     3
  9
$DIMFRAC
 70
     0
  9
$DIMLDRBLK
  1

  9
$DIMLUNIT
 70
     2
  9
$DIMLWD
 70
    -2
  9
$DIMLWE
 70
    -2
  9
$DIMTMOVE
 70
     0
  9
$LUNITS
 70
     2
  9
$LUPREC
 70
     4
  9
$SKETCHINC
 40
0.1
  9
$FILLETRAD
 40
0.05
  9
$AUNITS
 70
     0
  9
$AUPREC
 70
     0
  9
$MENU
  1
.
  9
$ELEVATION
 40
0.0
  9
$PELEVATION
 40
0.0
  9
$THICKNESS
 40
0.0
  9
$LIMCHECK
 70
     0
  9
$CHAMFERA
 40
0.5
  9
$CHAMFERB
 40
0.5
  9
$CHAMFERC
 40
1.0
  9
$CHAMFERD
 40
0.0
  9
$SKPOLY
 70
     1
  9
$TDCREATE
 40
2451890.587386782
  9
$TDUCREATE
 40
2451890.920720116
  9
$TDUPDATE
 40
2451893.674749746
  9
$TDUUPDATE
 40
2451894.008083079
  9
$TDINDWG
 40
0.0806521991
  9
$TDUSRTIMER
 40
0.0806521991
  9
$USRTIMER
 70
     1
  9
$ANGBASE
 50
0.0
  9
$ANGDIR
 70
     0
  9
$PDMODE
 70
     0
  9
$PDSIZE
 40
0.0
  9
$PLINEWID
 40
0.0
  9
$SPLFRAME
 70
     0
  9
$SPLINETYPE
 70
     6
  9
$SPLINESEGS
 70
     8
  9
$HANDSEED
  5
8B9
  9
$SURFTAB1
 70
     6
  9
$SURFTAB2
 70
     6
  9
$SURFTYPE
 70
     6
  9
$SURFU
 70
     6
  9
$SURFV
 70
     6
  9
$UCSBASE
  2

  9
$UCSNAME
  2

  9
$UCSORG
 10
0.0
 20
0.0
 30
0.0
  9
$UCSXDIR
 10
1.0
 20
0.0
 30
0.0
  9
$UCSYDIR
 10
0.0
 20
1.0
 30
0.0
  9
$UCSORTHOREF
  2

  9
$UCSORTHOVIEW
 70
     0
  9
$UCSORGTOP
 10
0.0
 20
0.0
 30
0.0
  9
$UCSORGBOTTOM
 10
0.0
 20
0.0
 30
0.0
  9
$UCSORGLEFT
 10
0.0
 20
0.0
 30
0.0
  9
$UCSORGRIGHT
 10
0.0
 20
0.0
 30
0.0
  9
$UCSORGFRONT
 10
0.0
 20
0.0
 30
0.0
  9
$UCSORGBACK
 10
0.0
 20
0.0
 30
0.0
  9
$PUCSBASE
  2

  9
$PUCSNAME
  2

  9
$PUCSORG
 10
0.0
 20
0.0
 30
0.0
  9
$PUCSXDIR
 10
1.0
 20
0.0
 30
0.0
  9
$PUCSYDIR
 10
0.0
 20
1.0
 30
0.0
  9
$PUCSORTHOREF
  2

  9
$PUCSORTHOVIEW
 70
     0
  9
$PUCSORGTOP
 10
0.0
 20
0.0
 30
0.0
  9
$PUCSORGBOTTOM
 10
0.0
 20
0.0
 30
0.0
  9
$PUCSORGLEFT
 10
0.0
 20
0.0
 30
0.0
  9
$PUCSORGRIGHT
 10
0.0
 20
0.0
 30
0.0
  9
$PUCSORGFRONT
 10
0.0
 20
0.0
 30
0.0
  9
$PUCSORGBACK
 10
0.0
 20
0.0
 30
0.0
  9
$USERI1
 70
     0
  9
$USERI2
 70
     0
  9
$USERI3
 70
     0
  9
$USERI4
 70
     0
  9
$USERI5
 70
     0
  9
$USERR1
 40
0.0
  9
$USERR2
 40
0.0
  9
$USERR3
 40
0.0
  9
$USERR4
 40
0.0
  9
$USERR5
 40
0.0
  9
$WORLDVIEW
 70
     1
  9
$SHADEDGE
 70
     3
  9
$SHADEDIF
 70
    70
  9
$TILEMODE
 70
     1
  9
$MAXACTVP
 70
    48
  9
$PINSBASE
 10
0.0
 20
0.0
 30
0.0
  9
$PLIMCHECK
 70
     0
  9
$PEXTMIN
 10
1.000000000000000E+20
 20
1.000000000000000E+20
 30
1.000000000000000E+20
  9
$PEXTMAX
 10
-1.000000000000000E+20
 20
-1.000000000000000E+20
 30
-1.000000000000000E+20
  9
$PLIMMIN
 10
0.0
 20
0.0
  9
$PLIMMAX
 10
12.0
 20
9.0
  9
$UNITMODE
 70
     0
  9
$VISRETAIN
 70
     1
  9
$PLINEGEN
 70
     0
  9
$PSLTSCALE
 70
     1
  9
$TREEDEPTH
 70
  3020
  9
$CMLSTYLE
  2
STANDARD
  9
$CMLJUST
 70
     0
  9
$CMLSCALE
 40
1.0
  9
$PROXYGRAPHICS
 70
     1
  9
$MEASUREMENT
 70
     0
  9
$CELWEIGHT
370
    -1
  9
$ENDCAPS
280
     0
  9
$JOINSTYLE
280
     0
  9
$LWDISPLAY
290
     0
  9
$INSUNITS
 70
     1
  9
$HYPERLINKBASE
  1

  9
$STYLESHEET
  1

  9
$XEDIT
290
     1
  9
$CEPSNTYPE
380
     0
  9
$PSTYLEMODE
290
     0
  9
$FINGERPRINTGUID
  2
{FAEB1C30-E019-11D5-929B-00C0DF256EC4}
  9
$VERSIONGUID
  2
{FAEB1C32-E019-11D5-929B-00C0DF256EC4}
  9
$EXTNAMES
290
     1
  9
$PSVPSCALE
 40
0.0
  9
$OLESTARTUP
290
     0
  0
ENDSEC
  0
SECTION
  2
CLASSES
  0
CLASS
  1
LWPOLYLINE
  2
AcDbPolyline
  3
AutoCAD 2000
 90
        0
280
     0
281
     1
  0
CLASS
  1
DICTIONARYVAR
  2
AcDbDictionaryVar
  3
AutoCAD 2000
 90
        0
280
     0
281
     0
  0
CLASS
  1
HATCH
  2
AcDbHatch
  3
AutoCAD 2000
 90
        0
280
     0
281
     1
  0
CLASS
  1
ACDBPLACEHOLDER
  2
AcDbPlaceHolder
  3
ObjectDBX Classes
 90
        0
280
     0
281
     0
  0
CLASS
  1
LAYOUT
  2
AcDbLayout
  3
ObjectDBX Classes
 90
        0
280
     0
281
     0
  0
ENDSEC
  0
SECTION
  2
TABLES
  0
TABLE
  2
VPORT
  5
8
330
0
100
AcDbSymbolTable
 70
     2
  0
VPORT
  5
8AB
330
8
100
AcDbSymbolTableRecord
100
AcDbViewportTableRecord
  2
*ACTIVE
 70
     0
 10
0.0
 20
0.0
 11
1.0
 21
1.0
 12
10.56312735742445
 22
5.341425501447883
 13
0.0
 23
0.0
 14
0.5
 24
0.5
 15
0.5
 25
0.5
 16
0.0
 26
0.0
 36
1.0
 17
0.0
 27
0.0
 37
0.0
 40
8.085617824529617
 41
1.519637462235649
 42
50.0
 43
0.0
 44
0.0
 50
0.0
 51
0.0
 71
     0
 72
  2000
 73
     1
 74
     0
 75
     0
 76
     0
 77
     0
 78
     0
281
     0
 65
     1
110
0.0
120
0.0
130
0.0
111
1.0
121
0.0
131
0.0
112
0.0
122
1.0
132
0.0
 79
     0
146
0.0
  0
ENDTAB
  0
TABLE
  2
LTYPE
  5
5
330
0
100
AcDbSymbolTable
 70
     2
  0
LTYPE
  5
13
330
5
100
AcDbSymbolTableRecord
100
AcDbLinetypeTableRecord
  2
BYBLOCK
 70
     0
  3

 72
    65
 73
     0
 40
0.0
  0
LTYPE
  5
14
330
5
100
AcDbSymbolTableRecord
100
AcDbLinetypeTableRecord
  2
BYLAYER
 70
     0
  3

 72
    65
 73
     0
 40
0.0
  0
LTYPE
  5
15
330
5
100
AcDbSymbolTableRecord
100
AcDbLinetypeTableRecord
  2
CONTINUOUS
 70
     0
  3
Solid line
 72
    65
 73
     0
 40
0.0
  0
ENDTAB
  0
TABLE
  2
LAYER
  5
2
330
0
100
AcDbSymbolTable
 70
     3
  0
LAYER
  5
F
330
2
100
AcDbSymbolTableRecord
100
AcDbLayerTableRecord
  2
0
 70
     0
 62
     7
  6
CONTINUOUS
370
    -3
390
0
  0
ENDTAB
  0
TABLE
  2
STYLE
  5
3
330
0
100
AcDbSymbolTable
 70
     1
  0
STYLE
  5
10
330
3
100
AcDbSymbolTableRecord
100
AcDbTextStyleTableRecord
  2
STANDARD
 70
     0
 40
0.0
 41
1.0
 50
0.0
 71
     0
 42
0.2
  3
txt
  4

  0
ENDTAB
  0
TABLE
  2
VIEW
  5
6
330
0
100
AcDbSymbolTable
 70
     1
  0
VIEW
  5
8AA
330
6
100
AcDbSymbolTableRecord
100
AcDbViewTableRecord
  2
INITIAL
 70
     0
 40
8.085617824529617
 10
10.56312735742445
 20
5.341425501447883
 41
12.28720775147552
 11
0.0
 21
0.0
 31
1.0
 12
0.0
 22
0.0
 32
0.0
 42
50.0
 43
0.0
 44
0.0
 50
0.0
 71
     0
281
     0
 72
     0
  0
ENDTAB
  0
TABLE
  2
UCS
  5
7
330
0
100
AcDbSymbolTable
 70
     0
  0
ENDTAB
  0
TABLE
  2
APPID
  5
9
330
0
100
AcDbSymbolTable
 70
     1
  0
APPID
  5
11
330
9
100
AcDbSymbolTableRecord
100
AcDbRegAppTableRecord
  2
ACAD
 70
     0
  0
ENDTAB
  0
TABLE
  2
DIMSTYLE
  5
A
330
0
100
AcDbSymbolTable
 70
     1
100
AcDbDimStyleTable
  0
DIMSTYLE
105
1D
330
A
100
AcDbSymbolTableRecord
100
AcDbDimStyleTableRecord
  2
STANDARD
 70
     0
  3

  4

340
10
  0
ENDTAB
  0
TABLE
  2
BLOCK_RECORD
  5
1
330
0
100
AcDbSymbolTable
 70
     0
  0
BLOCK_RECORD
  5
19
330
1
100
AcDbSymbolTableRecord
100
AcDbBlockTableRecord
  2
*MODEL_SPACE
340
8AD
  0
BLOCK_RECORD
  5
16
330
1
100
AcDbSymbolTableRecord
100
AcDbBlockTableRecord
  2
*PAPER_SPACE
340
8AE
  0
ENDTAB
  0
ENDSEC
  0
SECTION
  2
BLOCKS
  0
BLOCK
  5
1A
330
19
100
AcDbEntity
  8
0
100
AcDbBlockBegin
  2
*MODEL_SPACE
 70
     0
 10
0.0
 20
0.0
 30
0.0
  3
*MODEL_SPACE
  1

  4

  0
ENDBLK
  5
1B
330
19
100
AcDbEntity
  8
0
100
AcDbBlockEnd
  0
BLOCK
  5
17
330
16
100
AcDbEntity
 67
     1
  8
0
100
AcDbBlockBegin
  2
*PAPER_SPACE
 70
     0
 10
0.0
 20
0.0
 30
0.0
  3
*PAPER_SPACE
  1

  4

  0
ENDBLK
  5
18
330
16
100
AcDbEntity
 67
     1
  8
0
100
AcDbBlockEnd
  0
ENDSEC
  0
SECTION
  2
ENTITIES
  0
LINE
  5
18D
330
19
100
AcDbEntity
  8
0
100
AcDbLine
 10
9.642439825216917
 20
9.347778704268743
 30
0.0
 11
11.64057002840886
 21
6.202202867870678
 31
0.0
  0
LINE
  5
18E
330
19
100
AcDbEntity
  8
0
100
AcDbLine
 10
13.32337809481692
 20
3.553025961114088
 30
0.0
 11
12.94753140534875
 21
2.605865168973205
 31
0.0
  0
LINE
  5
18F
330
19
100
AcDbEntity
  8
0
100
AcDbLine
 10
12.94753140534875
 20
2.605865168973205
 30
0.0
 11
12.49714861184017
 21
2.482489167353882
 31
0.0
  0
LINE
  5
190
330
19
100
AcDbEntity
  8
0
100
AcDbLine
 10
12.49714861184017
 20
2.482489167353882
 30
0.0
 11
12.88701553005676
 21
3.418646770957031
 31
0.0
  0
LINE
  5
191
330
19
100
AcDbEntity
  8
0
100
AcDbLine
 10
12.88701553005676
 20
3.418646770957031
 30
0.0
 11
13.32337809481692
 21
3.553025961114088
 31
0.0
  0
LINE
  5
192
330
19
100
AcDbEntity
  8
0
100
AcDbLine
 10
12.88701553005676
 20
3.418646770957031
 30
0.0
 11
11.53511955688338
 21
5.561936452425059
 31
0.0
  0
LINE
  5
193
330
19
100
AcDbEntity
  8
0
100
AcDbLine
 10
9.223086473153355
 20
9.227423109611614
 30
0.0
 11
9.642439825216917
 21
9.347778704268743
 31
0.0
  0
LINE
  5
194
330
19
100
AcDbEntity
  8
0
100
AcDbLine
 10
9.223086473153355
 20
9.227423109611614
 30
0.0
 11
9.073669524164018
 21
9.01826522583603
 31
0.0
  0
LINE
  5
195
330
19
100
AcDbEntity
  8
0
100
AcDbLine
 10
8.785990561111211
 20
8.615564437700053
 30
0.0
 11
9.738159592865266
 21
7.042005925231639
 31
0.0
  0
LINE
  5
196
330
19
100
AcDbEntity
  8
0
100
AcDbLine
 10
9.073669524164018
 20
9.01826522583603
 30
0.0
 11
8.949917865472385
 21
9.039081165440662
 31
0.0
  0
LINE
  5
197
330
19
100
AcDbEntity
  8
0
100
AcDbLine
 10
8.949917865472385
 20
9.039081165440662
 30
0.0
 11
9.020148629147375
 21
8.752833292635939
 31
0.0
  0
LINE
  5
198
330
19
100
AcDbEntity
  8
0
100
AcDbLine
 10
9.020148629147375
 20
8.752833292635939
 30
0.0
 11
8.900639062834209
 21
8.776052509238273
 31
0.0
  0
LINE
  5
199
330
19
100
AcDbEntity
  8
0
100
AcDbLine
 10
8.900639062834207
 20
8.776052509238273
 30
0.0
 11
8.785990561111211
 21
8.615564437700053
 31
0.0
  0
LWPOLYLINE
  5
19A
330
19
100
AcDbEntity
  8
0
100
AcDbPolyline
 90
        2
 70
     0
 43
0.0
 10
13.25810785941742
 20
3.53292579193673
 10
13.25338077806259
 20
3.376627669356932
  0
LWPOLYLINE
  5
19B
330
19
100
AcDbEntity
  8
0
100
AcDbPolyline
 90
        2
 70
     0
 43
0.0
 10
13.17511063077896
 20
3.50736654082213
 10
13.14684738479349
 20
3.108155827018774
  0
LWPOLYLINE
  5
19C
330
19
100
AcDbEntity
  8
0
100
AcDbPolyline
 90
        4
 70
     0
 43
0.0
 10
13.09035580389934
 20
3.481266031938548
 10
13.06821184810551
 20
3.392722229938984
 10
13.02246586489661
 20
2.857159264012574
 10
12.88487528205513
 20
2.588701409432764
  0
LWPOLYLINE
  5
19D
330
19
100
AcDbEntity
  8
0
100
AcDbPolyline
 90
        5
 70
     0
 43
0.0
 10
12.98717765607663
 20
3.449492004865576
 10
12.92112205211427
 20
3.28953632980009
 10
12.93738052264611
 20
2.857111568366282
 10
12.8173829258988
 20
2.637824351537886
 10
12.81180130552265
 20
2.56868382621923
  0
LWPOLYLINE
  5
19E
330
19
100
AcDbEntity
  8
0
100
AcDbPolyline
 90
        4
 70
     0
 43
0.0
 10
12.86143909023163
 20
3.357232022752904
 10
12.80517448374341
 20
2.988169027301628
 10
12.80727637209095
 20
2.809991432839326
 10
12.72907312053579
 20
2.546021609029736
  0
LWPOLYLINE
  5
19F
330
19
100
AcDbEntity
  8
0
100
AcDbPolyline
 90
        3
 70
     0
 43
0.0
 10
12.72485224059965
 20
3.029256470428284
 10
12.69421454062216
 20
2.717835655250189
 10
12.65710425596786
 20
2.52630675562181
  0
LWPOLYLINE
  5
1A0
330
19
100
AcDbEntity
  8
0
100
AcDbPolyline
 90
        2
 70
     0
 43
0.0
 10
12.59045722310476
 20
2.706543996926443
 10
12.58021205551291
 20
2.505243223922607
  0
LINE
  5
1A2
330
19
100
AcDbEntity
  8
0
100
AcDbLine
 10
9.49191869708241
 20
7.448944656439023
 30
0.0
 11
8.808407120744789
 21
7.911870951842638
 31
0.0
  0
LINE
  5
1A3
330
19
100
AcDbEntity
  8
0
100
AcDbLine
 10
8.808407120744789
 20
7.911870951842638
 30
0.0
 11
8.366031798322771
 21
7.789500443251796
 31
0.0
  0
LINE
  5
1A4
330
19
100
AcDbEntity
  8
0
100
AcDbLine
 10
8.366031798322771
 20
7.789500443251796
 30
0.0
 11
9.649722970445902
 21
6.914718470129754
 31
0.0
  0
LINE
  5
1A5
330
19
100
AcDbEntity
  8
0
100
AcDbLine
 10
8.366031798322771
 20
7.789500443251796
 30
0.0
 11
8.361697456317893
 21
7.3602119188587
 31
0.0
  0
LINE
  5
1A6
330
19
100
AcDbEntity
  8
0
100
AcDbLine
 10
8.35465157703711
 20
6.662363175936336
 30
0.0
 11
10.7245192296208
 21
5.017219129474377
 31
0.0
  0
LINE
  5
1A7
330
19
100
AcDbEntity
  8
0
100
AcDbLine
 10
8.361697456317893
 20
7.360211918858701
 30
0.0
 11
8.285209712043908
 21
7.326991131874397
 31
0.0
  0
LINE
  5
1A8
330
19
100
AcDbEntity
  8
0
100
AcDbLine
 10
8.285209712043908
 20
7.326991131874397
 30
0.0
 11
8.452494098517574
 21
7.118876002284133
 31
0.0
  0
LINE
  5
1A9
330
19
100
AcDbEntity
  8
0
100
AcDbLine
 10
8.452494098517574
 20
7.118876002284133
 30
0.0
 11
8.358967215566366
 21
7.089799242114982
 31
0.0
  0
LINE
  5
1AA
330
19
100
AcDbEntity
  8
0
100
AcDbLine
 10
8.358967215566366
 20
7.089799242114983
 30
0.0
 11
8.35465157703711
 21
6.662363175936336
 31
0.0
  0
LINE
  5
1AB
330
19
100
AcDbEntity
  8
0
100
AcDbLine
 10
9.649722970445902
 20
7.069496906759904
 30
0.0
 11
9.649722970445902
 21
6.040468695418894
 31
0.0
  0
LINE
  5
1AC
330
19
100
AcDbEntity
  8
0
100
AcDbLine
 10
9.649722970445902
 20
6.040468695418894
 30
0.0
 11
10.78987613915221
 21
5.267327215610927
 31
0.0
  0
LINE
  5
1AD
330
19
100
AcDbEntity
  8
0
100
AcDbLine
 10
10.78987613915221
 20
5.267327215610927
 30
0.0
 11
10.78987613915221
 21
6.331393373504866
 31
0.0
  0
LINE
  5
1AE
330
19
100
AcDbEntity
  8
0
100
AcDbLine
 10
10.78987613915221
 20
6.331393373504866
 30
0.0
 11
9.649722970445902
 21
7.069496906759904
 31
0.0
  0
LINE
  5
1AF
330
19
100
AcDbEntity
  8
0
100
AcDbLine
 10
10.82190321787221
 20
5.276354207857231
 30
0.0
 11
10.82190321787221
 21
6.34042036575117
 31
0.0
  0
LINE
  5
1B0
330
19
100
AcDbEntity
  8
0
100
AcDbLine
 10
10.82190321787221
 20
6.34042036575117
 30
0.0
 11
9.681750049165894
 21
7.078523899006208
 31
0.0
  0
LINE
  5
1B1
330
19
100
AcDbEntity
  8
0
100
AcDbLine
 10
10.78987613915221
 20
5.267327215610927
 30
0.0
 11
10.82190321787221
 21
5.276354207857231
 31
0.0
  0
LINE
  5
1B2
330
19
100
AcDbEntity
  8
0
100
AcDbLine
 10
10.78987613915221
 20
6.331393373504866
 30
0.0
 11
10.82190321787221
 21
6.34042036575117
 31
0.0
  0
LINE
  5
1B3
330
19
100
AcDbEntity
  8
0
100
AcDbLine
 10
9.649722970445902
 20
7.069496906759904
 30
0.0
 11
9.681750049165894
 21
7.078523899006208
 31
0.0
  0
LINE
  5
1B4
330
19
100
AcDbEntity
  8
0
100
AcDbLine
 10
10.80880006378166
 20
5.27266101837181
 30
0.0
 11
10.83902595455368
 21
5.222709585238519
 31
0.0
  0
LWPOLYLINE
  5
1BA
330
19
100
AcDbEntity
  8
0
100
AcDbPolyline
 90
        5
 70
     0
 43
0.0
 10
10.54200381799868
 20
6.320696560692845
 10
10.71837893861367
 20
6.206516200301514
 10
10.71837893861367
 20
6.165200187191504
 10
10.53489058784193
 20
6.283985455463336
 10
10.56762524707589
 20
6.304109958253813
  0
LWPOLYLINE
  5
1C3
330
19
100
AcDbEntity
  8
0
100
AcDbPolyline
 90
        5
 70
     0
 43
0.0
 10
10.54200381799868
 20
6.034121239121601
 10
10.71837893861367
 20
5.919940878730269
 10
10.71837893861367
 20
5.878624865620259
 10
10.53489058784193
 20
5.997410133892092
 10
10.56762524707589
 20
6.017534636682568
  0
LWPOLYLINE
  5
1C4
330
19
100
AcDbEntity
  8
0
100
AcDbPolyline
 90
        5
 70
     0
 43
0.0
 10
10.54200381799868
 20
5.752841913307979
 10
10.71837893861367
 20
5.638661552916648
 10
10.71837893861367
 20
5.597345539806637
 10
10.53489058784193
 20
5.71613080807847
 10
10.56762524707589
 20
5.736255310868947
  0
LWPOLYLINE
  5
1C5
330
19
100
AcDbEntity
  8
0
100
AcDbPolyline
 90
        5
 70
     0
 43
0.0
 10
10.42281926891252
 20
5.970704163800291
 10
10.59919438952751
 20
5.85652380340896
 10
10.59919438952751
 20
5.81520779029895
 10
10.41570603875577
 20
5.933993058570782
 10
10.44844069798973
 20
5.954117561361259
  0
LWPOLYLINE
  5
1C6
330
19
100
AcDbEntity
  8
0
100
AcDbPolyline
 90
        5
 70
     0
 43
0.0
 10
10.42281926891252
 20
5.689424837986669
 10
10.59919438952751
 20
5.575244477595338
 10
10.59919438952751
 20
5.533928464485328
 10
10.41570603875577
 20
5.65271373275716
 10
10.44844069798973
 20
5.672838235547637
  0
LWPOLYLINE
  5
1C7
330
19
100
AcDbEntity
  8
0
100
AcDbPolyline
 90
        5
 70
     0
 43
0.0
 10
10.42281926891252
 20
6.257279485371535
 10
10.59919438952751
 20
6.143099124980204
 10
10.59919438952751
 20
6.101783111870194
 10
10.41570603875577
 20
6.220568380142026
 10
10.44844069798973
 20
6.240692882932503
  0
LWPOLYLINE
  5
1C9
330
19
100
AcDbEntity
  8
0
100
AcDbPolyline
 90
        5
 70
     0
 43
0.0
 10
10.27712923841927
 20
6.492169015818186
 10
10.45350435903426
 20
6.377988655426854
 10
10.45350435903426
 20
6.336672642316844
 10
10.27001600826252
 20
6.455457910588677
 10
10.30275066749648
 20
6.475582413379153
  0
LWPOLYLINE
  5
1CA
330
19
100
AcDbEntity
  8
0
100
AcDbPolyline
 90
        5
 70
     0
 43
0.0
 10
10.27712923841927
 20
6.205593694246941
 10
10.45350435903426
 20
6.09141333385561
 10
10.45350435903426
 20
6.0500973207456
 10
10.27001600826252
 20
6.168882589017432
 10
10.30275066749648
 20
6.189007091807909
  0
LWPOLYLINE
  5
1CB
330
19
100
AcDbEntity
  8
0
100
AcDbPolyline
 90
        5
 70
     0
 43
0.0
 10
10.27712923841927
 20
5.924314368433319
 10
10.45350435903426
 20
5.810134008041988
 10
10.45350435903426
 20
5.768817994931978
 10
10.27001600826252
 20
5.88760326320381
 10
10.30275066749648
 20
5.907727765994287
  0
LWPOLYLINE
  5
1CC
330
19
100
AcDbEntity
  8
0
100
AcDbPolyline
 90
        5
 70
     0
 43
0.0
 10
10.01335664481782
 20
6.662928075790783
 10
10.18973176543281
 20
6.548747715399452
 10
10.18973176543281
 20
6.507431702289442
 10
10.00624341466108
 20
6.626216970561274
 10
10.03897807389504
 20
6.646341473351751
  0
LWPOLYLINE
  5
1CD
330
19
100
AcDbEntity
  8
0
100
AcDbPolyline
 90
        5
 70
     0
 43
0.0
 10
10.01335664481782
 20
6.376352754219539
 10
10.18973176543281
 20
6.262172393828208
 10
10.18973176543281
 20
6.220856380718198
 10
10.00624341466108
 20
6.33964164899003
 10
10.03897807389504
 20
6.359766151780507
  0
LWPOLYLINE
  5
1CE
330
19
100
AcDbEntity
  8
0
100
AcDbPolyline
 90
        5
 70
     0
 43
0.0
 10
10.01335664481782
 20
6.095073428405917
 10
10.18973176543281
 20
5.980893068014586
 10
10.18973176543281
 20
5.939577054904576
 10
10.00624341466108
 20
6.058362323176408
 10
10.03897807389504
 20
6.078486825966885
  0
LWPOLYLINE
  5
1CF
330
19
100
AcDbEntity
  8
0
100
AcDbPolyline
 90
        5
 70
     0
 43
0.0
 10
9.747011625573999
 20
6.835352452764462
 10
9.923386746188989
 20
6.721172092373131
 10
9.923386746188989
 20
6.679856079263121
 10
9.739898395417251
 20
6.798641347534953
 10
9.772633054651212
 20
6.81876585032543
  0
LWPOLYLINE
  5
1D0
330
19
100
AcDbEntity
  8
0
100
AcDbPolyline
 90
        5
 70
     0
 43
0.0
 10
9.747011625573999
 20
6.548777131193218
 10
9.923386746188989
 20
6.434596770801886
 10
9.923386746188989
 20
6.393280757691876
 10
9.739898395417251
 20
6.512066025963708
 10
9.772633054651212
 20
6.532190528754185
  0
LWPOLYLINE
  5
1D1
330
19
100
AcDbEntity
  8
0
100
AcDbPolyline
 90
        5
 70
     0
 43
0.0
 10
9.747011625573999
 20
6.267497805379596
 10
9.923386746188989
 20
6.153317444988264
 10
9.923386746188989
 20
6.112001431878254
 10
9.739898395417251
 20
6.230786700150087
 10
9.772633054651212
 20
6.250911202940563
  0
LWPOLYLINE
  5
1D2
330
19
100
AcDbEntity
  8
0
100
AcDbPolyline
 90
        5
 70
     0
 43
0.0
 10
10.1582891192017
 20
6.428528966154532
 10
10.33466423981669
 20
6.3143486057632
 10
10.33466423981669
 20
6.27303259265319
 10
10.15117588904495
 20
6.391817860925023
 10
10.18391054827891
 20
6.411942363715499
  0
LWPOLYLINE
  5
1D3
330
19
100
AcDbEntity
  8
0
100
AcDbPolyline
 90
        5
 70
     0
 43
0.0
 10
10.1582891192017
 20
6.141953644583287
 10
10.33466423981669
 20
6.027773284191956
 10
10.33466423981669
 20
5.986457271081946
 10
10.15117588904495
 20
6.105242539353778
 10
10.18391054827891
 20
6.125367042144255
  0
LWPOLYLINE
  5
1D4
330
19
100
AcDbEntity
  8
0
100
AcDbPolyline
 90
        5
 70
     0
 43
0.0
 10
10.1582891192017
 20
5.860674318769665
 10
10.33466423981669
 20
5.746493958378334
 10
10.33466423981669
 20
5.705177945268324
 10
10.15117588904495
 20
5.823963213540156
 10
10.18391054827891
 20
5.844087716330633
  0
LWPOLYLINE
  5
1D5
330
19
100
AcDbEntity
  8
0
100
AcDbPolyline
 90
        5
 70
     0
 43
0.0
 10
9.886681853551119
 20
6.604359975475762
 10
10.06305697416611
 20
6.490179615084431
 10
10.06305697416611
 20
6.448863601974421
 10
9.879568623394372
 20
6.567648870246253
 10
9.912303282628333
 20
6.58777337303673
  0
LWPOLYLINE
  5
1D6
330
19
100
AcDbEntity
  8
0
100
AcDbPolyline
 90
        5
 70
     0
 43
0.0
 10
9.886681853551119
 20
6.317784653904518
 10
10.06305697416611
 20
6.203604293513187
 10
10.06305697416611
 20
6.162288280403176
 10
9.879568623394372
 20
6.281073548675009
 10
9.912303282628333
 20
6.301198051465486
  0
LWPOLYLINE
  5
1D7
330
19
100
AcDbEntity
  8
0
100
AcDbPolyline
 90
        5
 70
     0
 43
0.0
 10
9.886681853551119
 20
6.036505328090896
 10
10.06305697416611
 20
5.922324967699565
 10
10.06305697416611
 20
5.881008954589555
 10
9.879568623394372
 20
5.999794222861387
 10
9.912303282628333
 20
6.019918725651864
  0
LINE
  5
1D9
330
19
100
AcDbEntity
  8
0
100
AcDbLine
 10
10.64350743252827
 20
2.092059397090637
 30
0.0
 11
10.64350743252827
 21
4.871838600611659
 31
0.0
  0
LINE
  5
1DA
330
19
100
AcDbEntity
  8
0
100
AcDbLine
 10
10.64350743252827
 20
4.871838600611659
 30
0.0
 11
11.13392538056964
 21
5.751926208299272
 31
0.0
  0
LINE
  5
1DB
330
19
100
AcDbEntity
  8
0
100
AcDbLine
 10
10.64350743252827
 20
2.092059397090637
 30
0.0
 11
10.84478387150835
 21
1.959038647744622
 31
0.0
  0
LINE
  5
1DC
330
19
100
AcDbEntity
  8
0
100
AcDbLine
 10
10.84478387150835
 20
1.959038647744622
 30
0.0
 11
11.14543803125931
 21
2.059123033290471
 31
0.0
  0
LINE
  5
1DD
330
19
100
AcDbEntity
  8
0
100
AcDbLine
 10
11.14543803125931
 20
2.059123033290471
 30
0.0
 11
11.24802745123146
 21
2.246552936819305
 31
0.0
  0
LINE
  5
1DE
330
19
100
AcDbEntity
  8
0
100
AcDbLine
 10
11.24802745123146
 20
2.246552936819305
 30
0.0
 11
11.24802745123146
 21
4.617371537328474
 31
0.0
  0
LINE
  5
1DF
330
19
100
AcDbEntity
  8
0
100
AcDbLine
 10
10.69146867316112
 20
2.060362492073464
 30
0.0
 11
10.69146867316112
 21
4.840141695594487
 31
0.0
  0
LINE
  5
1E0
330
19
100
AcDbEntity
  8
0
100
AcDbLine
 10
10.69146867316112
 20
4.840141695594487
 30
0.0
 11
11.17691121026659
 21
5.711297444629974
 31
0.0
  0
LWPOLYLINE
  5
1E1
330
19
100
AcDbEntity
  8
0
100
AcDbPolyline
 90
        6
 70
     0
 43
0.0
 10
11.19099089651576
 20
5.781067292418782
 10
11.19099089651576
 20
6.034319066616315
 42
-0.3388683278106808
 10
11.2403687599224
 20
6.099250648203073
 10
11.63319956473838
 20
6.200735996873123
 42
-0.3329810481586493
 10
11.70628969242867
 20
6.170746838222116
 10
11.99525043357257
 20
5.714825001637993
  0
ARC
  5
1E3
330
19
100
AcDbEntity
  8
0
100
AcDbCircle
 10
11.02954738949179
 20
5.777341317731289
 30
0.0
 40
0.1614864974156334
100
AcDbArc
 50
335.8595639658808
 51
1.322101685334257
  0
ARC
  5
1E4
330
19
100
AcDbEntity
  8
0
100
AcDbCircle
 10
11.17245836094108
 20
5.730979139171778
 30
0.0
 40
0.0438585257542666
100
AcDbArc
 50
65.1347945618049
 51
151.4708760607674
  0
LWPOLYLINE
  5
1E6
330
19
100
AcDbEntity
  8
0
100
AcDbPolyline
 90
        5
 70
     0
 43
0.0
 10
11.96571324351539
 20
5.69034301050299
 10
11.53511955688338
 20
5.561936452425059
 10
11.36574692288217
 20
4.744124756782792
 42
-0.3094597218797424
 10
11.28771069321079
 20
4.669005687027521
 42
0.2807142097011031
 10
11.24802745123146
 20
4.617371537328474
 42
1.131764651446104
  0
LINE
  5
1E7
330
19
100
AcDbEntity
  8
0
100
AcDbLine
 10
11.24802745123146
 20
4.546792006272484
 30
0.0
 11
12.49714861184017
 21
2.482489167353882
 31
0.0
  0
LINE
  5
1E8
330
19
100
AcDbEntity
  8
0
100
AcDbLine
 10
11.20850732738973
 20
6.079745984523749
 30
0.0
 11
9.223086473153355
 21
9.227423109611614
 31
0.0
  0
LINE
  5
1E9
330
19
100
AcDbEntity
  8
0
100
AcDbLine
 10
11.96571324351539
 20
5.690343010502989
 30
0.0
 11
13.32337809481692
 21
3.553025961114088
 31
0.0
  0
LINE
  5
1EA
330
19
100
AcDbEntity
  8
0
100
AcDbLine
 10
11.19606381280345
 20
5.659948610841386
 30
0.0
 11
11.19606381280345
 21
5.620889253299788
 31
0.0
  0
LINE
  5
1EE
330
19
100
AcDbEntity
  8
0
100
AcDbLine
 10
11.19606381280345
 20
4.721026473390269
 30
0.0
 11
11.19606381280345
 21
4.669959556532956
 31
0.0
  0
LINE
  5
1F3
330
19
100
AcDbEntity
  8
0
100
AcDbLine
 10
11.19606381280345
 20
5.583897555465451
 30
0.0
 11
11.19606381280345
 21
4.774022452017968
 31
0.0
  0
LINE
  5
1F4
330
19
100
AcDbEntity
  8
0
100
AcDbLine
 10
11.23287314493138
 20
6.066377007225083
 30
0.0
 11
11.25557458778269
 21
6.031787184646882
 31
0.0
  0
LINE
  5
1F7
330
19
100
AcDbEntity
  8
0
100
AcDbLine
 10
11.48954516564476
 20
5.675289986218917
 30
0.0
 11
11.50738279854062
 21
5.648111072476573
 31
0.0
  0
LINE
  5
1FA
330
19
100
AcDbEntity
  8
0
100
AcDbLine
 10
11.27688260292875
 20
5.999320505404394
 30
0.0
 11
11.46853825396184
 21
5.707297878967727
 31
0.0
  0
LINE
  5
1FC
330
19
100
AcDbEntity
  8
0
100
AcDbLine
 10
11.93955234699741
 20
5.734717476534787
 30
0.0
 11
11.52083094810065
 21
5.609851331732578
 31
0.0
  0
LINE
  5
1FD
330
19
100
AcDbEntity
  8
0
100
AcDbLine
 10
11.48615855870289
 20
5.572076504553619
 30
0.0
 11
11.31678592470168
 21
4.754264808911352
 31
0.0
  0
ARC
  5
1FE
330
19
100
AcDbEntity
  8
0
100
AcDbCircle
 10
11.41017703598691
 20
4.723021209627267
 30
0.0
 40
0.0984787396513318
100
AcDbArc
 50
161.5025542578103
 51
205.1050167272169
  0
ARC
  5
200
330
19
100
AcDbEntity
  8
0
100
AcDbCircle
 10
11.53511955688338
 20
5.561936452425059
 30
0.0
 40
0.05
100
AcDbArc
 50
106.605010757047
 51
168.2991956289029
  0
LINE
  5
202
330
19
100
AcDbEntity
  8
0
100
AcDbLine
 10
12.00384095578014
 20
5.686802597227268
 30
0.0
 11
12.00384095578014
 21
5.630320089971809
 31
0.0
  0
ARC
  5
203
330
19
100
AcDbEntity
  8
0
100
AcDbCircle
 10
11.95384095578014
 20
5.686802597227268
 30
0.0
 40
0.05
100
AcDbArc
 50
0.0
 51
106.605010757047
  0
ELLIPSE
  5
205
102
{ACAD_REACTORS
330
213
102
}
330
19
100
AcDbEntity
  8
0
100
AcDbEllipse
 10
11.60580073225527
 20
5.970990141852394
 30
0.0
 11
-0.07357463763389305
 21
0.001460263333803446
 31
0.0
210
0.0
220
0.0
230
1.0
 40
0.5813425050266117
 41
0.0
 42
6.283185307179586
  0
ELLIPSE
  5
206
102
{ACAD_REACTORS
330
213
102
}
330
19
100
AcDbEntity
  8
0
100
AcDbEllipse
 10
11.59317845599872
 20
5.938178826811055
 30
0.0
 11
-0.07357463763389305
 21
0.001460263333803446
 31
0.0
210
0.0
220
0.0
230
1.0
 40
0.5813425050266117
 41
6.037761930912277
 42
9.239087087060499
  0
LINE
  5
20C
102
{ACAD_REACTORS
330
213
102
}
330
19
100
AcDbEntity
  8
0
100
AcDbLine
 10
11.5220147737365
 20
5.949987534346766
 30
0.0
 11
11.53396336474916
 21
5.98118939619509
 31
0.0
  0
LINE
  5
20D
102
{ACAD_REACTORS
330
213
102
}
330
19
100
AcDbEntity
  8
0
100
AcDbLine
 10
11.66533153597441
 20
5.928846850052032
 30
0.0
 11
11.67761786384566
 21
5.960738203547105
 31
0.0
  0
HATCH
  5
213
330
19
100
AcDbEntity
  8
0
100
AcDbHatch
 10
0.0
 20
0.0
 30
0.0
210
0.0
220
0.0
230
1.0
  2
SOLID
 70
     1
 71
     1
 91
        1
 92
        5
 93
        4
 72
     3
 10
11.59317845599872
 20
5.938178826811055
 11
-0.07357463763389305
 21
0.001460263333803446
 40
0.5813425050266117
 50
-8.284634376480156
 51
173.7675355731765
 73
     1
 72
     1
 10
11.66533153597443
 20
5.928846850052076
 11
11.67761786384571
 21
5.960738203547211
 72
     3
 10
11.60580073225527
 20
5.970990141852394
 11
-0.07357463763389305
 21
0.001460263333803446
 40
0.5813425050266117
 50
-173.0129018216378
 51
6.943655230116201
 73
     0
 72
     1
 10
11.53396336474915
 20
5.9811893961951
 11
11.52201477373654
 21
5.949987534346818
 97
        4
330
206
330
20D
330
205
330
20C
 75
     0
 76
     1
 47
0.0006145602673762
 98
        1
 10
11.6202982248241
 20
5.908245656911168
  0
ELLIPSE
  5
214
330
19
100
AcDbEntity
  8
0
100
AcDbEllipse
 10
11.33526790188748
 20
5.469335901332697
 30
0.0
 11
0.0
 21
0.07557524287371997
 31
0.0
210
0.0
220
0.0
230
1.0
 40
0.6483951891948736
 41
0.0
 42
6.283185307179586
  0
ELLIPSE
  5
215
330
19
100
AcDbEntity
  8
0
100
AcDbEllipse
 10
11.36538331371984
 20
5.469335901332697
 30
0.0
 11
0.0
 21
0.07557524287371997
 31
0.0
210
0.0
220
0.0
230
1.0
 40
0.6483951891948736
 41
3.141592653589793
 42
6.283185307179586
  0
LINE
  5
216
330
19
100
AcDbEntity
  8
0
100
AcDbLine
 10
11.36538331371984
 20
5.544911144206417
 30
0.0
 11
11.33526790188748
 21
5.544911144206417
 31
0.0
  0
LINE
  5
217
330
19
100
AcDbEntity
  8
0
100
AcDbLine
 10
11.36538331371984
 20
5.393760658458977
 30
0.0
 11
11.33526790188748
 21
5.393760658458977
 31
0.0
  0
LINE
  5
219
330
19
100
AcDbEntity
  8
0
100
AcDbLine
 10
9.227934508476817
 20
4.150331809573692
 30
0.0
 11
10.64350743252827
 21
4.589050317531781
 31
0.0
  0
LINE
  5
21A
330
19
100
AcDbEntity
  8
0
100
AcDbLine
 10
9.329612795328851
 20
1.335564599647037
 30
0.0
 11
13.70618808812129
 21
2.792477250837695
 31
0.0
  0
LINE
  5
21B
330
19
100
AcDbEntity
  8
0
100
AcDbLine
 10
7.462416429839974
 20
5.483680913050144
 30
0.0
 11
9.283006031323584
 21
6.017906595497864
 31
0.0
  0
LINE
  5
21C
330
19
100
AcDbEntity
  8
0
100
AcDbLine
 10
11.36884647744673
 20
6.629966301265235
 30
0.0
 11
11.7039751376112
 21
6.728304958718983
 31
0.0
  0
LINE
  5
21D
330
19
100
AcDbEntity
  8
0
100
AcDbLine
 10
12.33272161445711
 20
5.112576525843546
 30
0.0
 11
13.65761014919354
 21
5.523189862178607
 31
0.0
  0
LWPOLYLINE
  5
21F
330
19
100
AcDbEntity
  8
0
100
AcDbPolyline
 90
       15
 70
     0
 43
0.0
 10
13.65761014919354
 20
5.523189862178607
 10
13.69666108985638
 20
5.502190661507371
 10
13.69283775608114
 20
5.179865120480961
 10
13.62083280120489
 20
5.059704236285755
 10
13.69295054225649
 20
4.9786633111592
 10
13.68714820656356
 20
4.615295482796754
 10
13.65620966740912
 20
4.450112423545379
 10
13.67031013706837
 20
4.295965659221517
 10
13.70341846072565
 20
4.161849636806942
 10
13.59736085181595
 20
4.074702807226941
 10
13.70670596330709
 20
3.654342278759146
 10
13.70784893202194
 20
3.401088821185862
 10
13.64284707745428
 20
3.287938893052743
 10
13.70306050623625
 20
3.014698461339709
 10
13.70618808812129
 20
2.792477250837695
  0
LWPOLYLINE
  5
220
330
19
100
AcDbEntity
  8
0
100
AcDbPolyline
 90
       17
 70
     0
 43
0.0
 10
13.65761014919354
 20
5.523189862178607
 10
13.46137520348713
 20
5.591148155429907
 10
13.39622801747959
 20
5.737258270154182
 10
13.17598693114576
 20
5.773170967552225
 10
13.16993040571436
 20
5.8632579631836
 10
12.78645496128331
 20
6.025205704501842
 10
12.72833724847112
 20
6.131279586043814
 10
12.72630662303039
 20
6.182329669143611
 10
12.5541378583532
 20
6.17522612741519
 10
12.3868697445118
 20
6.354312140237638
 10
12.28672389071887
 20
6.435337353857179
 10
12.21564082120878
 20
6.456318598520398
 10
12.10152187318847
 20
6.464262662453653
 10
12.06041561757387
 20
6.580356123389648
 10
11.9733035777594
 20
6.624351482657818
 10
11.8801535296468
 20
6.725400704683641
 10
11.7039751376112
 20
6.728304958718983
  0
LWPOLYLINE
  5
221
330
19
100
AcDbEntity
  8
0
100
AcDbPolyline
 90
       25
 70
     0
 43
0.0
 10
9.227934508476817
 20
4.150331809573692
 10
9.221982913467256
 20
4.053231052253976
 10
9.19498610551592
 20
3.999161684442485
 10
9.238072485298694
 20
3.922108502789572
 10
9.222177623929179
 20
3.705882655066656
 10
9.224252578264695
 20
3.575753253875222
 10
9.31647512975864
 20
3.343571943255737
 10
9.282486444003732
 20
3.26247153885263
 10
9.343701437937432
 20
2.98823066423837
 10
9.307692226996302
 20
2.940162270458484
 10
9.297743349383843
 20
2.831047220320049
 10
9.326848218060476
 20
2.695927949377996
 10
9.302903801210611
 20
2.553771910612332
 10
9.242894060894571
 20
2.463647880714424
 10
9.236020580518854
 20
2.225404994536282
 10
9.296147596012249
 20
2.106319182900617
 10
9.312260735104207
 20
1.933154464324204
 10
9.281270011301473
 20
1.861064779535136
 10
9.269280407993776
 20
1.821017884973073
 10
9.277310885215607
 20
1.78098221291602
 10
9.302351136259281
 20
1.753969132332419
 10
9.245374147660945
 20
1.610793572407012
 10
9.294511441622618
 20
1.453663435387488
 10
9.262519713793408
 20
1.381573189473169
 10
9.329612795328851
 20
1.335564599647037
  0
LWPOLYLINE
  5
222
330
19
100
AcDbEntity
  8
0
100
AcDbPolyline
 90
       35
 70
     0
 43
0.0
 10
9.329612795328851
 20
1.335564599647037
 10
9.236518298616042
 20
1.337514423051694
 10
9.19642651403394
 20
1.429584348477505
 10
8.801883912786598
 20
1.691626320065633
 10
8.816852960913206
 20
1.773717067115457
 10
8.651666534910326
 20
1.810661630428753
 10
8.606582636076604
 20
1.879705657619354
 10
8.592504050302127
 20
1.994813264910637
 10
8.311167489712954
 20
2.09175297928346
 10
8.139917804775667
 20
2.230796586545849
 10
8.100804018084769
 20
2.363908238182443
 10
8.042768229559156
 20
2.323835531858858
 10
7.79741450702434
 20
2.51589082925596
 10
7.701332148613864
 20
2.490811860570002
 10
7.671227959286507
 20
2.622927558307375
 10
7.459922401783149
 20
2.789976833301084
 10
7.507932999662234
 20
2.857071037087028
 10
7.534893895597539
 20
2.97520466259301
 10
7.453770485059162
 20
3.050234513433451
 10
7.461633746956346
 20
3.308498041266372
 10
7.507666465168249
 20
3.332547949663329
 10
7.508614723421179
 20
3.426642889277364
 10
7.454516738221914
 20
3.504690902578998
 10
7.454424152555582
 20
3.669856566947608
 10
7.514438942998877
 20
3.750971560607228
 10
7.505369866358786
 20
3.858073941312951
 10
7.557255421536164
 20
4.155401315689475
 10
7.488060451653179
 20
4.37958749997791
 10
7.450995246411027
 20
4.429616939667463
 10
7.508907587381531
 20
4.689910531815862
 10
7.457763796364901
 20
4.855047578796697
 10
7.444671625360389
 20
4.996181851901616
 10
7.516699586371901
 20
5.075301571011289
 10
7.418479988723105
 20
5.291463450455648
 10
7.462416429839974
 20
5.483680913050144
  0
LWPOLYLINE
  5
223
330
19
100
AcDbEntity
  8
0
100
AcDbPolyline
 90
       19
 70
     0
 43
0.0
 10
7.462416429839974
 20
5.483680913050144
 10
7.67970556649217
 20
5.356675165866995
 10
7.681730580680393
 20
5.315635123031963
 10
7.876012336230645
 20
5.160588357226713
 10
8.053229327684507
 20
5.090617394542701
 10
8.154350373742393
 20
5.055638927266326
 10
8.166387672696382
 20
5.010600479577892
 10
8.141418123434271
 20
4.911487052825464
 10
8.218501044725461
 20
4.901520219204988
 10
8.358699965458211
 20
4.797494357986509
 10
8.474892184438295
 20
4.66242390494125
 10
8.739177447937086
 20
4.626535897054229
 10
8.877325542720092
 20
4.609596263888697
 10
8.855351710909153
 20
4.523497572856214
 10
8.876431713616459
 20
4.418403933706451
 10
8.920500580292444
 20
4.37438444605251
 10
9.105684641814831
 20
4.37749126630328
 10
9.141779704919284
 20
4.272406044032273
 10
9.227934508476817
 20
4.150331809573692
  0
ELLIPSE
  5
225
330
19
100
AcDbEntity
  8
0
100
AcDbEllipse
 10
11.02265785378973
 20
4.223410477616757
 30
0.0
 11
0.0
 21
0.0650649811583417
 31
0.0
210
0.0
220
0.0
230
1.0
 40
0.8124490300358929
 41
0.0
 42
6.283185307179586
  0
ELLIPSE
  5
226
330
19
100
AcDbEntity
  8
0
100
AcDbEllipse
 10
10.99561727806885
 20
4.247419423870428
 30
0.0
 11
0.0
 21
0.0650649811583417
 31
0.0
210
0.0
220
0.0
230
1.0
 40
0.8124490300358929
 41
5.646039772405466
 42
8.810044818035046
  0
SPLINE
  5
228
330
19
100
AcDbEntity
  8
0
100
AcDbSpline
210
0.0
220
0.0
230
1.0
 70
     8
 71
     3
 72
    19
 73
    15
 74
     0
 42
0.0000001
 43
0.0000001
 40
4.650479534272066
 40
4.650479534272066
 40
4.650479534272066
 40
4.650479534272066
 40
5.190373242285276
 40
5.190373242285276
 40
6.283185307179586
 40
6.283185307179586
 40
6.283185307179586
 40
6.938401437968416
 40
6.938401437968416
 40
8.320285279366503
 40
8.320285279366503
 40
9.37137636939929
 40
9.37137636939929
 40
9.62889233705206
 40
9.62889233705206
 40
9.62889233705206
 40
9.62889233705206
 10
11.07328427208716
 20
4.242132084480186
 30
0.0
 10
11.07405494845371
 20
4.257477135232469
 30
0.0
 10
11.07150083126586
 20
4.273019733818416
 30
0.0
 10
11.05364666207749
 20
4.315439730129529
 30
0.0
 10
11.02608238024977
 20
4.33748440502877
 30
0.0
 10
10.99561727806885
 20
4.33748440502877
 30
0.0
 10
10.9773513501785
 20
4.33748440502877
 30
0.0
 10
10.95948089559721
 20
4.32970875784174
 30
0.0
 10
10.91827580904664
 20
4.290734271718894
 30
0.0
 10
10.91050920339786
 20
4.244774180604605
 30
0.0
 10
10.93647806528585
 20
4.181269059475981
 30
0.0
 10
10.96191786497585
 20
4.159424652070978
 30
0.0
 10
10.99831738970786
 20
4.157029865065507
 30
0.0
 10
11.00541021323242
 20
4.157802229574172
 30
0.0
 10
11.01223901521924
 20
4.159621787058953
 30
0.0
  0
LINE
  5
22D
330
19
100
AcDbEntity
  8
0
100
AcDbLine
 10
10.99217020642929
 20
4.170257112808741
 30
0.0
 11
10.96512963070841
 21
4.194266059062412
 31
0.0
  0
LINE
  5
22E
330
19
100
AcDbEntity
  8
0
100
AcDbLine
 10
11.05305735576599
 20
4.27664027176053
 30
0.0
 11
11.02601678004511
 21
4.300649218014201
 31
0.0
  0
LINE
  5
22F
330
19
100
AcDbEntity
  8
0
100
AcDbLine
 10
11.02265785378973
 20
4.288475458775099
 30
0.0
 11
10.99561727806885
 21
4.31248440502877
 31
0.0
  0
LINE
  5
230
330
19
100
AcDbEntity
  8
0
100
AcDbLine
 10
10.96979587295833
 20
4.223410477616757
 30
0.0
 11
10.94275529723745
 21
4.247419423870428
 31
0.0
  0
SPLINE
  5
232
330
19
100
AcDbEntity
  8
0
100
AcDbSpline
210
0.0
220
0.0
230
1.0
 70
     8
 71
     3
 72
    19
 73
    15
 74
     0
 42
0.0000001
 43
0.0000001
 40
4.650479534272066
 40
4.650479534272066
 40
4.650479534272066
 40
4.650479534272066
 40
5.190373242285276
 40
5.190373242285276
 40
6.283185307179586
 40
6.283185307179586
 40
6.283185307179586
 40
6.938401437968416
 40
6.938401437968416
 40
8.320285279366503
 40
8.320285279366503
 40
9.37137636939929
 40
9.37137636939929
 40
9.62889233705206
 40
9.62889233705206
 40
9.62889233705206
 40
9.62889233705206
 10
11.07328427208716
 20
3.789683034077471
 30
0.0
 10
11.07405494845371
 20
3.805028084829754
 30
0.0
 10
11.07150083126586
 20
3.820570683415701
 30
0.0
 10
11.05364666207749
 20
3.862990679726814
 30
0.0
 10
11.02608238024977
 20
3.885035354626055
 30
0.0
 10
10.99561727806885
 20
3.885035354626055
 30
0.0
 10
10.9773513501785
 20
3.885035354626055
 30
0.0
 10
10.95948089559721
 20
3.877259707439025
 30
0.0
 10
10.91827580904664
 20
3.838285221316179
 30
0.0
 10
10.91050920339786
 20
3.79232513020189
 30
0.0
 10
10.93647806528585
 20
3.728820009073266
 30
0.0
 10
10.96191786497585
 20
3.706975601668263
 30
0.0
 10
10.99831738970786
 20
3.704580814662792
 30
0.0
 10
11.00541021323242
 20
3.705353179171457
 30
0.0
 10
11.01223901521924
 20
3.707172736656238
 30
0.0
  0
LINE
  5
233
330
19
100
AcDbEntity
  8
0
100
AcDbLine
 10
10.96979587295833
 20
3.770961427214042
 30
0.0
 11
10.94275529723745
 21
3.794970373467713
 31
0.0
  0
ELLIPSE
  5
234
330
19
100
AcDbEntity
  8
0
100
AcDbEllipse
 10
10.99561727806885
 20
3.794970373467713
 30
0.0
 11
0.0
 21
0.0650649811583417
 31
0.0
210
0.0
220
0.0
230
1.0
 40
0.8124490300358929
 41
5.646039772405466
 42
8.810044818035046
  0
LINE
  5
235
330
19
100
AcDbEntity
  8
0
100
AcDbLine
 10
11.02265785378973
 20
3.836026408372384
 30
0.0
 11
10.99561727806885
 21
3.860035354626055
 31
0.0
  0
LINE
  5
236
330
19
100
AcDbEntity
  8
0
100
AcDbLine
 10
11.05305735576599
 20
3.824191221357815
 30
0.0
 11
11.02601678004511
 21
3.848200167611486
 31
0.0
  0
LINE
  5
237
330
19
100
AcDbEntity
  8
0
100
AcDbLine
 10
10.99217020642929
 20
3.717808062406026
 30
0.0
 11
10.96512963070841
 21
3.741817008659697
 31
0.0
  0
ELLIPSE
  5
238
330
19
100
AcDbEntity
  8
0
100
AcDbEllipse
 10
11.02265785378973
 20
3.770961427214042
 30
0.0
 11
0.0
 21
0.0650649811583417
 31
0.0
210
0.0
220
0.0
230
1.0
 40
0.8124490300358929
 41
0.0
 42
6.283185307179586
  0
SPLINE
  5
239
330
19
100
AcDbEntity
  8
0
100
AcDbSpline
210
0.0
220
0.0
230
1.0
 70
     8
 71
     3
 72
    19
 73
    15
 74
     0
 42
0.0000001
 43
0.0000001
 40
4.650479534272066
 40
4.650479534272066
 40
4.650479534272066
 40
4.650479534272066
 40
5.190373242285276
 40
5.190373242285276
 40
6.283185307179586
 40
6.283185307179586
 40
6.283185307179586
 40
6.938401437968416
 40
6.938401437968416
 40
8.320285279366503
 40
8.320285279366503
 40
9.37137636939929
 40
9.37137636939929
 40
9.62889233705206
 40
9.62889233705206
 40
9.62889233705206
 40
9.62889233705206
 10
11.07328427208716
 20
3.317205205703846
 30
0.0
 10
11.07405494845371
 20
3.332550256456128
 30
0.0
 10
11.07150083126586
 20
3.348092855042075
 30
0.0
 10
11.05364666207749
 20
3.390512851353189
 30
0.0
 10
11.02608238024977
 20
3.41255752625243
 30
0.0
 10
10.99561727806885
 20
3.41255752625243
 30
0.0
 10
10.9773513501785
 20
3.41255752625243
 30
0.0
 10
10.95948089559721
 20
3.404781879065399
 30
0.0
 10
10.91827580904664
 20
3.365807392942554
 30
0.0
 10
10.91050920339786
 20
3.319847301828264
 30
0.0
 10
10.93647806528585
 20
3.256342180699641
 30
0.0
 10
10.96191786497585
 20
3.234497773294638
 30
0.0
 10
10.99831738970786
 20
3.232102986289167
 30
0.0
 10
11.00541021323242
 20
3.232875350797832
 30
0.0
 10
11.01223901521924
 20
3.234694908282612
 30
0.0
  0
LINE
  5
23A
330
19
100
AcDbEntity
  8
0
100
AcDbLine
 10
10.96979587295833
 20
3.298483598840417
 30
0.0
 11
10.94275529723745
 21
3.322492545094088
 31
0.0
  0
ELLIPSE
  5
23B
330
19
100
AcDbEntity
  8
0
100
AcDbEllipse
 10
10.99561727806885
 20
3.322492545094088
 30
0.0
 11
0.0
 21
0.0650649811583417
 31
0.0
210
0.0
220
0.0
230
1.0
 40
0.8124490300358929
 41
5.646039772405466
 42
8.810044818035046
  0
LINE
  5
23C
330
19
100
AcDbEntity
  8
0
100
AcDbLine
 10
11.02265785378973
 20
3.363548579998759
 30
0.0
 11
10.99561727806885
 21
3.38755752625243
 31
0.0
  0
LINE
  5
23D
330
19
100
AcDbEntity
  8
0
100
AcDbLine
 10
11.05305735576599
 20
3.35171339298419
 30
0.0
 11
11.02601678004511
 21
3.375722339237861
 31
0.0
  0
LINE
  5
23E
330
19
100
AcDbEntity
  8
0
100
AcDbLine
 10
10.99217020642929
 20
3.2453302340324
 30
0.0
 11
10.96512963070841
 21
3.269339180286071
 31
0.0
  0
ELLIPSE
  5
23F
330
19
100
AcDbEntity
  8
0
100
AcDbEllipse
 10
11.02265785378973
 20
3.298483598840417
 30
0.0
 11
0.0
 21
0.0650649811583417
 31
0.0
210
0.0
220
0.0
230
1.0
 40
0.8124490300358929
 41
0.0
 42
6.283185307179586
  0
SPLINE
  5
240
330
19
100
AcDbEntity
  8
0
100
AcDbSpline
210
0.0
220
0.0
230
1.0
 70
     8
 71
     3
 72
    19
 73
    15
 74
     0
 42
0.0000001
 43
0.0000001
 40
4.650479534272066
 40
4.650479534272066
 40
4.650479534272066
 40
4.650479534272066
 40
5.190373242285276
 40
5.190373242285276
 40
6.283185307179586
 40
6.283185307179586
 40
6.283185307179586
 40
6.938401437968416
 40
6.938401437968416
 40
8.320285279366503
 40
8.320285279366503
 40
9.37137636939929
 40
9.37137636939929
 40
9.62889233705206
 40
9.62889233705206
 40
9.62889233705206
 40
9.62889233705206
 10
11.07328427208716
 20
2.856746720276194
 30
0.0
 10
11.07405494845371
 20
2.872091771028476
 30
0.0
 10
11.07150083126586
 20
2.887634369614423
 30
0.0
 10
11.05364666207749
 20
2.930054365925536
 30
0.0
 10
11.02608238024977
 20
2.952099040824778
 30
0.0
 10
10.99561727806885
 20
2.952099040824778
 30
0.0
 10
10.9773513501785
 20
2.952099040824778
 30
0.0
 10
10.95948089559721
 20
2.944323393637747
 30
0.0
 10
10.91827580904664
 20
2.905348907514902
 30
0.0
 10
10.91050920339786
 20
2.859388816400612
 30
0.0
 10
10.93647806528585
 20
2.795883695271988
 30
0.0
 10
10.96191786497585
 20
2.774039287866986
 30
0.0
 10
10.99831738970786
 20
2.771644500861514
 30
0.0
 10
11.00541021323242
 20
2.77241686537018
 30
0.0
 10
11.01223901521924
 20
2.77423642285496
 30
0.0
  0
LINE
  5
241
330
19
100
AcDbEntity
  8
0
100
AcDbLine
 10
10.96979587295833
 20
2.838025113412765
 30
0.0
 11
10.94275529723745
 21
2.862034059666436
 31
0.0
  0
ELLIPSE
  5
242
330
19
100
AcDbEntity
  8
0
100
AcDbEllipse
 10
10.99561727806885
 20
2.862034059666436
 30
0.0
 11
0.0
 21
0.0650649811583417
 31
0.0
210
0.0
220
0.0
230
1.0
 40
0.8124490300358929
 41
5.646039772405466
 42
8.810044818035046
  0
LINE
  5
243
330
19
100
AcDbEntity
  8
0
100
AcDbLine
 10
11.02265785378973
 20
2.903090094571106
 30
0.0
 11
10.99561727806885
 21
2.927099040824778
 31
0.0
  0
LINE
  5
244
330
19
100
AcDbEntity
  8
0
100
AcDbLine
 10
11.05305735576599
 20
2.891254907556538
 30
0.0
 11
11.02601678004511
 21
2.915263853810209
 31
0.0
  0
LINE
  5
245
330
19
100
AcDbEntity
  8
0
100
AcDbLine
 10
10.99217020642929
 20
2.784871748604748
 30
0.0
 11
10.96512963070841
 21
2.808880694858419
 31
0.0
  0
ELLIPSE
  5
246
330
19
100
AcDbEntity
  8
0
100
AcDbEllipse
 10
11.02265785378973
 20
2.838025113412765
 30
0.0
 11
0.0
 21
0.0650649811583417
 31
0.0
210
0.0
220
0.0
230
1.0
 40
0.8124490300358929
 41
0.0
 42
6.283185307179586
  0
SPLINE
  5
247
330
19
100
AcDbEntity
  8
0
100
AcDbSpline
210
0.0
220
0.0
230
1.0
 70
     8
 71
     3
 72
    19
 73
    15
 74
     0
 42
0.0000001
 43
0.0000001
 40
4.650479534272066
 40
4.650479534272066
 40
4.650479534272066
 40
4.650479534272066
 40
5.190373242285276
 40
5.190373242285276
 40
6.283185307179586
 40
6.283185307179586
 40
6.283185307179586
 40
6.938401437968416
 40
6.938401437968416
 40
8.320285279366503
 40
8.320285279366503
 40
9.37137636939929
 40
9.37137636939929
 40
9.62889233705206
 40
9.62889233705206
 40
9.62889233705206
 40
9.62889233705206
 10
11.07328427208716
 20
2.39328241714286
 30
0.0
 10
11.07405494845371
 20
2.408627467895142
 30
0.0
 10
11.07150083126586
 20
2.424170066481089
 30
0.0
 10
11.05364666207749
 20
2.466590062792202
 30
0.0
 10
11.02608238024977
 20
2.488634737691444
 30
0.0
 10
10.99561727806885
 20
2.488634737691444
 30
0.0
 10
10.9773513501785
 20
2.488634737691444
 30
0.0
 10
10.95948089559721
 20
2.480859090504413
 30
0.0
 10
10.91827580904664
 20
2.441884604381567
 30
0.0
 10
10.91050920339786
 20
2.395924513267278
 30
0.0
 10
10.93647806528585
 20
2.332419392138654
 30
0.0
 10
10.96191786497585
 20
2.310574984733651
 30
0.0
 10
10.99831738970786
 20
2.30818019772818
 30
0.0
 10
11.00541021323242
 20
2.308952562236846
 30
0.0
 10
11.01223901521924
 20
2.310772119721626
 30
0.0
  0
LINE
  5
248
330
19
100
AcDbEntity
  8
0
100
AcDbLine
 10
10.96979587295833
 20
2.37456081027943
 30
0.0
 11
10.94275529723745
 21
2.398569756533102
 31
0.0
  0
ELLIPSE
  5
249
330
19
100
AcDbEntity
  8
0
100
AcDbEllipse
 10
10.99561727806885
 20
2.398569756533102
 30
0.0
 11
0.0
 21
0.0650649811583417
 31
0.0
210
0.0
220
0.0
230
1.0
 40
0.8124490300358929
 41
5.646039772405466
 42
8.810044818035046
  0
LINE
  5
24A
330
19
100
AcDbEntity
  8
0
100
AcDbLine
 10
11.02265785378973
 20
2.439625791437772
 30
0.0
 11
10.99561727806885
 21
2.463634737691443
 31
0.0
  0
LINE
  5
24B
330
19
100
AcDbEntity
  8
0
100
AcDbLine
 10
11.05305735576599
 20
2.427790604423203
 30
0.0
 11
11.02601678004511
 21
2.451799550676875
 31
0.0
  0
LINE
  5
24C
330
19
100
AcDbEntity
  8
0
100
AcDbLine
 10
10.99217020642929
 20
2.321407445471414
 30
0.0
 11
10.96512963070841
 21
2.345416391725085
 31
0.0
  0
ELLIPSE
  5
24D
330
19
100
AcDbEntity
  8
0
100
AcDbEllipse
 10
11.02265785378973
 20
2.37456081027943
 30
0.0
 11
0.0
 21
0.0650649811583417
 31
0.0
210
0.0
220
0.0
230
1.0
 40
0.8124490300358929
 41
0.0
 42
6.283185307179586
  0
ELLIPSE
  5
24E
102
{ACAD_REACTORS
330
274
102
}
330
19
100
AcDbEntity
  8
0
100
AcDbEllipse
 10
10.8086399905071
 20
2.121680198724897
 30
0.0
 11
0.0
 21
0.02953102159418064
 31
0.0
210
0.0
220
0.0
230
1.0
 40
0.7461833150003706
 41
0.0
 42
6.283185307179586
  0
HATCH
  5
274
330
19
100
AcDbEntity
  8
0
100
AcDbHatch
 10
0.0
 20
0.0
 30
0.0
210
0.0
220
0.0
230
1.0
  2
SOLID
 70
     1
 71
     1
 91
        1
 92
        5
 93
        1
 72
     3
 10
10.8086399905071
 20
2.121680198724897
 11
0.0
 21
0.02953102159418064
 40
0.7461833150003706
 50
0.0
 51
360.0
 73
     1
 97
        1
330
24E
 75
     0
 76
     1
 47
0.003107422164508
 98
        1
 10
10.81065658781657
 20
2.125186237881191
  0
HATCH
  5
275
330
19
100
AcDbEntity
  8
0
100
AcDbHatch
 10
0.0
 20
0.0
 30
0.0
210
0.0
220
0.0
230
1.0
  2
SOLID
 70
     1
 71
     1
 91
        1
 92
        5
 93
        1
 72
     3
 10
11.13187226651791
 20
2.315557124117121
 11
0.0
 21
0.02953102159418064
 40
0.7461833150003706
 50
0.0
 51
360.0
 73
     1
 97
        1
330
276
 75
     0
 76
     1
 47
0.003107422164508
 98
        1
 10
11.13388886382737
 20
2.319063163273415
  0
ELLIPSE
  5
276
102
{ACAD_REACTORS
330
275
102
}
330
19
100
AcDbEntity
  8
0
100
AcDbEllipse
 10
11.13187226651791
 20
2.315557124117121
 30
0.0
 11
0.0
 21
0.02953102159418064
 31
0.0
210
0.0
220
0.0
230
1.0
 40
0.7461833150003706
 41
0.0
 42
6.283185307179586
  0
HATCH
  5
277
330
19
100
AcDbEntity
  8
0
100
AcDbHatch
 10
0.0
 20
0.0
 30
0.0
210
0.0
220
0.0
230
1.0
  2
SOLID
 70
     1
 71
     1
 91
        1
 92
        5
 93
        1
 72
     3
 10
10.8086399905071
 20
2.496554242701941
 11
0.0
 21
0.02953102159418064
 40
0.7461833150003706
 50
0.0
 51
360.0
 73
     1
 97
        1
330
278
 75
     0
 76
     1
 47
0.003107422164508
 98
        1
 10
10.81065658781657
 20
2.500060281858235
  0
ELLIPSE
  5
278
102
{ACAD_REACTORS
330
277
102
}
330
19
100
AcDbEntity
  8
0
100
AcDbEllipse
 10
10.8086399905071
 20
2.496554242701941
 30
0.0
 11
0.0
 21
0.02953102159418064
 31
0.0
210
0.0
220
0.0
230
1.0
 40
0.7461833150003706
 41
0.0
 42
6.283185307179586
  0
ELLIPSE
  5
279
102
{ACAD_REACTORS
330
27A
102
}
330
19
100
AcDbEntity
  8
0
100
AcDbEllipse
 10
11.13187226651791
 20
2.614852277906317
 30
0.0
 11
0.0
 21
0.02953102159418064
 31
0.0
210
0.0
220
0.0
230
1.0
 40
0.7461833150003706
 41
0.0
 42
6.283185307179586
  0
HATCH
  5
27A
330
19
100
AcDbEntity
  8
0
100
AcDbHatch
 10
0.0
 20
0.0
 30
0.0
210
0.0
220
0.0
230
1.0
  2
SOLID
 70
     1
 71
     1
 91
        1
 92
        5
 93
        1
 72
     3
 10
11.13187226651791
 20
2.614852277906317
 11
0.0
 21
0.02953102159418064
 40
0.7461833150003706
 50
0.0
 51
360.0
 73
     1
 97
        1
330
279
 75
     0
 76
     1
 47
0.003107422164508
 98
        1
 10
11.13388886382737
 20
2.618358317062612
  0
ELLIPSE
  5
27D
102
{ACAD_REACTORS
330
27E
102
}
330
19
100
AcDbEntity
  8
0
100
AcDbEllipse
 10
10.8086399905071
 20
2.905964328405548
 30
0.0
 11
0.0
 21
0.02953102159418064
 31
0.0
210
0.0
220
0.0
230
1.0
 40
0.7461833150003706
 41
0.0
 42
6.283185307179586
  0
HATCH
  5
27E
330
19
100
AcDbEntity
  8
0
100
AcDbHatch
 10
0.0
 20
0.0
 30
0.0
210
0.0
220
0.0
230
1.0
  2
SOLID
 70
     1
 71
     1
 91
        1
 92
        5
 93
        1
 72
     3
 10
10.8086399905071
 20
2.905964328405548
 11
0.0
 21
0.02953102159418064
 40
0.7461833150003706
 50
0.0
 51
360.0
 73
     1
 97
        1
330
27D
 75
     0
 76
     1
 47
0.003107422164508
 98
        1
 10
10.81065658781657
 20
2.909470367561842
  0
HATCH
  5
27F
330
19
100
AcDbEntity
  8
0
100
AcDbHatch
 10
0.0
 20
0.0
 30
0.0
210
0.0
220
0.0
230
1.0
  2
SOLID
 70
     1
 71
     1
 91
        1
 92
        5
 93
        1
 72
     3
 10
11.13187226651791
 20
3.024262363609924
 11
0.0
 21
0.02953102159418064
 40
0.7461833150003706
 50
0.0
 51
360.0
 73
     1
 97
        1
330
280
 75
     0
 76
     1
 47
0.003107422164508
 98
        1
 10
11.13388886382737
 20
3.027768402766219
  0
ELLIPSE
  5
280
102
{ACAD_REACTORS
330
27F
102
}
330
19
100
AcDbEntity
  8
0
100
AcDbEllipse
 10
11.13187226651791
 20
3.024262363609924
 30
0.0
 11
0.0
 21
0.02953102159418064
 31
0.0
210
0.0
220
0.0
230
1.0
 40
0.7461833150003706
 41
0.0
 42
6.283185307179586
  0
ELLIPSE
  5
281
102
{ACAD_REACTORS
330
282
102
}
330
19
100
AcDbEntity
  8
0
100
AcDbEllipse
 10
10.8086399905071
 20
3.367425501235428
 30
0.0
 11
0.0
 21
0.02953102159418064
 31
0.0
210
0.0
220
0.0
230
1.0
 40
0.7461833150003706
 41
0.0
 42
6.283185307179586
  0
HATCH
  5
282
330
19
100
AcDbEntity
  8
0
100
AcDbHatch
 10
0.0
 20
0.0
 30
0.0
210
0.0
220
0.0
230
1.0
  2
SOLID
 70
     1
 71
     1
 91
        1
 92
        5
 93
        1
 72
     3
 10
10.8086399905071
 20
3.367425501235428
 11
0.0
 21
0.02953102159418064
 40
0.7461833150003706
 50
0.0
 51
360.0
 73
     1
 97
        1
330
281
 75
     0
 76
     1
 47
0.003107422164508
 98
        1
 10
10.81065658781657
 20
3.370931540391722
  0
HATCH
  5
283
330
19
100
AcDbEntity
  8
0
100
AcDbHatch
 10
0.0
 20
0.0
 30
0.0
210
0.0
220
0.0
230
1.0
  2
SOLID
 70
     1
 71
     1
 91
        1
 92
        5
 93
        1
 72
     3
 10
11.13187226651791
 20
3.485723536439804
 11
0.0
 21
0.02953102159418064
 40
0.7461833150003706
 50
0.0
 51
360.0
 73
     1
 97
        1
330
284
 75
     0
 76
     1
 47
0.003107422164508
 98
        1
 10
11.13388886382737
 20
3.489229575596099
  0
ELLIPSE
  5
284
102
{ACAD_REACTORS
330
283
102
}
330
19
100
AcDbEntity
  8
0
100
AcDbEllipse
 10
11.13187226651791
 20
3.485723536439804
 30
0.0
 11
0.0
 21
0.02953102159418064
 31
0.0
210
0.0
220
0.0
230
1.0
 40
0.7461833150003706
 41
0.0
 42
6.283185307179586
  0
ELLIPSE
  5
285
102
{ACAD_REACTORS
330
286
102
}
330
19
100
AcDbEntity
  8
0
100
AcDbEllipse
 10
10.8086399905071
 20
3.831891930645739
 30
0.0
 11
0.0
 21
0.02953102159418064
 31
0.0
210
0.0
220
0.0
230
1.0
 40
0.7461833150003706
 41
0.0
 42
6.283185307179586
  0
HATCH
  5
286
330
19
100
AcDbEntity
  8
0
100
AcDbHatch
 10
0.0
 20
0.0
 30
0.0
210
0.0
220
0.0
230
1.0
  2
SOLID
 70
     1
 71
     1
 91
        1
 92
        5
 93
        1
 72
     3
 10
10.8086399905071
 20
3.831891930645739
 11
0.0
 21
0.02953102159418064
 40
0.7461833150003706
 50
0.0
 51
360.0
 73
     1
 97
        1
330
285
 75
     0
 76
     1
 47
0.003107422164508
 98
        1
 10
10.81065658781657
 20
3.835397969802033
  0
HATCH
  5
287
330
19
100
AcDbEntity
  8
0
100
AcDbHatch
 10
0.0
 20
0.0
 30
0.0
210
0.0
220
0.0
230
1.0
  2
SOLID
 70
     1
 71
     1
 91
        1
 92
        5
 93
        1
 72
     3
 10
11.13187226651791
 20
3.950189965850115
 11
0.0
 21
0.02953102159418064
 40
0.7461833150003706
 50
0.0
 51
360.0
 73
     1
 97
        1
330
288
 75
     0
 76
     1
 47
0.003107422164508
 98
        1
 10
11.13388886382737
 20
3.95369600500641
  0
ELLIPSE
  5
288
102
{ACAD_REACTORS
330
287
102
}
330
19
100
AcDbEntity
  8
0
100
AcDbEllipse
 10
11.13187226651791
 20
3.950189965850115
 30
0.0
 11
0.0
 21
0.02953102159418064
 31
0.0
210
0.0
220
0.0
230
1.0
 40
0.7461833150003706
 41
0.0
 42
6.283185307179586
  0
ELLIPSE
  5
289
102
{ACAD_REACTORS
330
28A
102
}
330
19
100
AcDbEntity
  8
0
100
AcDbEllipse
 10
10.8086399905071
 20
4.3173743944848
 30
0.0
 11
0.0
 21
0.02953102159418064
 31
0.0
210
0.0
220
0.0
230
1.0
 40
0.7461833150003706
 41
0.0
 42
6.283185307179586
  0
HATCH
  5
28A
330
19
100
AcDbEntity
  8
0
100
AcDbHatch
 10
0.0
 20
0.0
 30
0.0
210
0.0
220
0.0
230
1.0
  2
SOLID
 70
     1
 71
     1
 91
        1
 92
        5
 93
        1
 72
     3
 10
10.8086399905071
 20
4.3173743944848
 11
0.0
 21
0.02953102159418064
 40
0.7461833150003706
 50
0.0
 51
360.0
 73
     1
 97
        1
330
289
 75
     0
 76
     1
 47
0.003107422164508
 98
        1
 10
10.81065658781657
 20
4.320880433641095
  0
HATCH
  5
28B
330
19
100
AcDbEntity
  8
0
100
AcDbHatch
 10
0.0
 20
0.0
 30
0.0
210
0.0
220
0.0
230
1.0
  2
SOLID
 70
     1
 71
     1
 91
        1
 92
        5
 93
        1
 72
     3
 10
11.13187226651791
 20
4.435672429689177
 11
0.0
 21
0.02953102159418064
 40
0.7461833150003706
 50
0.0
 51
360.0
 73
     1
 97
        1
330
28C
 75
     0
 76
     1
 47
0.003107422164508
 98
        1
 10
11.13388886382737
 20
4.439178468845471
  0
ELLIPSE
  5
28C
102
{ACAD_REACTORS
330
28B
102
}
330
19
100
AcDbEntity
  8
0
100
AcDbEllipse
 10
11.13187226651791
 20
4.435672429689177
 30
0.0
 11
0.0
 21
0.02953102159418064
 31
0.0
210
0.0
220
0.0
230
1.0
 40
0.7461833150003706
 41
0.0
 42
6.283185307179586
  0
LINE
  5
28F
330
19
100
AcDbEntity
  8
0
100
AcDbLine
 10
11.90559574225105
 20
2.312170978762323
 30
0.0
 11
12.20624990200201
 21
2.412255364308172
 31
0.0
  0
HATCH
  5
296
330
19
100
AcDbEntity
  8
0
100
AcDbHatch
 10
0.0
 20
0.0
 30
0.0
210
0.0
220
0.0
230
1.0
  2
SOLID
 70
     1
 71
     1
 91
        1
 92
        5
 93
        1
 72
     3
 10
12.19268413726061
 20
2.911748190385616
 11
0.0
 21
0.02953102159418064
 40
0.7461833150003706
 50
0.0
 51
360.0
 73
     1
 97
        1
330
297
 75
     0
 76
     1
 47
0.003107422164508
 98
        1
 10
12.19470073457008
 20
2.915254229541911
  0
ELLIPSE
  5
297
102
{ACAD_REACTORS
330
296
102
}
330
19
100
AcDbEntity
  8
0
100
AcDbEllipse
 10
12.19268413726061
 20
2.911748190385616
 30
0.0
 11
0.0
 21
0.02953102159418064
 31
0.0
210
0.0
220
0.0
230
1.0
 40
0.7461833150003706
 41
0.0
 42
6.283185307179586
  0
ELLIPSE
  5
298
102
{ACAD_REACTORS
330
299
102
}
330
19
100
AcDbEntity
  8
0
100
AcDbEllipse
 10
12.19268413726061
 20
2.668689455134822
 30
0.0
 11
0.0
 21
0.02953102159418064
 31
0.0
210
0.0
220
0.0
230
1.0
 40
0.7461833150003706
 41
0.0
 42
6.283185307179586
  0
HATCH
  5
299
330
19
100
AcDbEntity
  8
0
100
AcDbHatch
 10
0.0
 20
0.0
 30
0.0
210
0.0
220
0.0
230
1.0
  2
SOLID
 70
     1
 71
     1
 91
        1
 92
        5
 93
        1
 72
     3
 10
12.19268413726061
 20
2.668689455134822
 11
0.0
 21
0.02953102159418064
 40
0.7461833150003706
 50
0.0
 51
360.0
 73
     1
 97
        1
330
298
 75
     0
 76
     1
 47
0.003107422164508
 98
        1
 10
12.19470073457008
 20
2.672195494291117
  0
ELLIPSE
  5
29A
330
19
100
AcDbEntity
  8
0
100
AcDbEllipse
 10
12.08346972453243
 20
2.727693141297132
 30
0.0
 11
0.0
 21
0.0650649811583417
 31
0.0
210
0.0
220
0.0
230
1.0
 40
0.8124490300358929
 41
0.0
 42
6.283185307179586
  0
ELLIPSE
  5
29B
330
19
100
AcDbEntity
  8
0
100
AcDbEllipse
 10
12.05642914881156
 20
2.751702087550803
 30
0.0
 11
0.0
 21
0.0650649811583417
 31
0.0
210
0.0
220
0.0
230
1.0
 40
0.8124490300358929
 41
5.646039772405466
 42
8.810044818035046
  0
LINE
  5
29C
330
19
100
AcDbEntity
  8
0
100
AcDbLine
 10
12.03060774370103
 20
2.727693141297132
 30
0.0
 11
12.00356716798016
 21
2.751702087550803
 31
0.0
  0
SPLINE
  5
29D
330
19
100
AcDbEntity
  8
0
100
AcDbSpline
210
0.0
220
0.0
230
1.0
 70
     8
 71
     3
 72
    19
 73
    15
 74
     0
 42
0.0000001
 43
0.0000001
 40
4.650479534272066
 40
4.650479534272066
 40
4.650479534272066
 40
4.650479534272066
 40
5.190373242285276
 40
5.190373242285276
 40
6.283185307179586
 40
6.283185307179586
 40
6.283185307179586
 40
6.938401437968416
 40
6.938401437968416
 40
8.320285279366503
 40
8.320285279366503
 40
9.37137636939929
 40
9.37137636939929
 40
9.62889233705206
 40
9.62889233705206
 40
9.62889233705206
 40
9.62889233705206
 10
12.13409614282987
 20
2.746414748160561
 30
0.0
 10
12.13486681919641
 20
2.761759798912843
 30
0.0
 10
12.13231270200856
 20
2.77730239749879
 30
0.0
 10
12.1144585328202
 20
2.819722393809903
 30
0.0
 10
12.08689425099247
 20
2.841767068709145
 30
0.0
 10
12.05642914881156
 20
2.841767068709145
 30
0.0
 10
12.0381632209212
 20
2.841767068709145
 30
0.0
 10
12.02029276633991
 20
2.833991421522114
 30
0.0
 10
11.97908767978934
 20
2.795016935399269
 30
0.0
 10
11.97132107414056
 20
2.749056844284979
 30
0.0
 10
11.99728993602855
 20
2.685551723156356
 30
0.0
 10
12.02272973571855
 20
2.663707315751353
 30
0.0
 10
12.05912926045056
 20
2.661312528745881
 30
0.0
 10
12.06622208397513
 20
2.662084893254547
 30
0.0
 10
12.07305088596194
 20
2.663904450739327
 30
0.0
  0
LINE
  5
29E
330
19
100
AcDbEntity
  8
0
100
AcDbLine
 10
11.70431930327097
 20
2.445191728108338
 30
0.0
 11
11.90559574225105
 21
2.312170978762323
 31
0.0
  0
HATCH
  5
29F
330
19
100
AcDbEntity
  8
0
100
AcDbHatch
 10
0.0
 20
0.0
 30
0.0
210
0.0
220
0.0
230
1.0
  2
SOLID
 70
     1
 71
     1
 91
        1
 92
        5
 93
        1
 72
     3
 10
11.86945186124981
 20
2.474812529742598
 11
0.0
 21
0.02953102159418064
 40
0.7461833150003706
 50
0.0
 51
360.0
 73
     1
 97
        1
330
2A0
 75
     0
 76
     1
 47
0.003107422164508
 98
        1
 10
11.87146845855927
 20
2.478318568898892
  0
ELLIPSE
  5
2A0
102
{ACAD_REACTORS
330
29F
102
}
330
19
100
AcDbEntity
  8
0
100
AcDbEllipse
 10
11.86945186124981
 20
2.474812529742598
 30
0.0
 11
0.0
 21
0.02953102159418064
 31
0.0
210
0.0
220
0.0
230
1.0
 40
0.7461833150003706
 41
0.0
 42
6.283185307179586
  0
LINE
  5
2A1
330
19
100
AcDbEntity
  8
0
100
AcDbLine
 10
12.05298207717199
 20
2.674539776489115
 30
0.0
 11
12.02594150145111
 21
2.698548722742786
 31
0.0
  0
ELLIPSE
  5
2A2
102
{ACAD_REACTORS
330
2A3
102
}
330
19
100
AcDbEntity
  8
0
100
AcDbEllipse
 10
11.86945186124981
 20
2.849686573719642
 30
0.0
 11
0.0
 21
0.02953102159418064
 31
0.0
210
0.0
220
0.0
230
1.0
 40
0.7461833150003706
 41
0.0
 42
6.283185307179586
  0
HATCH
  5
2A3
330
19
100
AcDbEntity
  8
0
100
AcDbHatch
 10
0.0
 20
0.0
 30
0.0
210
0.0
220
0.0
230
1.0
  2
SOLID
 70
     1
 71
     1
 91
        1
 92
        5
 93
        1
 72
     3
 10
11.86945186124981
 20
2.849686573719642
 11
0.0
 21
0.02953102159418064
 40
0.7461833150003706
 50
0.0
 51
360.0
 73
     1
 97
        1
330
2A2
 75
     0
 76
     1
 47
0.003107422164508
 98
        1
 10
11.87146845855927
 20
2.853192612875937
  0
LINE
  5
2A4
330
19
100
AcDbEntity
  8
0
100
AcDbLine
 10
12.11386922650869
 20
2.780922935440905
 30
0.0
 11
12.08682865078782
 21
2.804931881694576
 31
0.0
  0
LINE
  5
2A5
330
19
100
AcDbEntity
  8
0
100
AcDbLine
 10
12.08346972453243
 20
2.792758122455473
 30
0.0
 11
12.05642914881156
 21
2.816767068709145
 31
0.0
  0
HATCH
  5
2A6
330
19
100
AcDbEntity
  8
0
100
AcDbHatch
 10
0.0
 20
0.0
 30
0.0
210
0.0
220
0.0
230
1.0
  2
SOLID
 70
     1
 71
     1
 91
        1
 92
        5
 93
        1
 72
     3
 10
11.86945186124981
 20
3.259096659423249
 11
0.0
 21
0.02953102159418064
 40
0.7461833150003706
 50
0.0
 51
360.0
 73
     1
 97
        1
330
2A7
 75
     0
 76
     1
 47
0.003107422164508
 98
        1
 10
11.87146845855927
 20
3.262602698579544
  0
ELLIPSE
  5
2A7
102
{ACAD_REACTORS
330
2A6
102
}
330
19
100
AcDbEntity
  8
0
100
AcDbEllipse
 10
11.86945186124981
 20
3.259096659423249
 30
0.0
 11
0.0
 21
0.02953102159418064
 31
0.0
210
0.0
220
0.0
230
1.0
 40
0.7461833150003706
 41
0.0
 42
6.283185307179586
  0
ELLIPSE
  5
2A9
330
19
100
AcDbEntity
  8
0
100
AcDbEllipse
 10
12.05642914881156
 20
3.215166390684138
 30
0.0
 11
0.0
 21
0.0650649811583417
 31
0.0
210
0.0
220
0.0
230
1.0
 40
0.8124490300358929
 41
6.963220594104077
 42
8.810044818035046
  0
SPLINE
  5
2AA
330
19
100
AcDbEntity
  8
0
100
AcDbSpline
210
0.0
220
0.0
230
1.0
 70
     8
 71
     3
 72
    14
 73
    10
 74
     0
 42
0.0000001
 43
0.0000001
 40
6.890936785422536
 40
6.890936785422536
 40
6.890936785422536
 40
6.890936785422536
 40
6.938401437968416
 40
6.938401437968416
 40
8.320285279366503
 40
8.320285279366503
 40
9.37137636939929
 40
9.37137636939929
 40
9.62889233705206
 40
9.62889233705206
 40
9.62889233705206
 40
9.62889233705206
 10
12.00999082903808
 20
3.287568150686119
 30
0.0
 10
12.00898389143297
 20
3.286711147394637
 30
0.0
 10
12.00799957866913
 20
3.285828017680671
 30
0.0
 10
11.97908767978934
 20
3.258481238532603
 30
0.0
 10
11.97132107414056
 20
3.212521147418314
 30
0.0
 10
11.99728993602855
 20
3.14901602628969
 30
0.0
 10
12.02272973571855
 20
3.127171618884687
 30
0.0
 10
12.05912926045056
 20
3.124776831879216
 30
0.0
 10
12.06622208397513
 20
3.125549196387881
 30
0.0
 10
12.07305088596194
 20
3.127368753872662
 30
0.0
  0
LINE
  5
2AB
330
19
100
AcDbEntity
  8
0
100
AcDbLine
 10
12.03060774370103
 20
3.191157444430466
 30
0.0
 11
12.00356716798016
 21
3.215166390684138
 31
0.0
  0
ELLIPSE
  5
2AC
330
19
100
AcDbEntity
  8
0
100
AcDbEllipse
 10
12.08346972453243
 20
3.191157444430466
 30
0.0
 11
0.0
 21
0.0650649811583417
 31
0.0
210
0.0
220
0.0
230
1.0
 40
0.8124490300358929
 41
0.8719306815303463
 42
3.549981330132002
  0
LINE
  5
2AD
330
19
100
AcDbEntity
  8
0
100
AcDbLine
 10
12.05298207717199
 20
3.13800407962245
 30
0.0
 11
12.02594150145111
 21
3.162013025876121
 31
0.0
  0
LINE
  5
2C1
330
19
100
AcDbEntity
  8
0
100
AcDbLine
 10
12.20624990200201
 20
2.412255364308172
 30
0.0
 11
12.30883932197416
 21
2.599685267837006
 31
0.0
  0
LINE
  5
2C2
330
19
100
AcDbEntity
  8
0
100
AcDbLine
 10
12.30883932197416
 20
2.599685267837006
 30
0.0
 11
12.30883932197416
 21
2.793689885045444
 31
0.0
  0
LINE
  5
2C3
330
19
100
AcDbEntity
  8
0
100
AcDbLine
 10
11.75228054390382
 20
2.413494823091166
 30
0.0
 11
11.75228054390382
 21
3.71346124256194
 31
0.0
  0
LINE
  5
2C4
330
19
100
AcDbEntity
  8
0
100
AcDbLine
 10
11.70431930327097
 20
2.445191728108338
 30
0.0
 11
11.70431930327097
 21
3.792722188832524
 31
0.0
  0
POLYLINE
  5
2D1
330
19
100
AcDbEntity
  8
0
100
AcDb2dPolyline
 66
     1
 10
0.0
 20
0.0
 30
0.0
 70
     5
 75
     6
  0
VERTEX
  5
2D2
330
2D1
100
AcDbEntity
  8
0
100
AcDbVertex
100
AcDb2dVertex
 10
8.588333336576417
 20
4.077900960632324
 30
0.0
 70
    16
  0
VERTEX
  5
2DC
330
2D1
100
AcDbEntity
  8
0
100
AcDbVertex
100
AcDb2dVertex
 10
8.568672642296363
 20
4.032010573955561
 30
0.0
 70
     8
  0
VERTEX
  5
2DD
330
2D1
100
AcDbEntity
  8
0
100
AcDbVertex
100
AcDb2dVertex
 10
8.567802890766972
 20
4.024567723401315
 30
0.0
 70
     8
  0
VERTEX
  5
2DE
330
2D1
100
AcDbEntity
  8
0
100
AcDbVertex
100
AcDb2dVertex
 10
8.567445590956305
 20
4.016734142787539
 30
0.0
 70
     8
  0
VERTEX
  5
2DF
330
2D1
100
AcDbEntity
  8
0
100
AcDbVertex
100
AcDb2dVertex
 10
8.56761238570448
 20
4.008666245569056
 30
0.0
 70
     8
  0
VERTEX
  5
2E0
330
2D1
100
AcDbEntity
  8
0
100
AcDbVertex
100
AcDb2dVertex
 10
8.568314917851607
 20
4.000520445200688
 30
0.0
 70
     8
  0
VERTEX
  5
2E1
330
2D1
100
AcDbEntity
  8
0
100
AcDbVertex
100
AcDb2dVertex
 10
8.569564830237804
 20
3.992453155137261
 30
0.0
 70
     8
  0
VERTEX
  5
2E2
330
2D1
100
AcDbEntity
  8
0
100
AcDbVertex
100
AcDb2dVertex
 10
8.571373765703184
 20
3.984620788833597
 30
0.0
 70
     8
  0
VERTEX
  5
2E3
330
2D1
100
AcDbEntity
  8
0
100
AcDbVertex
100
AcDb2dVertex
 10
8.573753367087862
 20
3.977179759744519
 30
0.0
 70
     8
  0
VERTEX
  5
2E4
330
2D1
100
AcDbEntity
  8
0
100
AcDbVertex
100
AcDb2dVertex
 10
8.576715277231955
 20
3.970286481324852
 30
0.0
 70
     8
  0
VERTEX
  5
2E5
330
2D1
100
AcDbEntity
  8
0
100
AcDbVertex
100
AcDb2dVertex
 10
8.580257467255658
 20
3.964072594935254
 30
0.0
 70
     8
  0
VERTEX
  5
2E6
330
2D1
100
AcDbEntity
  8
0
100
AcDbVertex
100
AcDb2dVertex
 10
8.584323221399485
 20
3.958570653559728
 30
0.0
 70
     8
  0
VERTEX
  5
2E7
330
2D1
100
AcDbEntity
  8
0
100
AcDbVertex
100
AcDb2dVertex
 10
8.588842152184036
 20
3.953788438088111
 30
0.0
 70
     8
  0
VERTEX
  5
2E8
330
2D1
100
AcDbEntity
  8
0
100
AcDbVertex
100
AcDb2dVertex
 10
8.593743872129908
 20
3.94973372941024
 30
0.0
 70
     8
  0
VERTEX
  5
2E9
330
2D1
100
AcDbEntity
  8
0
100
AcDbVertex
100
AcDb2dVertex
 10
8.598957993757699
 20
3.946414308415954
 30
0.0
 70
     8
  0
VERTEX
  5
2EA
330
2D1
100
AcDbEntity
  8
0
100
AcDbVertex
100
AcDb2dVertex
 10
8.604414129588003
 20
3.94383795599509
 30
0.0
 70
     8
  0
VERTEX
  5
2EB
330
2D1
100
AcDbEntity
  8
0
100
AcDbVertex
100
AcDb2dVertex
 10
8.610041892141421
 20
3.942012453037485
 30
0.0
 70
     8
  0
VERTEX
  5
2EC
330
2D1
100
AcDbEntity
  8
0
100
AcDbVertex
100
AcDb2dVertex
 10
8.615770893938549
 20
3.940945580432979
 30
0.0
 70
     8
  0
VERTEX
  5
2ED
330
2D1
100
AcDbEntity
  8
0
100
AcDbVertex
100
AcDb2dVertex
 10
8.621536618968323
 20
3.940634043538645
 30
0.0
 70
     8
  0
VERTEX
  5
2EE
330
2D1
100
AcDbEntity
  8
0
100
AcDbVertex
100
AcDb2dVertex
 10
8.627298037093032
 20
3.94103024558051
 30
0.0
 70
     8
  0
VERTEX
  5
2EF
330
2D1
100
AcDbEntity
  8
0
100
AcDbVertex
100
AcDb2dVertex
 10
8.633019989643302
 20
3.942075514251839
 30
0.0
 70
     8
  0
VERTEX
  5
2F0
330
2D1
100
AcDbEntity
  8
0
100
AcDbVertex
100
AcDb2dVertex
 10
8.638667317949759
 20
3.943711177245895
 30
0.0
 70
     8
  0
VERTEX
  5
2F1
330
2D1
100
AcDbEntity
  8
0
100
AcDbVertex
100
AcDb2dVertex
 10
8.644204863343031
 20
3.945878562255942
 30
0.0
 70
     8
  0
VERTEX
  5
2F2
330
2D1
100
AcDbEntity
  8
0
100
AcDbVertex
100
AcDb2dVertex
 10
8.649597467153745
 20
3.948518996975244
 30
0.0
 70
     8
  0
VERTEX
  5
2F3
330
2D1
100
AcDbEntity
  8
0
100
AcDbVertex
100
AcDb2dVertex
 10
8.654809970712526
 20
3.951573809097066
 30
0.0
 70
     8
  0
VERTEX
  5
2F4
330
2D1
100
AcDbEntity
  8
0
100
AcDbVertex
100
AcDb2dVertex
 10
8.659807215350005
 20
3.954984326314671
 30
0.0
 70
     8
  0
VERTEX
  5
2F5
330
2D1
100
AcDbEntity
  8
0
100
AcDbVertex
100
AcDb2dVertex
 10
8.664551106114661
 20
3.9586983916307
 30
0.0
 70
     8
  0
VERTEX
  5
2F6
330
2D1
100
AcDbEntity
  8
0
100
AcDbVertex
100
AcDb2dVertex
 10
8.66899180292641
 20
3.962689909285295
 30
0.0
 70
     8
  0
VERTEX
  5
2F7
330
2D1
100
AcDbEntity
  8
0
100
AcDbVertex
100
AcDb2dVertex
 10
8.673076529423017
 20
3.966939298827974
 30
0.0
 70
     8
  0
VERTEX
  5
2F8
330
2D1
100
AcDbEntity
  8
0
100
AcDbVertex
100
AcDb2dVertex
 10
8.676752509242254
 20
3.971426979808256
 30
0.0
 70
     8
  0
VERTEX
  5
2F9
330
2D1
100
AcDbEntity
  8
0
100
AcDbVertex
100
AcDb2dVertex
 10
8.679966966021889
 20
3.97613337177566
 30
0.0
 70
     8
  0
VERTEX
  5
2FA
330
2D1
100
AcDbEntity
  8
0
100
AcDbVertex
100
AcDb2dVertex
 10
8.682667123399687
 20
3.981038894279704
 30
0.0
 70
     8
  0
VERTEX
  5
2FB
330
2D1
100
AcDbEntity
  8
0
100
AcDbVertex
100
AcDb2dVertex
 10
8.684800205013422
 20
3.986123966869906
 30
0.0
 70
     8
  0
VERTEX
  5
2FC
330
2D1
100
AcDbEntity
  8
0
100
AcDbVertex
100
AcDb2dVertex
 10
8.686313434500862
 20
3.991369009095786
 30
0.0
 70
     8
  0
VERTEX
  5
2FD
330
2D1
100
AcDbEntity
  8
0
100
AcDbVertex
100
AcDb2dVertex
 10
8.687174240794866
 20
3.996749564116681
 30
0.0
 70
     8
  0
VERTEX
  5
2FE
330
2D1
100
AcDbEntity
  8
0
100
AcDbVertex
100
AcDb2dVertex
 10
8.687430874008658
 20
4.002221669531213
 30
0.0
 70
     8
  0
VERTEX
  5
2FF
330
2D1
100
AcDbEntity
  8
0
100
AcDbVertex
100
AcDb2dVertex
 10
8.687151789550557
 20
4.007736486547824
 30
0.0
 70
     8
  0
VERTEX
  5
300
330
2D1
100
AcDbEntity
  8
0
100
AcDbVertex
100
AcDb2dVertex
 10
8.686405442828876
 20
4.013245176374952
 30
0.0
 70
     8
  0
VERTEX
  5
301
330
2D1
100
AcDbEntity
  8
0
100
AcDbVertex
100
AcDb2dVertex
 10
8.685260289251932
 20
4.018698900221042
 30
0.0
 70
     8
  0
VERTEX
  5
302
330
2D1
100
AcDbEntity
  8
0
100
AcDbVertex
100
AcDb2dVertex
 10
8.683784784228044
 20
4.024048819294532
 30
0.0
 70
     8
  0
VERTEX
  5
303
330
2D1
100
AcDbEntity
  8
0
100
AcDbVertex
100
AcDb2dVertex
 10
8.682047383165527
 20
4.029246094803865
 30
0.0
 70
     8
  0
VERTEX
  5
304
330
2D1
100
AcDbEntity
  8
0
100
AcDbVertex
100
AcDb2dVertex
 10
8.680116541472694
 20
4.034241887957482
 30
0.0
 70
     8
  0
VERTEX
  5
305
330
2D1
100
AcDbEntity
  8
0
100
AcDbVertex
100
AcDb2dVertex
 10
8.678048978927508
 20
4.038996477122752
 30
0.0
 70
     8
  0
VERTEX
  5
306
330
2D1
100
AcDbEntity
  8
0
100
AcDbVertex
100
AcDb2dVertex
 10
8.675854472786492
 20
4.043506609302767
 30
0.0
 70
     8
  0
VERTEX
  5
307
330
2D1
100
AcDbEntity
  8
0
100
AcDbVertex
100
AcDb2dVertex
 10
8.673531064675816
 20
4.047778148659547
 30
0.0
 70
     8
  0
VERTEX
  5
308
330
2D1
100
AcDbEntity
  8
0
100
AcDbVertex
100
AcDb2dVertex
 10
8.671076796221644
 20
4.051816959355111
 30
0.0
 70
     8
  0
VERTEX
  5
309
330
2D1
100
AcDbEntity
  8
0
100
AcDbVertex
100
AcDb2dVertex
 10
8.668489709050146
 20
4.055628905551478
 30
0.0
 70
     8
  0
VERTEX
  5
30A
330
2D1
100
AcDbEntity
  8
0
100
AcDbVertex
100
AcDb2dVertex
 10
8.665767844787487
 20
4.05921985141067
 30
0.0
 70
     8
  0
VERTEX
  5
30B
330
2D1
100
AcDbEntity
  8
0
100
AcDbVertex
100
AcDb2dVertex
 10
8.662909245059838
 20
4.062595661094705
 30
0.0
 70
     8
  0
VERTEX
  5
30C
330
2D1
100
AcDbEntity
  8
0
100
AcDbVertex
100
AcDb2dVertex
 10
8.659911951493365
 20
4.065762198765604
 30
0.0
 70
     8
  0
VERTEX
  5
30D
330
2D1
100
AcDbEntity
  8
0
100
AcDbVertex
100
AcDb2dVertex
 10
8.656772379398436
 20
4.06872011410946
 30
0.0
 70
     8
  0
VERTEX
  5
30E
330
2D1
100
AcDbEntity
  8
0
100
AcDbVertex
100
AcDb2dVertex
 10
8.653480438822237
 20
4.071449198908652
 30
0.0
 70
     8
  0
VERTEX
  5
30F
330
2D1
100
AcDbEntity
  8
0
100
AcDbVertex
100
AcDb2dVertex
 10
8.650024413496153
 20
4.073924030469636
 30
0.0
 70
     8
  0
VERTEX
  5
310
330
2D1
100
AcDbEntity
  8
0
100
AcDbVertex
100
AcDb2dVertex
 10
8.646392587151569
 20
4.076119186098864
 30
0.0
 70
     8
  0
VERTEX
  5
311
330
2D1
100
AcDbEntity
  8
0
100
AcDbVertex
100
AcDb2dVertex
 10
8.642573243519868
 20
4.078009243102791
 30
0.0
 70
     8
  0
VERTEX
  5
312
330
2D1
100
AcDbEntity
  8
0
100
AcDbVertex
100
AcDb2dVertex
 10
8.638554666332441
 20
4.07956877878787
 30
0.0
 70
     8
  0
VERTEX
  5
313
330
2D1
100
AcDbEntity
  8
0
100
AcDbVertex
100
AcDb2dVertex
 10
8.634325139320668
 20
4.080772370460555
 30
0.0
 70
     8
  0
VERTEX
  5
314
330
2D1
100
AcDbEntity
  8
0
100
AcDbVertex
100
AcDb2dVertex
 10
8.629872946215938
 20
4.081594595427299
 30
0.0
 70
     8
  0
VERTEX
  5
315
330
2D1
100
AcDbEntity
  8
0
100
AcDbVertex
100
AcDb2dVertex
 10
8.625199403377625
 20
4.08201231923453
 30
0.0
 70
     8
  0
VERTEX
  5
316
330
2D1
100
AcDbEntity
  8
0
100
AcDbVertex
100
AcDb2dVertex
 10
8.620357957677058
 20
4.082011560388562
 30
0.0
 70
     8
  0
VERTEX
  5
317
330
2D1
100
AcDbEntity
  8
0
100
AcDbVertex
100
AcDb2dVertex
 10
8.61541508861356
 20
4.081580625635684
 30
0.0
 70
     8
  0
VERTEX
  5
318
330
2D1
100
AcDbEntity
  8
0
100
AcDbVertex
100
AcDb2dVertex
 10
8.610437275686447
 20
4.080707821722185
 30
0.0
 70
     8
  0
VERTEX
  5
319
330
2D1
100
AcDbEntity
  8
0
100
AcDbVertex
100
AcDb2dVertex
 10
8.605490998395043
 20
4.079381455394353
 30
0.0
 70
     8
  0
VERTEX
  5
31A
330
2D1
100
AcDbEntity
  8
0
100
AcDbVertex
100
AcDb2dVertex
 10
8.600642736238664
 20
4.077589833398476
 30
0.0
 70
     8
  0
VERTEX
  5
31B
330
2D1
100
AcDbEntity
  8
0
100
AcDbVertex
100
AcDb2dVertex
 10
8.59595896871663
 20
4.075321262480844
 30
0.0
 70
     8
  0
VERTEX
  5
31C
330
2D1
100
AcDbEntity
  8
0
100
AcDbVertex
100
AcDb2dVertex
 10
8.591506175328263
 20
4.072564049387743
 30
0.0
 70
     8
  0
VERTEX
  5
31D
330
2D1
100
AcDbEntity
  8
0
100
AcDbVertex
100
AcDb2dVertex
 10
8.587343992223945
 20
4.06930747457264
 30
0.0
 70
     8
  0
VERTEX
  5
31E
330
2D1
100
AcDbEntity
  8
0
100
AcDbVertex
100
AcDb2dVertex
 10
8.583504682158315
 20
4.065544713317711
 30
0.0
 70
     8
  0
VERTEX
  5
31F
330
2D1
100
AcDbEntity
  8
0
100
AcDbVertex
100
AcDb2dVertex
 10
8.580013664537077
 20
4.061269914612309
 30
0.0
 70
     8
  0
VERTEX
  5
320
330
2D1
100
AcDbEntity
  8
0
100
AcDbVertex
100
AcDb2dVertex
 10
8.576896358765934
 20
4.056477227445787
 30
0.0
 70
     8
  0
VERTEX
  5
321
330
2D1
100
AcDbEntity
  8
0
100
AcDbVertex
100
AcDb2dVertex
 10
8.574178184250586
 20
4.051160800807497
 30
0.0
 70
     8
  0
VERTEX
  5
322
330
2D1
100
AcDbEntity
  8
0
100
AcDbVertex
100
AcDb2dVertex
 10
8.571884560396741
 20
4.045314783686795
 30
0.0
 70
     8
  0
VERTEX
  5
323
330
2D1
100
AcDbEntity
  8
0
100
AcDbVertex
100
AcDb2dVertex
 10
8.5700409066101
 20
4.038933325073032
 30
0.0
 70
     8
  0
VERTEX
  5
2D3
330
2D1
100
AcDbEntity
  8
0
100
AcDbVertex
100
AcDb2dVertex
 10
8.563330680924528
 20
4.037846771442005
 30
0.0
 70
    16
  0
VERTEX
  5
2D4
330
2D1
100
AcDbEntity
  8
0
100
AcDbVertex
100
AcDb2dVertex
 10
8.570379793503649
 20
3.962775397333025
 30
0.0
 70
    16
  0
VERTEX
  5
2D5
330
2D1
100
AcDbEntity
  8
0
100
AcDbVertex
100
AcDb2dVertex
 10
8.615441808452603
 20
3.932770527175005
 30
0.0
 70
    16
  0
VERTEX
  5
2D6
330
2D1
100
AcDbEntity
  8
0
100
AcDbVertex
100
AcDb2dVertex
 10
8.662478336317236
 20
3.951815976564831
 30
0.0
 70
    16
  0
VERTEX
  5
2D7
330
2D1
100
AcDbEntity
  8
0
100
AcDbVertex
100
AcDb2dVertex
 10
8.693488138378486
 20
3.9898715244537
 30
0.0
 70
    16
  0
VERTEX
  5
2D8
330
2D1
100
AcDbEntity
  8
0
100
AcDbVertex
100
AcDb2dVertex
 10
8.681449717173996
 20
4.036911980195086
 30
0.0
 70
    16
  0
VERTEX
  5
2D9
330
2D1
100
AcDbEntity
  8
0
100
AcDbVertex
100
AcDb2dVertex
 10
8.661412241761703
 20
4.067931882510846
 30
0.0
 70
    16
  0
VERTEX
  5
2DA
330
2D1
100
AcDbEntity
  8
0
100
AcDbVertex
100
AcDb2dVertex
 10
8.632373024739376
 20
4.085933682355157
 30
0.0
 70
    16
  0
SEQEND
  5
2DB
330
2D1
100
AcDbEntity
  8
0
  0
POLYLINE
  5
324
330
19
100
AcDbEntity
  8
0
100
AcDb2dPolyline
 66
     1
 10
0.0
 20
0.0
 30
0.0
 70
     5
 75
     6
  0
VERTEX
  5
325
330
324
100
AcDbEntity
  8
0
100
AcDbVertex
100
AcDb2dVertex
 10
7.632028277011878
 20
4.694984570354055
 30
0.0
 70
    16
  0
VERTEX
  5
330
330
324
100
AcDbEntity
  8
0
100
AcDbVertex
100
AcDb2dVertex
 10
7.662068965665056
 20
4.676149161612931
 30
0.0
 70
     8
  0
VERTEX
  5
331
330
324
100
AcDbEntity
  8
0
100
AcDbVertex
100
AcDb2dVertex
 10
7.665520825842786
 20
4.673547898783425
 30
0.0
 70
     8
  0
VERTEX
  5
332
330
324
100
AcDbEntity
  8
0
100
AcDbVertex
100
AcDb2dVertex
 10
7.668841735809305
 20
4.670874224343818
 30
0.0
 70
     8
  0
VERTEX
  5
333
330
324
100
AcDbEntity
  8
0
100
AcDbVertex
100
AcDb2dVertex
 10
7.671994545642975
 20
4.668133982729072
 30
0.0
 70
     8
  0
VERTEX
  5
334
330
324
100
AcDbEntity
  8
0
100
AcDbVertex
100
AcDb2dVertex
 10
7.674942105422159
 20
4.665333018374144
 30
0.0
 70
     8
  0
VERTEX
  5
335
330
324
100
AcDbEntity
  8
0
100
AcDbVertex
100
AcDb2dVertex
 10
7.677647265225218
 20
4.662477175713999
 30
0.0
 70
     8
  0
VERTEX
  5
336
330
324
100
AcDbEntity
  8
0
100
AcDbVertex
100
AcDb2dVertex
 10
7.680072875130513
 20
4.659572299183593
 30
0.0
 70
     8
  0
VERTEX
  5
337
330
324
100
AcDbEntity
  8
0
100
AcDbVertex
100
AcDb2dVertex
 10
7.682181785216407
 20
4.656624233217889
 30
0.0
 70
     8
  0
VERTEX
  5
338
330
324
100
AcDbEntity
  8
0
100
AcDbVertex
100
AcDb2dVertex
 10
7.68393684556126
 20
4.653638822251847
 30
0.0
 70
     8
  0
VERTEX
  5
339
330
324
100
AcDbEntity
  8
0
100
AcDbVertex
100
AcDb2dVertex
 10
7.685307748131109
 20
4.650623543794567
 30
0.0
 70
     8
  0
VERTEX
  5
33A
330
324
100
AcDbEntity
  8
0
100
AcDbVertex
100
AcDb2dVertex
 10
7.686291552442675
 20
4.647592407651718
 30
0.0
 70
     8
  0
VERTEX
  5
33B
330
324
100
AcDbEntity
  8
0
100
AcDbVertex
100
AcDb2dVertex
 10
7.686892159900356
 20
4.644561056703109
 30
0.0
 70
     8
  0
VERTEX
  5
33C
330
324
100
AcDbEntity
  8
0
100
AcDbVertex
100
AcDb2dVertex
 10
7.687113471908546
 20
4.64154513382855
 30
0.0
 70
     8
  0
VERTEX
  5
33D
330
324
100
AcDbEntity
  8
0
100
AcDbVertex
100
AcDb2dVertex
 10
7.686959389871645
 20
4.638560281907849
 30
0.0
 70
     8
  0
VERTEX
  5
33E
330
324
100
AcDbEntity
  8
0
100
AcDbVertex
100
AcDb2dVertex
 10
7.686433815194047
 20
4.635622143820815
 30
0.0
 70
     8
  0
VERTEX
  5
33F
330
324
100
AcDbEntity
  8
0
100
AcDbVertex
100
AcDb2dVertex
 10
7.685540649280149
 20
4.632746362447258
 30
0.0
 70
     8
  0
VERTEX
  5
340
330
324
100
AcDbEntity
  8
0
100
AcDbVertex
100
AcDb2dVertex
 10
7.684283793534347
 20
4.629948580666988
 30
0.0
 70
     8
  0
VERTEX
  5
341
330
324
100
AcDbEntity
  8
0
100
AcDbVertex
100
AcDb2dVertex
 10
7.682670731128141
 20
4.627249005236358
 30
0.0
 70
     8
  0
VERTEX
  5
342
330
324
100
AcDbEntity
  8
0
100
AcDbVertex
100
AcDb2dVertex
 10
7.680723272301436
 20
4.624686098417907
 30
0.0
 70
     8
  0
VERTEX
  5
343
330
324
100
AcDbEntity
  8
0
100
AcDbVertex
100
AcDb2dVertex
 10
7.678466809061242
 20
4.622302886350719
 30
0.0
 70
     8
  0
VERTEX
  5
344
330
324
100
AcDbEntity
  8
0
100
AcDbVertex
100
AcDb2dVertex
 10
7.67592673341457
 20
4.620142395173876
 30
0.0
 70
     8
  0
VERTEX
  5
345
330
324
100
AcDbEntity
  8
0
100
AcDbVertex
100
AcDb2dVertex
 10
7.673128437368426
 20
4.618247651026462
 30
0.0
 70
     8
  0
VERTEX
  5
346
330
324
100
AcDbEntity
  8
0
100
AcDbVertex
100
AcDb2dVertex
 10
7.67009731292982
 20
4.616661680047561
 30
0.0
 70
     8
  0
VERTEX
  5
347
330
324
100
AcDbEntity
  8
0
100
AcDbVertex
100
AcDb2dVertex
 10
7.666858752105763
 20
4.615427508376256
 30
0.0
 70
     8
  0
VERTEX
  5
348
330
324
100
AcDbEntity
  8
0
100
AcDbVertex
100
AcDb2dVertex
 10
7.663438146903263
 20
4.61458816215163
 30
0.0
 70
     8
  0
VERTEX
  5
349
330
324
100
AcDbEntity
  8
0
100
AcDbVertex
100
AcDb2dVertex
 10
7.65986382926463
 20
4.614173635250094
 30
0.0
 70
     8
  0
VERTEX
  5
34A
330
324
100
AcDbEntity
  8
0
100
AcDbVertex
100
AcDb2dVertex
 10
7.656175890873386
 20
4.614161792497368
 30
0.0
 70
     8
  0
VERTEX
  5
34B
330
324
100
AcDbEntity
  8
0
100
AcDbVertex
100
AcDb2dVertex
 10
7.652417363348352
 20
4.614517466456492
 30
0.0
 70
     8
  0
VERTEX
  5
34C
330
324
100
AcDbEntity
  8
0
100
AcDbVertex
100
AcDb2dVertex
 10
7.648631278308351
 20
4.615205489690514
 30
0.0
 70
     8
  0
VERTEX
  5
34D
330
324
100
AcDbEntity
  8
0
100
AcDbVertex
100
AcDb2dVertex
 10
7.644860667372204
 20
4.616190694762479
 30
0.0
 70
     8
  0
VERTEX
  5
34E
330
324
100
AcDbEntity
  8
0
100
AcDbVertex
100
AcDb2dVertex
 10
7.641148562158736
 20
4.61743791423543
 30
0.0
 70
     8
  0
VERTEX
  5
34F
330
324
100
AcDbEntity
  8
0
100
AcDbVertex
100
AcDb2dVertex
 10
7.637537994286767
 20
4.618911980672414
 30
0.0
 70
     8
  0
VERTEX
  5
350
330
324
100
AcDbEntity
  8
0
100
AcDbVertex
100
AcDb2dVertex
 10
7.634071995375117
 20
4.620577726636475
 30
0.0
 70
     8
  0
VERTEX
  5
351
330
324
100
AcDbEntity
  8
0
100
AcDbVertex
100
AcDb2dVertex
 10
7.630786426750064
 20
4.622402913301165
 30
0.0
 70
     8
  0
VERTEX
  5
352
330
324
100
AcDbEntity
  8
0
100
AcDbVertex
100
AcDb2dVertex
 10
7.627688468567686
 20
4.624367016282073
 30
0.0
 70
     8
  0
VERTEX
  5
353
330
324
100
AcDbEntity
  8
0
100
AcDbVertex
100
AcDb2dVertex
 10
7.62477813069151
 20
4.626452439805298
 30
0.0
 70
     8
  0
VERTEX
  5
354
330
324
100
AcDbEntity
  8
0
100
AcDbVertex
100
AcDb2dVertex
 10
7.622055422985068
 20
4.628641588096935
 30
0.0
 70
     8
  0
VERTEX
  5
355
330
324
100
AcDbEntity
  8
0
100
AcDbVertex
100
AcDb2dVertex
 10
7.619520355311889
 20
4.630916865383082
 30
0.0
 70
     8
  0
VERTEX
  5
356
330
324
100
AcDbEntity
  8
0
100
AcDbVertex
100
AcDb2dVertex
 10
7.617172937535504
 20
4.633260675889836
 30
0.0
 70
     8
  0
VERTEX
  5
357
330
324
100
AcDbEntity
  8
0
100
AcDbVertex
100
AcDb2dVertex
 10
7.61501317951944
 20
4.635655423843293
 30
0.0
 70
     8
  0
VERTEX
  5
358
330
324
100
AcDbEntity
  8
0
100
AcDbVertex
100
AcDb2dVertex
 10
7.613041091127229
 20
4.638083513469552
 30
0.0
 70
     8
  0
VERTEX
  5
359
330
324
100
AcDbEntity
  8
0
100
AcDbVertex
100
AcDb2dVertex
 10
7.611255702304852
 20
4.640531584466378
 30
0.0
 70
     8
  0
VERTEX
  5
35A
330
324
100
AcDbEntity
  8
0
100
AcDbVertex
100
AcDb2dVertex
 10
7.609652123328099
 20
4.643003218418216
 30
0.0
 70
     8
  0
VERTEX
  5
35B
330
324
100
AcDbEntity
  8
0
100
AcDbVertex
100
AcDb2dVertex
 10
7.608224484555211
 20
4.645506232381179
 30
0.0
 70
     8
  0
VERTEX
  5
35C
330
324
100
AcDbEntity
  8
0
100
AcDbVertex
100
AcDb2dVertex
 10
7.60696691634443
 20
4.648048443411382
 30
0.0
 70
     8
  0
VERTEX
  5
35D
330
324
100
AcDbEntity
  8
0
100
AcDbVertex
100
AcDb2dVertex
 10
7.605873549053995
 20
4.650637668564936
 30
0.0
 70
     8
  0
VERTEX
  5
35E
330
324
100
AcDbEntity
  8
0
100
AcDbVertex
100
AcDb2dVertex
 10
7.60493851304215
 20
4.653281724897957
 30
0.0
 70
     8
  0
VERTEX
  5
35F
330
324
100
AcDbEntity
  8
0
100
AcDbVertex
100
AcDb2dVertex
 10
7.604155938667135
 20
4.655988429466558
 30
0.0
 70
     8
  0
VERTEX
  5
360
330
324
100
AcDbEntity
  8
0
100
AcDbVertex
100
AcDb2dVertex
 10
7.603519956287194
 20
4.658765599326851
 30
0.0
 70
     8
  0
VERTEX
  5
361
330
324
100
AcDbEntity
  8
0
100
AcDbVertex
100
AcDb2dVertex
 10
7.603026002939067
 20
4.661615187007616
 30
0.0
 70
     8
  0
VERTEX
  5
362
330
324
100
AcDbEntity
  8
0
100
AcDbVertex
100
AcDb2dVertex
 10
7.60267474237351
 20
4.664515686928286
 30
0.0
 70
     8
  0
VERTEX
  5
363
330
324
100
AcDbEntity
  8
0
100
AcDbVertex
100
AcDb2dVertex
 10
7.602468145019782
 20
4.667439728980962
 30
0.0
 70
     8
  0
VERTEX
  5
364
330
324
100
AcDbEntity
  8
0
100
AcDbVertex
100
AcDb2dVertex
 10
7.602408181307141
 20
4.670359943057739
 30
0.0
 70
     8
  0
VERTEX
  5
365
330
324
100
AcDbEntity
  8
0
100
AcDbVertex
100
AcDb2dVertex
 10
7.602496821664844
 20
4.67324895905072
 30
0.0
 70
     8
  0
VERTEX
  5
366
330
324
100
AcDbEntity
  8
0
100
AcDbVertex
100
AcDb2dVertex
 10
7.602736036522149
 20
4.676079406852
 30
0.0
 70
     8
  0
VERTEX
  5
367
330
324
100
AcDbEntity
  8
0
100
AcDbVertex
100
AcDb2dVertex
 10
7.603127796308314
 20
4.67882391635368
 30
0.0
 70
     8
  0
VERTEX
  5
368
330
324
100
AcDbEntity
  8
0
100
AcDbVertex
100
AcDb2dVertex
 10
7.603674071452594
 20
4.681455117447858
 30
0.0
 70
     8
  0
VERTEX
  5
369
330
324
100
AcDbEntity
  8
0
100
AcDbVertex
100
AcDb2dVertex
 10
7.604376505988612
 20
4.683946617386972
 30
0.0
 70
     8
  0
VERTEX
  5
36A
330
324
100
AcDbEntity
  8
0
100
AcDbVertex
100
AcDb2dVertex
 10
7.605235438367431
 20
4.6862759328648
 30
0.0
 70
     8
  0
VERTEX
  5
36B
330
324
100
AcDbEntity
  8
0
100
AcDbVertex
100
AcDb2dVertex
 10
7.606250880644477
 20
4.688421557935462
 30
0.0
 70
     8
  0
VERTEX
  5
36C
330
324
100
AcDbEntity
  8
0
100
AcDbVertex
100
AcDb2dVertex
 10
7.607422844875173
 20
4.690361986653078
 30
0.0
 70
     8
  0
VERTEX
  5
36D
330
324
100
AcDbEntity
  8
0
100
AcDbVertex
100
AcDb2dVertex
 10
7.608751343114945
 20
4.692075713071765
 30
0.0
 70
     8
  0
VERTEX
  5
36E
330
324
100
AcDbEntity
  8
0
100
AcDbVertex
100
AcDb2dVertex
 10
7.61023638741922
 20
4.693541231245644
 30
0.0
 70
     8
  0
VERTEX
  5
36F
330
324
100
AcDbEntity
  8
0
100
AcDbVertex
100
AcDb2dVertex
 10
7.611877989843421
 20
4.694737035228831
 30
0.0
 70
     8
  0
VERTEX
  5
370
330
324
100
AcDbEntity
  8
0
100
AcDbVertex
100
AcDb2dVertex
 10
7.613676162442977
 20
4.695641619075447
 30
0.0
 70
     8
  0
VERTEX
  5
371
330
324
100
AcDbEntity
  8
0
100
AcDbVertex
100
AcDb2dVertex
 10
7.615631240015788
 20
4.696239016432569
 30
0.0
 70
     8
  0
VERTEX
  5
372
330
324
100
AcDbEntity
  8
0
100
AcDbVertex
100
AcDb2dVertex
 10
7.61774484832968
 20
4.696535419319122
 30
0.0
 70
     8
  0
VERTEX
  5
373
330
324
100
AcDbEntity
  8
0
100
AcDbVertex
100
AcDb2dVertex
 10
7.620018935894955
 20
4.696542559346987
 30
0.0
 70
     8
  0
VERTEX
  5
374
330
324
100
AcDbEntity
  8
0
100
AcDbVertex
100
AcDb2dVertex
 10
7.622455451221916
 20
4.696272168128046
 30
0.0
 70
     8
  0
VERTEX
  5
375
330
324
100
AcDbEntity
  8
0
100
AcDbVertex
100
AcDb2dVertex
 10
7.625056342820865
 20
4.695735977274185
 30
0.0
 70
     8
  0
VERTEX
  5
376
330
324
100
AcDbEntity
  8
0
100
AcDbVertex
100
AcDb2dVertex
 10
7.627823559202105
 20
4.694945718397285
 30
0.0
 70
     8
  0
VERTEX
  5
377
330
324
100
AcDbEntity
  8
0
100
AcDbVertex
100
AcDb2dVertex
 10
7.63075904887594
 20
4.693913123109231
 30
0.0
 70
     8
  0
VERTEX
  5
378
330
324
100
AcDbEntity
  8
0
100
AcDbVertex
100
AcDb2dVertex
 10
7.633864760352669
 20
4.692649923021903
 30
0.0
 70
     8
  0
VERTEX
  5
379
330
324
100
AcDbEntity
  8
0
100
AcDbVertex
100
AcDb2dVertex
 10
7.637136776336657
 20
4.691168824002337
 30
0.0
 70
     8
  0
VERTEX
  5
37A
330
324
100
AcDbEntity
  8
0
100
AcDbVertex
100
AcDb2dVertex
 10
7.640547716308498
 20
4.689486428938174
 30
0.0
 70
     8
  0
VERTEX
  5
37B
330
324
100
AcDbEntity
  8
0
100
AcDbVertex
100
AcDb2dVertex
 10
7.644064333942846
 20
4.687620314972203
 30
0.0
 70
     8
  0
VERTEX
  5
37C
330
324
100
AcDbEntity
  8
0
100
AcDbVertex
100
AcDb2dVertex
 10
7.647653382914353
 20
4.685588059247216
 30
0.0
 70
     8
  0
VERTEX
  5
37D
330
324
100
AcDbEntity
  8
0
100
AcDbVertex
100
AcDb2dVertex
 10
7.651281616897673
 20
4.683407238906004
 30
0.0
 70
     8
  0
VERTEX
  5
37E
330
324
100
AcDbEntity
  8
0
100
AcDbVertex
100
AcDb2dVertex
 10
7.654915789567462
 20
4.681095431091359
 30
0.0
 70
     8
  0
VERTEX
  5
37F
330
324
100
AcDbEntity
  8
0
100
AcDbVertex
100
AcDb2dVertex
 10
7.658522654598372
 20
4.678670212946071
 30
0.0
 70
     8
  0
VERTEX
  5
326
330
324
100
AcDbEntity
  8
0
100
AcDbVertex
100
AcDb2dVertex
 10
7.663069502087157
 20
4.676983892760244
 30
0.0
 70
    16
  0
VERTEX
  5
327
330
324
100
AcDbEntity
  8
0
100
AcDbVertex
100
AcDb2dVertex
 10
7.688107508629829
 20
4.653974828282549
 30
0.0
 70
    16
  0
VERTEX
  5
328
330
324
100
AcDbEntity
  8
0
100
AcDbVertex
100
AcDb2dVertex
 10
7.688121536761091
 20
4.628949727620638
 30
0.0
 70
    16
  0
VERTEX
  5
329
330
324
100
AcDbEntity
  8
0
100
AcDbVertex
100
AcDb2dVertex
 10
7.665109105531893
 20
4.609917745236825
 30
0.0
 70
    16
  0
VERTEX
  5
32A
330
324
100
AcDbEntity
  8
0
100
AcDbVertex
100
AcDb2dVertex
 10
7.632070922530916
 20
4.618908264341846
 30
0.0
 70
    16
  0
VERTEX
  5
32B
330
324
100
AcDbEntity
  8
0
100
AcDbVertex
100
AcDb2dVertex
 10
7.611039176595153
 20
4.637915557214638
 30
0.0
 70
    16
  0
VERTEX
  5
32C
330
324
100
AcDbEntity
  8
0
100
AcDbVertex
100
AcDb2dVertex
 10
7.602018917851853
 20
4.657930587616912
 30
0.0
 70
    16
  0
VERTEX
  5
32D
330
324
100
AcDbEntity
  8
0
100
AcDbVertex
100
AcDb2dVertex
 10
7.602004889720591
 20
4.682955688278823
 30
0.0
 70
    16
  0
VERTEX
  5
32E
330
324
100
AcDbEntity
  8
0
100
AcDbVertex
100
AcDb2dVertex
 10
7.612005951981348
 20
4.698977363954951
 30
0.0
 70
    16
  0
SEQEND
  5
32F
330
324
100
AcDbEntity
  8
0
  0
POLYLINE
  5
380
330
19
100
AcDbEntity
  8
0
100
AcDb2dPolyline
 66
     1
 10
0.0
 20
0.0
 30
0.0
 70
     5
 75
     6
  0
VERTEX
  5
381
330
380
100
AcDbEntity
  8
0
100
AcDbVertex
100
AcDb2dVertex
 10
7.828343463629112
 20
4.483882701316626
 30
0.0
 70
    16
  0
VERTEX
  5
38D
330
380
100
AcDbEntity
  8
0
100
AcDbVertex
100
AcDb2dVertex
 10
7.831374438450191
 20
4.434001017372968
 30
0.0
 70
     8
  0
VERTEX
  5
38E
330
380
100
AcDbEntity
  8
0
100
AcDbVertex
100
AcDb2dVertex
 10
7.831757181357733
 20
4.428998165305756
 30
0.0
 70
     8
  0
VERTEX
  5
38F
330
380
100
AcDbEntity
  8
0
100
AcDbVertex
100
AcDb2dVertex
 10
7.832167096006632
 20
4.424351154231849
 30
0.0
 70
     8
  0
VERTEX
  5
390
330
380
100
AcDbEntity
  8
0
100
AcDbVertex
100
AcDb2dVertex
 10
7.832631573327798
 20
4.420024807946709
 30
0.0
 70
     8
  0
VERTEX
  5
391
330
380
100
AcDbEntity
  8
0
100
AcDbVertex
100
AcDb2dVertex
 10
7.833178004252138
 20
4.4159839502458
 30
0.0
 70
     8
  0
VERTEX
  5
392
330
380
100
AcDbEntity
  8
0
100
AcDbVertex
100
AcDb2dVertex
 10
7.83383377971056
 20
4.412193404924585
 30
0.0
 70
     8
  0
VERTEX
  5
393
330
380
100
AcDbEntity
  8
0
100
AcDbVertex
100
AcDb2dVertex
 10
7.834626290633977
 20
4.408617995778525
 30
0.0
 70
     8
  0
VERTEX
  5
394
330
380
100
AcDbEntity
  8
0
100
AcDbVertex
100
AcDb2dVertex
 10
7.835582927953291
 20
4.405222546603085
 30
0.0
 70
     8
  0
VERTEX
  5
395
330
380
100
AcDbEntity
  8
0
100
AcDbVertex
100
AcDb2dVertex
 10
7.836731082599415
 20
4.401971881193727
 30
0.0
 70
     8
  0
VERTEX
  5
396
330
380
100
AcDbEntity
  8
0
100
AcDbVertex
100
AcDb2dVertex
 10
7.83809097137489
 20
4.398840594757383
 30
0.0
 70
     8
  0
VERTEX
  5
397
330
380
100
AcDbEntity
  8
0
100
AcDbVertex
100
AcDb2dVertex
 10
7.839654114568798
 20
4.395842368146872
 30
0.0
 70
     8
  0
VERTEX
  5
398
330
380
100
AcDbEntity
  8
0
100
AcDbVertex
100
AcDb2dVertex
 10
7.841404858341847
 20
4.393000653626483
 30
0.0
 70
     8
  0
VERTEX
  5
399
330
380
100
AcDbEntity
  8
0
100
AcDbVertex
100
AcDb2dVertex
 10
7.843327548854755
 20
4.390338903460504
 30
0.0
 70
     8
  0
VERTEX
  5
39A
330
380
100
AcDbEntity
  8
0
100
AcDbVertex
100
AcDb2dVertex
 10
7.845406532268233
 20
4.387880569913222
 30
0.0
 70
     8
  0
VERTEX
  5
39B
330
380
100
AcDbEntity
  8
0
100
AcDbVertex
100
AcDb2dVertex
 10
7.847626154742994
 20
4.385649105248929
 30
0.0
 70
     8
  0
VERTEX
  5
39C
330
380
100
AcDbEntity
  8
0
100
AcDbVertex
100
AcDb2dVertex
 10
7.849970762439753
 20
4.38366796173191
 30
0.0
 70
     8
  0
VERTEX
  5
39D
330
380
100
AcDbEntity
  8
0
100
AcDbVertex
100
AcDb2dVertex
 10
7.852424701519222
 20
4.381960591626456
 30
0.0
 70
     8
  0
VERTEX
  5
39E
330
380
100
AcDbEntity
  8
0
100
AcDbVertex
100
AcDb2dVertex
 10
7.854972971481366
 20
4.380547514933185
 30
0.0
 70
     8
  0
VERTEX
  5
39F
330
380
100
AcDbEntity
  8
0
100
AcDbVertex
100
AcDb2dVertex
 10
7.857603185183154
 20
4.379437522598049
 30
0.0
 70
     8
  0
VERTEX
  5
3A0
330
380
100
AcDbEntity
  8
0
100
AcDbVertex
100
AcDb2dVertex
 10
7.86030360882081
 20
4.378636473303327
 30
0.0
 70
     8
  0
VERTEX
  5
3A1
330
380
100
AcDbEntity
  8
0
100
AcDbVertex
100
AcDb2dVertex
 10
7.863062508590552
 20
4.378150225731301
 30
0.0
 70
     8
  0
VERTEX
  5
3A2
330
380
100
AcDbEntity
  8
0
100
AcDbVertex
100
AcDb2dVertex
 10
7.865868150688605
 20
4.377984638564251
 30
0.0
 70
     8
  0
VERTEX
  5
3A3
330
380
100
AcDbEntity
  8
0
100
AcDbVertex
100
AcDb2dVertex
 10
7.868708801311187
 20
4.37814557048446
 30
0.0
 70
     8
  0
VERTEX
  5
3A4
330
380
100
AcDbEntity
  8
0
100
AcDbVertex
100
AcDb2dVertex
 10
7.871572726654521
 20
4.378638880174207
 30
0.0
 70
     8
  0
VERTEX
  5
3A5
330
380
100
AcDbEntity
  8
0
100
AcDbVertex
100
AcDb2dVertex
 10
7.87444819291483
 20
4.379470426315774
 30
0.0
 70
     8
  0
VERTEX
  5
3A6
330
380
100
AcDbEntity
  8
0
100
AcDbVertex
100
AcDb2dVertex
 10
7.877319561230778
 20
4.380636941664932
 30
0.0
 70
     8
  0
VERTEX
  5
3A7
330
380
100
AcDbEntity
  8
0
100
AcDbVertex
100
AcDb2dVertex
 10
7.88015557251081
 20
4.3820986552714
 30
0.0
 70
     8
  0
VERTEX
  5
3A8
330
380
100
AcDbEntity
  8
0
100
AcDbVertex
100
AcDb2dVertex
 10
7.882921062605813
 20
4.383806670258391
 30
0.0
 70
     8
  0
VERTEX
  5
3A9
330
380
100
AcDbEntity
  8
0
100
AcDbVertex
100
AcDb2dVertex
 10
7.885580867366674
 20
4.385712089749112
 30
0.0
 70
     8
  0
VERTEX
  5
3AA
330
380
100
AcDbEntity
  8
0
100
AcDbVertex
100
AcDb2dVertex
 10
7.888099822644283
 20
4.387766016866777
 30
0.0
 70
     8
  0
VERTEX
  5
3AB
330
380
100
AcDbEntity
  8
0
100
AcDbVertex
100
AcDb2dVertex
 10
7.890442764289528
 20
4.389919554734592
 30
0.0
 70
     8
  0
VERTEX
  5
3AC
330
380
100
AcDbEntity
  8
0
100
AcDbVertex
100
AcDb2dVertex
 10
7.892574528153296
 20
4.392123806475769
 30
0.0
 70
     8
  0
VERTEX
  5
3AD
330
380
100
AcDbEntity
  8
0
100
AcDbVertex
100
AcDb2dVertex
 10
7.894459950086476
 20
4.394329875213519
 30
0.0
 70
     8
  0
VERTEX
  5
3AE
330
380
100
AcDbEntity
  8
0
100
AcDbVertex
100
AcDb2dVertex
 10
7.896072657251221
 20
4.396500599518751
 30
0.0
 70
     8
  0
VERTEX
  5
3AF
330
380
100
AcDbEntity
  8
0
100
AcDbVertex
100
AcDb2dVertex
 10
7.897421442054742
 20
4.398645759753175
 30
0.0
 70
     8
  0
VERTEX
  5
3B0
330
380
100
AcDbEntity
  8
0
100
AcDbVertex
100
AcDb2dVertex
 10
7.898523888215518
 20
4.400786871726205
 30
0.0
 70
     8
  0
VERTEX
  5
3B1
330
380
100
AcDbEntity
  8
0
100
AcDbVertex
100
AcDb2dVertex
 10
7.899397579452027
 20
4.402945451247251
 30
0.0
 70
     8
  0
VERTEX
  5
3B2
330
380
100
AcDbEntity
  8
0
100
AcDbVertex
100
AcDb2dVertex
 10
7.900060099482746
 20
4.405143014125723
 30
0.0
 70
     8
  0
VERTEX
  5
3B3
330
380
100
AcDbEntity
  8
0
100
AcDbVertex
100
AcDb2dVertex
 10
7.900529032026152
 20
4.407401076171033
 30
0.0
 70
     8
  0
VERTEX
  5
3B4
330
380
100
AcDbEntity
  8
0
100
AcDbVertex
100
AcDb2dVertex
 10
7.900821960800723
 20
4.409741153192591
 30
0.0
 70
     8
  0
VERTEX
  5
3B5
330
380
100
AcDbEntity
  8
0
100
AcDbVertex
100
AcDb2dVertex
 10
7.900956469524939
 20
4.41218476099981
 30
0.0
 70
     8
  0
VERTEX
  5
3B6
330
380
100
AcDbEntity
  8
0
100
AcDbVertex
100
AcDb2dVertex
 10
7.900943952820879
 20
4.414749827607285
 30
0.0
 70
     8
  0
VERTEX
  5
3B7
330
380
100
AcDbEntity
  8
0
100
AcDbVertex
100
AcDb2dVertex
 10
7.900771048925048
 20
4.417439929850354
 30
0.0
 70
     8
  0
VERTEX
  5
3B8
330
380
100
AcDbEntity
  8
0
100
AcDbVertex
100
AcDb2dVertex
 10
7.900418206977552
 20
4.420255056769539
 30
0.0
 70
     8
  0
VERTEX
  5
3B9
330
380
100
AcDbEntity
  8
0
100
AcDbVertex
100
AcDb2dVertex
 10
7.899865876118501
 20
4.423195197405363
 30
0.0
 70
     8
  0
VERTEX
  5
3BA
330
380
100
AcDbEntity
  8
0
100
AcDbVertex
100
AcDb2dVertex
 10
7.899094505488002
 20
4.426260340798347
 30
0.0
 70
     8
  0
VERTEX
  5
3BB
330
380
100
AcDbEntity
  8
0
100
AcDbVertex
100
AcDb2dVertex
 10
7.898084544226162
 20
4.429450475989015
 30
0.0
 70
     8
  0
VERTEX
  5
3BC
330
380
100
AcDbEntity
  8
0
100
AcDbVertex
100
AcDb2dVertex
 10
7.89681644147309
 20
4.43276559201789
 30
0.0
 70
     8
  0
VERTEX
  5
3BD
330
380
100
AcDbEntity
  8
0
100
AcDbVertex
100
AcDb2dVertex
 10
7.895270646368894
 20
4.436205677925492
 30
0.0
 70
     8
  0
VERTEX
  5
3BE
330
380
100
AcDbEntity
  8
0
100
AcDbVertex
100
AcDb2dVertex
 10
7.893439994466079
 20
4.439763235197055
 30
0.0
 70
     8
  0
VERTEX
  5
3BF
330
380
100
AcDbEntity
  8
0
100
AcDbVertex
100
AcDb2dVertex
 10
7.891366866966744
 20
4.443400815096655
 30
0.0
 70
     8
  0
VERTEX
  5
3C0
330
380
100
AcDbEntity
  8
0
100
AcDbVertex
100
AcDb2dVertex
 10
7.889106031485386
 20
4.447073481333075
 30
0.0
 70
     8
  0
VERTEX
  5
3C1
330
380
100
AcDbEntity
  8
0
100
AcDbVertex
100
AcDb2dVertex
 10
7.8867122556365
 20
4.450736297615103
 30
0.0
 70
     8
  0
VERTEX
  5
3C2
330
380
100
AcDbEntity
  8
0
100
AcDbVertex
100
AcDb2dVertex
 10
7.884240307034582
 20
4.454344327651523
 30
0.0
 70
     8
  0
VERTEX
  5
3C3
330
380
100
AcDbEntity
  8
0
100
AcDbVertex
100
AcDb2dVertex
 10
7.88174495329413
 20
4.457852635151119
 30
0.0
 70
     8
  0
VERTEX
  5
3C4
330
380
100
AcDbEntity
  8
0
100
AcDbVertex
100
AcDb2dVertex
 10
7.879280962029639
 20
4.461216283822679
 30
0.0
 70
     8
  0
VERTEX
  5
3C5
330
380
100
AcDbEntity
  8
0
100
AcDbVertex
100
AcDb2dVertex
 10
7.876903100855604
 20
4.464390337374985
 30
0.0
 70
     8
  0
VERTEX
  5
3C6
330
380
100
AcDbEntity
  8
0
100
AcDbVertex
100
AcDb2dVertex
 10
7.874653098000191
 20
4.467339627640452
 30
0.0
 70
     8
  0
VERTEX
  5
3C7
330
380
100
AcDbEntity
  8
0
100
AcDbVertex
100
AcDb2dVertex
 10
7.872520524146226
 20
4.470068058946004
 30
0.0
 70
     8
  0
VERTEX
  5
3C8
330
380
100
AcDbEntity
  8
0
100
AcDbVertex
100
AcDb2dVertex
 10
7.870481910590207
 20
4.472589303742191
 30
0.0
 70
     8
  0
VERTEX
  5
3C9
330
380
100
AcDbEntity
  8
0
100
AcDbVertex
100
AcDb2dVertex
 10
7.868513788628626
 20
4.474917034479566
 30
0.0
 70
     8
  0
VERTEX
  5
3CA
330
380
100
AcDbEntity
  8
0
100
AcDbVertex
100
AcDb2dVertex
 10
7.866592689557979
 20
4.477064923608679
 30
0.0
 70
     8
  0
VERTEX
  5
3CB
330
380
100
AcDbEntity
  8
0
100
AcDbVertex
100
AcDb2dVertex
 10
7.864695144674762
 20
4.479046643580083
 30
0.0
 70
     8
  0
VERTEX
  5
3CC
330
380
100
AcDbEntity
  8
0
100
AcDbVertex
100
AcDb2dVertex
 10
7.86279768527547
 20
4.480875866844327
 30
0.0
 70
     8
  0
VERTEX
  5
3CD
330
380
100
AcDbEntity
  8
0
100
AcDbVertex
100
AcDb2dVertex
 10
7.860876842656597
 20
4.482566265851966
 30
0.0
 70
     8
  0
VERTEX
  5
3CE
330
380
100
AcDbEntity
  8
0
100
AcDbVertex
100
AcDb2dVertex
 10
7.858914364782463
 20
4.484125976565772
 30
0.0
 70
     8
  0
VERTEX
  5
3CF
330
380
100
AcDbEntity
  8
0
100
AcDbVertex
100
AcDb2dVertex
 10
7.85691286628868
 20
4.485540988997422
 30
0.0
 70
     8
  0
VERTEX
  5
3D0
330
380
100
AcDbEntity
  8
0
100
AcDbVertex
100
AcDb2dVertex
 10
7.85488017847868
 20
4.486791756670814
 30
0.0
 70
     8
  0
VERTEX
  5
3D1
330
380
100
AcDbEntity
  8
0
100
AcDbVertex
100
AcDb2dVertex
 10
7.852824132655898
 20
4.487858733109847
 30
0.0
 70
     8
  0
VERTEX
  5
3D2
330
380
100
AcDbEntity
  8
0
100
AcDbVertex
100
AcDb2dVertex
 10
7.85075256012377
 20
4.48872237183842
 30
0.0
 70
     8
  0
VERTEX
  5
3D3
330
380
100
AcDbEntity
  8
0
100
AcDbVertex
100
AcDb2dVertex
 10
7.848673292185729
 20
4.489363126380431
 30
0.0
 70
     8
  0
VERTEX
  5
3D4
330
380
100
AcDbEntity
  8
0
100
AcDbVertex
100
AcDb2dVertex
 10
7.846594160145209
 20
4.489761450259782
 30
0.0
 70
     8
  0
VERTEX
  5
3D5
330
380
100
AcDbEntity
  8
0
100
AcDbVertex
100
AcDb2dVertex
 10
7.844522995305646
 20
4.489897797000368
 30
0.0
 70
     8
  0
VERTEX
  5
3D6
330
380
100
AcDbEntity
  8
0
100
AcDbVertex
100
AcDb2dVertex
 10
7.842472193942967
 20
4.489747083272999
 30
0.0
 70
     8
  0
VERTEX
  5
3D7
330
380
100
AcDbEntity
  8
0
100
AcDbVertex
100
AcDb2dVertex
 10
7.840472412223072
 20
4.489262078336116
 30
0.0
 70
     8
  0
VERTEX
  5
3D8
330
380
100
AcDbEntity
  8
0
100
AcDbVertex
100
AcDb2dVertex
 10
7.838558871284358
 20
4.48839001459507
 30
0.0
 70
     8
  0
VERTEX
  5
3D9
330
380
100
AcDbEntity
  8
0
100
AcDbVertex
100
AcDb2dVertex
 10
7.83676679226522
 20
4.487078124455212
 30
0.0
 70
     8
  0
VERTEX
  5
3DA
330
380
100
AcDbEntity
  8
0
100
AcDbVertex
100
AcDb2dVertex
 10
7.835131396304054
 20
4.485273640321894
 30
0.0
 70
     8
  0
VERTEX
  5
3DB
330
380
100
AcDbEntity
  8
0
100
AcDbVertex
100
AcDb2dVertex
 10
7.833687904539255
 20
4.482923794600464
 30
0.0
 70
     8
  0
VERTEX
  5
3DC
330
380
100
AcDbEntity
  8
0
100
AcDbVertex
100
AcDb2dVertex
 10
7.832471538109217
 20
4.479975819696276
 30
0.0
 70
     8
  0
VERTEX
  5
3DD
330
380
100
AcDbEntity
  8
0
100
AcDbVertex
100
AcDb2dVertex
 10
7.831517518152332
 20
4.476376948014679
 30
0.0
 70
     8
  0
VERTEX
  5
3DE
330
380
100
AcDbEntity
  8
0
100
AcDbVertex
100
AcDb2dVertex
 10
7.830848991725581
 20
4.472106012426173
 30
0.0
 70
     8
  0
VERTEX
  5
3DF
330
380
100
AcDbEntity
  8
0
100
AcDbVertex
100
AcDb2dVertex
 10
7.830440809560243
 20
4.467268247661846
 30
0.0
 70
     8
  0
VERTEX
  5
3E0
330
380
100
AcDbEntity
  8
0
100
AcDbVertex
100
AcDb2dVertex
 10
7.830255748306182
 20
4.462000488917938
 30
0.0
 70
     8
  0
VERTEX
  5
3E1
330
380
100
AcDbEntity
  8
0
100
AcDbVertex
100
AcDb2dVertex
 10
7.830256584613259
 20
4.456439571390685
 30
0.0
 70
     8
  0
VERTEX
  5
3E2
330
380
100
AcDbEntity
  8
0
100
AcDbVertex
100
AcDb2dVertex
 10
7.830406095131335
 20
4.450722330276324
 30
0.0
 70
     8
  0
VERTEX
  5
3E3
330
380
100
AcDbEntity
  8
0
100
AcDbVertex
100
AcDb2dVertex
 10
7.830667056510275
 20
4.444985600771092
 30
0.0
 70
     8
  0
VERTEX
  5
3E4
330
380
100
AcDbEntity
  8
0
100
AcDbVertex
100
AcDb2dVertex
 10
7.831002245399939
 20
4.439366218071228
 30
0.0
 70
     8
  0
VERTEX
  5
382
330
380
100
AcDbEntity
  8
0
100
AcDbVertex
100
AcDb2dVertex
 10
7.831376776472069
 20
4.429830167262651
 30
0.0
 70
    16
  0
VERTEX
  5
383
330
380
100
AcDbEntity
  8
0
100
AcDbVertex
100
AcDb2dVertex
 10
7.834396061183762
 20
4.400802733870586
 30
0.0
 70
    16
  0
VERTEX
  5
384
330
380
100
AcDbEntity
  8
0
100
AcDbVertex
100
AcDb2dVertex
 10
7.851425474389372
 20
4.378790184417363
 30
0.0
 70
    16
  0
VERTEX
  5
385
330
380
100
AcDbEntity
  8
0
100
AcDbVertex
100
AcDb2dVertex
 10
7.874450250374082
 20
4.375800078218695
 30
0.0
 70
    16
  0
VERTEX
  5
386
330
380
100
AcDbEntity
  8
0
100
AcDbVertex
100
AcDb2dVertex
 10
7.89746268160328
 20
4.394832060602508
 30
0.0
 70
    16
  0
VERTEX
  5
387
330
380
100
AcDbEntity
  8
0
100
AcDbVertex
100
AcDb2dVertex
 10
7.902458723731654
 20
4.410850930652384
 30
0.0
 70
    16
  0
VERTEX
  5
388
330
380
100
AcDbEntity
  8
0
100
AcDbVertex
100
AcDb2dVertex
 10
7.898441240619736
 20
4.434872782786816
 30
0.0
 70
    16
  0
VERTEX
  5
389
330
380
100
AcDbEntity
  8
0
100
AcDbVertex
100
AcDb2dVertex
 10
7.875400192002763
 20
4.466892005753301
 30
0.0
 70
    16
  0
VERTEX
  5
38A
330
380
100
AcDbEntity
  8
0
100
AcDbVertex
100
AcDb2dVertex
 10
7.861376596502835
 20
4.483901218449892
 30
0.0
 70
    16
  0
VERTEX
  5
38B
330
380
100
AcDbEntity
  8
0
100
AcDbVertex
100
AcDb2dVertex
 10
7.844354477925481
 20
4.492900715558922
 30
0.0
 70
    16
  0
SEQEND
  5
38C
330
380
100
AcDbEntity
  8
0
  0
POLYLINE
  5
3E5
330
19
100
AcDbEntity
  8
0
100
AcDb2dPolyline
 66
     1
 10
0.0
 20
0.0
 30
0.0
 70
     5
 75
     6
  0
VERTEX
  5
3E6
330
3E5
100
AcDbEntity
  8
0
100
AcDbVertex
100
AcDb2dVertex
 10
8.495279240881645
 20
4.007778494130678
 30
0.0
 70
    16
  0
VERTEX
  5
3F0
330
3E5
100
AcDbEntity
  8
0
100
AcDbVertex
100
AcDb2dVertex
 10
8.477105089301292
 20
3.988582389847829
 30
0.0
 70
     8
  0
VERTEX
  5
3F1
330
3E5
100
AcDbEntity
  8
0
100
AcDbVertex
100
AcDb2dVertex
 10
8.475383216607265
 20
3.985842022451333
 30
0.0
 70
     8
  0
VERTEX
  5
3F2
330
3E5
100
AcDbEntity
  8
0
100
AcDbVertex
100
AcDb2dVertex
 10
8.473862760512089
 20
3.983025519583876
 30
0.0
 70
     8
  0
VERTEX
  5
3F3
330
3E5
100
AcDbEntity
  8
0
100
AcDbVertex
100
AcDb2dVertex
 10
8.472573028674489
 20
3.980166134146491
 30
0.0
 70
     8
  0
VERTEX
  5
3F4
330
3E5
100
AcDbEntity
  8
0
100
AcDbVertex
100
AcDb2dVertex
 10
8.471543328753194
 20
3.977297119040212
 30
0.0
 70
     8
  0
VERTEX
  5
3F5
330
3E5
100
AcDbEntity
  8
0
100
AcDbVertex
100
AcDb2dVertex
 10
8.470802968406931
 20
3.974451727166071
 30
0.0
 70
     8
  0
VERTEX
  5
3F6
330
3E5
100
AcDbEntity
  8
0
100
AcDbVertex
100
AcDb2dVertex
 10
8.470381255294422
 20
3.971663211425101
 30
0.0
 70
     8
  0
VERTEX
  5
3F7
330
3E5
100
AcDbEntity
  8
0
100
AcDbVertex
100
AcDb2dVertex
 10
8.470307497074398
 20
3.968964824718336
 30
0.0
 70
     8
  0
VERTEX
  5
3F8
330
3E5
100
AcDbEntity
  8
0
100
AcDbVertex
100
AcDb2dVertex
 10
8.470611001405581
 20
3.966389819946806
 30
0.0
 70
     8
  0
VERTEX
  5
3F9
330
3E5
100
AcDbEntity
  8
0
100
AcDbVertex
100
AcDb2dVertex
 10
8.471313909855287
 20
3.963966884125764
 30
0.0
 70
     8
  0
VERTEX
  5
3FA
330
3E5
100
AcDbEntity
  8
0
100
AcDbVertex
100
AcDb2dVertex
 10
8.472409699625159
 20
3.961706440727326
 30
0.0
 70
     8
  0
VERTEX
  5
3FB
330
3E5
100
AcDbEntity
  8
0
100
AcDbVertex
100
AcDb2dVertex
 10
8.47388468182543
 20
3.959614347337824
 30
0.0
 70
     8
  0
VERTEX
  5
3FC
330
3E5
100
AcDbEntity
  8
0
100
AcDbVertex
100
AcDb2dVertex
 10
8.475725167566335
 20
3.957696461543592
 30
0.0
 70
     8
  0
VERTEX
  5
3FD
330
3E5
100
AcDbEntity
  8
0
100
AcDbVertex
100
AcDb2dVertex
 10
8.477917467958104
 20
3.955958640930963
 30
0.0
 70
     8
  0
VERTEX
  5
3FE
330
3E5
100
AcDbEntity
  8
0
100
AcDbVertex
100
AcDb2dVertex
 10
8.480447894110972
 20
3.954406743086271
 30
0.0
 70
     8
  0
VERTEX
  5
3FF
330
3E5
100
AcDbEntity
  8
0
100
AcDbVertex
100
AcDb2dVertex
 10
8.483302757135165
 20
3.953046625595849
 30
0.0
 70
     8
  0
VERTEX
  5
400
330
3E5
100
AcDbEntity
  8
0
100
AcDbVertex
100
AcDb2dVertex
 10
8.486468368140923
 20
3.951884146046031
 30
0.0
 70
     8
  0
VERTEX
  5
401
330
3E5
100
AcDbEntity
  8
0
100
AcDbVertex
100
AcDb2dVertex
 10
8.489916375641528
 20
3.950924176260547
 30
0.0
 70
     8
  0
VERTEX
  5
402
330
3E5
100
AcDbEntity
  8
0
100
AcDbVertex
100
AcDb2dVertex
 10
8.493559777762489
 20
3.950167645012716
 30
0.0
 70
     8
  0
VERTEX
  5
403
330
3E5
100
AcDbEntity
  8
0
100
AcDbVertex
100
AcDb2dVertex
 10
8.497296910032363
 20
3.949614495313255
 30
0.0
 70
     8
  0
VERTEX
  5
404
330
3E5
100
AcDbEntity
  8
0
100
AcDbVertex
100
AcDb2dVertex
 10
8.501026107979717
 20
3.949264670172882
 30
0.0
 70
     8
  0
VERTEX
  5
405
330
3E5
100
AcDbEntity
  8
0
100
AcDbVertex
100
AcDb2dVertex
 10
8.504645707133106
 20
3.949118112602312
 30
0.0
 70
     8
  0
VERTEX
  5
406
330
3E5
100
AcDbEntity
  8
0
100
AcDbVertex
100
AcDb2dVertex
 10
8.508054043021096
 20
3.949174765612262
 30
0.0
 70
     8
  0
VERTEX
  5
407
330
3E5
100
AcDbEntity
  8
0
100
AcDbVertex
100
AcDb2dVertex
 10
8.511149451172242
 20
3.94943457221345
 30
0.0
 70
     8
  0
VERTEX
  5
408
330
3E5
100
AcDbEntity
  8
0
100
AcDbVertex
100
AcDb2dVertex
 10
8.513830267115113
 20
3.949897475416592
 30
0.0
 70
     8
  0
VERTEX
  5
409
330
3E5
100
AcDbEntity
  8
0
100
AcDbVertex
100
AcDb2dVertex
 10
8.516019591896741
 20
3.95056147702842
 30
0.0
 70
     8
  0
VERTEX
  5
40A
330
3E5
100
AcDbEntity
  8
0
100
AcDbVertex
100
AcDb2dVertex
 10
8.517739588638079
 20
3.95141681403973
 30
0.0
 70
     8
  0
VERTEX
  5
40B
330
3E5
100
AcDbEntity
  8
0
100
AcDbVertex
100
AcDb2dVertex
 10
8.519037185978553
 20
3.952451782237332
 30
0.0
 70
     8
  0
VERTEX
  5
40C
330
3E5
100
AcDbEntity
  8
0
100
AcDbVertex
100
AcDb2dVertex
 10
8.519959312557592
 20
3.953654677408038
 30
0.0
 70
     8
  0
VERTEX
  5
40D
330
3E5
100
AcDbEntity
  8
0
100
AcDbVertex
100
AcDb2dVertex
 10
8.520552897014623
 20
3.955013795338658
 30
0.0
 70
     8
  0
VERTEX
  5
40E
330
3E5
100
AcDbEntity
  8
0
100
AcDbVertex
100
AcDb2dVertex
 10
8.520864867989074
 20
3.956517431816002
 30
0.0
 70
     8
  0
VERTEX
  5
40F
330
3E5
100
AcDbEntity
  8
0
100
AcDbVertex
100
AcDb2dVertex
 10
8.520942154120371
 20
3.958153882626883
 30
0.0
 70
     8
  0
VERTEX
  5
410
330
3E5
100
AcDbEntity
  8
0
100
AcDbVertex
100
AcDb2dVertex
 10
8.520831684047943
 20
3.959911443558109
 30
0.0
 70
     8
  0
VERTEX
  5
411
330
3E5
100
AcDbEntity
  8
0
100
AcDbVertex
100
AcDb2dVertex
 10
8.52057582454391
 20
3.961778407839283
 30
0.0
 70
     8
  0
VERTEX
  5
412
330
3E5
100
AcDbEntity
  8
0
100
AcDbVertex
100
AcDb2dVertex
 10
8.520198694911157
 20
3.963743058471156
 30
0.0
 70
     8
  0
VERTEX
  5
413
330
3E5
100
AcDbEntity
  8
0
100
AcDbVertex
100
AcDb2dVertex
 10
8.519719852585265
 20
3.965793675897271
 30
0.0
 70
     8
  0
VERTEX
  5
414
330
3E5
100
AcDbEntity
  8
0
100
AcDbVertex
100
AcDb2dVertex
 10
8.519158855001811
 20
3.96791854056117
 30
0.0
 70
     8
  0
VERTEX
  5
415
330
3E5
100
AcDbEntity
  8
0
100
AcDbVertex
100
AcDb2dVertex
 10
8.518535259596375
 20
3.970105932906396
 30
0.0
 70
     8
  0
VERTEX
  5
416
330
3E5
100
AcDbEntity
  8
0
100
AcDbVertex
100
AcDb2dVertex
 10
8.517868623804533
 20
3.972344133376491
 30
0.0
 70
     8
  0
VERTEX
  5
417
330
3E5
100
AcDbEntity
  8
0
100
AcDbVertex
100
AcDb2dVertex
 10
8.517178505061866
 20
3.974621422414997
 30
0.0
 70
     8
  0
VERTEX
  5
418
330
3E5
100
AcDbEntity
  8
0
100
AcDbVertex
100
AcDb2dVertex
 10
8.516484460803953
 20
3.976926080465457
 30
0.0
 70
     8
  0
VERTEX
  5
419
330
3E5
100
AcDbEntity
  8
0
100
AcDbVertex
100
AcDb2dVertex
 10
8.515801160386083
 20
3.979247036926872
 30
0.0
 70
     8
  0
VERTEX
  5
41A
330
3E5
100
AcDbEntity
  8
0
100
AcDbVertex
100
AcDb2dVertex
 10
8.515123720842388
 20
3.981575817020088
 30
0.0
 70
     8
  0
VERTEX
  5
41B
330
3E5
100
AcDbEntity
  8
0
100
AcDbVertex
100
AcDb2dVertex
 10
8.514442371126716
 20
3.983904594921409
 30
0.0
 70
     8
  0
VERTEX
  5
41C
330
3E5
100
AcDbEntity
  8
0
100
AcDbVertex
100
AcDb2dVertex
 10
8.513747340192909
 20
3.986225544807137
 30
0.0
 70
     8
  0
VERTEX
  5
41D
330
3E5
100
AcDbEntity
  8
0
100
AcDbVertex
100
AcDb2dVertex
 10
8.513028856994815
 20
3.98853084085358
 30
0.0
 70
     8
  0
VERTEX
  5
41E
330
3E5
100
AcDbEntity
  8
0
100
AcDbVertex
100
AcDb2dVertex
 10
8.512277150486277
 20
3.99081265723704
 30
0.0
 70
     8
  0
VERTEX
  5
41F
330
3E5
100
AcDbEntity
  8
0
100
AcDbVertex
100
AcDb2dVertex
 10
8.511482449621139
 20
3.993063168133821
 30
0.0
 70
     8
  0
VERTEX
  5
420
330
3E5
100
AcDbEntity
  8
0
100
AcDbVertex
100
AcDb2dVertex
 10
8.510634983353249
 20
3.99527454772023
 30
0.0
 70
     8
  0
VERTEX
  5
421
330
3E5
100
AcDbEntity
  8
0
100
AcDbVertex
100
AcDb2dVertex
 10
8.509728567335317
 20
3.997434736162163
 30
0.0
 70
     8
  0
VERTEX
  5
422
330
3E5
100
AcDbEntity
  8
0
100
AcDbVertex
100
AcDb2dVertex
 10
8.508771364015523
 20
3.999514737583898
 30
0.0
 70
     8
  0
VERTEX
  5
423
330
3E5
100
AcDbEntity
  8
0
100
AcDbVertex
100
AcDb2dVertex
 10
8.507775122540915
 20
4.001481322099302
 30
0.0
 70
     8
  0
VERTEX
  5
424
330
3E5
100
AcDbEntity
  8
0
100
AcDbVertex
100
AcDb2dVertex
 10
8.50675159205854
 20
4.003301259822247
 30
0.0
 70
     8
  0
VERTEX
  5
425
330
3E5
100
AcDbEntity
  8
0
100
AcDbVertex
100
AcDb2dVertex
 10
8.505712521715443
 20
4.004941320866603
 30
0.0
 70
     8
  0
VERTEX
  5
426
330
3E5
100
AcDbEntity
  8
0
100
AcDbVertex
100
AcDb2dVertex
 10
8.504669660658674
 20
4.006368275346239
 30
0.0
 70
     8
  0
VERTEX
  5
427
330
3E5
100
AcDbEntity
  8
0
100
AcDbVertex
100
AcDb2dVertex
 10
8.503634758035281
 20
4.007548893375026
 30
0.0
 70
     8
  0
VERTEX
  5
428
330
3E5
100
AcDbEntity
  8
0
100
AcDbVertex
100
AcDb2dVertex
 10
8.502619562992306
 20
4.008449945066833
 30
0.0
 70
     8
  0
VERTEX
  5
429
330
3E5
100
AcDbEntity
  8
0
100
AcDbVertex
100
AcDb2dVertex
 10
8.501628977674704
 20
4.009045691196005
 30
0.0
 70
     8
  0
VERTEX
  5
42A
330
3E5
100
AcDbEntity
  8
0
100
AcDbVertex
100
AcDb2dVertex
 10
8.500640516219047
 20
4.009340355178786
 30
0.0
 70
     8
  0
VERTEX
  5
42B
330
3E5
100
AcDbEntity
  8
0
100
AcDbVertex
100
AcDb2dVertex
 10
8.49962484575981
 20
4.009345651091895
 30
0.0
 70
     8
  0
VERTEX
  5
42C
330
3E5
100
AcDbEntity
  8
0
100
AcDbVertex
100
AcDb2dVertex
 10
8.498552633431464
 20
4.00907329301205
 30
0.0
 70
     8
  0
VERTEX
  5
42D
330
3E5
100
AcDbEntity
  8
0
100
AcDbVertex
100
AcDb2dVertex
 10
8.497394546368488
 20
4.008534995015973
 30
0.0
 70
     8
  0
VERTEX
  5
42E
330
3E5
100
AcDbEntity
  8
0
100
AcDbVertex
100
AcDb2dVertex
 10
8.496121251705358
 20
4.00774247118038
 30
0.0
 70
     8
  0
VERTEX
  5
42F
330
3E5
100
AcDbEntity
  8
0
100
AcDbVertex
100
AcDb2dVertex
 10
8.494703416576547
 20
4.00670743558199
 30
0.0
 70
     8
  0
VERTEX
  5
430
330
3E5
100
AcDbEntity
  8
0
100
AcDbVertex
100
AcDb2dVertex
 10
8.493111708116532
 20
4.005441602297523
 30
0.0
 70
     8
  0
VERTEX
  5
431
330
3E5
100
AcDbEntity
  8
0
100
AcDbVertex
100
AcDb2dVertex
 10
8.491329501336059
 20
4.003957018375024
 30
0.0
 70
     8
  0
VERTEX
  5
432
330
3E5
100
AcDbEntity
  8
0
100
AcDbVertex
100
AcDb2dVertex
 10
8.489391002750963
 20
4.002267062747837
 30
0.0
 70
     8
  0
VERTEX
  5
433
330
3E5
100
AcDbEntity
  8
0
100
AcDbVertex
100
AcDb2dVertex
 10
8.487343126753352
 20
4.000385447320633
 30
0.0
 70
     8
  0
VERTEX
  5
434
330
3E5
100
AcDbEntity
  8
0
100
AcDbVertex
100
AcDb2dVertex
 10
8.485232787735331
 20
3.998325883998083
 30
0.0
 70
     8
  0
VERTEX
  5
435
330
3E5
100
AcDbEntity
  8
0
100
AcDbVertex
100
AcDb2dVertex
 10
8.483106900089007
 20
3.996102084684857
 30
0.0
 70
     8
  0
VERTEX
  5
436
330
3E5
100
AcDbEntity
  8
0
100
AcDbVertex
100
AcDb2dVertex
 10
8.48101237820649
 20
3.993727761285625
 30
0.0
 70
     8
  0
VERTEX
  5
437
330
3E5
100
AcDbEntity
  8
0
100
AcDbVertex
100
AcDb2dVertex
 10
8.478996136479882
 20
3.991216625705059
 30
0.0
 70
     8
  0
VERTEX
  5
3E7
330
3E5
100
AcDbEntity
  8
0
100
AcDbVertex
100
AcDb2dVertex
 10
8.475269260606627
 20
3.989749199149092
 30
0.0
 70
    16
  0
VERTEX
  5
3E8
330
3E5
100
AcDbEntity
  8
0
100
AcDbVertex
100
AcDb2dVertex
 10
8.466274252499602
 20
3.964719048359927
 30
0.0
 70
    16
  0
VERTEX
  5
3E9
330
3E5
100
AcDbEntity
  8
0
100
AcDbVertex
100
AcDb2dVertex
 10
8.483299737828457
 20
3.949713527092039
 30
0.0
 70
    16
  0
VERTEX
  5
3EA
330
3E5
100
AcDbEntity
  8
0
100
AcDbVertex
100
AcDb2dVertex
 10
8.519337005032108
 20
3.947731719548104
 30
0.0
 70
    16
  0
VERTEX
  5
3EB
330
3E5
100
AcDbEntity
  8
0
100
AcDbVertex
100
AcDb2dVertex
 10
8.522333844733783
 20
3.958744447215096
 30
0.0
 70
    16
  0
VERTEX
  5
3EC
330
3E5
100
AcDbEntity
  8
0
100
AcDbVertex
100
AcDb2dVertex
 10
8.516317720320416
 20
3.976759152940169
 30
0.0
 70
    16
  0
VERTEX
  5
3ED
330
3E5
100
AcDbEntity
  8
0
100
AcDbVertex
100
AcDb2dVertex
 10
8.511302038808275
 20
3.995775423816968
 30
0.0
 70
    16
  0
VERTEX
  5
3EE
330
3E5
100
AcDbEntity
  8
0
100
AcDbVertex
100
AcDb2dVertex
 10
8.502284024565979
 20
4.011786438113338
 30
0.0
 70
    16
  0
SEQEND
  5
3EF
330
3E5
100
AcDbEntity
  8
0
  0
POLYLINE
  5
438
330
19
100
AcDbEntity
  8
0
100
AcDb2dPolyline
 66
     1
 10
0.0
 20
0.0
 30
0.0
 70
     5
 75
     6
  0
VERTEX
  5
439
330
438
100
AcDbEntity
  8
0
100
AcDbVertex
100
AcDb2dVertex
 10
7.699126452094983
 20
2.854175199930443
 30
0.0
 70
    16
  0
VERTEX
  5
445
330
438
100
AcDbEntity
  8
0
100
AcDbVertex
100
AcDb2dVertex
 10
7.669590567415297
 20
2.865336525031207
 30
0.0
 70
     8
  0
VERTEX
  5
446
330
438
100
AcDbEntity
  8
0
100
AcDbVertex
100
AcDb2dVertex
 10
7.665759755410103
 20
2.865596359226793
 30
0.0
 70
     8
  0
VERTEX
  5
447
330
438
100
AcDbEntity
  8
0
100
AcDbVertex
100
AcDb2dVertex
 10
7.661936952251878
 20
2.865519923016027
 30
0.0
 70
     8
  0
VERTEX
  5
448
330
438
100
AcDbEntity
  8
0
100
AcDbVertex
100
AcDb2dVertex
 10
7.658176887196951
 20
2.865130708117314
 30
0.0
 70
     8
  0
VERTEX
  5
449
330
438
100
AcDbEntity
  8
0
100
AcDbVertex
100
AcDb2dVertex
 10
7.654534289501641
 20
2.864452206249064
 30
0.0
 70
     8
  0
VERTEX
  5
44A
330
438
100
AcDbEntity
  8
0
100
AcDbVertex
100
AcDb2dVertex
 10
7.651063888422279
 20
2.863507909129682
 30
0.0
 70
     8
  0
VERTEX
  5
44B
330
438
100
AcDbEntity
  8
0
100
AcDbVertex
100
AcDb2dVertex
 10
7.647820413215186
 20
2.862321308477579
 30
0.0
 70
     8
  0
VERTEX
  5
44C
330
438
100
AcDbEntity
  8
0
100
AcDbVertex
100
AcDb2dVertex
 10
7.644858593136689
 20
2.86091589601116
 30
0.0
 70
     8
  0
VERTEX
  5
44D
330
438
100
AcDbEntity
  8
0
100
AcDbVertex
100
AcDb2dVertex
 10
7.642233157443112
 20
2.859315163448835
 30
0.0
 70
     8
  0
VERTEX
  5
44E
330
438
100
AcDbEntity
  8
0
100
AcDbVertex
100
AcDb2dVertex
 10
7.639990045906093
 20
2.857527608584661
 30
0.0
 70
     8
  0
VERTEX
  5
44F
330
438
100
AcDbEntity
  8
0
100
AcDbVertex
100
AcDb2dVertex
 10
7.638140040358533
 20
2.855501753515301
 30
0.0
 70
     8
  0
VERTEX
  5
450
330
438
100
AcDbEntity
  8
0
100
AcDbVertex
100
AcDb2dVertex
 10
7.636685133148643
 20
2.85317112641307
 30
0.0
 70
     8
  0
VERTEX
  5
451
330
438
100
AcDbEntity
  8
0
100
AcDbVertex
100
AcDb2dVertex
 10
7.635627316624636
 20
2.850469255450285
 30
0.0
 70
     8
  0
VERTEX
  5
452
330
438
100
AcDbEntity
  8
0
100
AcDbVertex
100
AcDb2dVertex
 10
7.634968583134726
 20
2.847329668799258
 30
0.0
 70
     8
  0
VERTEX
  5
453
330
438
100
AcDbEntity
  8
0
100
AcDbVertex
100
AcDb2dVertex
 10
7.634710925027125
 20
2.843685894632303
 30
0.0
 70
     8
  0
VERTEX
  5
454
330
438
100
AcDbEntity
  8
0
100
AcDbVertex
100
AcDb2dVertex
 10
7.634856334650046
 20
2.839471461121736
 30
0.0
 70
     8
  0
VERTEX
  5
455
330
438
100
AcDbEntity
  8
0
100
AcDbVertex
100
AcDb2dVertex
 10
7.635406804351702
 20
2.834619896439871
 30
0.0
 70
     8
  0
VERTEX
  5
456
330
438
100
AcDbEntity
  8
0
100
AcDbVertex
100
AcDb2dVertex
 10
7.636357467057469
 20
2.829094377060709
 30
0.0
 70
     8
  0
VERTEX
  5
457
330
438
100
AcDbEntity
  8
0
100
AcDbVertex
100
AcDb2dVertex
 10
7.637676018001378
 20
2.822976672664994
 30
0.0
 70
     8
  0
VERTEX
  5
458
330
438
100
AcDbEntity
  8
0
100
AcDbVertex
100
AcDb2dVertex
 10
7.639323292994622
 20
2.816378201235156
 30
0.0
 70
     8
  0
VERTEX
  5
459
330
438
100
AcDbEntity
  8
0
100
AcDbVertex
100
AcDb2dVertex
 10
7.641260127848395
 20
2.809410380753624
 30
0.0
 70
     8
  0
VERTEX
  5
45A
330
438
100
AcDbEntity
  8
0
100
AcDbVertex
100
AcDb2dVertex
 10
7.643447358373891
 20
2.802184629202829
 30
0.0
 70
     8
  0
VERTEX
  5
45B
330
438
100
AcDbEntity
  8
0
100
AcDbVertex
100
AcDb2dVertex
 10
7.645845820382302
 20
2.7948123645652
 30
0.0
 70
     8
  0
VERTEX
  5
45C
330
438
100
AcDbEntity
  8
0
100
AcDbVertex
100
AcDb2dVertex
 10
7.648416349684825
 20
2.787405004823169
 30
0.0
 70
     8
  0
VERTEX
  5
45D
330
438
100
AcDbEntity
  8
0
100
AcDbVertex
100
AcDb2dVertex
 10
7.651119782092651
 20
2.780073967959164
 30
0.0
 70
     8
  0
VERTEX
  5
45E
330
438
100
AcDbEntity
  8
0
100
AcDbVertex
100
AcDb2dVertex
 10
7.653919891160381
 20
2.772921549864921
 30
0.0
 70
     8
  0
VERTEX
  5
45F
330
438
100
AcDbEntity
  8
0
100
AcDbVertex
100
AcDb2dVertex
 10
7.656792201416244
 20
2.766013558069396
 30
0.0
 70
     8
  0
VERTEX
  5
460
330
438
100
AcDbEntity
  8
0
100
AcDbVertex
100
AcDb2dVertex
 10
7.659715175131871
 20
2.759406678010851
 30
0.0
 70
     8
  0
VERTEX
  5
461
330
438
100
AcDbEntity
  8
0
100
AcDbVertex
100
AcDb2dVertex
 10
7.662667274578897
 20
2.753157595127548
 30
0.0
 70
     8
  0
VERTEX
  5
462
330
438
100
AcDbEntity
  8
0
100
AcDbVertex
100
AcDb2dVertex
 10
7.665626962028957
 20
2.74732299485775
 30
0.0
 70
     8
  0
VERTEX
  5
463
330
438
100
AcDbEntity
  8
0
100
AcDbVertex
100
AcDb2dVertex
 10
7.668572699753683
 20
2.741959562639717
 30
0.0
 70
     8
  0
VERTEX
  5
464
330
438
100
AcDbEntity
  8
0
100
AcDbVertex
100
AcDb2dVertex
 10
7.67148295002471
 20
2.737123983911712
 30
0.0
 70
     8
  0
VERTEX
  5
465
330
438
100
AcDbEntity
  8
0
100
AcDbVertex
100
AcDb2dVertex
 10
7.67433617511367
 20
2.732872944111996
 30
0.0
 70
     8
  0
VERTEX
  5
466
330
438
100
AcDbEntity
  8
0
100
AcDbVertex
100
AcDb2dVertex
 10
7.677121599398036
 20
2.7292468423233
 30
0.0
 70
     8
  0
VERTEX
  5
467
330
438
100
AcDbEntity
  8
0
100
AcDbVertex
100
AcDb2dVertex
 10
7.679871495678637
 20
2.726220932206233
 30
0.0
 70
     8
  0
VERTEX
  5
468
330
438
100
AcDbEntity
  8
0
100
AcDbVertex
100
AcDb2dVertex
 10
7.682628898862137
 20
2.723754181065872
 30
0.0
 70
     8
  0
VERTEX
  5
469
330
438
100
AcDbEntity
  8
0
100
AcDbVertex
100
AcDb2dVertex
 10
7.6854368438552
 20
2.721805556207293
 30
0.0
 70
     8
  0
VERTEX
  5
46A
330
438
100
AcDbEntity
  8
0
100
AcDbVertex
100
AcDb2dVertex
 10
7.688338365564494
 20
2.720334024935574
 30
0.0
 70
     8
  0
VERTEX
  5
46B
330
438
100
AcDbEntity
  8
0
100
AcDbVertex
100
AcDb2dVertex
 10
7.691376498896683
 20
2.719298554555793
 30
0.0
 70
     8
  0
VERTEX
  5
46C
330
438
100
AcDbEntity
  8
0
100
AcDbVertex
100
AcDb2dVertex
 10
7.694594278758434
 20
2.718658112373026
 30
0.0
 70
     8
  0
VERTEX
  5
46D
330
438
100
AcDbEntity
  8
0
100
AcDbVertex
100
AcDb2dVertex
 10
7.698034740056411
 20
2.718371665692349
 30
0.0
 70
     8
  0
VERTEX
  5
46E
330
438
100
AcDbEntity
  8
0
100
AcDbVertex
100
AcDb2dVertex
 10
7.701722668218809
 20
2.718401755914309
 30
0.0
 70
     8
  0
VERTEX
  5
46F
330
438
100
AcDbEntity
  8
0
100
AcDbVertex
100
AcDb2dVertex
 10
7.705609850759944
 20
2.718725220821323
 30
0.0
 70
     8
  0
VERTEX
  5
470
330
438
100
AcDbEntity
  8
0
100
AcDbVertex
100
AcDb2dVertex
 10
7.70962982571566
 20
2.719322472291273
 30
0.0
 70
     8
  0
VERTEX
  5
471
330
438
100
AcDbEntity
  8
0
100
AcDbVertex
100
AcDb2dVertex
 10
7.7137161311218
 20
2.720173922202044
 30
0.0
 70
     8
  0
VERTEX
  5
472
330
438
100
AcDbEntity
  8
0
100
AcDbVertex
100
AcDb2dVertex
 10
7.717802305014211
 20
2.721259982431521
 30
0.0
 70
     8
  0
VERTEX
  5
473
330
438
100
AcDbEntity
  8
0
100
AcDbVertex
100
AcDb2dVertex
 10
7.721821885428735
 20
2.722561064857587
 30
0.0
 70
     8
  0
VERTEX
  5
474
330
438
100
AcDbEntity
  8
0
100
AcDbVertex
100
AcDb2dVertex
 10
7.725708410401217
 20
2.724057581358127
 30
0.0
 70
     8
  0
VERTEX
  5
475
330
438
100
AcDbEntity
  8
0
100
AcDbVertex
100
AcDb2dVertex
 10
7.7293954179675
 20
2.725729943811025
 30
0.0
 70
     8
  0
VERTEX
  5
476
330
438
100
AcDbEntity
  8
0
100
AcDbVertex
100
AcDb2dVertex
 10
7.732828175218103
 20
2.727561177451171
 30
0.0
 70
     8
  0
VERTEX
  5
477
330
438
100
AcDbEntity
  8
0
100
AcDbVertex
100
AcDb2dVertex
 10
7.735998865462228
 20
2.729544760941476
 30
0.0
 70
     8
  0
VERTEX
  5
478
330
438
100
AcDbEntity
  8
0
100
AcDbVertex
100
AcDb2dVertex
 10
7.738911401063746
 20
2.731676786301858
 30
0.0
 70
     8
  0
VERTEX
  5
479
330
438
100
AcDbEntity
  8
0
100
AcDbVertex
100
AcDb2dVertex
 10
7.741569694386533
 20
2.733953345552234
 30
0.0
 70
     8
  0
VERTEX
  5
47A
330
438
100
AcDbEntity
  8
0
100
AcDbVertex
100
AcDb2dVertex
 10
7.743977657794463
 20
2.73637053071252
 30
0.0
 70
     8
  0
VERTEX
  5
47B
330
438
100
AcDbEntity
  8
0
100
AcDbVertex
100
AcDb2dVertex
 10
7.746139203651409
 20
2.738924433802633
 30
0.0
 70
     8
  0
VERTEX
  5
47C
330
438
100
AcDbEntity
  8
0
100
AcDbVertex
100
AcDb2dVertex
 10
7.748058244321245
 20
2.741611146842491
 30
0.0
 70
     8
  0
VERTEX
  5
47D
330
438
100
AcDbEntity
  8
0
100
AcDbVertex
100
AcDb2dVertex
 10
7.749738692167846
 20
2.744426761852012
 30
0.0
 70
     8
  0
VERTEX
  5
47E
330
438
100
AcDbEntity
  8
0
100
AcDbVertex
100
AcDb2dVertex
 10
7.751184786864015
 20
2.74736476425245
 30
0.0
 70
     8
  0
VERTEX
  5
47F
330
438
100
AcDbEntity
  8
0
100
AcDbVertex
100
AcDb2dVertex
 10
7.752402077318266
 20
2.750408213070419
 30
0.0
 70
     8
  0
VERTEX
  5
480
330
438
100
AcDbEntity
  8
0
100
AcDbVertex
100
AcDb2dVertex
 10
7.753396439748045
 20
2.753537560733868
 30
0.0
 70
     8
  0
VERTEX
  5
481
330
438
100
AcDbEntity
  8
0
100
AcDbVertex
100
AcDb2dVertex
 10
7.754173750370799
 20
2.756733259670751
 30
0.0
 70
     8
  0
VERTEX
  5
482
330
438
100
AcDbEntity
  8
0
100
AcDbVertex
100
AcDb2dVertex
 10
7.754739885403971
 20
2.759975762309016
 30
0.0
 70
     8
  0
VERTEX
  5
483
330
438
100
AcDbEntity
  8
0
100
AcDbVertex
100
AcDb2dVertex
 10
7.755100721065008
 20
2.763245521076617
 30
0.0
 70
     8
  0
VERTEX
  5
484
330
438
100
AcDbEntity
  8
0
100
AcDbVertex
100
AcDb2dVertex
 10
7.755262133571354
 20
2.766522988401503
 30
0.0
 70
     8
  0
VERTEX
  5
485
330
438
100
AcDbEntity
  8
0
100
AcDbVertex
100
AcDb2dVertex
 10
7.755229999140454
 20
2.769788616711626
 30
0.0
 70
     8
  0
VERTEX
  5
486
330
438
100
AcDbEntity
  8
0
100
AcDbVertex
100
AcDb2dVertex
 10
7.754998780919217
 20
2.773037841034493
 30
0.0
 70
     8
  0
VERTEX
  5
487
330
438
100
AcDbEntity
  8
0
100
AcDbVertex
100
AcDb2dVertex
 10
7.754517289772408
 20
2.776326026795831
 30
0.0
 70
     8
  0
VERTEX
  5
488
330
438
100
AcDbEntity
  8
0
100
AcDbVertex
100
AcDb2dVertex
 10
7.753722923494249
 20
2.779723522020924
 30
0.0
 70
     8
  0
VERTEX
  5
489
330
438
100
AcDbEntity
  8
0
100
AcDbVertex
100
AcDb2dVertex
 10
7.752553079878968
 20
2.783300674735056
 30
0.0
 70
     8
  0
VERTEX
  5
48A
330
438
100
AcDbEntity
  8
0
100
AcDbVertex
100
AcDb2dVertex
 10
7.750945156720792
 20
2.78712783296351
 30
0.0
 70
     8
  0
VERTEX
  5
48B
330
438
100
AcDbEntity
  8
0
100
AcDbVertex
100
AcDb2dVertex
 10
7.748836551813945
 20
2.79127534473157
 30
0.0
 70
     8
  0
VERTEX
  5
48C
330
438
100
AcDbEntity
  8
0
100
AcDbVertex
100
AcDb2dVertex
 10
7.746164662952654
 20
2.795813558064518
 30
0.0
 70
     8
  0
VERTEX
  5
48D
330
438
100
AcDbEntity
  8
0
100
AcDbVertex
100
AcDb2dVertex
 10
7.742866887931147
 20
2.800812820987639
 30
0.0
 70
     8
  0
VERTEX
  5
48E
330
438
100
AcDbEntity
  8
0
100
AcDbVertex
100
AcDb2dVertex
 10
7.738912578437811
 20
2.8063063527929
 30
0.0
 70
     8
  0
VERTEX
  5
48F
330
438
100
AcDbEntity
  8
0
100
AcDbVertex
100
AcDb2dVertex
 10
7.734398901737696
 20
2.812178857839011
 30
0.0
 70
     8
  0
VERTEX
  5
490
330
438
100
AcDbEntity
  8
0
100
AcDbVertex
100
AcDb2dVertex
 10
7.729454978990014
 20
2.818277911751364
 30
0.0
 70
     8
  0
VERTEX
  5
491
330
438
100
AcDbEntity
  8
0
100
AcDbVertex
100
AcDb2dVertex
 10
7.72420993135398
 20
2.824451090155354
 30
0.0
 70
     8
  0
VERTEX
  5
492
330
438
100
AcDbEntity
  8
0
100
AcDbVertex
100
AcDb2dVertex
 10
7.718792879988805
 20
2.830545968676372
 30
0.0
 70
     8
  0
VERTEX
  5
493
330
438
100
AcDbEntity
  8
0
100
AcDbVertex
100
AcDb2dVertex
 10
7.713332946053703
 20
2.836410122939812
 30
0.0
 70
     8
  0
VERTEX
  5
494
330
438
100
AcDbEntity
  8
0
100
AcDbVertex
100
AcDb2dVertex
 10
7.707959250707886
 20
2.841891128571069
 30
0.0
 70
     8
  0
VERTEX
  5
495
330
438
100
AcDbEntity
  8
0
100
AcDbVertex
100
AcDb2dVertex
 10
7.702800915110566
 20
2.846836561195534
 30
0.0
 70
     8
  0
VERTEX
  5
496
330
438
100
AcDbEntity
  8
0
100
AcDbVertex
100
AcDb2dVertex
 10
7.697957390200318
 20
2.851126238735549
 30
0.0
 70
     8
  0
VERTEX
  5
497
330
438
100
AcDbEntity
  8
0
100
AcDbVertex
100
AcDb2dVertex
 10
7.693409446033146
 20
2.854768948301247
 30
0.0
 70
     8
  0
VERTEX
  5
498
330
438
100
AcDbEntity
  8
0
100
AcDbVertex
100
AcDb2dVertex
 10
7.689108182444421
 20
2.857805719299706
 30
0.0
 70
     8
  0
VERTEX
  5
499
330
438
100
AcDbEntity
  8
0
100
AcDbVertex
100
AcDb2dVertex
 10
7.685004699269505
 20
2.860277581138006
 30
0.0
 70
     8
  0
VERTEX
  5
49A
330
438
100
AcDbEntity
  8
0
100
AcDbVertex
100
AcDb2dVertex
 10
7.681050096343769
 20
2.862225563223226
 30
0.0
 70
     8
  0
VERTEX
  5
49B
330
438
100
AcDbEntity
  8
0
100
AcDbVertex
100
AcDb2dVertex
 10
7.677195473502578
 20
2.863690694962447
 30
0.0
 70
     8
  0
VERTEX
  5
49C
330
438
100
AcDbEntity
  8
0
100
AcDbVertex
100
AcDb2dVertex
 10
7.673391930581299
 20
2.864714005762747
 30
0.0
 70
     8
  0
VERTEX
  5
43A
330
438
100
AcDbEntity
  8
0
100
AcDbVertex
100
AcDb2dVertex
 10
7.67008891844841
 20
2.869173987695325
 30
0.0
 70
    16
  0
VERTEX
  5
43B
330
438
100
AcDbEntity
  8
0
100
AcDbVertex
100
AcDb2dVertex
 10
7.638061278603168
 20
2.861147999475498
 30
0.0
 70
    16
  0
VERTEX
  5
43C
330
438
100
AcDbEntity
  8
0
100
AcDbVertex
100
AcDb2dVertex
 10
7.631064911797592
 20
2.842124995095692
 30
0.0
 70
    16
  0
VERTEX
  5
43D
330
438
100
AcDbEntity
  8
0
100
AcDbVertex
100
AcDb2dVertex
 10
7.650119900316676
 20
2.77807139878096
 30
0.0
 70
    16
  0
VERTEX
  5
43E
330
438
100
AcDbEntity
  8
0
100
AcDbVertex
100
AcDb2dVertex
 10
7.675174179491612
 20
2.726033217535449
 30
0.0
 70
    16
  0
VERTEX
  5
43F
330
438
100
AcDbEntity
  8
0
100
AcDbVertex
100
AcDb2dVertex
 10
7.695200432398895
 20
2.715033395749218
 30
0.0
 70
    16
  0
VERTEX
  5
440
330
438
100
AcDbEntity
  8
0
100
AcDbVertex
100
AcDb2dVertex
 10
7.732232531251269
 20
2.724063193621774
 30
0.0
 70
    16
  0
VERTEX
  5
441
330
438
100
AcDbEntity
  8
0
100
AcDbVertex
100
AcDb2dVertex
 10
7.752241950401038
 20
2.743093492629836
 30
0.0
 70
    16
  0
VERTEX
  5
442
330
438
100
AcDbEntity
  8
0
100
AcDbVertex
100
AcDb2dVertex
 10
7.757231820151657
 20
2.770123406970952
 30
0.0
 70
    16
  0
VERTEX
  5
443
330
438
100
AcDbEntity
  8
0
100
AcDbVertex
100
AcDb2dVertex
 10
7.750210763835059
 20
2.795144579756109
 30
0.0
 70
    16
  0
SEQEND
  5
444
330
438
100
AcDbEntity
  8
0
  0
POLYLINE
  5
49D
330
19
100
AcDbEntity
  8
0
100
AcDb2dPolyline
 66
     1
 10
0.0
 20
0.0
 30
0.0
 70
     5
 75
     6
  0
VERTEX
  5
49E
330
49D
100
AcDbEntity
  8
0
100
AcDbVertex
100
AcDb2dVertex
 10
7.858209779270666
 20
2.990400966446065
 30
0.0
 70
    16
  0
VERTEX
  5
4A7
330
49D
100
AcDbEntity
  8
0
100
AcDbVertex
100
AcDb2dVertex
 10
7.855060414258468
 20
2.953862542583049
 30
0.0
 70
     8
  0
VERTEX
  5
4A8
330
49D
100
AcDbEntity
  8
0
100
AcDbVertex
100
AcDb2dVertex
 10
7.855508315711237
 20
2.950041902740888
 30
0.0
 70
     8
  0
VERTEX
  5
4A9
330
49D
100
AcDbEntity
  8
0
100
AcDbVertex
100
AcDb2dVertex
 10
7.856221966385331
 20
2.946475573126218
 30
0.0
 70
     8
  0
VERTEX
  5
4AA
330
49D
100
AcDbEntity
  8
0
100
AcDbVertex
100
AcDb2dVertex
 10
7.857201355321272
 20
2.943183104598933
 30
0.0
 70
     8
  0
VERTEX
  5
4AB
330
49D
100
AcDbEntity
  8
0
100
AcDbVertex
100
AcDb2dVertex
 10
7.858446471559582
 20
2.940184048018925
 30
0.0
 70
     8
  0
VERTEX
  5
4AC
330
49D
100
AcDbEntity
  8
0
100
AcDbVertex
100
AcDb2dVertex
 10
7.859957304140785
 20
2.937497954246085
 30
0.0
 70
     8
  0
VERTEX
  5
4AD
330
49D
100
AcDbEntity
  8
0
100
AcDbVertex
100
AcDb2dVertex
 10
7.861733842105402
 20
2.935144374140306
 30
0.0
 70
     8
  0
VERTEX
  5
4AE
330
49D
100
AcDbEntity
  8
0
100
AcDbVertex
100
AcDb2dVertex
 10
7.863776074493956
 20
2.933142858561479
 30
0.0
 70
     8
  0
VERTEX
  5
4AF
330
49D
100
AcDbEntity
  8
0
100
AcDbVertex
100
AcDb2dVertex
 10
7.86608399034697
 20
2.931512958369498
 30
0.0
 70
     8
  0
VERTEX
  5
4B0
330
49D
100
AcDbEntity
  8
0
100
AcDbVertex
100
AcDb2dVertex
 10
7.868648132775843
 20
2.930267702173875
 30
0.0
 70
     8
  0
VERTEX
  5
4B1
330
49D
100
AcDbEntity
  8
0
100
AcDbVertex
100
AcDb2dVertex
 10
7.871421261175488
 20
2.929394029582612
 30
0.0
 70
     8
  0
VERTEX
  5
4B2
330
49D
100
AcDbEntity
  8
0
100
AcDbVertex
100
AcDb2dVertex
 10
7.874346689011696
 20
2.928872357953333
 30
0.0
 70
     8
  0
VERTEX
  5
4B3
330
49D
100
AcDbEntity
  8
0
100
AcDbVertex
100
AcDb2dVertex
 10
7.877367729750258
 20
2.928683104643659
 30
0.0
 70
     8
  0
VERTEX
  5
4B4
330
49D
100
AcDbEntity
  8
0
100
AcDbVertex
100
AcDb2dVertex
 10
7.880427696856962
 20
2.928806687011214
 30
0.0
 70
     8
  0
VERTEX
  5
4B5
330
49D
100
AcDbEntity
  8
0
100
AcDbVertex
100
AcDb2dVertex
 10
7.8834699037976
 20
2.929223522413621
 30
0.0
 70
     8
  0
VERTEX
  5
4B6
330
49D
100
AcDbEntity
  8
0
100
AcDbVertex
100
AcDb2dVertex
 10
7.886437664037963
 20
2.929914028208503
 30
0.0
 70
     8
  0
VERTEX
  5
4B7
330
49D
100
AcDbEntity
  8
0
100
AcDbVertex
100
AcDb2dVertex
 10
7.88927429104384
 20
2.930858621753483
 30
0.0
 70
     8
  0
VERTEX
  5
4B8
330
49D
100
AcDbEntity
  8
0
100
AcDbVertex
100
AcDb2dVertex
 10
7.891929288473365
 20
2.932039353115009
 30
0.0
 70
     8
  0
VERTEX
  5
4B9
330
49D
100
AcDbEntity
  8
0
100
AcDbVertex
100
AcDb2dVertex
 10
7.894376920754042
 20
2.933444803194834
 30
0.0
 70
     8
  0
VERTEX
  5
4BA
330
49D
100
AcDbEntity
  8
0
100
AcDbVertex
100
AcDb2dVertex
 10
7.896597642505718
 20
2.935065185603531
 30
0.0
 70
     8
  0
VERTEX
  5
4BB
330
49D
100
AcDbEntity
  8
0
100
AcDbVertex
100
AcDb2dVertex
 10
7.898571908348238
 20
2.93689071395168
 30
0.0
 70
     8
  0
VERTEX
  5
4BC
330
49D
100
AcDbEntity
  8
0
100
AcDbVertex
100
AcDb2dVertex
 10
7.90028017290145
 20
2.938911601849853
 30
0.0
 70
     8
  0
VERTEX
  5
4BD
330
49D
100
AcDbEntity
  8
0
100
AcDbVertex
100
AcDb2dVertex
 10
7.9017028907852
 20
2.941118062908631
 30
0.0
 70
     8
  0
VERTEX
  5
4BE
330
49D
100
AcDbEntity
  8
0
100
AcDbVertex
100
AcDb2dVertex
 10
7.902820516619336
 20
2.943500310738587
 30
0.0
 70
     8
  0
VERTEX
  5
4BF
330
49D
100
AcDbEntity
  8
0
100
AcDbVertex
100
AcDb2dVertex
 10
7.903613505023703
 20
2.946048558950299
 30
0.0
 70
     8
  0
VERTEX
  5
4C0
330
49D
100
AcDbEntity
  8
0
100
AcDbVertex
100
AcDb2dVertex
 10
7.904067852585663
 20
2.948748462392221
 30
0.0
 70
     8
  0
VERTEX
  5
4C1
330
49D
100
AcDbEntity
  8
0
100
AcDbVertex
100
AcDb2dVertex
 10
7.904191723762633
 20
2.951567440864313
 30
0.0
 70
     8
  0
VERTEX
  5
4C2
330
49D
100
AcDbEntity
  8
0
100
AcDbVertex
100
AcDb2dVertex
 10
7.903998824979545
 20
2.954468355404417
 30
0.0
 70
     8
  0
VERTEX
  5
4C3
330
49D
100
AcDbEntity
  8
0
100
AcDbVertex
100
AcDb2dVertex
 10
7.90350286266133
 20
2.95741406705037
 30
0.0
 70
     8
  0
VERTEX
  5
4C4
330
49D
100
AcDbEntity
  8
0
100
AcDbVertex
100
AcDb2dVertex
 10
7.902717543232922
 20
2.960367436840013
 30
0.0
 70
     8
  0
VERTEX
  5
4C5
330
49D
100
AcDbEntity
  8
0
100
AcDbVertex
100
AcDb2dVertex
 10
7.901656573119251
 20
2.963291325811184
 30
0.0
 70
     8
  0
VERTEX
  5
4C6
330
49D
100
AcDbEntity
  8
0
100
AcDbVertex
100
AcDb2dVertex
 10
7.900333658745248
 20
2.966148595001722
 30
0.0
 70
     8
  0
VERTEX
  5
4C7
330
49D
100
AcDbEntity
  8
0
100
AcDbVertex
100
AcDb2dVertex
 10
7.898762506535847
 20
2.968902105449467
 30
0.0
 70
     8
  0
VERTEX
  5
4C8
330
49D
100
AcDbEntity
  8
0
100
AcDbVertex
100
AcDb2dVertex
 10
7.896961382043418
 20
2.971519608464444
 30
0.0
 70
     8
  0
VERTEX
  5
4C9
330
49D
100
AcDbEntity
  8
0
100
AcDbVertex
100
AcDb2dVertex
 10
7.894966787330087
 20
2.973988416445411
 30
0.0
 70
     8
  0
VERTEX
  5
4CA
330
49D
100
AcDbEntity
  8
0
100
AcDbVertex
100
AcDb2dVertex
 10
7.892819783585416
 20
2.976300732063317
 30
0.0
 70
     8
  0
VERTEX
  5
4CB
330
49D
100
AcDbEntity
  8
0
100
AcDbVertex
100
AcDb2dVertex
 10
7.890561431998973
 20
2.978448757989108
 30
0.0
 70
     8
  0
VERTEX
  5
4CC
330
49D
100
AcDbEntity
  8
0
100
AcDbVertex
100
AcDb2dVertex
 10
7.88823279376032
 20
2.980424696893728
 30
0.0
 70
     8
  0
VERTEX
  5
4CD
330
49D
100
AcDbEntity
  8
0
100
AcDbVertex
100
AcDb2dVertex
 10
7.885874930059022
 20
2.982220751448125
 30
0.0
 70
     8
  0
VERTEX
  5
4CE
330
49D
100
AcDbEntity
  8
0
100
AcDbVertex
100
AcDb2dVertex
 10
7.883528902084645
 20
2.983829124323245
 30
0.0
 70
     8
  0
VERTEX
  5
4CF
330
49D
100
AcDbEntity
  8
0
100
AcDbVertex
100
AcDb2dVertex
 10
7.881235771026752
 20
2.985242018190032
 30
0.0
 70
     8
  0
VERTEX
  5
4D0
330
49D
100
AcDbEntity
  8
0
100
AcDbVertex
100
AcDb2dVertex
 10
7.879030404777379
 20
2.986455542420911
 30
0.0
 70
     8
  0
VERTEX
  5
4D1
330
49D
100
AcDbEntity
  8
0
100
AcDbVertex
100
AcDb2dVertex
 10
7.876922898038451
 20
2.987481433194213
 30
0.0
 70
     8
  0
VERTEX
  5
4D2
330
49D
100
AcDbEntity
  8
0
100
AcDbVertex
100
AcDb2dVertex
 10
7.874917152214366
 20
2.988335333389748
 30
0.0
 70
     8
  0
VERTEX
  5
4D3
330
49D
100
AcDbEntity
  8
0
100
AcDbVertex
100
AcDb2dVertex
 10
7.873017068709516
 20
2.989032885887324
 30
0.0
 70
     8
  0
VERTEX
  5
4D4
330
49D
100
AcDbEntity
  8
0
100
AcDbVertex
100
AcDb2dVertex
 10
7.871226548928302
 20
2.989589733566751
 30
0.0
 70
     8
  0
VERTEX
  5
4D5
330
49D
100
AcDbEntity
  8
0
100
AcDbVertex
100
AcDb2dVertex
 10
7.869549494275119
 20
2.990021519307839
 30
0.0
 70
     8
  0
VERTEX
  5
4D6
330
49D
100
AcDbEntity
  8
0
100
AcDbVertex
100
AcDb2dVertex
 10
7.867989806154362
 20
2.990343885990397
 30
0.0
 70
     8
  0
VERTEX
  5
4D7
330
49D
100
AcDbEntity
  8
0
100
AcDbVertex
100
AcDb2dVertex
 10
7.866551385970428
 20
2.990572476494232
 30
0.0
 70
     8
  0
VERTEX
  5
4D8
330
49D
100
AcDbEntity
  8
0
100
AcDbVertex
100
AcDb2dVertex
 10
7.865235209987707
 20
2.990709572300975
 30
0.0
 70
     8
  0
VERTEX
  5
4D9
330
49D
100
AcDbEntity
  8
0
100
AcDbVertex
100
AcDb2dVertex
 10
7.864030553910557
 20
2.990704009299527
 30
0.0
 70
     8
  0
VERTEX
  5
4DA
330
49D
100
AcDbEntity
  8
0
100
AcDbVertex
100
AcDb2dVertex
 10
7.86292376830333
 20
2.99049126198061
 30
0.0
 70
     8
  0
VERTEX
  5
4DB
330
49D
100
AcDbEntity
  8
0
100
AcDbVertex
100
AcDb2dVertex
 10
7.861901203730376
 20
2.990006804834946
 30
0.0
 70
     8
  0
VERTEX
  5
4DC
330
49D
100
AcDbEntity
  8
0
100
AcDbVertex
100
AcDb2dVertex
 10
7.860949210756048
 20
2.989186112353258
 30
0.0
 70
     8
  0
VERTEX
  5
4DD
330
49D
100
AcDbEntity
  8
0
100
AcDbVertex
100
AcDb2dVertex
 10
7.860054139944698
 20
2.987964659026265
 30
0.0
 70
     8
  0
VERTEX
  5
4DE
330
49D
100
AcDbEntity
  8
0
100
AcDbVertex
100
AcDb2dVertex
 10
7.859202341860676
 20
2.98627791934469
 30
0.0
 70
     8
  0
VERTEX
  5
4DF
330
49D
100
AcDbEntity
  8
0
100
AcDbVertex
100
AcDb2dVertex
 10
7.858380167068333
 20
2.984061367799257
 30
0.0
 70
     8
  0
VERTEX
  5
4E0
330
49D
100
AcDbEntity
  8
0
100
AcDbVertex
100
AcDb2dVertex
 10
7.857581444919728
 20
2.981278505980995
 30
0.0
 70
     8
  0
VERTEX
  5
4E1
330
49D
100
AcDbEntity
  8
0
100
AcDbVertex
100
AcDb2dVertex
 10
7.856829919917751
 20
2.978004943882189
 30
0.0
 70
     8
  0
VERTEX
  5
4E2
330
49D
100
AcDbEntity
  8
0
100
AcDbVertex
100
AcDb2dVertex
 10
7.856156815353
 20
2.974344318595428
 30
0.0
 70
     8
  0
VERTEX
  5
4E3
330
49D
100
AcDbEntity
  8
0
100
AcDbVertex
100
AcDb2dVertex
 10
7.855593354516067
 20
2.970400267213306
 30
0.0
 70
     8
  0
VERTEX
  5
4E4
330
49D
100
AcDbEntity
  8
0
100
AcDbVertex
100
AcDb2dVertex
 10
7.855170760697551
 20
2.966276426828415
 30
0.0
 70
     8
  0
VERTEX
  5
4E5
330
49D
100
AcDbEntity
  8
0
100
AcDbVertex
100
AcDb2dVertex
 10
7.854920257188049
 20
2.962076434533347
 30
0.0
 70
     8
  0
VERTEX
  5
4E6
330
49D
100
AcDbEntity
  8
0
100
AcDbVertex
100
AcDb2dVertex
 10
7.854873067278155
 20
2.957903927420694
 30
0.0
 70
     8
  0
VERTEX
  5
49F
330
49D
100
AcDbEntity
  8
0
100
AcDbVertex
100
AcDb2dVertex
 10
7.852225638996577
 20
2.951358442661982
 30
0.0
 70
    16
  0
VERTEX
  5
4A0
330
49D
100
AcDbEntity
  8
0
100
AcDbVertex
100
AcDb2dVertex
 10
7.86325015029383
 20
2.927340518404303
 30
0.0
 70
    16
  0
VERTEX
  5
4A1
330
49D
100
AcDbEntity
  8
0
100
AcDbVertex
100
AcDb2dVertex
 10
7.891277701909919
 20
2.928357233937793
 30
0.0
 70
    16
  0
VERTEX
  5
4A2
330
49D
100
AcDbEntity
  8
0
100
AcDbVertex
100
AcDb2dVertex
 10
7.907284788329534
 20
2.944382276365424
 30
0.0
 70
    16
  0
VERTEX
  5
4A3
330
49D
100
AcDbEntity
  8
0
100
AcDbVertex
100
AcDb2dVertex
 10
7.901264174914163
 20
2.970405014302308
 30
0.0
 70
    16
  0
VERTEX
  5
4A4
330
49D
100
AcDbEntity
  8
0
100
AcDbVertex
100
AcDb2dVertex
 10
7.8802335512289
 20
2.987410299122147
 30
0.0
 70
    16
  0
VERTEX
  5
4A5
330
49D
100
AcDbEntity
  8
0
100
AcDbVertex
100
AcDb2dVertex
 10
7.865216246330752
 20
2.991405898349295
 30
0.0
 70
    16
  0
SEQEND
  5
4A6
330
49D
100
AcDbEntity
  8
0
  0
POLYLINE
  5
4E7
330
19
100
AcDbEntity
  8
0
100
AcDb2dPolyline
 66
     1
 10
0.0
 20
0.0
 30
0.0
 70
     5
 75
     6
  0
VERTEX
  5
4E8
330
4E7
100
AcDbEntity
  8
0
100
AcDbVertex
100
AcDb2dVertex
 10
8.352706890600519
 20
2.988676154266857
 30
0.0
 70
    16
  0
VERTEX
  5
4F1
330
4E7
100
AcDbEntity
  8
0
100
AcDbVertex
100
AcDb2dVertex
 10
8.325016186703008
 20
2.981987269625083
 30
0.0
 70
     8
  0
VERTEX
  5
4F2
330
4E7
100
AcDbEntity
  8
0
100
AcDbVertex
100
AcDb2dVertex
 10
8.322249831750836
 20
2.980659518497679
 30
0.0
 70
     8
  0
VERTEX
  5
4F3
330
4E7
100
AcDbEntity
  8
0
100
AcDbVertex
100
AcDb2dVertex
 10
8.319710343489758
 20
2.979195038480969
 30
0.0
 70
     8
  0
VERTEX
  5
4F4
330
4E7
100
AcDbEntity
  8
0
100
AcDbVertex
100
AcDb2dVertex
 10
8.317405531304249
 20
2.977613384818638
 30
0.0
 70
     8
  0
VERTEX
  5
4F5
330
4E7
100
AcDbEntity
  8
0
100
AcDbVertex
100
AcDb2dVertex
 10
8.315343204578792
 20
2.975934112754367
 30
0.0
 70
     8
  0
VERTEX
  5
4F6
330
4E7
100
AcDbEntity
  8
0
100
AcDbVertex
100
AcDb2dVertex
 10
8.313531172697863
 20
2.97417677753184
 30
0.0
 70
     8
  0
VERTEX
  5
4F7
330
4E7
100
AcDbEntity
  8
0
100
AcDbVertex
100
AcDb2dVertex
 10
8.311977245045942
 20
2.972360934394741
 30
0.0
 70
     8
  0
VERTEX
  5
4F8
330
4E7
100
AcDbEntity
  8
0
100
AcDbVertex
100
AcDb2dVertex
 10
8.31068923100751
 20
2.970506138586752
 30
0.0
 70
     8
  0
VERTEX
  5
4F9
330
4E7
100
AcDbEntity
  8
0
100
AcDbVertex
100
AcDb2dVertex
 10
8.309674939967044
 20
2.968631945351557
 30
0.0
 70
     8
  0
VERTEX
  5
4FA
330
4E7
100
AcDbEntity
  8
0
100
AcDbVertex
100
AcDb2dVertex
 10
8.308940879196973
 20
2.966755628268552
 30
0.0
 70
     8
  0
VERTEX
  5
4FB
330
4E7
100
AcDbEntity
  8
0
100
AcDbVertex
100
AcDb2dVertex
 10
8.308488347521502
 20
2.964885334259992
 30
0.0
 70
     8
  0
VERTEX
  5
4FC
330
4E7
100
AcDbEntity
  8
0
100
AcDbVertex
100
AcDb2dVertex
 10
8.308317341652792
 20
2.963026928583844
 30
0.0
 70
     8
  0
VERTEX
  5
4FD
330
4E7
100
AcDbEntity
  8
0
100
AcDbVertex
100
AcDb2dVertex
 10
8.308427858303
 20
2.961186276498075
 30
0.0
 70
     8
  0
VERTEX
  5
4FE
330
4E7
100
AcDbEntity
  8
0
100
AcDbVertex
100
AcDb2dVertex
 10
8.30881989418428
 20
2.959369243260654
 30
0.0
 70
     8
  0
VERTEX
  5
4FF
330
4E7
100
AcDbEntity
  8
0
100
AcDbVertex
100
AcDb2dVertex
 10
8.309493446008791
 20
2.957581694129547
 30
0.0
 70
     8
  0
VERTEX
  5
500
330
4E7
100
AcDbEntity
  8
0
100
AcDbVertex
100
AcDb2dVertex
 10
8.310448510488689
 20
2.955829494362723
 30
0.0
 70
     8
  0
VERTEX
  5
501
330
4E7
100
AcDbEntity
  8
0
100
AcDbVertex
100
AcDb2dVertex
 10
8.311685084336128
 20
2.95411850921815
 30
0.0
 70
     8
  0
VERTEX
  5
502
330
4E7
100
AcDbEntity
  8
0
100
AcDbVertex
100
AcDb2dVertex
 10
8.313197950335317
 20
2.952455252726597
 30
0.0
 70
     8
  0
VERTEX
  5
503
330
4E7
100
AcDbEntity
  8
0
100
AcDbVertex
100
AcDb2dVertex
 10
8.314961035558639
 20
2.950848834010043
 30
0.0
 70
     8
  0
VERTEX
  5
504
330
4E7
100
AcDbEntity
  8
0
100
AcDbVertex
100
AcDb2dVertex
 10
8.31694305315053
 20
2.949309010963271
 30
0.0
 70
     8
  0
VERTEX
  5
505
330
4E7
100
AcDbEntity
  8
0
100
AcDbVertex
100
AcDb2dVertex
 10
8.31911271625542
 20
2.947845541481062
 30
0.0
 70
     8
  0
VERTEX
  5
506
330
4E7
100
AcDbEntity
  8
0
100
AcDbVertex
100
AcDb2dVertex
 10
8.321438738017749
 20
2.9464681834582
 30
0.0
 70
     8
  0
VERTEX
  5
507
330
4E7
100
AcDbEntity
  8
0
100
AcDbVertex
100
AcDb2dVertex
 10
8.323889831581946
 20
2.945186694789465
 30
0.0
 70
     8
  0
VERTEX
  5
508
330
4E7
100
AcDbEntity
  8
0
100
AcDbVertex
100
AcDb2dVertex
 10
8.326434710092446
 20
2.944010833369639
 30
0.0
 70
     8
  0
VERTEX
  5
509
330
4E7
100
AcDbEntity
  8
0
100
AcDbVertex
100
AcDb2dVertex
 10
8.329042086693685
 20
2.942950357093505
 30
0.0
 70
     8
  0
VERTEX
  5
50A
330
4E7
100
AcDbEntity
  8
0
100
AcDbVertex
100
AcDb2dVertex
 10
8.331683932276109
 20
2.942016329073084
 30
0.0
 70
     8
  0
VERTEX
  5
50B
330
4E7
100
AcDbEntity
  8
0
100
AcDbVertex
100
AcDb2dVertex
 10
8.334345248714241
 20
2.941225033289353
 30
0.0
 70
     8
  0
VERTEX
  5
50C
330
4E7
100
AcDbEntity
  8
0
100
AcDbVertex
100
AcDb2dVertex
 10
8.337014295628615
 20
2.940594058940528
 30
0.0
 70
     8
  0
VERTEX
  5
50D
330
4E7
100
AcDbEntity
  8
0
100
AcDbVertex
100
AcDb2dVertex
 10
8.339679332639763
 20
2.940140995224827
 30
0.0
 70
     8
  0
VERTEX
  5
50E
330
4E7
100
AcDbEntity
  8
0
100
AcDbVertex
100
AcDb2dVertex
 10
8.342328619368221
 20
2.939883431340464
 30
0.0
 70
     8
  0
VERTEX
  5
50F
330
4E7
100
AcDbEntity
  8
0
100
AcDbVertex
100
AcDb2dVertex
 10
8.344950415434527
 20
2.939838956485657
 30
0.0
 70
     8
  0
VERTEX
  5
510
330
4E7
100
AcDbEntity
  8
0
100
AcDbVertex
100
AcDb2dVertex
 10
8.347532980459212
 20
2.940025159858621
 30
0.0
 70
     8
  0
VERTEX
  5
511
330
4E7
100
AcDbEntity
  8
0
100
AcDbVertex
100
AcDb2dVertex
 10
8.350064574062815
 20
2.940459630657575
 30
0.0
 70
     8
  0
VERTEX
  5
512
330
4E7
100
AcDbEntity
  8
0
100
AcDbVertex
100
AcDb2dVertex
 10
8.352530201955666
 20
2.941151810062531
 30
0.0
 70
     8
  0
VERTEX
  5
513
330
4E7
100
AcDbEntity
  8
0
100
AcDbVertex
100
AcDb2dVertex
 10
8.354901854207306
 20
2.942078547180701
 30
0.0
 70
     8
  0
VERTEX
  5
514
330
4E7
100
AcDbEntity
  8
0
100
AcDbVertex
100
AcDb2dVertex
 10
8.35714826697707
 20
2.943208543101092
 30
0.0
 70
     8
  0
VERTEX
  5
515
330
4E7
100
AcDbEntity
  8
0
100
AcDbVertex
100
AcDb2dVertex
 10
8.359238176424293
 20
2.944510498912713
 30
0.0
 70
     8
  0
VERTEX
  5
516
330
4E7
100
AcDbEntity
  8
0
100
AcDbVertex
100
AcDb2dVertex
 10
8.361140318708316
 20
2.945953115704574
 30
0.0
 70
     8
  0
VERTEX
  5
517
330
4E7
100
AcDbEntity
  8
0
100
AcDbVertex
100
AcDb2dVertex
 10
8.362823429988472
 20
2.947505094565681
 30
0.0
 70
     8
  0
VERTEX
  5
518
330
4E7
100
AcDbEntity
  8
0
100
AcDbVertex
100
AcDb2dVertex
 10
8.364256246424098
 20
2.949135136585044
 30
0.0
 70
     8
  0
VERTEX
  5
519
330
4E7
100
AcDbEntity
  8
0
100
AcDbVertex
100
AcDb2dVertex
 10
8.365407504174533
 20
2.950811942851672
 30
0.0
 70
     8
  0
VERTEX
  5
51A
330
4E7
100
AcDbEntity
  8
0
100
AcDbVertex
100
AcDb2dVertex
 10
8.366253755176617
 20
2.952512365029985
 30
0.0
 70
     8
  0
VERTEX
  5
51B
330
4E7
100
AcDbEntity
  8
0
100
AcDbVertex
100
AcDb2dVertex
 10
8.36680281447723
 20
2.954245857086056
 30
0.0
 70
     8
  0
VERTEX
  5
51C
330
4E7
100
AcDbEntity
  8
0
100
AcDbVertex
100
AcDb2dVertex
 10
8.367070312900756
 20
2.95603002356137
 30
0.0
 70
     8
  0
VERTEX
  5
51D
330
4E7
100
AcDbEntity
  8
0
100
AcDbVertex
100
AcDb2dVertex
 10
8.367071881271578
 20
2.957882468997413
 30
0.0
 70
     8
  0
VERTEX
  5
51E
330
4E7
100
AcDbEntity
  8
0
100
AcDbVertex
100
AcDb2dVertex
 10
8.36682315041408
 20
2.959820797935667
 30
0.0
 70
     8
  0
VERTEX
  5
51F
330
4E7
100
AcDbEntity
  8
0
100
AcDbVertex
100
AcDb2dVertex
 10
8.366339751152642
 20
2.961862614917619
 30
0.0
 70
     8
  0
VERTEX
  5
520
330
4E7
100
AcDbEntity
  8
0
100
AcDbVertex
100
AcDb2dVertex
 10
8.365637314311655
 20
2.964025524484754
 30
0.0
 70
     8
  0
VERTEX
  5
521
330
4E7
100
AcDbEntity
  8
0
100
AcDbVertex
100
AcDb2dVertex
 10
8.364731470715498
 20
2.966327131178556
 30
0.0
 70
     8
  0
VERTEX
  5
522
330
4E7
100
AcDbEntity
  8
0
100
AcDbVertex
100
AcDb2dVertex
 10
8.363633949784161
 20
2.968769396660701
 30
0.0
 70
     8
  0
VERTEX
  5
523
330
4E7
100
AcDbEntity
  8
0
100
AcDbVertex
100
AcDb2dVertex
 10
8.362340875320042
 20
2.971291711073629
 30
0.0
 70
     8
  0
VERTEX
  5
524
330
4E7
100
AcDbEntity
  8
0
100
AcDbVertex
100
AcDb2dVertex
 10
8.360844469721153
 20
2.973817821679969
 30
0.0
 70
     8
  0
VERTEX
  5
525
330
4E7
100
AcDbEntity
  8
0
100
AcDbVertex
100
AcDb2dVertex
 10
8.359136955385493
 20
2.97627147574235
 30
0.0
 70
     8
  0
VERTEX
  5
526
330
4E7
100
AcDbEntity
  8
0
100
AcDbVertex
100
AcDb2dVertex
 10
8.357210554711072
 20
2.978576420523403
 30
0.0
 70
     8
  0
VERTEX
  5
527
330
4E7
100
AcDbEntity
  8
0
100
AcDbVertex
100
AcDb2dVertex
 10
8.355057490095895
 20
2.980656403285757
 30
0.0
 70
     8
  0
VERTEX
  5
528
330
4E7
100
AcDbEntity
  8
0
100
AcDbVertex
100
AcDb2dVertex
 10
8.352669983937966
 20
2.982435171292041
 30
0.0
 70
     8
  0
VERTEX
  5
529
330
4E7
100
AcDbEntity
  8
0
100
AcDbVertex
100
AcDb2dVertex
 10
8.350040258635294
 20
2.983836471804886
 30
0.0
 70
     8
  0
VERTEX
  5
52A
330
4E7
100
AcDbEntity
  8
0
100
AcDbVertex
100
AcDb2dVertex
 10
8.347171604812322
 20
2.984802957461854
 30
0.0
 70
     8
  0
VERTEX
  5
52B
330
4E7
100
AcDbEntity
  8
0
100
AcDbVertex
100
AcDb2dVertex
 10
8.344111585999283
 20
2.985352902400241
 30
0.0
 70
     8
  0
VERTEX
  5
52C
330
4E7
100
AcDbEntity
  8
0
100
AcDbVertex
100
AcDb2dVertex
 10
8.34091883395284
 20
2.985523486132272
 30
0.0
 70
     8
  0
VERTEX
  5
52D
330
4E7
100
AcDbEntity
  8
0
100
AcDbVertex
100
AcDb2dVertex
 10
8.337651980429664
 20
2.985351888170178
 30
0.0
 70
     8
  0
VERTEX
  5
52E
330
4E7
100
AcDbEntity
  8
0
100
AcDbVertex
100
AcDb2dVertex
 10
8.334369657186423
 20
2.984875288026184
 30
0.0
 70
     8
  0
VERTEX
  5
52F
330
4E7
100
AcDbEntity
  8
0
100
AcDbVertex
100
AcDb2dVertex
 10
8.331130495979787
 20
2.984130865212519
 30
0.0
 70
     8
  0
VERTEX
  5
530
330
4E7
100
AcDbEntity
  8
0
100
AcDbVertex
100
AcDb2dVertex
 10
8.327993128566428
 20
2.983155799241409
 30
0.0
 70
     8
  0
VERTEX
  5
4E9
330
4E7
100
AcDbEntity
  8
0
100
AcDbVertex
100
AcDb2dVertex
 10
8.322679575432479
 20
2.98365430037696
 30
0.0
 70
    16
  0
VERTEX
  5
4EA
330
4E7
100
AcDbEntity
  8
0
100
AcDbVertex
100
AcDb2dVertex
 10
8.306671927887615
 20
2.968630261975806
 30
0.0
 70
    16
  0
VERTEX
  5
4EB
330
4E7
100
AcDbEntity
  8
0
100
AcDbVertex
100
AcDb2dVertex
 10
8.308682352819325
 20
2.95361632382916
 30
0.0
 70
    16
  0
VERTEX
  5
4EC
330
4E7
100
AcDbEntity
  8
0
100
AcDbVertex
100
AcDb2dVertex
 10
8.32870916685186
 20
2.941615498016454
 30
0.0
 70
    16
  0
VERTEX
  5
4ED
330
4E7
100
AcDbEntity
  8
0
100
AcDbVertex
100
AcDb2dVertex
 10
8.350733499935341
 20
2.937623826666058
 30
0.0
 70
    16
  0
VERTEX
  5
4EE
330
4E7
100
AcDbEntity
  8
0
100
AcDbVertex
100
AcDb2dVertex
 10
8.368744277783662
 20
2.950646979264761
 30
0.0
 70
    16
  0
VERTEX
  5
4EF
330
4E7
100
AcDbEntity
  8
0
100
AcDbVertex
100
AcDb2dVertex
 10
8.366734413977202
 20
2.96465991338493
 30
0.0
 70
    16
  0
SEQEND
  5
4F0
330
4E7
100
AcDbEntity
  8
0
  0
POLYLINE
  5
531
330
19
100
AcDbEntity
  8
0
100
AcDb2dPolyline
 66
     1
 10
0.0
 20
0.0
 30
0.0
 70
     5
 75
     6
  0
VERTEX
  5
532
330
531
100
AcDbEntity
  8
0
100
AcDbVertex
100
AcDb2dVertex
 10
8.57210969923052
 20
2.662471728065401
 30
0.0
 70
    16
  0
VERTEX
  5
53E
330
531
100
AcDbEntity
  8
0
100
AcDbVertex
100
AcDb2dVertex
 10
8.549908244846364
 20
2.684815046380322
 30
0.0
 70
     8
  0
VERTEX
  5
53F
330
531
100
AcDbEntity
  8
0
100
AcDbVertex
100
AcDb2dVertex
 10
8.546790717720954
 20
2.686811397320575
 30
0.0
 70
     8
  0
VERTEX
  5
540
330
531
100
AcDbEntity
  8
0
100
AcDbVertex
100
AcDb2dVertex
 10
8.543587320244706
 20
2.688533988000637
 30
0.0
 70
     8
  0
VERTEX
  5
541
330
531
100
AcDbEntity
  8
0
100
AcDbVertex
100
AcDb2dVertex
 10
8.540321526600861
 20
2.689959370540012
 30
0.0
 70
     8
  0
VERTEX
  5
542
330
531
100
AcDbEntity
  8
0
100
AcDbVertex
100
AcDb2dVertex
 10
8.537016810972665
 20
2.6910640970582
 30
0.0
 70
     8
  0
VERTEX
  5
543
330
531
100
AcDbEntity
  8
0
100
AcDbVertex
100
AcDb2dVertex
 10
8.533696647543358
 20
2.691824719674704
 30
0.0
 70
     8
  0
VERTEX
  5
544
330
531
100
AcDbEntity
  8
0
100
AcDbVertex
100
AcDb2dVertex
 10
8.530384510496187
 20
2.692217790509028
 30
0.0
 70
     8
  0
VERTEX
  5
545
330
531
100
AcDbEntity
  8
0
100
AcDbVertex
100
AcDb2dVertex
 10
8.527103874014395
 20
2.692219861680675
 30
0.0
 70
     8
  0
VERTEX
  5
546
330
531
100
AcDbEntity
  8
0
100
AcDbVertex
100
AcDb2dVertex
 10
8.523878212281224
 20
2.691807485309144
 30
0.0
 70
     8
  0
VERTEX
  5
547
330
531
100
AcDbEntity
  8
0
100
AcDbVertex
100
AcDb2dVertex
 10
8.520727737898083
 20
2.690962751097664
 30
0.0
 70
     8
  0
VERTEX
  5
548
330
531
100
AcDbEntity
  8
0
100
AcDbVertex
100
AcDb2dVertex
 10
8.517659617139049
 20
2.689689899084352
 30
0.0
 70
     8
  0
VERTEX
  5
549
330
531
100
AcDbEntity
  8
0
100
AcDbVertex
100
AcDb2dVertex
 10
8.51467775469636
 20
2.687998706891051
 30
0.0
 70
     8
  0
VERTEX
  5
54A
330
531
100
AcDbEntity
  8
0
100
AcDbVertex
100
AcDb2dVertex
 10
8.511786055262254
 20
2.6858989521396
 30
0.0
 70
     8
  0
VERTEX
  5
54B
330
531
100
AcDbEntity
  8
0
100
AcDbVertex
100
AcDb2dVertex
 10
8.508988423528974
 20
2.683400412451843
 30
0.0
 70
     8
  0
VERTEX
  5
54C
330
531
100
AcDbEntity
  8
0
100
AcDbVertex
100
AcDb2dVertex
 10
8.506288764188758
 20
2.68051286544962
 30
0.0
 70
     8
  0
VERTEX
  5
54D
330
531
100
AcDbEntity
  8
0
100
AcDbVertex
100
AcDb2dVertex
 10
8.503690981933845
 20
2.677246088754773
 30
0.0
 70
     8
  0
VERTEX
  5
54E
330
531
100
AcDbEntity
  8
0
100
AcDbVertex
100
AcDb2dVertex
 10
8.501198981456474
 20
2.673609859989144
 30
0.0
 70
     8
  0
VERTEX
  5
54F
330
531
100
AcDbEntity
  8
0
100
AcDbVertex
100
AcDb2dVertex
 10
8.498821555163859
 20
2.669613959514444
 30
0.0
 70
     8
  0
VERTEX
  5
550
330
531
100
AcDbEntity
  8
0
100
AcDbVertex
100
AcDb2dVertex
 10
8.496587046323105
 20
2.665268178651861
 30
0.0
 70
     8
  0
VERTEX
  5
551
330
531
100
AcDbEntity
  8
0
100
AcDbVertex
100
AcDb2dVertex
 10
8.49452868591629
 20
2.660582311462453
 30
0.0
 70
     8
  0
VERTEX
  5
552
330
531
100
AcDbEntity
  8
0
100
AcDbVertex
100
AcDb2dVertex
 10
8.492679704925491
 20
2.655566152007279
 30
0.0
 70
     8
  0
VERTEX
  5
553
330
531
100
AcDbEntity
  8
0
100
AcDbVertex
100
AcDb2dVertex
 10
8.491073334332786
 20
2.650229494347395
 30
0.0
 70
     8
  0
VERTEX
  5
554
330
531
100
AcDbEntity
  8
0
100
AcDbVertex
100
AcDb2dVertex
 10
8.489742805120253
 20
2.644582132543859
 30
0.0
 70
     8
  0
VERTEX
  5
555
330
531
100
AcDbEntity
  8
0
100
AcDbVertex
100
AcDb2dVertex
 10
8.488721348269969
 20
2.638633860657731
 30
0.0
 70
     8
  0
VERTEX
  5
556
330
531
100
AcDbEntity
  8
0
100
AcDbVertex
100
AcDb2dVertex
 10
8.488042194764015
 20
2.632394472750067
 30
0.0
 70
     8
  0
VERTEX
  5
557
330
531
100
AcDbEntity
  8
0
100
AcDbVertex
100
AcDb2dVertex
 10
8.487732706308021
 20
2.625880928242709
 30
0.0
 70
     8
  0
VERTEX
  5
558
330
531
100
AcDbEntity
  8
0
100
AcDbVertex
100
AcDb2dVertex
 10
8.487796767501854
 20
2.619138848000635
 30
0.0
 70
     8
  0
VERTEX
  5
559
330
531
100
AcDbEntity
  8
0
100
AcDbVertex
100
AcDb2dVertex
 10
8.488232393668936
 20
2.612221018249605
 30
0.0
 70
     8
  0
VERTEX
  5
55A
330
531
100
AcDbEntity
  8
0
100
AcDbVertex
100
AcDb2dVertex
 10
8.489037600132686
 20
2.60518022521538
 30
0.0
 70
     8
  0
VERTEX
  5
55B
330
531
100
AcDbEntity
  8
0
100
AcDbVertex
100
AcDb2dVertex
 10
8.490210402216528
 20
2.598069255123722
 30
0.0
 70
     8
  0
VERTEX
  5
55C
330
531
100
AcDbEntity
  8
0
100
AcDbVertex
100
AcDb2dVertex
 10
8.491748815243883
 20
2.59094089420039
 30
0.0
 70
     8
  0
VERTEX
  5
55D
330
531
100
AcDbEntity
  8
0
100
AcDbVertex
100
AcDb2dVertex
 10
8.493650854538171
 20
2.583847928671148
 30
0.0
 70
     8
  0
VERTEX
  5
55E
330
531
100
AcDbEntity
  8
0
100
AcDbVertex
100
AcDb2dVertex
 10
8.495914535422815
 20
2.576843144761754
 30
0.0
 70
     8
  0
VERTEX
  5
55F
330
531
100
AcDbEntity
  8
0
100
AcDbVertex
100
AcDb2dVertex
 10
8.498532985506262
 20
2.569979325958101
 30
0.0
 70
     8
  0
VERTEX
  5
560
330
531
100
AcDbEntity
  8
0
100
AcDbVertex
100
AcDb2dVertex
 10
8.50147978153707
 20
2.563309244786603
 30
0.0
 70
     8
  0
VERTEX
  5
561
330
531
100
AcDbEntity
  8
0
100
AcDbVertex
100
AcDb2dVertex
 10
8.504723612548819
 20
2.556885671033804
 30
0.0
 70
     8
  0
VERTEX
  5
562
330
531
100
AcDbEntity
  8
0
100
AcDbVertex
100
AcDb2dVertex
 10
8.508233167575096
 20
2.55076137448625
 30
0.0
 70
     8
  0
VERTEX
  5
563
330
531
100
AcDbEntity
  8
0
100
AcDbVertex
100
AcDb2dVertex
 10
8.511977135649483
 20
2.544989124930484
 30
0.0
 70
     8
  0
VERTEX
  5
564
330
531
100
AcDbEntity
  8
0
100
AcDbVertex
100
AcDb2dVertex
 10
8.515924205805559
 20
2.539621692153051
 30
0.0
 70
     8
  0
VERTEX
  5
565
330
531
100
AcDbEntity
  8
0
100
AcDbVertex
100
AcDb2dVertex
 10
8.520043067076914
 20
2.534711845940497
 30
0.0
 70
     8
  0
VERTEX
  5
566
330
531
100
AcDbEntity
  8
0
100
AcDbVertex
100
AcDb2dVertex
 10
8.524302408497128
 20
2.530312356079364
 30
0.0
 70
     8
  0
VERTEX
  5
567
330
531
100
AcDbEntity
  8
0
100
AcDbVertex
100
AcDb2dVertex
 10
8.528674507625231
 20
2.526468499869145
 30
0.0
 70
     8
  0
VERTEX
  5
568
330
531
100
AcDbEntity
  8
0
100
AcDbVertex
100
AcDb2dVertex
 10
8.533145996122039
 20
2.523195584661111
 30
0.0
 70
     8
  0
VERTEX
  5
569
330
531
100
AcDbEntity
  8
0
100
AcDbVertex
100
AcDb2dVertex
 10
8.537707094173817
 20
2.520501425319481
 30
0.0
 70
     8
  0
VERTEX
  5
56A
330
531
100
AcDbEntity
  8
0
100
AcDbVertex
100
AcDb2dVertex
 10
8.542348021966825
 20
2.518393836708472
 30
0.0
 70
     8
  0
VERTEX
  5
56B
330
531
100
AcDbEntity
  8
0
100
AcDbVertex
100
AcDb2dVertex
 10
8.547058999687327
 20
2.516880633692302
 30
0.0
 70
     8
  0
VERTEX
  5
56C
330
531
100
AcDbEntity
  8
0
100
AcDbVertex
100
AcDb2dVertex
 10
8.551830247521584
 20
2.515969631135191
 30
0.0
 70
     8
  0
VERTEX
  5
56D
330
531
100
AcDbEntity
  8
0
100
AcDbVertex
100
AcDb2dVertex
 10
8.556651985655863
 20
2.515668643901355
 30
0.0
 70
     8
  0
VERTEX
  5
56E
330
531
100
AcDbEntity
  8
0
100
AcDbVertex
100
AcDb2dVertex
 10
8.561514434276425
 20
2.515985486855012
 30
0.0
 70
     8
  0
VERTEX
  5
56F
330
531
100
AcDbEntity
  8
0
100
AcDbVertex
100
AcDb2dVertex
 10
8.566398044349958
 20
2.516916890560038
 30
0.0
 70
     8
  0
VERTEX
  5
570
330
531
100
AcDbEntity
  8
0
100
AcDbVertex
100
AcDb2dVertex
 10
8.571244189964846
 20
2.518415248378927
 30
0.0
 70
     8
  0
VERTEX
  5
571
330
531
100
AcDbEntity
  8
0
100
AcDbVertex
100
AcDb2dVertex
 10
8.5759844759899
 20
2.520421869373833
 30
0.0
 70
     8
  0
VERTEX
  5
572
330
531
100
AcDbEntity
  8
0
100
AcDbVertex
100
AcDb2dVertex
 10
8.580550507293932
 20
2.522878062606907
 30
0.0
 70
     8
  0
VERTEX
  5
573
330
531
100
AcDbEntity
  8
0
100
AcDbVertex
100
AcDb2dVertex
 10
8.584873888745749
 20
2.525725137140302
 30
0.0
 70
     8
  0
VERTEX
  5
574
330
531
100
AcDbEntity
  8
0
100
AcDbVertex
100
AcDb2dVertex
 10
8.588886225214164
 20
2.52890440203617
 30
0.0
 70
     8
  0
VERTEX
  5
575
330
531
100
AcDbEntity
  8
0
100
AcDbVertex
100
AcDb2dVertex
 10
8.592519121567987
 20
2.532357166356662
 30
0.0
 70
     8
  0
VERTEX
  5
576
330
531
100
AcDbEntity
  8
0
100
AcDbVertex
100
AcDb2dVertex
 10
8.595704182676027
 20
2.536024739163933
 30
0.0
 70
     8
  0
VERTEX
  5
577
330
531
100
AcDbEntity
  8
0
100
AcDbVertex
100
AcDb2dVertex
 10
8.598390932836766
 20
2.539852349738299
 30
0.0
 70
     8
  0
VERTEX
  5
578
330
531
100
AcDbEntity
  8
0
100
AcDbVertex
100
AcDb2dVertex
 10
8.600600574067377
 20
2.543800908232745
 30
0.0
 70
     8
  0
VERTEX
  5
579
330
531
100
AcDbEntity
  8
0
100
AcDbVertex
100
AcDb2dVertex
 10
8.602372227814703
 20
2.547835245018418
 30
0.0
 70
     8
  0
VERTEX
  5
57A
330
531
100
AcDbEntity
  8
0
100
AcDbVertex
100
AcDb2dVertex
 10
8.60374501552559
 20
2.551920190466469
 30
0.0
 70
     8
  0
VERTEX
  5
57B
330
531
100
AcDbEntity
  8
0
100
AcDbVertex
100
AcDb2dVertex
 10
8.604758058646878
 20
2.556020574948047
 30
0.0
 70
     8
  0
VERTEX
  5
57C
330
531
100
AcDbEntity
  8
0
100
AcDbVertex
100
AcDb2dVertex
 10
8.605450478625414
 20
2.5601012288343
 30
0.0
 70
     8
  0
VERTEX
  5
57D
330
531
100
AcDbEntity
  8
0
100
AcDbVertex
100
AcDb2dVertex
 10
8.60586139690804
 20
2.56412698249638
 30
0.0
 70
     8
  0
VERTEX
  5
57E
330
531
100
AcDbEntity
  8
0
100
AcDbVertex
100
AcDb2dVertex
 10
8.606029934941601
 20
2.568062666305433
 30
0.0
 70
     8
  0
VERTEX
  5
57F
330
531
100
AcDbEntity
  8
0
100
AcDbVertex
100
AcDb2dVertex
 10
8.605985101022561
 20
2.571894285068431
 30
0.0
 70
     8
  0
VERTEX
  5
580
330
531
100
AcDbEntity
  8
0
100
AcDbVertex
100
AcDb2dVertex
 10
8.605715450845874
 20
2.57569254133562
 30
0.0
 70
     8
  0
VERTEX
  5
581
330
531
100
AcDbEntity
  8
0
100
AcDbVertex
100
AcDb2dVertex
 10
8.605199426956114
 20
2.579549312093068
 30
0.0
 70
     8
  0
VERTEX
  5
582
330
531
100
AcDbEntity
  8
0
100
AcDbVertex
100
AcDb2dVertex
 10
8.604415471897854
 20
2.583556474326844
 30
0.0
 70
     8
  0
VERTEX
  5
583
330
531
100
AcDbEntity
  8
0
100
AcDbVertex
100
AcDb2dVertex
 10
8.603342028215669
 20
2.587805905023013
 30
0.0
 70
     8
  0
VERTEX
  5
584
330
531
100
AcDbEntity
  8
0
100
AcDbVertex
100
AcDb2dVertex
 10
8.601957538454135
 20
2.592389481167646
 30
0.0
 70
     8
  0
VERTEX
  5
585
330
531
100
AcDbEntity
  8
0
100
AcDbVertex
100
AcDb2dVertex
 10
8.600240445157823
 20
2.597399079746807
 30
0.0
 70
     8
  0
VERTEX
  5
586
330
531
100
AcDbEntity
  8
0
100
AcDbVertex
100
AcDb2dVertex
 10
8.59816919087131
 20
2.602926577746567
 30
0.0
 70
     8
  0
VERTEX
  5
587
330
531
100
AcDbEntity
  8
0
100
AcDbVertex
100
AcDb2dVertex
 10
8.595736578633984
 20
2.609022477536503
 30
0.0
 70
     8
  0
VERTEX
  5
588
330
531
100
AcDbEntity
  8
0
100
AcDbVertex
100
AcDb2dVertex
 10
8.592992853464493
 20
2.615571783020243
 30
0.0
 70
     8
  0
VERTEX
  5
589
330
531
100
AcDbEntity
  8
0
100
AcDbVertex
100
AcDb2dVertex
 10
8.590002620876302
 20
2.622418123484927
 30
0.0
 70
     8
  0
VERTEX
  5
58A
330
531
100
AcDbEntity
  8
0
100
AcDbVertex
100
AcDb2dVertex
 10
8.586830486382878
 20
2.629405128217692
 30
0.0
 70
     8
  0
VERTEX
  5
58B
330
531
100
AcDbEntity
  8
0
100
AcDbVertex
100
AcDb2dVertex
 10
8.583541055497681
 20
2.636376426505679
 30
0.0
 70
     8
  0
VERTEX
  5
58C
330
531
100
AcDbEntity
  8
0
100
AcDbVertex
100
AcDb2dVertex
 10
8.580198933734179
 20
2.643175647636026
 30
0.0
 70
     8
  0
VERTEX
  5
58D
330
531
100
AcDbEntity
  8
0
100
AcDbVertex
100
AcDb2dVertex
 10
8.576868726605834
 20
2.649646420895871
 30
0.0
 70
     8
  0
VERTEX
  5
58E
330
531
100
AcDbEntity
  8
0
100
AcDbVertex
100
AcDb2dVertex
 10
8.573615039626112
 20
2.655632375572355
 30
0.0
 70
     8
  0
VERTEX
  5
58F
330
531
100
AcDbEntity
  8
0
100
AcDbVertex
100
AcDb2dVertex
 10
8.570486492593814
 20
2.661011346007186
 30
0.0
 70
     8
  0
VERTEX
  5
590
330
531
100
AcDbEntity
  8
0
100
AcDbVertex
100
AcDb2dVertex
 10
8.567467762449079
 20
2.665797986760361
 30
0.0
 70
     8
  0
VERTEX
  5
591
330
531
100
AcDbEntity
  8
0
100
AcDbVertex
100
AcDb2dVertex
 10
8.564527540417389
 20
2.670041157446445
 30
0.0
 70
     8
  0
VERTEX
  5
592
330
531
100
AcDbEntity
  8
0
100
AcDbVertex
100
AcDb2dVertex
 10
8.561634517724224
 20
2.673789717680005
 30
0.0
 70
     8
  0
VERTEX
  5
593
330
531
100
AcDbEntity
  8
0
100
AcDbVertex
100
AcDb2dVertex
 10
8.55875738559506
 20
2.677092527075606
 30
0.0
 70
     8
  0
VERTEX
  5
594
330
531
100
AcDbEntity
  8
0
100
AcDbVertex
100
AcDb2dVertex
 10
8.555864835255376
 20
2.679998445247815
 30
0.0
 70
     8
  0
VERTEX
  5
595
330
531
100
AcDbEntity
  8
0
100
AcDbVertex
100
AcDb2dVertex
 10
8.552925557930651
 20
2.682556331811199
 30
0.0
 70
     8
  0
VERTEX
  5
533
330
531
100
AcDbEntity
  8
0
100
AcDbVertex
100
AcDb2dVertex
 10
8.551074586543251
 20
2.687485045097052
 30
0.0
 70
    16
  0
VERTEX
  5
534
330
531
100
AcDbEntity
  8
0
100
AcDbVertex
100
AcDb2dVertex
 10
8.523041423674657
 20
2.696478369828325
 30
0.0
 70
    16
  0
VERTEX
  5
535
330
531
100
AcDbEntity
  8
0
100
AcDbVertex
100
AcDb2dVertex
 10
8.500028992445458
 20
2.677446387444512
 30
0.0
 70
    16
  0
VERTEX
  5
536
330
531
100
AcDbEntity
  8
0
100
AcDbVertex
100
AcDb2dVertex
 10
8.484036495282357
 20
2.635395240328494
 30
0.0
 70
    16
  0
VERTEX
  5
537
330
531
100
AcDbEntity
  8
0
100
AcDbVertex
100
AcDb2dVertex
 10
8.492078195009198
 20
2.575339487741913
 30
0.0
 70
    16
  0
VERTEX
  5
538
330
531
100
AcDbEntity
  8
0
100
AcDbVertex
100
AcDb2dVertex
 10
8.523137937217742
 20
2.52430567727438
 30
0.0
 70
    16
  0
VERTEX
  5
539
330
531
100
AcDbEntity
  8
0
100
AcDbVertex
100
AcDb2dVertex
 10
8.561184507102604
 20
2.509311939636753
 30
0.0
 70
    16
  0
VERTEX
  5
53A
330
531
100
AcDbEntity
  8
0
100
AcDbVertex
100
AcDb2dVertex
 10
8.601210640030399
 20
2.534359485308683
 30
0.0
 70
    16
  0
VERTEX
  5
53B
330
531
100
AcDbEntity
  8
0
100
AcDbVertex
100
AcDb2dVertex
 10
8.608198028831966
 20
2.569398554112111
 30
0.0
 70
    16
  0
VERTEX
  5
53C
330
531
100
AcDbEntity
  8
0
100
AcDbVertex
100
AcDb2dVertex
 10
8.602176854291344
 20
2.596422296075472
 30
0.0
 70
    16
  0
SEQEND
  5
53D
330
531
100
AcDbEntity
  8
0
  0
POLYLINE
  5
596
330
19
100
AcDbEntity
  8
0
100
AcDb2dPolyline
 66
     1
 10
0.0
 20
0.0
 30
0.0
 70
     5
 75
     6
  0
VERTEX
  5
597
330
596
100
AcDbEntity
  8
0
100
AcDbVertex
100
AcDb2dVertex
 10
8.348010489355911
 20
2.438121134078571
 30
0.0
 70
    16
  0
VERTEX
  5
5A0
330
596
100
AcDbEntity
  8
0
100
AcDbVertex
100
AcDb2dVertex
 10
8.364193294263069
 20
2.438297039607867
 30
0.0
 70
     8
  0
VERTEX
  5
5A1
330
596
100
AcDbEntity
  8
0
100
AcDbVertex
100
AcDb2dVertex
 10
8.365372978586771
 20
2.439253738243719
 30
0.0
 70
     8
  0
VERTEX
  5
5A2
330
596
100
AcDbEntity
  8
0
100
AcDbVertex
100
AcDb2dVertex
 10
8.366282714186964
 20
2.440472267161336
 30
0.0
 70
     8
  0
VERTEX
  5
5A3
330
596
100
AcDbEntity
  8
0
100
AcDbVertex
100
AcDb2dVertex
 10
8.366918610618727
 20
2.441917432621016
 30
0.0
 70
     8
  0
VERTEX
  5
5A4
330
596
100
AcDbEntity
  8
0
100
AcDbVertex
100
AcDb2dVertex
 10
8.367276777437141
 20
2.443554040883057
 30
0.0
 70
     8
  0
VERTEX
  5
5A5
330
596
100
AcDbEntity
  8
0
100
AcDbVertex
100
AcDb2dVertex
 10
8.367353324197287
 20
2.445346898207758
 30
0.0
 70
     8
  0
VERTEX
  5
5A6
330
596
100
AcDbEntity
  8
0
100
AcDbVertex
100
AcDb2dVertex
 10
8.367144360454249
 20
2.447260810855419
 30
0.0
 70
     8
  0
VERTEX
  5
5A7
330
596
100
AcDbEntity
  8
0
100
AcDbVertex
100
AcDb2dVertex
 10
8.366645995763108
 20
2.449260585086337
 30
0.0
 70
     8
  0
VERTEX
  5
5A8
330
596
100
AcDbEntity
  8
0
100
AcDbVertex
100
AcDb2dVertex
 10
8.365854339678942
 20
2.451311027160811
 30
0.0
 70
     8
  0
VERTEX
  5
5A9
330
596
100
AcDbEntity
  8
0
100
AcDbVertex
100
AcDb2dVertex
 10
8.364770714223523
 20
2.453378901347657
 30
0.0
 70
     8
  0
VERTEX
  5
5AA
330
596
100
AcDbEntity
  8
0
100
AcDbVertex
100
AcDb2dVertex
 10
8.363417291285385
 20
2.455438803949756
 30
0.0
 70
     8
  0
VERTEX
  5
5AB
330
596
100
AcDbEntity
  8
0
100
AcDbVertex
100
AcDb2dVertex
 10
8.361821455219749
 20
2.457467289278505
 30
0.0
 70
     8
  0
VERTEX
  5
5AC
330
596
100
AcDbEntity
  8
0
100
AcDbVertex
100
AcDb2dVertex
 10
8.360010590381835
 20
2.459440911645304
 30
0.0
 70
     8
  0
VERTEX
  5
5AD
330
596
100
AcDbEntity
  8
0
100
AcDbVertex
100
AcDb2dVertex
 10
8.358012081126869
 20
2.46133622536155
 30
0.0
 70
     8
  0
VERTEX
  5
5AE
330
596
100
AcDbEntity
  8
0
100
AcDbVertex
100
AcDb2dVertex
 10
8.355853311810071
 20
2.463129784738641
 30
0.0
 70
     8
  0
VERTEX
  5
5AF
330
596
100
AcDbEntity
  8
0
100
AcDbVertex
100
AcDb2dVertex
 10
8.353561666786661
 20
2.464798144087975
 30
0.0
 70
     8
  0
VERTEX
  5
5B0
330
596
100
AcDbEntity
  8
0
100
AcDbVertex
100
AcDb2dVertex
 10
8.351164530411863
 20
2.466317857720951
 30
0.0
 70
     8
  0
VERTEX
  5
5B1
330
596
100
AcDbEntity
  8
0
100
AcDbVertex
100
AcDb2dVertex
 10
8.348689938370914
 20
2.467666132009611
 30
0.0
 70
     8
  0
VERTEX
  5
5B2
330
596
100
AcDbEntity
  8
0
100
AcDbVertex
100
AcDb2dVertex
 10
8.346168531669104
 20
2.468822781568582
 30
0.0
 70
     8
  0
VERTEX
  5
5B3
330
596
100
AcDbEntity
  8
0
100
AcDbVertex
100
AcDb2dVertex
 10
8.343631602641738
 20
2.469768273073136
 30
0.0
 70
     8
  0
VERTEX
  5
5B4
330
596
100
AcDbEntity
  8
0
100
AcDbVertex
100
AcDb2dVertex
 10
8.341110443624119
 20
2.470483073198545
 30
0.0
 70
     8
  0
VERTEX
  5
5B5
330
596
100
AcDbEntity
  8
0
100
AcDbVertex
100
AcDb2dVertex
 10
8.338636346951555
 20
2.470947648620081
 30
0.0
 70
     8
  0
VERTEX
  5
5B6
330
596
100
AcDbEntity
  8
0
100
AcDbVertex
100
AcDb2dVertex
 10
8.336240604959349
 20
2.471142466013017
 30
0.0
 70
     8
  0
VERTEX
  5
5B7
330
596
100
AcDbEntity
  8
0
100
AcDbVertex
100
AcDb2dVertex
 10
8.333954509982808
 20
2.471047992052623
 30
0.0
 70
     8
  0
VERTEX
  5
5B8
330
596
100
AcDbEntity
  8
0
100
AcDbVertex
100
AcDb2dVertex
 10
8.331809354357235
 20
2.470644693414172
 30
0.0
 70
     8
  0
VERTEX
  5
5B9
330
596
100
AcDbEntity
  8
0
100
AcDbVertex
100
AcDb2dVertex
 10
8.329831211375558
 20
2.469922809280355
 30
0.0
 70
     8
  0
VERTEX
  5
5BA
330
596
100
AcDbEntity
  8
0
100
AcDbVertex
100
AcDb2dVertex
 10
8.328025278161199
 20
2.468911668863536
 30
0.0
 70
     8
  0
VERTEX
  5
5BB
330
596
100
AcDbEntity
  8
0
100
AcDbVertex
100
AcDb2dVertex
 10
8.326391532795205
 20
2.467650373883501
 30
0.0
 70
     8
  0
VERTEX
  5
5BC
330
596
100
AcDbEntity
  8
0
100
AcDbVertex
100
AcDb2dVertex
 10
8.324929953358618
 20
2.466178026060034
 30
0.0
 70
     8
  0
VERTEX
  5
5BD
330
596
100
AcDbEntity
  8
0
100
AcDbVertex
100
AcDb2dVertex
 10
8.323640517932484
 20
2.464533727112918
 30
0.0
 70
     8
  0
VERTEX
  5
5BE
330
596
100
AcDbEntity
  8
0
100
AcDbVertex
100
AcDb2dVertex
 10
8.322523204597847
 20
2.462756578761939
 30
0.0
 70
     8
  0
VERTEX
  5
5BF
330
596
100
AcDbEntity
  8
0
100
AcDbVertex
100
AcDb2dVertex
 10
8.321577991435754
 20
2.460885682726879
 30
0.0
 70
     8
  0
VERTEX
  5
5C0
330
596
100
AcDbEntity
  8
0
100
AcDbVertex
100
AcDb2dVertex
 10
8.320804856527248
 20
2.458960140727525
 30
0.0
 70
     8
  0
VERTEX
  5
5C1
330
596
100
AcDbEntity
  8
0
100
AcDbVertex
100
AcDb2dVertex
 10
8.320202891226503
 20
2.457015791442474
 30
0.0
 70
     8
  0
VERTEX
  5
5C2
330
596
100
AcDbEntity
  8
0
100
AcDbVertex
100
AcDb2dVertex
 10
8.319767639980199
 20
2.455075421385592
 30
0.0
 70
     8
  0
VERTEX
  5
5C3
330
596
100
AcDbEntity
  8
0
100
AcDbVertex
100
AcDb2dVertex
 10
8.319493760508147
 20
2.453158554029556
 30
0.0
 70
     8
  0
VERTEX
  5
5C4
330
596
100
AcDbEntity
  8
0
100
AcDbVertex
100
AcDb2dVertex
 10
8.319375910530152
 20
2.451284712847046
 30
0.0
 70
     8
  0
VERTEX
  5
5C5
330
596
100
AcDbEntity
  8
0
100
AcDbVertex
100
AcDb2dVertex
 10
8.319408747766028
 20
2.449473421310741
 30
0.0
 70
     8
  0
VERTEX
  5
5C6
330
596
100
AcDbEntity
  8
0
100
AcDbVertex
100
AcDb2dVertex
 10
8.31958692993558
 20
2.447744202893319
 30
0.0
 70
     8
  0
VERTEX
  5
5C7
330
596
100
AcDbEntity
  8
0
100
AcDbVertex
100
AcDb2dVertex
 10
8.319905114758617
 20
2.446116581067459
 30
0.0
 70
     8
  0
VERTEX
  5
5C8
330
596
100
AcDbEntity
  8
0
100
AcDbVertex
100
AcDb2dVertex
 10
8.320357959954952
 20
2.444610079305841
 30
0.0
 70
     8
  0
VERTEX
  5
5C9
330
596
100
AcDbEntity
  8
0
100
AcDbVertex
100
AcDb2dVertex
 10
8.320942375894118
 20
2.443240980132006
 30
0.0
 70
     8
  0
VERTEX
  5
5CA
330
596
100
AcDbEntity
  8
0
100
AcDbVertex
100
AcDb2dVertex
 10
8.321664283544573
 20
2.44201260227294
 30
0.0
 70
     8
  0
VERTEX
  5
5CB
330
596
100
AcDbEntity
  8
0
100
AcDbVertex
100
AcDb2dVertex
 10
8.322531856524501
 20
2.44092502350649
 30
0.0
 70
     8
  0
VERTEX
  5
5CC
330
596
100
AcDbEntity
  8
0
100
AcDbVertex
100
AcDb2dVertex
 10
8.323553268452082
 20
2.439978321610507
 30
0.0
 70
     8
  0
VERTEX
  5
5CD
330
596
100
AcDbEntity
  8
0
100
AcDbVertex
100
AcDb2dVertex
 10
8.324736692945502
 20
2.439172574362837
 30
0.0
 70
     8
  0
VERTEX
  5
5CE
330
596
100
AcDbEntity
  8
0
100
AcDbVertex
100
AcDb2dVertex
 10
8.326090303622946
 20
2.438507859541331
 30
0.0
 70
     8
  0
VERTEX
  5
5CF
330
596
100
AcDbEntity
  8
0
100
AcDbVertex
100
AcDb2dVertex
 10
8.327622274102595
 20
2.437984254923835
 30
0.0
 70
     8
  0
VERTEX
  5
5D0
330
596
100
AcDbEntity
  8
0
100
AcDbVertex
100
AcDb2dVertex
 10
8.329340778002635
 20
2.437601838288198
 30
0.0
 70
     8
  0
VERTEX
  5
5D1
330
596
100
AcDbEntity
  8
0
100
AcDbVertex
100
AcDb2dVertex
 10
8.331248008482417
 20
2.437356097792432
 30
0.0
 70
     8
  0
VERTEX
  5
5D2
330
596
100
AcDbEntity
  8
0
100
AcDbVertex
100
AcDb2dVertex
 10
8.333322236865966
 20
2.437224163115199
 30
0.0
 70
     8
  0
VERTEX
  5
5D3
330
596
100
AcDbEntity
  8
0
100
AcDbVertex
100
AcDb2dVertex
 10
8.335535754018473
 20
2.437178574315324
 30
0.0
 70
     8
  0
VERTEX
  5
5D4
330
596
100
AcDbEntity
  8
0
100
AcDbVertex
100
AcDb2dVertex
 10
8.337860850805132
 20
2.437191871451632
 30
0.0
 70
     8
  0
VERTEX
  5
5D5
330
596
100
AcDbEntity
  8
0
100
AcDbVertex
100
AcDb2dVertex
 10
8.340269818091135
 20
2.437236594582947
 30
0.0
 70
     8
  0
VERTEX
  5
5D6
330
596
100
AcDbEntity
  8
0
100
AcDbVertex
100
AcDb2dVertex
 10
8.342734946741677
 20
2.437285283768097
 30
0.0
 70
     8
  0
VERTEX
  5
5D7
330
596
100
AcDbEntity
  8
0
100
AcDbVertex
100
AcDb2dVertex
 10
8.34522852762195
 20
2.437310479065904
 30
0.0
 70
     8
  0
VERTEX
  5
5D8
330
596
100
AcDbEntity
  8
0
100
AcDbVertex
100
AcDb2dVertex
 10
8.347722851597146
 20
2.437284720535195
 30
0.0
 70
     8
  0
VERTEX
  5
5D9
330
596
100
AcDbEntity
  8
0
100
AcDbVertex
100
AcDb2dVertex
 10
8.350189846633285
 20
2.437192946512305
 30
0.0
 70
     8
  0
VERTEX
  5
5DA
330
596
100
AcDbEntity
  8
0
100
AcDbVertex
100
AcDb2dVertex
 10
8.3525999890997
 20
2.437069688443619
 30
0.0
 70
     8
  0
VERTEX
  5
5DB
330
596
100
AcDbEntity
  8
0
100
AcDbVertex
100
AcDb2dVertex
 10
8.354923392466555
 20
2.436961876053031
 30
0.0
 70
     8
  0
VERTEX
  5
5DC
330
596
100
AcDbEntity
  8
0
100
AcDbVertex
100
AcDb2dVertex
 10
8.357130170204011
 20
2.436916439064435
 30
0.0
 70
     8
  0
VERTEX
  5
5DD
330
596
100
AcDbEntity
  8
0
100
AcDbVertex
100
AcDb2dVertex
 10
8.35919043578223
 20
2.436980307201726
 30
0.0
 70
     8
  0
VERTEX
  5
5DE
330
596
100
AcDbEntity
  8
0
100
AcDbVertex
100
AcDb2dVertex
 10
8.361074302671371
 20
2.437200410188798
 30
0.0
 70
     8
  0
VERTEX
  5
5DF
330
596
100
AcDbEntity
  8
0
100
AcDbVertex
100
AcDb2dVertex
 10
8.362751884341597
 20
2.437623677749547
 30
0.0
 70
     8
  0
VERTEX
  5
598
330
596
100
AcDbEntity
  8
0
100
AcDbVertex
100
AcDb2dVertex
 10
8.367031249234714
 20
2.435128783378901
 30
0.0
 70
    16
  0
VERTEX
  5
599
330
596
100
AcDbEntity
  8
0
100
AcDbVertex
100
AcDb2dVertex
 10
8.369024279283659
 20
2.451145970053025
 30
0.0
 70
    16
  0
VERTEX
  5
59A
330
596
100
AcDbEntity
  8
0
100
AcDbVertex
100
AcDb2dVertex
 10
8.351997671704302
 20
2.468153499373866
 30
0.0
 70
    16
  0
VERTEX
  5
59B
330
596
100
AcDbEntity
  8
0
100
AcDbVertex
100
AcDb2dVertex
 10
8.329972216370317
 20
2.474147178777213
 30
0.0
 70
    16
  0
VERTEX
  5
59C
330
596
100
AcDbEntity
  8
0
100
AcDbVertex
100
AcDb2dVertex
 10
8.318969588957833
 20
2.459125946002311
 30
0.0
 70
    16
  0
VERTEX
  5
59D
330
596
100
AcDbEntity
  8
0
100
AcDbVertex
100
AcDb2dVertex
 10
8.318978566961841
 20
2.443109881578689
 30
0.0
 70
    16
  0
VERTEX
  5
59E
330
596
100
AcDbEntity
  8
0
100
AcDbVertex
100
AcDb2dVertex
 10
8.327263902924514
 20
2.436095003517982
 30
0.0
 70
    16
  0
SEQEND
  5
59F
330
596
100
AcDbEntity
  8
0
  0
POLYLINE
  5
5E1
330
19
100
AcDbEntity
  8
0
100
AcDb2dPolyline
 66
     1
 10
0.0
 20
0.0
 30
0.0
 70
     5
 75
     6
  0
VERTEX
  5
5E2
330
5E1
100
AcDbEntity
  8
0
100
AcDbVertex
100
AcDb2dVertex
 10
8.992337241013946
 20
3.009054793831452
 30
0.0
 70
    16
  0
VERTEX
  5
5EC
330
5E1
100
AcDbEntity
  8
0
100
AcDbVertex
100
AcDb2dVertex
 10
8.990990785348386
 20
3.030075130220456
 30
0.0
 70
     8
  0
VERTEX
  5
5ED
330
5E1
100
AcDbEntity
  8
0
100
AcDbVertex
100
AcDb2dVertex
 10
8.990130219417035
 20
3.032403807659899
 30
0.0
 70
     8
  0
VERTEX
  5
5EE
330
5E1
100
AcDbEntity
  8
0
100
AcDbVertex
100
AcDb2dVertex
 10
8.989056606102142
 20
3.034630701169597
 30
0.0
 70
     8
  0
VERTEX
  5
5EF
330
5E1
100
AcDbEntity
  8
0
100
AcDbVertex
100
AcDb2dVertex
 10
8.987775815045469
 20
3.036747993693437
 30
0.0
 70
     8
  0
VERTEX
  5
5F0
330
5E1
100
AcDbEntity
  8
0
100
AcDbVertex
100
AcDb2dVertex
 10
8.986293715888772
 20
3.038747868175307
 30
0.0
 70
     8
  0
VERTEX
  5
5F1
330
5E1
100
AcDbEntity
  8
0
100
AcDbVertex
100
AcDb2dVertex
 10
8.984616178273811
 20
3.040622507559091
 30
0.0
 70
     8
  0
VERTEX
  5
5F2
330
5E1
100
AcDbEntity
  8
0
100
AcDbVertex
100
AcDb2dVertex
 10
8.982749071842342
 20
3.042364094788676
 30
0.0
 70
     8
  0
VERTEX
  5
5F3
330
5E1
100
AcDbEntity
  8
0
100
AcDbVertex
100
AcDb2dVertex
 10
8.980698266236127
 20
3.043964812807949
 30
0.0
 70
     8
  0
VERTEX
  5
5F4
330
5E1
100
AcDbEntity
  8
0
100
AcDbVertex
100
AcDb2dVertex
 10
8.978469631096921
 20
3.045416844560796
 30
0.0
 70
     8
  0
VERTEX
  5
5F5
330
5E1
100
AcDbEntity
  8
0
100
AcDbVertex
100
AcDb2dVertex
 10
8.976075879050105
 20
3.046712050979257
 30
0.0
 70
     8
  0
VERTEX
  5
5F6
330
5E1
100
AcDbEntity
  8
0
100
AcDbVertex
100
AcDb2dVertex
 10
8.973557094655542
 20
3.047841004947978
 30
0.0
 70
     8
  0
VERTEX
  5
5F7
330
5E1
100
AcDbEntity
  8
0
100
AcDbVertex
100
AcDb2dVertex
 10
8.970960205456706
 20
3.04879395733976
 30
0.0
 70
     8
  0
VERTEX
  5
5F8
330
5E1
100
AcDbEntity
  8
0
100
AcDbVertex
100
AcDb2dVertex
 10
8.968332138997079
 20
3.049561159027402
 30
0.0
 70
     8
  0
VERTEX
  5
5F9
330
5E1
100
AcDbEntity
  8
0
100
AcDbVertex
100
AcDb2dVertex
 10
8.965719822820143
 20
3.050132860883706
 30
0.0
 70
     8
  0
VERTEX
  5
5FA
330
5E1
100
AcDbEntity
  8
0
100
AcDbVertex
100
AcDb2dVertex
 10
8.963170184469375
 20
3.05049931378147
 30
0.0
 70
     8
  0
VERTEX
  5
5FB
330
5E1
100
AcDbEntity
  8
0
100
AcDbVertex
100
AcDb2dVertex
 10
8.960730151488255
 20
3.050650768593496
 30
0.0
 70
     8
  0
VERTEX
  5
5FC
330
5E1
100
AcDbEntity
  8
0
100
AcDbVertex
100
AcDb2dVertex
 10
8.958446651420266
 20
3.050577476192582
 30
0.0
 70
     8
  0
VERTEX
  5
5FD
330
5E1
100
AcDbEntity
  8
0
100
AcDbVertex
100
AcDb2dVertex
 10
8.956359442794939
 20
3.050270335128384
 30
0.0
 70
     8
  0
VERTEX
  5
5FE
330
5E1
100
AcDbEntity
  8
0
100
AcDbVertex
100
AcDb2dVertex
 10
8.954479608086045
 20
3.049722834657974
 30
0.0
 70
     8
  0
VERTEX
  5
5FF
330
5E1
100
AcDbEntity
  8
0
100
AcDbVertex
100
AcDb2dVertex
 10
8.952811060753403
 20
3.048929111715282
 30
0.0
 70
     8
  0
VERTEX
  5
600
330
5E1
100
AcDbEntity
  8
0
100
AcDbVertex
100
AcDb2dVertex
 10
8.951357714256835
 20
3.047883303234235
 30
0.0
 70
     8
  0
VERTEX
  5
601
330
5E1
100
AcDbEntity
  8
0
100
AcDbVertex
100
AcDb2dVertex
 10
8.950123482056162
 20
3.04657954614876
 30
0.0
 70
     8
  0
VERTEX
  5
602
330
5E1
100
AcDbEntity
  8
0
100
AcDbVertex
100
AcDb2dVertex
 10
8.949112277611205
 20
3.045011977392786
 30
0.0
 70
     8
  0
VERTEX
  5
603
330
5E1
100
AcDbEntity
  8
0
100
AcDbVertex
100
AcDb2dVertex
 10
8.948328014381787
 20
3.04317473390024
 30
0.0
 70
     8
  0
VERTEX
  5
604
330
5E1
100
AcDbEntity
  8
0
100
AcDbVertex
100
AcDb2dVertex
 10
8.94777460582773
 20
3.04106195260505
 30
0.0
 70
     8
  0
VERTEX
  5
605
330
5E1
100
AcDbEntity
  8
0
100
AcDbVertex
100
AcDb2dVertex
 10
8.94745237578746
 20
3.038677218014188
 30
0.0
 70
     8
  0
VERTEX
  5
606
330
5E1
100
AcDbEntity
  8
0
100
AcDbVertex
100
AcDb2dVertex
 10
8.947347289613829
 20
3.0360619049268
 30
0.0
 70
     8
  0
VERTEX
  5
607
330
5E1
100
AcDbEntity
  8
0
100
AcDbVertex
100
AcDb2dVertex
 10
8.94744172303829
 20
3.033266835715075
 30
0.0
 70
     8
  0
VERTEX
  5
608
330
5E1
100
AcDbEntity
  8
0
100
AcDbVertex
100
AcDb2dVertex
 10
8.947718051792299
 20
3.030342832751204
 30
0.0
 70
     8
  0
VERTEX
  5
609
330
5E1
100
AcDbEntity
  8
0
100
AcDbVertex
100
AcDb2dVertex
 10
8.948158651607313
 20
3.027340718407375
 30
0.0
 70
     8
  0
VERTEX
  5
60A
330
5E1
100
AcDbEntity
  8
0
100
AcDbVertex
100
AcDb2dVertex
 10
8.948745898214787
 20
3.02431131505578
 30
0.0
 70
     8
  0
VERTEX
  5
60B
330
5E1
100
AcDbEntity
  8
0
100
AcDbVertex
100
AcDb2dVertex
 10
8.949462167346175
 20
3.021305445068606
 30
0.0
 70
     8
  0
VERTEX
  5
60C
330
5E1
100
AcDbEntity
  8
0
100
AcDbVertex
100
AcDb2dVertex
 10
8.950289834732931
 20
3.018373930818044
 30
0.0
 70
     8
  0
VERTEX
  5
60D
330
5E1
100
AcDbEntity
  8
0
100
AcDbVertex
100
AcDb2dVertex
 10
8.951212257667985
 20
3.015560426575631
 30
0.0
 70
     8
  0
VERTEX
  5
60E
330
5E1
100
AcDbEntity
  8
0
100
AcDbVertex
100
AcDb2dVertex
 10
8.952216719690139
 20
3.01287991421029
 30
0.0
 70
     8
  0
VERTEX
  5
60F
330
5E1
100
AcDbEntity
  8
0
100
AcDbVertex
100
AcDb2dVertex
 10
8.953291485899666
 20
3.010340207490292
 30
0.0
 70
     8
  0
VERTEX
  5
610
330
5E1
100
AcDbEntity
  8
0
100
AcDbVertex
100
AcDb2dVertex
 10
8.95442482139684
 20
3.007949120183906
 30
0.0
 70
     8
  0
VERTEX
  5
611
330
5E1
100
AcDbEntity
  8
0
100
AcDbVertex
100
AcDb2dVertex
 10
8.955604991281932
 20
3.005714466059404
 30
0.0
 70
     8
  0
VERTEX
  5
612
330
5E1
100
AcDbEntity
  8
0
100
AcDbVertex
100
AcDb2dVertex
 10
8.956820260655222
 20
3.003644058885055
 30
0.0
 70
     8
  0
VERTEX
  5
613
330
5E1
100
AcDbEntity
  8
0
100
AcDbVertex
100
AcDb2dVertex
 10
8.958058894616979
 20
3.001745712429129
 30
0.0
 70
     8
  0
VERTEX
  5
614
330
5E1
100
AcDbEntity
  8
0
100
AcDbVertex
100
AcDb2dVertex
 10
8.959309158267478
 20
3.000027240459897
 30
0.0
 70
     8
  0
VERTEX
  5
615
330
5E1
100
AcDbEntity
  8
0
100
AcDbVertex
100
AcDb2dVertex
 10
8.960562250431924
 20
2.998494503303563
 30
0.0
 70
     8
  0
VERTEX
  5
616
330
5E1
100
AcDbEntity
  8
0
100
AcDbVertex
100
AcDb2dVertex
 10
8.961821104835249
 20
2.997145547518057
 30
0.0
 70
     8
  0
VERTEX
  5
617
330
5E1
100
AcDbEntity
  8
0
100
AcDbVertex
100
AcDb2dVertex
 10
8.963091588927314
 20
2.995976466219245
 30
0.0
 70
     8
  0
VERTEX
  5
618
330
5E1
100
AcDbEntity
  8
0
100
AcDbVertex
100
AcDb2dVertex
 10
8.964379570157986
 20
2.994983352522992
 30
0.0
 70
     8
  0
VERTEX
  5
619
330
5E1
100
AcDbEntity
  8
0
100
AcDbVertex
100
AcDb2dVertex
 10
8.965690915977126
 20
2.994162299545163
 30
0.0
 70
     8
  0
VERTEX
  5
61A
330
5E1
100
AcDbEntity
  8
0
100
AcDbVertex
100
AcDb2dVertex
 10
8.967031493834595
 20
2.993509400401623
 30
0.0
 70
     8
  0
VERTEX
  5
61B
330
5E1
100
AcDbEntity
  8
0
100
AcDbVertex
100
AcDb2dVertex
 10
8.968407171180262
 20
2.993020748208236
 30
0.0
 70
     8
  0
VERTEX
  5
61C
330
5E1
100
AcDbEntity
  8
0
100
AcDbVertex
100
AcDb2dVertex
 10
8.969823815463984
 20
2.992692436080867
 30
0.0
 70
     8
  0
VERTEX
  5
61D
330
5E1
100
AcDbEntity
  8
0
100
AcDbVertex
100
AcDb2dVertex
 10
8.971284360776012
 20
2.992521858882119
 30
0.0
 70
     8
  0
VERTEX
  5
61E
330
5E1
100
AcDbEntity
  8
0
100
AcDbVertex
100
AcDb2dVertex
 10
8.972780007768131
 20
2.992511618461546
 30
0.0
 70
     8
  0
VERTEX
  5
61F
330
5E1
100
AcDbEntity
  8
0
100
AcDbVertex
100
AcDb2dVertex
 10
8.974299023732508
 20
2.99266561841544
 30
0.0
 70
     8
  0
VERTEX
  5
620
330
5E1
100
AcDbEntity
  8
0
100
AcDbVertex
100
AcDb2dVertex
 10
8.975829675961313
 20
2.992987762340092
 30
0.0
 70
     8
  0
VERTEX
  5
621
330
5E1
100
AcDbEntity
  8
0
100
AcDbVertex
100
AcDb2dVertex
 10
8.977360231746715
 20
2.993481953831795
 30
0.0
 70
     8
  0
VERTEX
  5
622
330
5E1
100
AcDbEntity
  8
0
100
AcDbVertex
100
AcDb2dVertex
 10
8.978878958380884
 20
2.994152096486841
 30
0.0
 70
     8
  0
VERTEX
  5
623
330
5E1
100
AcDbEntity
  8
0
100
AcDbVertex
100
AcDb2dVertex
 10
8.98037412315599
 20
2.995002093901521
 30
0.0
 70
     8
  0
VERTEX
  5
624
330
5E1
100
AcDbEntity
  8
0
100
AcDbVertex
100
AcDb2dVertex
 10
8.9818339933642
 20
2.996035849672128
 30
0.0
 70
     8
  0
VERTEX
  5
625
330
5E1
100
AcDbEntity
  8
0
100
AcDbVertex
100
AcDb2dVertex
 10
8.98324683757629
 20
2.997254986461298
 30
0.0
 70
     8
  0
VERTEX
  5
626
330
5E1
100
AcDbEntity
  8
0
100
AcDbVertex
100
AcDb2dVertex
 10
8.984600929477459
 20
2.998652003197055
 30
0.0
 70
     8
  0
VERTEX
  5
627
330
5E1
100
AcDbEntity
  8
0
100
AcDbVertex
100
AcDb2dVertex
 10
8.985884544031508
 20
3.000217117873764
 30
0.0
 70
     8
  0
VERTEX
  5
628
330
5E1
100
AcDbEntity
  8
0
100
AcDbVertex
100
AcDb2dVertex
 10
8.987085956202245
 20
3.001940548485794
 30
0.0
 70
     8
  0
VERTEX
  5
629
330
5E1
100
AcDbEntity
  8
0
100
AcDbVertex
100
AcDb2dVertex
 10
8.988193440953468
 20
3.003812513027512
 30
0.0
 70
     8
  0
VERTEX
  5
62A
330
5E1
100
AcDbEntity
  8
0
100
AcDbVertex
100
AcDb2dVertex
 10
8.989195273248983
 20
3.005823229493284
 30
0.0
 70
     8
  0
VERTEX
  5
62B
330
5E1
100
AcDbEntity
  8
0
100
AcDbVertex
100
AcDb2dVertex
 10
8.990079728052594
 20
3.00796291587748
 30
0.0
 70
     8
  0
VERTEX
  5
62C
330
5E1
100
AcDbEntity
  8
0
100
AcDbVertex
100
AcDb2dVertex
 10
8.990835080328106
 20
3.010221790174466
 30
0.0
 70
     8
  0
VERTEX
  5
62D
330
5E1
100
AcDbEntity
  8
0
100
AcDbVertex
100
AcDb2dVertex
 10
8.991449932348248
 20
3.012587463779948
 30
0.0
 70
     8
  0
VERTEX
  5
62E
330
5E1
100
AcDbEntity
  8
0
100
AcDbVertex
100
AcDb2dVertex
 10
8.991914195621467
 20
3.015037121694988
 30
0.0
 70
     8
  0
VERTEX
  5
62F
330
5E1
100
AcDbEntity
  8
0
100
AcDbVertex
100
AcDb2dVertex
 10
8.992218108965137
 20
3.01754534232199
 30
0.0
 70
     8
  0
VERTEX
  5
630
330
5E1
100
AcDbEntity
  8
0
100
AcDbVertex
100
AcDb2dVertex
 10
8.992351911196634
 20
3.020086704063353
 30
0.0
 70
     8
  0
VERTEX
  5
631
330
5E1
100
AcDbEntity
  8
0
100
AcDbVertex
100
AcDb2dVertex
 10
8.992305841133332
 20
3.02263578532148
 30
0.0
 70
     8
  0
VERTEX
  5
632
330
5E1
100
AcDbEntity
  8
0
100
AcDbVertex
100
AcDb2dVertex
 10
8.992070137592608
 20
3.025167164498772
 30
0.0
 70
     8
  0
VERTEX
  5
633
330
5E1
100
AcDbEntity
  8
0
100
AcDbVertex
100
AcDb2dVertex
 10
8.991635039391833
 20
3.02765541999763
 30
0.0
 70
     8
  0
VERTEX
  5
5E3
330
5E1
100
AcDbEntity
  8
0
100
AcDbVertex
100
AcDb2dVertex
 10
8.993325900284912
 20
3.031077443539183
 30
0.0
 70
    16
  0
VERTEX
  5
5E4
330
5E1
100
AcDbEntity
  8
0
100
AcDbVertex
100
AcDb2dVertex
 10
8.98030386993671
 20
3.04708621333455
 30
0.0
 70
    16
  0
VERTEX
  5
5E5
330
5E1
100
AcDbEntity
  8
0
100
AcDbVertex
100
AcDb2dVertex
 10
8.956276406549772
 20
3.053078770487397
 30
0.0
 70
    16
  0
VERTEX
  5
5E6
330
5E1
100
AcDbEntity
  8
0
100
AcDbVertex
100
AcDb2dVertex
 10
8.945270412385787
 20
3.044063561871353
 30
0.0
 70
    16
  0
VERTEX
  5
5E7
330
5E1
100
AcDbEntity
  8
0
100
AcDbVertex
100
AcDb2dVertex
 10
8.949289578873456
 20
3.017038697657492
 30
0.0
 70
    16
  0
VERTEX
  5
5E8
330
5E1
100
AcDbEntity
  8
0
100
AcDbVertex
100
AcDb2dVertex
 10
8.959310280517979
 20
2.998025232406945
 30
0.0
 70
    16
  0
VERTEX
  5
5E9
330
5E1
100
AcDbEntity
  8
0
100
AcDbVertex
100
AcDb2dVertex
 10
8.969324248659497
 20
2.991023815474114
 30
0.0
 70
    16
  0
VERTEX
  5
5EA
330
5E1
100
AcDbEntity
  8
0
100
AcDbVertex
100
AcDb2dVertex
 10
8.982335617627939
 20
2.9940341221818
 30
0.0
 70
    16
  0
SEQEND
  5
5EB
330
5E1
100
AcDbEntity
  8
0
  0
POLYLINE
  5
634
330
19
100
AcDbEntity
  8
0
100
AcDb2dPolyline
 66
     1
 10
0.0
 20
0.0
 30
0.0
 70
     5
 75
     6
  0
VERTEX
  5
635
330
634
100
AcDbEntity
  8
0
100
AcDbVertex
100
AcDb2dVertex
 10
9.012384816680749
 20
2.960016819039117
 30
0.0
 70
    16
  0
VERTEX
  5
63F
330
634
100
AcDbEntity
  8
0
100
AcDbVertex
100
AcDb2dVertex
 10
9.004221547053035
 20
2.939324819969059
 30
0.0
 70
     8
  0
VERTEX
  5
640
330
634
100
AcDbEntity
  8
0
100
AcDbVertex
100
AcDb2dVertex
 10
9.004044053301913
 20
2.93625197602747
 30
0.0
 70
     8
  0
VERTEX
  5
641
330
634
100
AcDbEntity
  8
0
100
AcDbVertex
100
AcDb2dVertex
 10
9.00413642059848
 20
2.933073708683254
 30
0.0
 70
     8
  0
VERTEX
  5
642
330
634
100
AcDbEntity
  8
0
100
AcDbVertex
100
AcDb2dVertex
 10
9.004502530620073
 20
2.929840852364026
 30
0.0
 70
     8
  0
VERTEX
  5
643
330
634
100
AcDbEntity
  8
0
100
AcDbVertex
100
AcDb2dVertex
 10
9.005146265044031
 20
2.926604241497401
 30
0.0
 70
     8
  0
VERTEX
  5
644
330
634
100
AcDbEntity
  8
0
100
AcDbVertex
100
AcDb2dVertex
 10
9.006071505547688
 20
2.923414710510993
 30
0.0
 70
     8
  0
VERTEX
  5
645
330
634
100
AcDbEntity
  8
0
100
AcDbVertex
100
AcDb2dVertex
 10
9.007282133808383
 20
2.920323093832418
 30
0.0
 70
     8
  0
VERTEX
  5
646
330
634
100
AcDbEntity
  8
0
100
AcDbVertex
100
AcDb2dVertex
 10
9.008782031503452
 20
2.917380225889291
 30
0.0
 70
     8
  0
VERTEX
  5
647
330
634
100
AcDbEntity
  8
0
100
AcDbVertex
100
AcDb2dVertex
 10
9.010575080310231
 20
2.914636941109226
 30
0.0
 70
     8
  0
VERTEX
  5
648
330
634
100
AcDbEntity
  8
0
100
AcDbVertex
100
AcDb2dVertex
 10
9.012656694067905
 20
2.912136574674441
 30
0.0
 70
     8
  0
VERTEX
  5
649
330
634
100
AcDbEntity
  8
0
100
AcDbVertex
100
AcDb2dVertex
 10
9.014988415263042
 20
2.909892464785555
 30
0.0
 70
     8
  0
VERTEX
  5
64A
330
634
100
AcDbEntity
  8
0
100
AcDbVertex
100
AcDb2dVertex
 10
9.017523318544058
 20
2.90791045039779
 30
0.0
 70
     8
  0
VERTEX
  5
64B
330
634
100
AcDbEntity
  8
0
100
AcDbVertex
100
AcDb2dVertex
 10
9.020214478559367
 20
2.906196370466368
 30
0.0
 70
     8
  0
VERTEX
  5
64C
330
634
100
AcDbEntity
  8
0
100
AcDbVertex
100
AcDb2dVertex
 10
9.023014969957389
 20
2.904756063946509
 30
0.0
 70
     8
  0
VERTEX
  5
64D
330
634
100
AcDbEntity
  8
0
100
AcDbVertex
100
AcDb2dVertex
 10
9.025877867386534
 20
2.903595369793436
 30
0.0
 70
     8
  0
VERTEX
  5
64E
330
634
100
AcDbEntity
  8
0
100
AcDbVertex
100
AcDb2dVertex
 10
9.028756245495222
 20
2.90272012696237
 30
0.0
 70
     8
  0
VERTEX
  5
64F
330
634
100
AcDbEntity
  8
0
100
AcDbVertex
100
AcDb2dVertex
 10
9.031603178931867
 20
2.902136174408531
 30
0.0
 70
     8
  0
VERTEX
  5
650
330
634
100
AcDbEntity
  8
0
100
AcDbVertex
100
AcDb2dVertex
 10
9.034378587337743
 20
2.901845444750983
 30
0.0
 70
     8
  0
VERTEX
  5
651
330
634
100
AcDbEntity
  8
0
100
AcDbVertex
100
AcDb2dVertex
 10
9.037069770325553
 20
2.901834245264137
 30
0.0
 70
     8
  0
VERTEX
  5
652
330
634
100
AcDbEntity
  8
0
100
AcDbVertex
100
AcDb2dVertex
 10
9.03967087250086
 20
2.902084976886249
 30
0.0
 70
     8
  0
VERTEX
  5
653
330
634
100
AcDbEntity
  8
0
100
AcDbVertex
100
AcDb2dVertex
 10
9.042176038469227
 20
2.902580040555573
 30
0.0
 70
     8
  0
VERTEX
  5
654
330
634
100
AcDbEntity
  8
0
100
AcDbVertex
100
AcDb2dVertex
 10
9.044579412836216
 20
2.903301837210362
 30
0.0
 70
     8
  0
VERTEX
  5
655
330
634
100
AcDbEntity
  8
0
100
AcDbVertex
100
AcDb2dVertex
 10
9.046875140207387
 20
2.904232767788871
 30
0.0
 70
     8
  0
VERTEX
  5
656
330
634
100
AcDbEntity
  8
0
100
AcDbVertex
100
AcDb2dVertex
 10
9.049057365188306
 20
2.905355233229352
 30
0.0
 70
     8
  0
VERTEX
  5
657
330
634
100
AcDbEntity
  8
0
100
AcDbVertex
100
AcDb2dVertex
 10
9.051120232384529
 20
2.90665163447006
 30
0.0
 70
     8
  0
VERTEX
  5
658
330
634
100
AcDbEntity
  8
0
100
AcDbVertex
100
AcDb2dVertex
 10
9.053055930037029
 20
2.908106652286955
 30
0.0
 70
     8
  0
VERTEX
  5
659
330
634
100
AcDbEntity
  8
0
100
AcDbVertex
100
AcDb2dVertex
 10
9.054848820928394
 20
2.909714086806822
 30
0.0
 70
     8
  0
VERTEX
  5
65A
330
634
100
AcDbEntity
  8
0
100
AcDbVertex
100
AcDb2dVertex
 10
9.056481311476611
 20
2.911470017994155
 30
0.0
 70
     8
  0
VERTEX
  5
65B
330
634
100
AcDbEntity
  8
0
100
AcDbVertex
100
AcDb2dVertex
 10
9.057935808099677
 20
2.913370525813442
 30
0.0
 70
     8
  0
VERTEX
  5
65C
330
634
100
AcDbEntity
  8
0
100
AcDbVertex
100
AcDb2dVertex
 10
9.059194717215584
 20
2.915411690229177
 30
0.0
 70
     8
  0
VERTEX
  5
65D
330
634
100
AcDbEntity
  8
0
100
AcDbVertex
100
AcDb2dVertex
 10
9.060240445242323
 20
2.917589591205852
 30
0.0
 70
     8
  0
VERTEX
  5
65E
330
634
100
AcDbEntity
  8
0
100
AcDbVertex
100
AcDb2dVertex
 10
9.06105539859789
 20
2.919900308707959
 30
0.0
 70
     8
  0
VERTEX
  5
65F
330
634
100
AcDbEntity
  8
0
100
AcDbVertex
100
AcDb2dVertex
 10
9.061621983700272
 20
2.922339922699988
 30
0.0
 70
     8
  0
VERTEX
  5
660
330
634
100
AcDbEntity
  8
0
100
AcDbVertex
100
AcDb2dVertex
 10
9.061925216305998
 20
2.924899952740388
 30
0.0
 70
     8
  0
VERTEX
  5
661
330
634
100
AcDbEntity
  8
0
100
AcDbVertex
100
AcDb2dVertex
 10
9.061960549525709
 20
2.927553676763427
 30
0.0
 70
     8
  0
VERTEX
  5
662
330
634
100
AcDbEntity
  8
0
100
AcDbVertex
100
AcDb2dVertex
 10
9.06172604580858
 20
2.930269812297331
 30
0.0
 70
     8
  0
VERTEX
  5
663
330
634
100
AcDbEntity
  8
0
100
AcDbVertex
100
AcDb2dVertex
 10
9.061219767603786
 20
2.933017076870325
 30
0.0
 70
     8
  0
VERTEX
  5
664
330
634
100
AcDbEntity
  8
0
100
AcDbVertex
100
AcDb2dVertex
 10
9.060439777360505
 20
2.935764188010632
 30
0.0
 70
     8
  0
VERTEX
  5
665
330
634
100
AcDbEntity
  8
0
100
AcDbVertex
100
AcDb2dVertex
 10
9.059384137527907
 20
2.93847986324648
 30
0.0
 70
     8
  0
VERTEX
  5
666
330
634
100
AcDbEntity
  8
0
100
AcDbVertex
100
AcDb2dVertex
 10
9.058050910555171
 20
2.941132820106091
 30
0.0
 70
     8
  0
VERTEX
  5
667
330
634
100
AcDbEntity
  8
0
100
AcDbVertex
100
AcDb2dVertex
 10
9.056438158891469
 20
2.94369177611769
 30
0.0
 70
     8
  0
VERTEX
  5
668
330
634
100
AcDbEntity
  8
0
100
AcDbVertex
100
AcDb2dVertex
 10
9.054551763138038
 20
2.946129363365273
 30
0.0
 70
     8
  0
VERTEX
  5
669
330
634
100
AcDbEntity
  8
0
100
AcDbVertex
100
AcDb2dVertex
 10
9.05242887650436
 20
2.948433872155912
 30
0.0
 70
     8
  0
VERTEX
  5
66A
330
634
100
AcDbEntity
  8
0
100
AcDbVertex
100
AcDb2dVertex
 10
9.050114470351977
 20
2.950597507352447
 30
0.0
 70
     8
  0
VERTEX
  5
66B
330
634
100
AcDbEntity
  8
0
100
AcDbVertex
100
AcDb2dVertex
 10
9.047653516042432
 20
2.952612473817721
 30
0.0
 70
     8
  0
VERTEX
  5
66C
330
634
100
AcDbEntity
  8
0
100
AcDbVertex
100
AcDb2dVertex
 10
9.045090984937268
 20
2.954470976414574
 30
0.0
 70
     8
  0
VERTEX
  5
66D
330
634
100
AcDbEntity
  8
0
100
AcDbVertex
100
AcDb2dVertex
 10
9.04247184839803
 20
2.956165220005849
 30
0.0
 70
     8
  0
VERTEX
  5
66E
330
634
100
AcDbEntity
  8
0
100
AcDbVertex
100
AcDb2dVertex
 10
9.039841077786258
 20
2.957687409454386
 30
0.0
 70
     8
  0
VERTEX
  5
66F
330
634
100
AcDbEntity
  8
0
100
AcDbVertex
100
AcDb2dVertex
 10
9.037243644463496
 20
2.959029749623028
 30
0.0
 70
     8
  0
VERTEX
  5
670
330
634
100
AcDbEntity
  8
0
100
AcDbVertex
100
AcDb2dVertex
 10
9.034719304950045
 20
2.960186723385742
 30
0.0
 70
     8
  0
VERTEX
  5
671
330
634
100
AcDbEntity
  8
0
100
AcDbVertex
100
AcDb2dVertex
 10
9.032286956401226
 20
2.961161925661004
 30
0.0
 70
     8
  0
VERTEX
  5
672
330
634
100
AcDbEntity
  8
0
100
AcDbVertex
100
AcDb2dVertex
 10
9.029960281131123
 20
2.961961229378416
 30
0.0
 70
     8
  0
VERTEX
  5
673
330
634
100
AcDbEntity
  8
0
100
AcDbVertex
100
AcDb2dVertex
 10
9.027752961453817
 20
2.96259050746758
 30
0.0
 70
     8
  0
VERTEX
  5
674
330
634
100
AcDbEntity
  8
0
100
AcDbVertex
100
AcDb2dVertex
 10
9.02567867968339
 20
2.963055632858097
 30
0.0
 70
     8
  0
VERTEX
  5
675
330
634
100
AcDbEntity
  8
0
100
AcDbVertex
100
AcDb2dVertex
 10
9.023751118133919
 20
2.963362478479569
 30
0.0
 70
     8
  0
VERTEX
  5
676
330
634
100
AcDbEntity
  8
0
100
AcDbVertex
100
AcDb2dVertex
 10
9.02198395911949
 20
2.963516917261599
 30
0.0
 70
     8
  0
VERTEX
  5
677
330
634
100
AcDbEntity
  8
0
100
AcDbVertex
100
AcDb2dVertex
 10
9.020390884954184
 20
2.963524822133788
 30
0.0
 70
     8
  0
VERTEX
  5
678
330
634
100
AcDbEntity
  8
0
100
AcDbVertex
100
AcDb2dVertex
 10
9.018977759069385
 20
2.963389454860629
 30
0.0
 70
     8
  0
VERTEX
  5
679
330
634
100
AcDbEntity
  8
0
100
AcDbVertex
100
AcDb2dVertex
 10
9.017719169365712
 20
2.963103632546173
 30
0.0
 70
     8
  0
VERTEX
  5
67A
330
634
100
AcDbEntity
  8
0
100
AcDbVertex
100
AcDb2dVertex
 10
9.016581884861084
 20
2.962657561129362
 30
0.0
 70
     8
  0
VERTEX
  5
67B
330
634
100
AcDbEntity
  8
0
100
AcDbVertex
100
AcDb2dVertex
 10
9.015532674573429
 20
2.962041446549138
 30
0.0
 70
     8
  0
VERTEX
  5
67C
330
634
100
AcDbEntity
  8
0
100
AcDbVertex
100
AcDb2dVertex
 10
9.014538307520663
 20
2.961245494744445
 30
0.0
 70
     8
  0
VERTEX
  5
67D
330
634
100
AcDbEntity
  8
0
100
AcDbVertex
100
AcDb2dVertex
 10
9.013565552720712
 20
2.960259911654223
 30
0.0
 70
     8
  0
VERTEX
  5
67E
330
634
100
AcDbEntity
  8
0
100
AcDbVertex
100
AcDb2dVertex
 10
9.012581179191495
 20
2.959074903217415
 30
0.0
 70
     8
  0
VERTEX
  5
67F
330
634
100
AcDbEntity
  8
0
100
AcDbVertex
100
AcDb2dVertex
 10
9.011551955950937
 20
2.957680675372963
 30
0.0
 70
     8
  0
VERTEX
  5
680
330
634
100
AcDbEntity
  8
0
100
AcDbVertex
100
AcDb2dVertex
 10
9.010457358431966
 20
2.956070373812453
 30
0.0
 70
     8
  0
VERTEX
  5
681
330
634
100
AcDbEntity
  8
0
100
AcDbVertex
100
AcDb2dVertex
 10
9.009327687727547
 20
2.95424890323805
 30
0.0
 70
     8
  0
VERTEX
  5
682
330
634
100
AcDbEntity
  8
0
100
AcDbVertex
100
AcDb2dVertex
 10
9.008205951345653
 20
2.952224108104558
 30
0.0
 70
     8
  0
VERTEX
  5
683
330
634
100
AcDbEntity
  8
0
100
AcDbVertex
100
AcDb2dVertex
 10
9.007135156794254
 20
2.950003832866788
 30
0.0
 70
     8
  0
VERTEX
  5
684
330
634
100
AcDbEntity
  8
0
100
AcDbVertex
100
AcDb2dVertex
 10
9.00615831158132
 20
2.947595921979545
 30
0.0
 70
     8
  0
VERTEX
  5
685
330
634
100
AcDbEntity
  8
0
100
AcDbVertex
100
AcDb2dVertex
 10
9.005318423214824
 20
2.945008219897638
 30
0.0
 70
     8
  0
VERTEX
  5
686
330
634
100
AcDbEntity
  8
0
100
AcDbVertex
100
AcDb2dVertex
 10
9.004658499202739
 20
2.942248571075873
 30
0.0
 70
     8
  0
VERTEX
  5
636
330
634
100
AcDbEntity
  8
0
100
AcDbVertex
100
AcDb2dVertex
 10
9.001384433769267
 20
2.940991570158309
 30
0.0
 70
    16
  0
VERTEX
  5
637
330
634
100
AcDbEntity
  8
0
100
AcDbVertex
100
AcDb2dVertex
 10
9.00740673056039
 20
2.911965820141996
 30
0.0
 70
    16
  0
VERTEX
  5
638
330
634
100
AcDbEntity
  8
0
100
AcDbVertex
100
AcDb2dVertex
 10
9.032439125850557
 20
2.898966795929065
 30
0.0
 70
    16
  0
VERTEX
  5
639
330
634
100
AcDbEntity
  8
0
100
AcDbVertex
100
AcDb2dVertex
 10
9.052455839628582
 20
2.904984042592933
 30
0.0
 70
    16
  0
VERTEX
  5
63A
330
634
100
AcDbEntity
  8
0
100
AcDbVertex
100
AcDb2dVertex
 10
9.064458909942291
 20
2.921006840519562
 30
0.0
 70
    16
  0
VERTEX
  5
63B
330
634
100
AcDbEntity
  8
0
100
AcDbVertex
100
AcDb2dVertex
 10
9.059440422803897
 20
2.945028131528744
 30
0.0
 70
    16
  0
VERTEX
  5
63C
330
634
100
AcDbEntity
  8
0
100
AcDbVertex
100
AcDb2dVertex
 10
9.036408352190932
 20
2.961031290071605
 30
0.0
 70
    16
  0
VERTEX
  5
63D
330
634
100
AcDbEntity
  8
0
100
AcDbVertex
100
AcDb2dVertex
 10
9.018388035213354
 20
2.965025205923002
 30
0.0
 70
    16
  0
SEQEND
  5
63E
330
634
100
AcDbEntity
  8
0
  0
POLYLINE
  5
687
330
19
100
AcDbEntity
  8
0
100
AcDb2dPolyline
 66
     1
 10
0.0
 20
0.0
 30
0.0
 70
     5
 75
     6
  0
VERTEX
  5
688
330
687
100
AcDbEntity
  8
0
100
AcDbVertex
100
AcDb2dVertex
 10
8.987599316500798
 20
2.532574071602421
 30
0.0
 70
    16
  0
VERTEX
  5
691
330
687
100
AcDbEntity
  8
0
100
AcDbVertex
100
AcDb2dVertex
 10
8.964396109923166
 20
2.556251500827393
 30
0.0
 70
     8
  0
VERTEX
  5
692
330
687
100
AcDbEntity
  8
0
100
AcDbVertex
100
AcDb2dVertex
 10
8.96144934304805
 20
2.558219272885909
 30
0.0
 70
     8
  0
VERTEX
  5
693
330
687
100
AcDbEntity
  8
0
100
AcDbVertex
100
AcDb2dVertex
 10
8.958502755908365
 20
2.559866410842193
 30
0.0
 70
     8
  0
VERTEX
  5
694
330
687
100
AcDbEntity
  8
0
100
AcDbVertex
100
AcDb2dVertex
 10
8.955571993575815
 20
2.561185103119872
 30
0.0
 70
     8
  0
VERTEX
  5
695
330
687
100
AcDbEntity
  8
0
100
AcDbVertex
100
AcDb2dVertex
 10
8.952672701122106
 20
2.562167538142571
 30
0.0
 70
     8
  0
VERTEX
  5
696
330
687
100
AcDbEntity
  8
0
100
AcDbVertex
100
AcDb2dVertex
 10
8.949820523618945
 20
2.562805904333914
 30
0.0
 70
     8
  0
VERTEX
  5
697
330
687
100
AcDbEntity
  8
0
100
AcDbVertex
100
AcDb2dVertex
 10
8.947031106138033
 20
2.563092390117528
 30
0.0
 70
     8
  0
VERTEX
  5
698
330
687
100
AcDbEntity
  8
0
100
AcDbVertex
100
AcDb2dVertex
 10
8.944320093751077
 20
2.563019183917036
 30
0.0
 70
     8
  0
VERTEX
  5
699
330
687
100
AcDbEntity
  8
0
100
AcDbVertex
100
AcDb2dVertex
 10
8.941703131529781
 20
2.562578474156066
 30
0.0
 70
     8
  0
VERTEX
  5
69A
330
687
100
AcDbEntity
  8
0
100
AcDbVertex
100
AcDb2dVertex
 10
8.939197817622601
 20
2.561766034678502
 30
0.0
 70
     8
  0
VERTEX
  5
69B
330
687
100
AcDbEntity
  8
0
100
AcDbVertex
100
AcDb2dVertex
 10
8.936829562485002
 20
2.560591981009277
 30
0.0
 70
     8
  0
VERTEX
  5
69C
330
687
100
AcDbEntity
  8
0
100
AcDbVertex
100
AcDb2dVertex
 10
8.934625729649197
 20
2.559070014093583
 30
0.0
 70
     8
  0
VERTEX
  5
69D
330
687
100
AcDbEntity
  8
0
100
AcDbVertex
100
AcDb2dVertex
 10
8.932613682647398
 20
2.557213834876615
 30
0.0
 70
     8
  0
VERTEX
  5
69E
330
687
100
AcDbEntity
  8
0
100
AcDbVertex
100
AcDb2dVertex
 10
8.930820785011825
 20
2.555037144303564
 30
0.0
 70
     8
  0
VERTEX
  5
69F
330
687
100
AcDbEntity
  8
0
100
AcDbVertex
100
AcDb2dVertex
 10
8.929274400274691
 20
2.552553643319624
 30
0.0
 70
     8
  0
VERTEX
  5
6A0
330
687
100
AcDbEntity
  8
0
100
AcDbVertex
100
AcDb2dVertex
 10
8.928001891968208
 20
2.549777032869988
 30
0.0
 70
     8
  0
VERTEX
  5
6A1
330
687
100
AcDbEntity
  8
0
100
AcDbVertex
100
AcDb2dVertex
 10
8.927030623624594
 20
2.546721013899849
 30
0.0
 70
     8
  0
VERTEX
  5
6A2
330
687
100
AcDbEntity
  8
0
100
AcDbVertex
100
AcDb2dVertex
 10
8.926381436890999
 20
2.543408081588192
 30
0.0
 70
     8
  0
VERTEX
  5
6A3
330
687
100
AcDbEntity
  8
0
100
AcDbVertex
100
AcDb2dVertex
 10
8.926049085874327
 20
2.539895908049172
 30
0.0
 70
     8
  0
VERTEX
  5
6A4
330
687
100
AcDbEntity
  8
0
100
AcDbVertex
100
AcDb2dVertex
 10
8.92602180279642
 20
2.536250959630735
 30
0.0
 70
     8
  0
VERTEX
  5
6A5
330
687
100
AcDbEntity
  8
0
100
AcDbVertex
100
AcDb2dVertex
 10
8.926287819879118
 20
2.532539702680829
 30
0.0
 70
     8
  0
VERTEX
  5
6A6
330
687
100
AcDbEntity
  8
0
100
AcDbVertex
100
AcDb2dVertex
 10
8.926835369344262
 20
2.528828603547398
 30
0.0
 70
     8
  0
VERTEX
  5
6A7
330
687
100
AcDbEntity
  8
0
100
AcDbVertex
100
AcDb2dVertex
 10
8.927652683413696
 20
2.525184128578392
 30
0.0
 70
     8
  0
VERTEX
  5
6A8
330
687
100
AcDbEntity
  8
0
100
AcDbVertex
100
AcDb2dVertex
 10
8.928727994309256
 20
2.521672744121755
 30
0.0
 70
     8
  0
VERTEX
  5
6A9
330
687
100
AcDbEntity
  8
0
100
AcDbVertex
100
AcDb2dVertex
 10
8.930049534252786
 20
2.518360916525435
 30
0.0
 70
     8
  0
VERTEX
  5
6AA
330
687
100
AcDbEntity
  8
0
100
AcDbVertex
100
AcDb2dVertex
 10
8.931604238468497
 20
2.515303706738477
 30
0.0
 70
     8
  0
VERTEX
  5
6AB
330
687
100
AcDbEntity
  8
0
100
AcDbVertex
100
AcDb2dVertex
 10
8.933373854190075
 20
2.512510554114314
 30
0.0
 70
     8
  0
VERTEX
  5
6AC
330
687
100
AcDbEntity
  8
0
100
AcDbVertex
100
AcDb2dVertex
 10
8.935338831653573
 20
2.509979492607482
 30
0.0
 70
     8
  0
VERTEX
  5
6AD
330
687
100
AcDbEntity
  8
0
100
AcDbVertex
100
AcDb2dVertex
 10
8.937479621095049
 20
2.507708556172513
 30
0.0
 70
     8
  0
VERTEX
  5
6AE
330
687
100
AcDbEntity
  8
0
100
AcDbVertex
100
AcDb2dVertex
 10
8.939776672750559
 20
2.50569577876394
 30
0.0
 70
     8
  0
VERTEX
  5
6AF
330
687
100
AcDbEntity
  8
0
100
AcDbVertex
100
AcDb2dVertex
 10
8.942210436856158
 20
2.503939194336296
 30
0.0
 70
     8
  0
VERTEX
  5
6B0
330
687
100
AcDbEntity
  8
0
100
AcDbVertex
100
AcDb2dVertex
 10
8.944761363647901
 20
2.502436836844116
 30
0.0
 70
     8
  0
VERTEX
  5
6B1
330
687
100
AcDbEntity
  8
0
100
AcDbVertex
100
AcDb2dVertex
 10
8.947409903361844
 20
2.501186740241931
 30
0.0
 70
     8
  0
VERTEX
  5
6B2
330
687
100
AcDbEntity
  8
0
100
AcDbVertex
100
AcDb2dVertex
 10
8.950133900366014
 20
2.500185307784688
 30
0.0
 70
     8
  0
VERTEX
  5
6B3
330
687
100
AcDbEntity
  8
0
100
AcDbVertex
100
AcDb2dVertex
 10
8.952900775556321
 20
2.49942241992898
 30
0.0
 70
     8
  0
VERTEX
  5
6B4
330
687
100
AcDbEntity
  8
0
100
AcDbVertex
100
AcDb2dVertex
 10
8.955675343960644
 20
2.498886326431811
 30
0.0
 70
     8
  0
VERTEX
  5
6B5
330
687
100
AcDbEntity
  8
0
100
AcDbVertex
100
AcDb2dVertex
 10
8.958422420606867
 20
2.498565277050187
 30
0.0
 70
     8
  0
VERTEX
  5
6B6
330
687
100
AcDbEntity
  8
0
100
AcDbVertex
100
AcDb2dVertex
 10
8.961106820522868
 20
2.498447521541112
 30
0.0
 70
     8
  0
VERTEX
  5
6B7
330
687
100
AcDbEntity
  8
0
100
AcDbVertex
100
AcDb2dVertex
 10
8.963693358736528
 20
2.498521309661593
 30
0.0
 70
     8
  0
VERTEX
  5
6B8
330
687
100
AcDbEntity
  8
0
100
AcDbVertex
100
AcDb2dVertex
 10
8.966146850275729
 20
2.498774891168633
 30
0.0
 70
     8
  0
VERTEX
  5
6B9
330
687
100
AcDbEntity
  8
0
100
AcDbVertex
100
AcDb2dVertex
 10
8.968432110168349
 20
2.499196515819239
 30
0.0
 70
     8
  0
VERTEX
  5
6BA
330
687
100
AcDbEntity
  8
0
100
AcDbVertex
100
AcDb2dVertex
 10
8.970522423107004
 20
2.499778674139166
 30
0.0
 70
     8
  0
VERTEX
  5
6BB
330
687
100
AcDbEntity
  8
0
100
AcDbVertex
100
AcDb2dVertex
 10
8.972424952443243
 20
2.50053081972917
 30
0.0
 70
     8
  0
VERTEX
  5
6BC
330
687
100
AcDbEntity
  8
0
100
AcDbVertex
100
AcDb2dVertex
 10
8.974155331193339
 20
2.501466646958757
 30
0.0
 70
     8
  0
VERTEX
  5
6BD
330
687
100
AcDbEntity
  8
0
100
AcDbVertex
100
AcDb2dVertex
 10
8.975729192373576
 20
2.502599850197434
 30
0.0
 70
     8
  0
VERTEX
  5
6BE
330
687
100
AcDbEntity
  8
0
100
AcDbVertex
100
AcDb2dVertex
 10
8.977162169000232
 20
2.503944123814707
 30
0.0
 70
     8
  0
VERTEX
  5
6BF
330
687
100
AcDbEntity
  8
0
100
AcDbVertex
100
AcDb2dVertex
 10
8.978469894089587
 20
2.505513162180084
 30
0.0
 70
     8
  0
VERTEX
  5
6C0
330
687
100
AcDbEntity
  8
0
100
AcDbVertex
100
AcDb2dVertex
 10
8.979668000657922
 20
2.50732065966307
 30
0.0
 70
     8
  0
VERTEX
  5
6C1
330
687
100
AcDbEntity
  8
0
100
AcDbVertex
100
AcDb2dVertex
 10
8.980772121721513
 20
2.509380310633172
 30
0.0
 70
     8
  0
VERTEX
  5
6C2
330
687
100
AcDbEntity
  8
0
100
AcDbVertex
100
AcDb2dVertex
 10
8.981787467372497
 20
2.511698309118551
 30
0.0
 70
     8
  0
VERTEX
  5
6C3
330
687
100
AcDbEntity
  8
0
100
AcDbVertex
100
AcDb2dVertex
 10
8.982677556006442
 20
2.514250847781978
 30
0.0
 70
     8
  0
VERTEX
  5
6C4
330
687
100
AcDbEntity
  8
0
100
AcDbVertex
100
AcDb2dVertex
 10
8.983395483094769
 20
2.517006618944881
 30
0.0
 70
     8
  0
VERTEX
  5
6C5
330
687
100
AcDbEntity
  8
0
100
AcDbVertex
100
AcDb2dVertex
 10
8.983894344108903
 20
2.519934314928686
 30
0.0
 70
     8
  0
VERTEX
  5
6C6
330
687
100
AcDbEntity
  8
0
100
AcDbVertex
100
AcDb2dVertex
 10
8.984127234520264
 20
2.523002628054819
 30
0.0
 70
     8
  0
VERTEX
  5
6C7
330
687
100
AcDbEntity
  8
0
100
AcDbVertex
100
AcDb2dVertex
 10
8.984047249800279
 20
2.526180250644708
 30
0.0
 70
     8
  0
VERTEX
  5
6C8
330
687
100
AcDbEntity
  8
0
100
AcDbVertex
100
AcDb2dVertex
 10
8.983607485420366
 20
2.529435875019778
 30
0.0
 70
     8
  0
VERTEX
  5
6C9
330
687
100
AcDbEntity
  8
0
100
AcDbVertex
100
AcDb2dVertex
 10
8.982761036851954
 20
2.532738193501456
 30
0.0
 70
     8
  0
VERTEX
  5
6CA
330
687
100
AcDbEntity
  8
0
100
AcDbVertex
100
AcDb2dVertex
 10
8.981477944558325
 20
2.536054278671059
 30
0.0
 70
     8
  0
VERTEX
  5
6CB
330
687
100
AcDbEntity
  8
0
100
AcDbVertex
100
AcDb2dVertex
 10
8.979796028970217
 20
2.53934472414946
 30
0.0
 70
     8
  0
VERTEX
  5
6CC
330
687
100
AcDbEntity
  8
0
100
AcDbVertex
100
AcDb2dVertex
 10
8.977770055510232
 20
2.542568503817422
 30
0.0
 70
     8
  0
VERTEX
  5
6CD
330
687
100
AcDbEntity
  8
0
100
AcDbVertex
100
AcDb2dVertex
 10
8.975454789600969
 20
2.54568459155571
 30
0.0
 70
     8
  0
VERTEX
  5
6CE
330
687
100
AcDbEntity
  8
0
100
AcDbVertex
100
AcDb2dVertex
 10
8.972904996665031
 20
2.548651961245088
 30
0.0
 70
     8
  0
VERTEX
  5
6CF
330
687
100
AcDbEntity
  8
0
100
AcDbVertex
100
AcDb2dVertex
 10
8.970175442125017
 20
2.551429586766318
 30
0.0
 70
     8
  0
VERTEX
  5
6D0
330
687
100
AcDbEntity
  8
0
100
AcDbVertex
100
AcDb2dVertex
 10
8.96732089140353
 20
2.553976442000166
 30
0.0
 70
     8
  0
VERTEX
  5
689
330
687
100
AcDbEntity
  8
0
100
AcDbVertex
100
AcDb2dVertex
 10
8.964561073510078
 20
2.559588274436524
 30
0.0
 70
    16
  0
VERTEX
  5
68A
330
687
100
AcDbEntity
  8
0
100
AcDbVertex
100
AcDb2dVertex
 10
8.940533048997891
 20
2.566581835615846
 30
0.0
 70
    16
  0
VERTEX
  5
68B
330
687
100
AcDbEntity
  8
0
100
AcDbVertex
100
AcDb2dVertex
 10
8.92352551967705
 20
2.549555228036489
 30
0.0
 70
    16
  0
VERTEX
  5
68C
330
687
100
AcDbEntity
  8
0
100
AcDbVertex
100
AcDb2dVertex
 10
8.927548614041472
 20
2.515523335637293
 30
0.0
 70
    16
  0
VERTEX
  5
68D
330
687
100
AcDbEntity
  8
0
100
AcDbVertex
100
AcDb2dVertex
 10
8.946577229673782
 20
2.498516928566952
 30
0.0
 70
    16
  0
VERTEX
  5
68E
330
687
100
AcDbEntity
  8
0
100
AcDbVertex
100
AcDb2dVertex
 10
8.970601887434466
 20
2.497529391546488
 30
0.0
 70
    16
  0
VERTEX
  5
68F
330
687
100
AcDbEntity
  8
0
100
AcDbVertex
100
AcDb2dVertex
 10
8.981607881598453
 20
2.506544600162532
 30
0.0
 70
    16
  0
SEQEND
  5
690
330
687
100
AcDbEntity
  8
0
  0
POLYLINE
  5
6D1
330
19
100
AcDbEntity
  8
0
100
AcDb2dPolyline
 66
     1
 10
0.0
 20
0.0
 30
0.0
 70
     5
 75
     6
  0
VERTEX
  5
6D2
330
6D1
100
AcDbEntity
  8
0
100
AcDbVertex
100
AcDb2dVertex
 10
8.907726049600118
 20
2.163158695812581
 30
0.0
 70
    16
  0
VERTEX
  5
6DE
330
6D1
100
AcDbEntity
  8
0
100
AcDbVertex
100
AcDb2dVertex
 10
8.895192176509644
 20
2.201189834753054
 30
0.0
 70
     8
  0
VERTEX
  5
6DF
330
6D1
100
AcDbEntity
  8
0
100
AcDbVertex
100
AcDb2dVertex
 10
8.892588769738866
 20
2.205050323118589
 30
0.0
 70
     8
  0
VERTEX
  5
6E0
330
6D1
100
AcDbEntity
  8
0
100
AcDbVertex
100
AcDb2dVertex
 10
8.88967466649607
 20
2.208621284502028
 30
0.0
 70
     8
  0
VERTEX
  5
6E1
330
6D1
100
AcDbEntity
  8
0
100
AcDbVertex
100
AcDb2dVertex
 10
8.886467466938951
 20
2.211894908422944
 30
0.0
 70
     8
  0
VERTEX
  5
6E2
330
6D1
100
AcDbEntity
  8
0
100
AcDbVertex
100
AcDb2dVertex
 10
8.882984771225205
 20
2.214863384400908
 30
0.0
 70
     8
  0
VERTEX
  5
6E3
330
6D1
100
AcDbEntity
  8
0
100
AcDbVertex
100
AcDb2dVertex
 10
8.879244179512522
 20
2.217518901955496
 30
0.0
 70
     8
  0
VERTEX
  5
6E4
330
6D1
100
AcDbEntity
  8
0
100
AcDbVertex
100
AcDb2dVertex
 10
8.875263291958598
 20
2.219853650606278
 30
0.0
 70
     8
  0
VERTEX
  5
6E5
330
6D1
100
AcDbEntity
  8
0
100
AcDbVertex
100
AcDb2dVertex
 10
8.871059708721129
 20
2.221859819872829
 30
0.0
 70
     8
  0
VERTEX
  5
6E6
330
6D1
100
AcDbEntity
  8
0
100
AcDbVertex
100
AcDb2dVertex
 10
8.866651029957803
 20
2.223529599274722
 30
0.0
 70
     8
  0
VERTEX
  5
6E7
330
6D1
100
AcDbEntity
  8
0
100
AcDbVertex
100
AcDb2dVertex
 10
8.862059091480647
 20
2.224855832401412
 30
0.0
 70
     8
  0
VERTEX
  5
6E8
330
6D1
100
AcDbEntity
  8
0
100
AcDbVertex
100
AcDb2dVertex
 10
8.85732267171899
 20
2.225833979121888
 30
0.0
 70
     8
  0
VERTEX
  5
6E9
330
6D1
100
AcDbEntity
  8
0
100
AcDbVertex
100
AcDb2dVertex
 10
8.85248478475649
 20
2.226460153375023
 30
0.0
 70
     8
  0
VERTEX
  5
6EA
330
6D1
100
AcDbEntity
  8
0
100
AcDbVertex
100
AcDb2dVertex
 10
8.847588444676804
 20
2.226730469099689
 30
0.0
 70
     8
  0
VERTEX
  5
6EB
330
6D1
100
AcDbEntity
  8
0
100
AcDbVertex
100
AcDb2dVertex
 10
8.842676665563591
 20
2.226641040234758
 30
0.0
 70
     8
  0
VERTEX
  5
6EC
330
6D1
100
AcDbEntity
  8
0
100
AcDbVertex
100
AcDb2dVertex
 10
8.837792461500511
 20
2.226187980719101
 30
0.0
 70
     8
  0
VERTEX
  5
6ED
330
6D1
100
AcDbEntity
  8
0
100
AcDbVertex
100
AcDb2dVertex
 10
8.832978846571219
 20
2.225367404491593
 30
0.0
 70
     8
  0
VERTEX
  5
6EE
330
6D1
100
AcDbEntity
  8
0
100
AcDbVertex
100
AcDb2dVertex
 10
8.828278834859376
 20
2.224175425491104
 30
0.0
 70
     8
  0
VERTEX
  5
6EF
330
6D1
100
AcDbEntity
  8
0
100
AcDbVertex
100
AcDb2dVertex
 10
8.823731526988816
 20
2.222614020722578
 30
0.0
 70
     8
  0
VERTEX
  5
6F0
330
6D1
100
AcDbEntity
  8
0
100
AcDbVertex
100
AcDb2dVertex
 10
8.819360369744089
 20
2.22070861945525
 30
0.0
 70
     8
  0
VERTEX
  5
6F1
330
6D1
100
AcDbEntity
  8
0
100
AcDbVertex
100
AcDb2dVertex
 10
8.815184896449926
 20
2.218490514024423
 30
0.0
 70
     8
  0
VERTEX
  5
6F2
330
6D1
100
AcDbEntity
  8
0
100
AcDbVertex
100
AcDb2dVertex
 10
8.811224640431052
 20
2.215990996765403
 30
0.0
 70
     8
  0
VERTEX
  5
6F3
330
6D1
100
AcDbEntity
  8
0
100
AcDbVertex
100
AcDb2dVertex
 10
8.807499135012195
 20
2.213241360013494
 30
0.0
 70
     8
  0
VERTEX
  5
6F4
330
6D1
100
AcDbEntity
  8
0
100
AcDbVertex
100
AcDb2dVertex
 10
8.804027913518086
 20
2.210272896104001
 30
0.0
 70
     8
  0
VERTEX
  5
6F5
330
6D1
100
AcDbEntity
  8
0
100
AcDbVertex
100
AcDb2dVertex
 10
8.80083050927345
 20
2.20711689737223
 30
0.0
 70
     8
  0
VERTEX
  5
6F6
330
6D1
100
AcDbEntity
  8
0
100
AcDbVertex
100
AcDb2dVertex
 10
8.797926455603015
 20
2.203804656153485
 30
0.0
 70
     8
  0
VERTEX
  5
6F7
330
6D1
100
AcDbEntity
  8
0
100
AcDbVertex
100
AcDb2dVertex
 10
8.79533040250033
 20
2.200359641699245
 30
0.0
 70
     8
  0
VERTEX
  5
6F8
330
6D1
100
AcDbEntity
  8
0
100
AcDbVertex
100
AcDb2dVertex
 10
8.79303746663421
 20
2.196774030925684
 30
0.0
 70
     8
  0
VERTEX
  5
6F9
330
6D1
100
AcDbEntity
  8
0
100
AcDbVertex
100
AcDb2dVertex
 10
8.791037881342295
 20
2.193032177665149
 30
0.0
 70
     8
  0
VERTEX
  5
6FA
330
6D1
100
AcDbEntity
  8
0
100
AcDbVertex
100
AcDb2dVertex
 10
8.789321879962214
 20
2.189118435749988
 30
0.0
 70
     8
  0
VERTEX
  5
6FB
330
6D1
100
AcDbEntity
  8
0
100
AcDbVertex
100
AcDb2dVertex
 10
8.787879695831611
 20
2.185017159012548
 30
0.0
 70
     8
  0
VERTEX
  5
6FC
330
6D1
100
AcDbEntity
  8
0
100
AcDbVertex
100
AcDb2dVertex
 10
8.786701562288117
 20
2.180712701285177
 30
0.0
 70
     8
  0
VERTEX
  5
6FD
330
6D1
100
AcDbEntity
  8
0
100
AcDbVertex
100
AcDb2dVertex
 10
8.785777712669368
 20
2.176189416400223
 30
0.0
 70
     8
  0
VERTEX
  5
6FE
330
6D1
100
AcDbEntity
  8
0
100
AcDbVertex
100
AcDb2dVertex
 10
8.785098380313002
 20
2.171431658190032
 30
0.0
 70
     8
  0
VERTEX
  5
6FF
330
6D1
100
AcDbEntity
  8
0
100
AcDbVertex
100
AcDb2dVertex
 10
8.784657700509024
 20
2.166438445823768
 30
0.0
 70
     8
  0
VERTEX
  5
700
330
6D1
100
AcDbEntity
  8
0
100
AcDbVertex
100
AcDb2dVertex
 10
8.784465416356921
 20
2.16126745981785
 30
0.0
 70
     8
  0
VERTEX
  5
701
330
6D1
100
AcDbEntity
  8
0
100
AcDbVertex
100
AcDb2dVertex
 10
8.784535172908552
 20
2.155991046025514
 30
0.0
 70
     8
  0
VERTEX
  5
702
330
6D1
100
AcDbEntity
  8
0
100
AcDbVertex
100
AcDb2dVertex
 10
8.784880615215773
 20
2.150681550299995
 30
0.0
 70
     8
  0
VERTEX
  5
703
330
6D1
100
AcDbEntity
  8
0
100
AcDbVertex
100
AcDb2dVertex
 10
8.785515388330442
 20
2.145411318494527
 30
0.0
 70
     8
  0
VERTEX
  5
704
330
6D1
100
AcDbEntity
  8
0
100
AcDbVertex
100
AcDb2dVertex
 10
8.786453137304417
 20
2.140252696462347
 30
0.0
 70
     8
  0
VERTEX
  5
705
330
6D1
100
AcDbEntity
  8
0
100
AcDbVertex
100
AcDb2dVertex
 10
8.787707507189555
 20
2.135278030056689
 30
0.0
 70
     8
  0
VERTEX
  5
706
330
6D1
100
AcDbEntity
  8
0
100
AcDbVertex
100
AcDb2dVertex
 10
8.789292143037715
 20
2.130559665130789
 30
0.0
 70
     8
  0
VERTEX
  5
707
330
6D1
100
AcDbEntity
  8
0
100
AcDbVertex
100
AcDb2dVertex
 10
8.791212224619811
 20
2.126157886425174
 30
0.0
 70
     8
  0
VERTEX
  5
708
330
6D1
100
AcDbEntity
  8
0
100
AcDbVertex
100
AcDb2dVertex
 10
8.79343907058299
 20
2.122084734229544
 30
0.0
 70
     8
  0
VERTEX
  5
709
330
6D1
100
AcDbEntity
  8
0
100
AcDbVertex
100
AcDb2dVertex
 10
8.795935534293458
 20
2.118340187720891
 30
0.0
 70
     8
  0
VERTEX
  5
70A
330
6D1
100
AcDbEntity
  8
0
100
AcDbVertex
100
AcDb2dVertex
 10
8.798664469117417
 20
2.114924226076209
 30
0.0
 70
     8
  0
VERTEX
  5
70B
330
6D1
100
AcDbEntity
  8
0
100
AcDbVertex
100
AcDb2dVertex
 10
8.801588728421077
 20
2.11183682847249
 30
0.0
 70
     8
  0
VERTEX
  5
70C
330
6D1
100
AcDbEntity
  8
0
100
AcDbVertex
100
AcDb2dVertex
 10
8.804671165570641
 20
2.109077974086727
 30
0.0
 70
     8
  0
VERTEX
  5
70D
330
6D1
100
AcDbEntity
  8
0
100
AcDbVertex
100
AcDb2dVertex
 10
8.807874633932311
 20
2.106647642095912
 30
0.0
 70
     8
  0
VERTEX
  5
70E
330
6D1
100
AcDbEntity
  8
0
100
AcDbVertex
100
AcDb2dVertex
 10
8.811161986872296
 20
2.104545811677038
 30
0.0
 70
     8
  0
VERTEX
  5
70F
330
6D1
100
AcDbEntity
  8
0
100
AcDbVertex
100
AcDb2dVertex
 10
8.81450389956202
 20
2.10276985960957
 30
0.0
 70
     8
  0
VERTEX
  5
710
330
6D1
100
AcDbEntity
  8
0
100
AcDbVertex
100
AcDb2dVertex
 10
8.817902334393789
 20
2.10130675308286
 30
0.0
 70
     8
  0
VERTEX
  5
711
330
6D1
100
AcDbEntity
  8
0
100
AcDbVertex
100
AcDb2dVertex
 10
8.821367075565133
 20
2.100140856888735
 30
0.0
 70
     8
  0
VERTEX
  5
712
330
6D1
100
AcDbEntity
  8
0
100
AcDbVertex
100
AcDb2dVertex
 10
8.82490790727358
 20
2.099256535819019
 30
0.0
 70
     8
  0
VERTEX
  5
713
330
6D1
100
AcDbEntity
  8
0
100
AcDbVertex
100
AcDb2dVertex
 10
8.828534613716657
 20
2.098638154665536
 30
0.0
 70
     8
  0
VERTEX
  5
714
330
6D1
100
AcDbEntity
  8
0
100
AcDbVertex
100
AcDb2dVertex
 10
8.832256979091893
 20
2.098270078220112
 30
0.0
 70
     8
  0
VERTEX
  5
715
330
6D1
100
AcDbEntity
  8
0
100
AcDbVertex
100
AcDb2dVertex
 10
8.836084787596816
 20
2.098136671274573
 30
0.0
 70
     8
  0
VERTEX
  5
716
330
6D1
100
AcDbEntity
  8
0
100
AcDbVertex
100
AcDb2dVertex
 10
8.840027823428953
 20
2.098222298620743
 30
0.0
 70
     8
  0
VERTEX
  5
717
330
6D1
100
AcDbEntity
  8
0
100
AcDbVertex
100
AcDb2dVertex
 10
8.844087396919969
 20
2.098514578777989
 30
0.0
 70
     8
  0
VERTEX
  5
718
330
6D1
100
AcDbEntity
  8
0
100
AcDbVertex
100
AcDb2dVertex
 10
8.848230922938056
 20
2.099014145175845
 30
0.0
 70
     8
  0
VERTEX
  5
719
330
6D1
100
AcDbEntity
  8
0
100
AcDbVertex
100
AcDb2dVertex
 10
8.85241734248555
 20
2.099724884971387
 30
0.0
 70
     8
  0
VERTEX
  5
71A
330
6D1
100
AcDbEntity
  8
0
100
AcDbVertex
100
AcDb2dVertex
 10
8.85660559656478
 20
2.100650685321689
 30
0.0
 70
     8
  0
VERTEX
  5
71B
330
6D1
100
AcDbEntity
  8
0
100
AcDbVertex
100
AcDb2dVertex
 10
8.860754626178077
 20
2.101795433383828
 30
0.0
 70
     8
  0
VERTEX
  5
71C
330
6D1
100
AcDbEntity
  8
0
100
AcDbVertex
100
AcDb2dVertex
 10
8.864823372327772
 20
2.103163016314879
 30
0.0
 70
     8
  0
VERTEX
  5
71D
330
6D1
100
AcDbEntity
  8
0
100
AcDbVertex
100
AcDb2dVertex
 10
8.868770776016197
 20
2.104757321271918
 30
0.0
 70
     8
  0
VERTEX
  5
71E
330
6D1
100
AcDbEntity
  8
0
100
AcDbVertex
100
AcDb2dVertex
 10
8.872555778245681
 20
2.106582235412021
 30
0.0
 70
     8
  0
VERTEX
  5
71F
330
6D1
100
AcDbEntity
  8
0
100
AcDbVertex
100
AcDb2dVertex
 10
8.876144163550153
 20
2.10864034633742
 30
0.0
 70
     8
  0
VERTEX
  5
720
330
6D1
100
AcDbEntity
  8
0
100
AcDbVertex
100
AcDb2dVertex
 10
8.879529090589911
 20
2.110929043430979
 30
0.0
 70
     8
  0
VERTEX
  5
721
330
6D1
100
AcDbEntity
  8
0
100
AcDbVertex
100
AcDb2dVertex
 10
8.88271056155685
 20
2.113444416520721
 30
0.0
 70
     8
  0
VERTEX
  5
722
330
6D1
100
AcDbEntity
  8
0
100
AcDbVertex
100
AcDb2dVertex
 10
8.885688578642867
 20
2.116182555434666
 30
0.0
 70
     8
  0
VERTEX
  5
723
330
6D1
100
AcDbEntity
  8
0
100
AcDbVertex
100
AcDb2dVertex
 10
8.888463144039859
 20
2.119139550000836
 30
0.0
 70
     8
  0
VERTEX
  5
724
330
6D1
100
AcDbEntity
  8
0
100
AcDbVertex
100
AcDb2dVertex
 10
8.891034259939719
 20
2.122311490047253
 30
0.0
 70
     8
  0
VERTEX
  5
725
330
6D1
100
AcDbEntity
  8
0
100
AcDbVertex
100
AcDb2dVertex
 10
8.893401928534344
 20
2.125694465401939
 30
0.0
 70
     8
  0
VERTEX
  5
726
330
6D1
100
AcDbEntity
  8
0
100
AcDbVertex
100
AcDb2dVertex
 10
8.895566152015629
 20
2.129284565892914
 30
0.0
 70
     8
  0
VERTEX
  5
727
330
6D1
100
AcDbEntity
  8
0
100
AcDbVertex
100
AcDb2dVertex
 10
8.897524978585429
 20
2.133075925166264
 30
0.0
 70
     8
  0
VERTEX
  5
728
330
6D1
100
AcDbEntity
  8
0
100
AcDbVertex
100
AcDb2dVertex
 10
8.899268640485429
 20
2.137054852140325
 30
0.0
 70
     8
  0
VERTEX
  5
729
330
6D1
100
AcDbEntity
  8
0
100
AcDbVertex
100
AcDb2dVertex
 10
8.900785415967279
 20
2.141205699551498
 30
0.0
 70
     8
  0
VERTEX
  5
72A
330
6D1
100
AcDbEntity
  8
0
100
AcDbVertex
100
AcDb2dVertex
 10
8.902063583282624
 20
2.145512820136181
 30
0.0
 70
     8
  0
VERTEX
  5
72B
330
6D1
100
AcDbEntity
  8
0
100
AcDbVertex
100
AcDb2dVertex
 10
8.903091420683113
 20
2.149960566630775
 30
0.0
 70
     8
  0
VERTEX
  5
72C
330
6D1
100
AcDbEntity
  8
0
100
AcDbVertex
100
AcDb2dVertex
 10
8.903857206420391
 20
2.154533291771679
 30
0.0
 70
     8
  0
VERTEX
  5
72D
330
6D1
100
AcDbEntity
  8
0
100
AcDbVertex
100
AcDb2dVertex
 10
8.904349218746104
 20
2.159215348295294
 30
0.0
 70
     8
  0
VERTEX
  5
72E
330
6D1
100
AcDbEntity
  8
0
100
AcDbVertex
100
AcDb2dVertex
 10
8.904555735911901
 20
2.163991088938018
 30
0.0
 70
     8
  0
VERTEX
  5
72F
330
6D1
100
AcDbEntity
  8
0
100
AcDbVertex
100
AcDb2dVertex
 10
8.904466342299955
 20
2.168839979451911
 30
0.0
 70
     8
  0
VERTEX
  5
730
330
6D1
100
AcDbEntity
  8
0
100
AcDbVertex
100
AcDb2dVertex
 10
8.904075846814559
 20
2.173721937651667
 30
0.0
 70
     8
  0
VERTEX
  5
731
330
6D1
100
AcDbEntity
  8
0
100
AcDbVertex
100
AcDb2dVertex
 10
8.903380364490532
 20
2.178591994367637
 30
0.0
 70
     8
  0
VERTEX
  5
732
330
6D1
100
AcDbEntity
  8
0
100
AcDbVertex
100
AcDb2dVertex
 10
8.902376010362696
 20
2.183405180430174
 30
0.0
 70
     8
  0
VERTEX
  5
733
330
6D1
100
AcDbEntity
  8
0
100
AcDbVertex
100
AcDb2dVertex
 10
8.90105889946587
 20
2.188116526669632
 30
0.0
 70
     8
  0
VERTEX
  5
734
330
6D1
100
AcDbEntity
  8
0
100
AcDbVertex
100
AcDb2dVertex
 10
8.89942514683487
 20
2.192681063916363
 30
0.0
 70
     8
  0
VERTEX
  5
735
330
6D1
100
AcDbEntity
  8
0
100
AcDbVertex
100
AcDb2dVertex
 10
8.897470867504522
 20
2.19705382300072
 30
0.0
 70
     8
  0
VERTEX
  5
6D3
330
6D1
100
AcDbEntity
  8
0
100
AcDbVertex
100
AcDb2dVertex
 10
8.89869400722656
 20
2.20419481077086
 30
0.0
 70
    16
  0
VERTEX
  5
6D4
330
6D1
100
AcDbEntity
  8
0
100
AcDbVertex
100
AcDb2dVertex
 10
8.868650980551504
 20
2.227201069622303
 30
0.0
 70
    16
  0
VERTEX
  5
6D5
330
6D1
100
AcDbEntity
  8
0
100
AcDbVertex
100
AcDb2dVertex
 10
8.826608250314246
 20
2.228178506388259
 30
0.0
 70
    16
  0
VERTEX
  5
6D6
330
6D1
100
AcDbEntity
  8
0
100
AcDbVertex
100
AcDb2dVertex
 10
8.79458902734776
 20
2.205137457771285
 30
0.0
 70
    16
  0
VERTEX
  5
6D7
330
6D1
100
AcDbEntity
  8
0
100
AcDbVertex
100
AcDb2dVertex
 10
8.78259437391281
 20
2.17409959944751
 30
0.0
 70
    16
  0
VERTEX
  5
6D8
330
6D1
100
AcDbEntity
  8
0
100
AcDbVertex
100
AcDb2dVertex
 10
8.785623758879011
 20
2.127054093578869
 30
0.0
 70
    16
  0
VERTEX
  5
6D9
330
6D1
100
AcDbEntity
  8
0
100
AcDbVertex
100
AcDb2dVertex
 10
8.810663448797435
 20
2.101042017021745
 30
0.0
 70
    16
  0
VERTEX
  5
6DA
330
6D1
100
AcDbEntity
  8
0
100
AcDbVertex
100
AcDb2dVertex
 10
8.838694367165028
 20
2.096052708396377
 30
0.0
 70
    16
  0
VERTEX
  5
6DB
330
6D1
100
AcDbEntity
  8
0
100
AcDbVertex
100
AcDb2dVertex
 10
8.874726023116175
 20
2.104080941117206
 30
0.0
 70
    16
  0
VERTEX
  5
6DC
330
6D1
100
AcDbEntity
  8
0
100
AcDbVertex
100
AcDb2dVertex
 10
8.89773620984437
 20
2.127116939606925
 30
0.0
 70
    16
  0
SEQEND
  5
6DD
330
6D1
100
AcDbEntity
  8
0
  0
POLYLINE
  5
736
330
19
100
AcDbEntity
  8
0
100
AcDb2dPolyline
 66
     1
 10
0.0
 20
0.0
 30
0.0
 70
     5
 75
     6
  0
VERTEX
  5
737
330
736
100
AcDbEntity
  8
0
100
AcDbVertex
100
AcDb2dVertex
 10
9.142929450557547
 20
2.22134879378208
 30
0.0
 70
    16
  0
VERTEX
  5
741
330
736
100
AcDbEntity
  8
0
100
AcDbVertex
100
AcDb2dVertex
 10
9.122914139592648
 20
2.212829037052021
 30
0.0
 70
     8
  0
VERTEX
  5
742
330
736
100
AcDbEntity
  8
0
100
AcDbVertex
100
AcDb2dVertex
 10
9.120712419293993
 20
2.211026190545158
 30
0.0
 70
     8
  0
VERTEX
  5
743
330
736
100
AcDbEntity
  8
0
100
AcDbVertex
100
AcDb2dVertex
 10
9.118620298885247
 20
2.209018121382503
 30
0.0
 70
     8
  0
VERTEX
  5
744
330
736
100
AcDbEntity
  8
0
100
AcDbVertex
100
AcDb2dVertex
 10
9.116653402615109
 20
2.206834164621474
 30
0.0
 70
     8
  0
VERTEX
  5
745
330
736
100
AcDbEntity
  8
0
100
AcDbVertex
100
AcDb2dVertex
 10
9.114827354732276
 20
2.204503655319494
 30
0.0
 70
     8
  0
VERTEX
  5
746
330
736
100
AcDbEntity
  8
0
100
AcDbVertex
100
AcDb2dVertex
 10
9.113157779485444
 20
2.202055928533981
 30
0.0
 70
     8
  0
VERTEX
  5
747
330
736
100
AcDbEntity
  8
0
100
AcDbVertex
100
AcDb2dVertex
 10
9.111660301123314
 20
2.199520319322356
 30
0.0
 70
     8
  0
VERTEX
  5
748
330
736
100
AcDbEntity
  8
0
100
AcDbVertex
100
AcDb2dVertex
 10
9.110350543894578
 20
2.196926162742038
 30
0.0
 70
     8
  0
VERTEX
  5
749
330
736
100
AcDbEntity
  8
0
100
AcDbVertex
100
AcDb2dVertex
 10
9.109244132047939
 20
2.19430279385045
 30
0.0
 70
     8
  0
VERTEX
  5
74A
330
736
100
AcDbEntity
  8
0
100
AcDbVertex
100
AcDb2dVertex
 10
9.108355715211623
 20
2.191674333594398
 30
0.0
 70
     8
  0
VERTEX
  5
74B
330
736
100
AcDbEntity
  8
0
100
AcDbVertex
100
AcDb2dVertex
 10
9.107696044531993
 20
2.189044046478244
 30
0.0
 70
     8
  0
VERTEX
  5
74C
330
736
100
AcDbEntity
  8
0
100
AcDbVertex
100
AcDb2dVertex
 10
9.107274896534941
 20
2.186409982895738
 30
0.0
 70
     8
  0
VERTEX
  5
74D
330
736
100
AcDbEntity
  8
0
100
AcDbVertex
100
AcDb2dVertex
 10
9.107102047746364
 20
2.183770193240629
 30
0.0
 70
     8
  0
VERTEX
  5
74E
330
736
100
AcDbEntity
  8
0
100
AcDbVertex
100
AcDb2dVertex
 10
9.107187274692153
 20
2.181122727906667
 30
0.0
 70
     8
  0
VERTEX
  5
74F
330
736
100
AcDbEntity
  8
0
100
AcDbVertex
100
AcDb2dVertex
 10
9.107540353898203
 20
2.178465637287602
 30
0.0
 70
     8
  0
VERTEX
  5
750
330
736
100
AcDbEntity
  8
0
100
AcDbVertex
100
AcDb2dVertex
 10
9.108171061890408
 20
2.175796971777182
 30
0.0
 70
     8
  0
VERTEX
  5
751
330
736
100
AcDbEntity
  8
0
100
AcDbVertex
100
AcDb2dVertex
 10
9.109089175194661
 20
2.173114781769157
 30
0.0
 70
     8
  0
VERTEX
  5
752
330
736
100
AcDbEntity
  8
0
100
AcDbVertex
100
AcDb2dVertex
 10
9.110297624248052
 20
2.170422979079429
 30
0.0
 70
     8
  0
VERTEX
  5
753
330
736
100
AcDbEntity
  8
0
100
AcDbVertex
100
AcDb2dVertex
 10
9.111771955132445
 20
2.167748921212497
 30
0.0
 70
     8
  0
VERTEX
  5
754
330
736
100
AcDbEntity
  8
0
100
AcDbVertex
100
AcDb2dVertex
 10
9.113480867840901
 20
2.165125827095016
 30
0.0
 70
     8
  0
VERTEX
  5
755
330
736
100
AcDbEntity
  8
0
100
AcDbVertex
100
AcDb2dVertex
 10
9.115393062366481
 20
2.162586915653638
 30
0.0
 70
     8
  0
VERTEX
  5
756
330
736
100
AcDbEntity
  8
0
100
AcDbVertex
100
AcDb2dVertex
 10
9.117477238702248
 20
2.160165405815014
 30
0.0
 70
     8
  0
VERTEX
  5
757
330
736
100
AcDbEntity
  8
0
100
AcDbVertex
100
AcDb2dVertex
 10
9.119702096841261
 20
2.157894516505799
 30
0.0
 70
     8
  0
VERTEX
  5
758
330
736
100
AcDbEntity
  8
0
100
AcDbVertex
100
AcDb2dVertex
 10
9.12203633677658
 20
2.155807466652643
 30
0.0
 70
     8
  0
VERTEX
  5
759
330
736
100
AcDbEntity
  8
0
100
AcDbVertex
100
AcDb2dVertex
 10
9.124448658501267
 20
2.1539374751822
 30
0.0
 70
     8
  0
VERTEX
  5
75A
330
736
100
AcDbEntity
  8
0
100
AcDbVertex
100
AcDb2dVertex
 10
9.126911023772875
 20
2.152311897589735
 30
0.0
 70
     8
  0
VERTEX
  5
75B
330
736
100
AcDbEntity
  8
0
100
AcDbVertex
100
AcDb2dVertex
 10
9.129408441406923
 20
2.150934635644958
 30
0.0
 70
     8
  0
VERTEX
  5
75C
330
736
100
AcDbEntity
  8
0
100
AcDbVertex
100
AcDb2dVertex
 10
9.131929181983425
 20
2.149803727686196
 30
0.0
 70
     8
  0
VERTEX
  5
75D
330
736
100
AcDbEntity
  8
0
100
AcDbVertex
100
AcDb2dVertex
 10
9.134461516082395
 20
2.148917212051771
 30
0.0
 70
     8
  0
VERTEX
  5
75E
330
736
100
AcDbEntity
  8
0
100
AcDbVertex
100
AcDb2dVertex
 10
9.13699371428384
 20
2.148273127080009
 30
0.0
 70
     8
  0
VERTEX
  5
75F
330
736
100
AcDbEntity
  8
0
100
AcDbVertex
100
AcDb2dVertex
 10
9.139514047167777
 20
2.147869511109234
 30
0.0
 70
     8
  0
VERTEX
  5
760
330
736
100
AcDbEntity
  8
0
100
AcDbVertex
100
AcDb2dVertex
 10
9.142010785314218
 20
2.147704402477769
 30
0.0
 70
     8
  0
VERTEX
  5
761
330
736
100
AcDbEntity
  8
0
100
AcDbVertex
100
AcDb2dVertex
 10
9.144472199303174
 20
2.147775839523939
 30
0.0
 70
     8
  0
VERTEX
  5
762
330
736
100
AcDbEntity
  8
0
100
AcDbVertex
100
AcDb2dVertex
 10
9.146885582902295
 20
2.148080556647435
 30
0.0
 70
     8
  0
VERTEX
  5
763
330
736
100
AcDbEntity
  8
0
100
AcDbVertex
100
AcDb2dVertex
 10
9.149234322629782
 20
2.148610072493414
 30
0.0
 70
     8
  0
VERTEX
  5
764
330
736
100
AcDbEntity
  8
0
100
AcDbVertex
100
AcDb2dVertex
 10
9.151500828191468
 20
2.149354601768401
 30
0.0
 70
     8
  0
VERTEX
  5
765
330
736
100
AcDbEntity
  8
0
100
AcDbVertex
100
AcDb2dVertex
 10
9.153667509293189
 20
2.15030435917892
 30
0.0
 70
     8
  0
VERTEX
  5
766
330
736
100
AcDbEntity
  8
0
100
AcDbVertex
100
AcDb2dVertex
 10
9.155716775640784
 20
2.151449559431495
 30
0.0
 70
     8
  0
VERTEX
  5
767
330
736
100
AcDbEntity
  8
0
100
AcDbVertex
100
AcDb2dVertex
 10
9.157631036940085
 20
2.15278041723265
 30
0.0
 70
     8
  0
VERTEX
  5
768
330
736
100
AcDbEntity
  8
0
100
AcDbVertex
100
AcDb2dVertex
 10
9.15939270289693
 20
2.154287147288909
 30
0.0
 70
     8
  0
VERTEX
  5
769
330
736
100
AcDbEntity
  8
0
100
AcDbVertex
100
AcDb2dVertex
 10
9.160984183217154
 20
2.155959964306796
 30
0.0
 70
     8
  0
VERTEX
  5
76A
330
736
100
AcDbEntity
  8
0
100
AcDbVertex
100
AcDb2dVertex
 10
9.162390166896328
 20
2.157792016900425
 30
0.0
 70
     8
  0
VERTEX
  5
76B
330
736
100
AcDbEntity
  8
0
100
AcDbVertex
100
AcDb2dVertex
 10
9.163604460088946
 20
2.159788189314268
 30
0.0
 70
     8
  0
VERTEX
  5
76C
330
736
100
AcDbEntity
  8
0
100
AcDbVertex
100
AcDb2dVertex
 10
9.16462314823924
 20
2.161956299700386
 30
0.0
 70
     8
  0
VERTEX
  5
76D
330
736
100
AcDbEntity
  8
0
100
AcDbVertex
100
AcDb2dVertex
 10
9.165442316791442
 20
2.164304166210841
 30
0.0
 70
     8
  0
VERTEX
  5
76E
330
736
100
AcDbEntity
  8
0
100
AcDbVertex
100
AcDb2dVertex
 10
9.166058051189781
 20
2.166839606997694
 30
0.0
 70
     8
  0
VERTEX
  5
76F
330
736
100
AcDbEntity
  8
0
100
AcDbVertex
100
AcDb2dVertex
 10
9.166466436878489
 20
2.169570440213005
 30
0.0
 70
     8
  0
VERTEX
  5
770
330
736
100
AcDbEntity
  8
0
100
AcDbVertex
100
AcDb2dVertex
 10
9.166663559301794
 20
2.172504484008837
 30
0.0
 70
     8
  0
VERTEX
  5
771
330
736
100
AcDbEntity
  8
0
100
AcDbVertex
100
AcDb2dVertex
 10
9.166645503903929
 20
2.175649556537251
 30
0.0
 70
     8
  0
VERTEX
  5
772
330
736
100
AcDbEntity
  8
0
100
AcDbVertex
100
AcDb2dVertex
 10
9.166410317790801
 20
2.179001746530321
 30
0.0
 70
     8
  0
VERTEX
  5
773
330
736
100
AcDbEntity
  8
0
100
AcDbVertex
100
AcDb2dVertex
 10
9.165963894715015
 20
2.18251022504017
 30
0.0
 70
     8
  0
VERTEX
  5
774
330
736
100
AcDbEntity
  8
0
100
AcDbVertex
100
AcDb2dVertex
 10
9.16531409009086
 20
2.186112433698935
 30
0.0
 70
     8
  0
VERTEX
  5
775
330
736
100
AcDbEntity
  8
0
100
AcDbVertex
100
AcDb2dVertex
 10
9.164468759332619
 20
2.189745814138752
 30
0.0
 70
     8
  0
VERTEX
  5
776
330
736
100
AcDbEntity
  8
0
100
AcDbVertex
100
AcDb2dVertex
 10
9.163435757854579
 20
2.193347807991756
 30
0.0
 70
     8
  0
VERTEX
  5
777
330
736
100
AcDbEntity
  8
0
100
AcDbVertex
100
AcDb2dVertex
 10
9.162222941071024
 20
2.196855856890086
 30
0.0
 70
     8
  0
VERTEX
  5
778
330
736
100
AcDbEntity
  8
0
100
AcDbVertex
100
AcDb2dVertex
 10
9.160838164396237
 20
2.200207402465876
 30
0.0
 70
     8
  0
VERTEX
  5
779
330
736
100
AcDbEntity
  8
0
100
AcDbVertex
100
AcDb2dVertex
 10
9.159289283244505
 20
2.203339886351262
 30
0.0
 70
     8
  0
VERTEX
  5
77A
330
736
100
AcDbEntity
  8
0
100
AcDbVertex
100
AcDb2dVertex
 10
9.157585125276027
 20
2.206200200308637
 30
0.0
 70
     8
  0
VERTEX
  5
77B
330
736
100
AcDbEntity
  8
0
100
AcDbVertex
100
AcDb2dVertex
 10
9.155738407134656
 20
2.208773036621412
 30
0.0
 70
     8
  0
VERTEX
  5
77C
330
736
100
AcDbEntity
  8
0
100
AcDbVertex
100
AcDb2dVertex
 10
9.153762817710161
 20
2.211052537703253
 30
0.0
 70
     8
  0
VERTEX
  5
77D
330
736
100
AcDbEntity
  8
0
100
AcDbVertex
100
AcDb2dVertex
 10
9.15167204589231
 20
2.213032845967827
 30
0.0
 70
     8
  0
VERTEX
  5
77E
330
736
100
AcDbEntity
  8
0
100
AcDbVertex
100
AcDb2dVertex
 10
9.149479780570868
 20
2.214708103828801
 30
0.0
 70
     8
  0
VERTEX
  5
77F
330
736
100
AcDbEntity
  8
0
100
AcDbVertex
100
AcDb2dVertex
 10
9.147199710635606
 20
2.216072453699841
 30
0.0
 70
     8
  0
VERTEX
  5
780
330
736
100
AcDbEntity
  8
0
100
AcDbVertex
100
AcDb2dVertex
 10
9.144845524976288
 20
2.217120037994615
 30
0.0
 70
     8
  0
VERTEX
  5
781
330
736
100
AcDbEntity
  8
0
100
AcDbVertex
100
AcDb2dVertex
 10
9.142430912482686
 20
2.217844999126787
 30
0.0
 70
     8
  0
VERTEX
  5
782
330
736
100
AcDbEntity
  8
0
100
AcDbVertex
100
AcDb2dVertex
 10
9.139970212095973
 20
2.218244412504326
 30
0.0
 70
     8
  0
VERTEX
  5
783
330
736
100
AcDbEntity
  8
0
100
AcDbVertex
100
AcDb2dVertex
 10
9.137480362962959
 20
2.218327085512396
 30
0.0
 70
     8
  0
VERTEX
  5
784
330
736
100
AcDbEntity
  8
0
100
AcDbVertex
100
AcDb2dVertex
 10
9.134978954281859
 20
2.218104758530463
 30
0.0
 70
     8
  0
VERTEX
  5
785
330
736
100
AcDbEntity
  8
0
100
AcDbVertex
100
AcDb2dVertex
 10
9.132483575250889
 20
2.217589171937991
 30
0.0
 70
     8
  0
VERTEX
  5
786
330
736
100
AcDbEntity
  8
0
100
AcDbVertex
100
AcDb2dVertex
 10
9.130011815068267
 20
2.216792066114446
 30
0.0
 70
     8
  0
VERTEX
  5
787
330
736
100
AcDbEntity
  8
0
100
AcDbVertex
100
AcDb2dVertex
 10
9.127581262932209
 20
2.215725181439292
 30
0.0
 70
     8
  0
VERTEX
  5
788
330
736
100
AcDbEntity
  8
0
100
AcDbVertex
100
AcDb2dVertex
 10
9.12520950804093
 20
2.214400258291995
 30
0.0
 70
     8
  0
VERTEX
  5
738
330
736
100
AcDbEntity
  8
0
100
AcDbVertex
100
AcDb2dVertex
 10
9.121911732753047
 20
2.215330985992961
 30
0.0
 70
    16
  0
VERTEX
  5
739
330
736
100
AcDbEntity
  8
0
100
AcDbVertex
100
AcDb2dVertex
 10
9.10690845598616
 20
2.194301484558199
 30
0.0
 70
    16
  0
VERTEX
  5
73A
330
736
100
AcDbEntity
  8
0
100
AcDbVertex
100
AcDb2dVertex
 10
9.105919235589944
 20
2.173279838876943
 30
0.0
 70
    16
  0
VERTEX
  5
73B
330
736
100
AcDbEntity
  8
0
100
AcDbVertex
100
AcDb2dVertex
 10
9.123949652822031
 20
2.151267850548971
 30
0.0
 70
    16
  0
VERTEX
  5
73C
330
736
100
AcDbEntity
  8
0
100
AcDbVertex
100
AcDb2dVertex
 10
9.144974104129538
 20
2.145273610020373
 30
0.0
 70
    16
  0
VERTEX
  5
73D
330
736
100
AcDbEntity
  8
0
100
AcDbVertex
100
AcDb2dVertex
 10
9.162987126478859
 20
2.154292746513169
 30
0.0
 70
    16
  0
VERTEX
  5
73E
330
736
100
AcDbEntity
  8
0
100
AcDbVertex
100
AcDb2dVertex
 10
9.168982489257958
 20
2.173315189767724
 30
0.0
 70
    16
  0
VERTEX
  5
73F
330
736
100
AcDbEntity
  8
0
100
AcDbVertex
100
AcDb2dVertex
 10
9.160955939912881
 20
2.206343833639442
 30
0.0
 70
    16
  0
SEQEND
  5
740
330
736
100
AcDbEntity
  8
0
  0
POLYLINE
  5
789
330
19
100
AcDbEntity
  8
0
100
AcDb2dPolyline
 66
     1
 10
0.0
 20
0.0
 30
0.0
 70
     5
 75
     6
  0
VERTEX
  5
78A
330
789
100
AcDbEntity
  8
0
100
AcDbVertex
100
AcDb2dVertex
 10
8.950900526047219
 20
1.928947882002869
 30
0.0
 70
    16
  0
VERTEX
  5
794
330
789
100
AcDbEntity
  8
0
100
AcDbVertex
100
AcDb2dVertex
 10
8.970083724449308
 20
1.933796823031473
 30
0.0
 70
     8
  0
VERTEX
  5
795
330
789
100
AcDbEntity
  8
0
100
AcDbVertex
100
AcDb2dVertex
 10
8.971934547925075
 20
1.934944844674335
 30
0.0
 70
     8
  0
VERTEX
  5
796
330
789
100
AcDbEntity
  8
0
100
AcDbVertex
100
AcDb2dVertex
 10
8.973601505642035
 20
1.936249170177244
 30
0.0
 70
     8
  0
VERTEX
  5
797
330
789
100
AcDbEntity
  8
0
100
AcDbVertex
100
AcDb2dVertex
 10
8.975072875851838
 20
1.937694152276601
 30
0.0
 70
     8
  0
VERTEX
  5
798
330
789
100
AcDbEntity
  8
0
100
AcDbVertex
100
AcDb2dVertex
 10
8.976336936806126
 20
1.939264143708806
 30
0.0
 70
     8
  0
VERTEX
  5
799
330
789
100
AcDbEntity
  8
0
100
AcDbVertex
100
AcDb2dVertex
 10
8.977381966756548
 20
1.940943497210258
 30
0.0
 70
     8
  0
VERTEX
  5
79A
330
789
100
AcDbEntity
  8
0
100
AcDbVertex
100
AcDb2dVertex
 10
8.978196243954752
 20
1.942716565517357
 30
0.0
 70
     8
  0
VERTEX
  5
79B
330
789
100
AcDbEntity
  8
0
100
AcDbVertex
100
AcDb2dVertex
 10
8.978768046652384
 20
1.944567701366503
 30
0.0
 70
     8
  0
VERTEX
  5
79C
330
789
100
AcDbEntity
  8
0
100
AcDbVertex
100
AcDb2dVertex
 10
8.979085653101089
 20
1.946481257494096
 30
0.0
 70
     8
  0
VERTEX
  5
79D
330
789
100
AcDbEntity
  8
0
100
AcDbVertex
100
AcDb2dVertex
 10
8.979140926242144
 20
1.948440936950443
 30
0.0
 70
     8
  0
VERTEX
  5
79E
330
789
100
AcDbEntity
  8
0
100
AcDbVertex
100
AcDb2dVertex
 10
8.978940067775346
 20
1.950427844041482
 30
0.0
 70
     8
  0
VERTEX
  5
79F
330
789
100
AcDbEntity
  8
0
100
AcDbVertex
100
AcDb2dVertex
 10
8.978492864090114
 20
1.952422433387062
 30
0.0
 70
     8
  0
VERTEX
  5
7A0
330
789
100
AcDbEntity
  8
0
100
AcDbVertex
100
AcDb2dVertex
 10
8.977809101575875
 20
1.954405159607028
 30
0.0
 70
     8
  0
VERTEX
  5
7A1
330
789
100
AcDbEntity
  8
0
100
AcDbVertex
100
AcDb2dVertex
 10
8.976898566622053
 20
1.956356477321227
 30
0.0
 70
     8
  0
VERTEX
  5
7A2
330
789
100
AcDbEntity
  8
0
100
AcDbVertex
100
AcDb2dVertex
 10
8.975771045618068
 20
1.958256841149506
 30
0.0
 70
     8
  0
VERTEX
  5
7A3
330
789
100
AcDbEntity
  8
0
100
AcDbVertex
100
AcDb2dVertex
 10
8.974436324953345
 20
1.960086705711712
 30
0.0
 70
     8
  0
VERTEX
  5
7A4
330
789
100
AcDbEntity
  8
0
100
AcDbVertex
100
AcDb2dVertex
 10
8.972904191017308
 20
1.961826525627689
 30
0.0
 70
     8
  0
VERTEX
  5
7A5
330
789
100
AcDbEntity
  8
0
100
AcDbVertex
100
AcDb2dVertex
 10
8.971185733407385
 20
1.963457082095584
 30
0.0
 70
     8
  0
VERTEX
  5
7A6
330
789
100
AcDbEntity
  8
0
100
AcDbVertex
100
AcDb2dVertex
 10
8.969297254553004
 20
1.964960462626725
 30
0.0
 70
     8
  0
VERTEX
  5
7A7
330
789
100
AcDbEntity
  8
0
100
AcDbVertex
100
AcDb2dVertex
 10
8.967256360091598
 20
1.96631908131074
 30
0.0
 70
     8
  0
VERTEX
  5
7A8
330
789
100
AcDbEntity
  8
0
100
AcDbVertex
100
AcDb2dVertex
 10
8.9650806556606
 20
1.967515352237255
 30
0.0
 70
     8
  0
VERTEX
  5
7A9
330
789
100
AcDbEntity
  8
0
100
AcDbVertex
100
AcDb2dVertex
 10
8.962787746897442
 20
1.968531689495897
 30
0.0
 70
     8
  0
VERTEX
  5
7AA
330
789
100
AcDbEntity
  8
0
100
AcDbVertex
100
AcDb2dVertex
 10
8.960395239439558
 20
1.969350507176293
 30
0.0
 70
     8
  0
VERTEX
  5
7AB
330
789
100
AcDbEntity
  8
0
100
AcDbVertex
100
AcDb2dVertex
 10
8.957920738924381
 20
1.96995421936807
 30
0.0
 70
     8
  0
VERTEX
  5
7AC
330
789
100
AcDbEntity
  8
0
100
AcDbVertex
100
AcDb2dVertex
 10
8.955381850989342
 20
1.970325240160856
 30
0.0
 70
     8
  0
VERTEX
  5
7AD
330
789
100
AcDbEntity
  8
0
100
AcDbVertex
100
AcDb2dVertex
 10
8.952798132156731
 20
1.970453479236515
 30
0.0
 70
     8
  0
VERTEX
  5
7AE
330
789
100
AcDbEntity
  8
0
100
AcDbVertex
100
AcDb2dVertex
 10
8.950196942488262
 20
1.970358828645875
 30
0.0
 70
     8
  0
VERTEX
  5
7AF
330
789
100
AcDbEntity
  8
0
100
AcDbVertex
100
AcDb2dVertex
 10
8.947607592930503
 20
1.970068676032
 30
0.0
 70
     8
  0
VERTEX
  5
7B0
330
789
100
AcDbEntity
  8
0
100
AcDbVertex
100
AcDb2dVertex
 10
8.945059394430023
 20
1.969610409037956
 30
0.0
 70
     8
  0
VERTEX
  5
7B1
330
789
100
AcDbEntity
  8
0
100
AcDbVertex
100
AcDb2dVertex
 10
8.942581657933395
 20
1.969011415306808
 30
0.0
 70
     8
  0
VERTEX
  5
7B2
330
789
100
AcDbEntity
  8
0
100
AcDbVertex
100
AcDb2dVertex
 10
8.940203694387186
 20
1.96829908248162
 30
0.0
 70
     8
  0
VERTEX
  5
7B3
330
789
100
AcDbEntity
  8
0
100
AcDbVertex
100
AcDb2dVertex
 10
8.937954814737966
 20
1.96750079820546
 30
0.0
 70
     8
  0
VERTEX
  5
7B4
330
789
100
AcDbEntity
  8
0
100
AcDbVertex
100
AcDb2dVertex
 10
8.935864329932304
 20
1.966643950121391
 30
0.0
 70
     8
  0
VERTEX
  5
7B5
330
789
100
AcDbEntity
  8
0
100
AcDbVertex
100
AcDb2dVertex
 10
8.933956014976969
 20
1.965749731661661
 30
0.0
 70
     8
  0
VERTEX
  5
7B6
330
789
100
AcDbEntity
  8
0
100
AcDbVertex
100
AcDb2dVertex
 10
8.932231501119524
 20
1.964814559415247
 30
0.0
 70
     8
  0
VERTEX
  5
7B7
330
789
100
AcDbEntity
  8
0
100
AcDbVertex
100
AcDb2dVertex
 10
8.930686883667727
 20
1.963828655760307
 30
0.0
 70
     8
  0
VERTEX
  5
7B8
330
789
100
AcDbEntity
  8
0
100
AcDbVertex
100
AcDb2dVertex
 10
8.92931825792934
 20
1.962782243074999
 30
0.0
 70
     8
  0
VERTEX
  5
7B9
330
789
100
AcDbEntity
  8
0
100
AcDbVertex
100
AcDb2dVertex
 10
8.928121719212124
 20
1.961665543737482
 30
0.0
 70
     8
  0
VERTEX
  5
7BA
330
789
100
AcDbEntity
  8
0
100
AcDbVertex
100
AcDb2dVertex
 10
8.927093362823836
 20
1.960468780125915
 30
0.0
 70
     8
  0
VERTEX
  5
7BB
330
789
100
AcDbEntity
  8
0
100
AcDbVertex
100
AcDb2dVertex
 10
8.926229284072241
 20
1.959182174618455
 30
0.0
 70
     8
  0
VERTEX
  5
7BC
330
789
100
AcDbEntity
  8
0
100
AcDbVertex
100
AcDb2dVertex
 10
8.925525578265093
 20
1.95779594959326
 30
0.0
 70
     8
  0
VERTEX
  5
7BD
330
789
100
AcDbEntity
  8
0
100
AcDbVertex
100
AcDb2dVertex
 10
8.924978988752329
 20
1.956306844747104
 30
0.0
 70
     8
  0
VERTEX
  5
7BE
330
789
100
AcDbEntity
  8
0
100
AcDbVertex
100
AcDb2dVertex
 10
8.92458885105256
 20
1.954737669051211
 30
0.0
 70
     8
  0
VERTEX
  5
7BF
330
789
100
AcDbEntity
  8
0
100
AcDbVertex
100
AcDb2dVertex
 10
8.924355148726571
 20
1.953117748795418
 30
0.0
 70
     8
  0
VERTEX
  5
7C0
330
789
100
AcDbEntity
  8
0
100
AcDbVertex
100
AcDb2dVertex
 10
8.924277865335142
 20
1.951476410269565
 30
0.0
 70
     8
  0
VERTEX
  5
7C1
330
789
100
AcDbEntity
  8
0
100
AcDbVertex
100
AcDb2dVertex
 10
8.92435698443906
 20
1.949842979763488
 30
0.0
 70
     8
  0
VERTEX
  5
7C2
330
789
100
AcDbEntity
  8
0
100
AcDbVertex
100
AcDb2dVertex
 10
8.924592489599107
 20
1.948246783567028
 30
0.0
 70
     8
  0
VERTEX
  5
7C3
330
789
100
AcDbEntity
  8
0
100
AcDbVertex
100
AcDb2dVertex
 10
8.924984364376067
 20
1.946717147970021
 30
0.0
 70
     8
  0
VERTEX
  5
7C4
330
789
100
AcDbEntity
  8
0
100
AcDbVertex
100
AcDb2dVertex
 10
8.925532592330725
 20
1.945283399262305
 30
0.0
 70
     8
  0
VERTEX
  5
7C5
330
789
100
AcDbEntity
  8
0
100
AcDbVertex
100
AcDb2dVertex
 10
8.92623618386466
 20
1.943967042841789
 30
0.0
 70
     8
  0
VERTEX
  5
7C6
330
789
100
AcDbEntity
  8
0
100
AcDbVertex
100
AcDb2dVertex
 10
8.927090256742638
 20
1.942758300538656
 30
0.0
 70
     8
  0
VERTEX
  5
7C7
330
789
100
AcDbEntity
  8
0
100
AcDbVertex
100
AcDb2dVertex
 10
8.928088955570219
 20
1.941639573291162
 30
0.0
 70
     8
  0
VERTEX
  5
7C8
330
789
100
AcDbEntity
  8
0
100
AcDbVertex
100
AcDb2dVertex
 10
8.929226424952969
 20
1.940593262037558
 30
0.0
 70
     8
  0
VERTEX
  5
7C9
330
789
100
AcDbEntity
  8
0
100
AcDbVertex
100
AcDb2dVertex
 10
8.930496809496448
 20
1.9396017677161
 30
0.0
 70
     8
  0
VERTEX
  5
7CA
330
789
100
AcDbEntity
  8
0
100
AcDbVertex
100
AcDb2dVertex
 10
8.931894253806219
 20
1.938647491265041
 30
0.0
 70
     8
  0
VERTEX
  5
7CB
330
789
100
AcDbEntity
  8
0
100
AcDbVertex
100
AcDb2dVertex
 10
8.933412902487842
 20
1.937712833622635
 30
0.0
 70
     8
  0
VERTEX
  5
7CC
330
789
100
AcDbEntity
  8
0
100
AcDbVertex
100
AcDb2dVertex
 10
8.935046900146881
 20
1.936780195727135
 30
0.0
 70
     8
  0
VERTEX
  5
7CD
330
789
100
AcDbEntity
  8
0
100
AcDbVertex
100
AcDb2dVertex
 10
8.936790387553081
 20
1.935838821317759
 30
0.0
 70
     8
  0
VERTEX
  5
7CE
330
789
100
AcDbEntity
  8
0
100
AcDbVertex
100
AcDb2dVertex
 10
8.938637490132919
 20
1.93490532533757
 30
0.0
 70
     8
  0
VERTEX
  5
7CF
330
789
100
AcDbEntity
  8
0
100
AcDbVertex
100
AcDb2dVertex
 10
8.940582329477053
 20
1.934003165530596
 30
0.0
 70
     8
  0
VERTEX
  5
7D0
330
789
100
AcDbEntity
  8
0
100
AcDbVertex
100
AcDb2dVertex
 10
8.942619027176143
 20
1.933155799640865
 30
0.0
 70
     8
  0
VERTEX
  5
7D1
330
789
100
AcDbEntity
  8
0
100
AcDbVertex
100
AcDb2dVertex
 10
8.944741704820848
 20
1.932386685412403
 30
0.0
 70
     8
  0
VERTEX
  5
7D2
330
789
100
AcDbEntity
  8
0
100
AcDbVertex
100
AcDb2dVertex
 10
8.946944484001827
 20
1.931719280589239
 30
0.0
 70
     8
  0
VERTEX
  5
7D3
330
789
100
AcDbEntity
  8
0
100
AcDbVertex
100
AcDb2dVertex
 10
8.949221486309739
 20
1.931177042915399
 30
0.0
 70
     8
  0
VERTEX
  5
7D4
330
789
100
AcDbEntity
  8
0
100
AcDbVertex
100
AcDb2dVertex
 10
8.951566833335244
 20
1.93078343013491
 30
0.0
 70
     8
  0
VERTEX
  5
7D5
330
789
100
AcDbEntity
  8
0
100
AcDbVertex
100
AcDb2dVertex
 10
8.95397073868892
 20
1.930557987627926
 30
0.0
 70
     8
  0
VERTEX
  5
7D6
330
789
100
AcDbEntity
  8
0
100
AcDbVertex
100
AcDb2dVertex
 10
8.956407784061009
 20
1.930504611319104
 30
0.0
 70
     8
  0
VERTEX
  5
7D7
330
789
100
AcDbEntity
  8
0
100
AcDbVertex
100
AcDb2dVertex
 10
8.958848643161675
 20
1.930623284769229
 30
0.0
 70
     8
  0
VERTEX
  5
7D8
330
789
100
AcDbEntity
  8
0
100
AcDbVertex
100
AcDb2dVertex
 10
8.961263989701079
 20
1.930913991539083
 30
0.0
 70
     8
  0
VERTEX
  5
7D9
330
789
100
AcDbEntity
  8
0
100
AcDbVertex
100
AcDb2dVertex
 10
8.963624497389382
 20
1.931376715189452
 30
0.0
 70
     8
  0
VERTEX
  5
7DA
330
789
100
AcDbEntity
  8
0
100
AcDbVertex
100
AcDb2dVertex
 10
8.965900839936746
 20
1.932011439281117
 30
0.0
 70
     8
  0
VERTEX
  5
7DB
330
789
100
AcDbEntity
  8
0
100
AcDbVertex
100
AcDb2dVertex
 10
8.968063691053335
 20
1.932818147374863
 30
0.0
 70
     8
  0
VERTEX
  5
78B
330
789
100
AcDbEntity
  8
0
100
AcDbVertex
100
AcDb2dVertex
 10
8.971919927227473
 20
1.931962677712559
 30
0.0
 70
    16
  0
VERTEX
  5
78C
330
789
100
AcDbEntity
  8
0
100
AcDbVertex
100
AcDb2dVertex
 10
8.981922111738729
 20
1.945982345335734
 30
0.0
 70
    16
  0
VERTEX
  5
78D
330
789
100
AcDbEntity
  8
0
100
AcDbVertex
100
AcDb2dVertex
 10
8.974905544424138
 20
1.96299548590908
 30
0.0
 70
    16
  0
VERTEX
  5
78E
330
789
100
AcDbEntity
  8
0
100
AcDbVertex
100
AcDb2dVertex
 10
8.955880856668578
 20
1.972994864794085
 30
0.0
 70
    16
  0
VERTEX
  5
78F
330
789
100
AcDbEntity
  8
0
100
AcDbVertex
100
AcDb2dVertex
 10
8.933862134837602
 20
1.966976495879715
 30
0.0
 70
    16
  0
VERTEX
  5
790
330
789
100
AcDbEntity
  8
0
100
AcDbVertex
100
AcDb2dVertex
 10
8.923856583574841
 20
1.958962852415399
 30
0.0
 70
    16
  0
VERTEX
  5
791
330
789
100
AcDbEntity
  8
0
100
AcDbVertex
100
AcDb2dVertex
 10
8.923865000453599
 20
1.943947792018252
 30
0.0
 70
    16
  0
VERTEX
  5
792
330
789
100
AcDbEntity
  8
0
100
AcDbVertex
100
AcDb2dVertex
 10
8.933878968595117
 20
1.936946375085422
 30
0.0
 70
    16
  0
SEQEND
  5
793
330
789
100
AcDbEntity
  8
0
  0
CIRCLE
  5
7FE
102
{ACAD_REACTORS
330
801
102
}
330
19
100
AcDbEntity
  8
0
100
AcDbCircle
 10
9.068052225785241
 20
1.867952288042115
 30
0.0
 40
0.0141563369265043
  0
HATCH
  5
801
330
19
100
AcDbEntity
  8
0
100
AcDbHatch
 10
0.0
 20
0.0
 30
0.0
210
0.0
220
0.0
230
1.0
  2
SOLID
 70
     1
 71
     1
 91
        1
 92
        7
 72
     1
 73
     1
 93
        2
 10
9.082208562711745
 20
1.867952288042115
 42
1.0
 10
9.053895888858737
 20
1.867952288042115
 42
1.0
 97
        1
330
7FE
 75
     0
 76
     1
 47
0.0005711186240036
 98
        1
 10
9.062046762751633
 20
1.866947917264136
  0
HATCH
  5
802
330
19
100
AcDbEntity
  8
0
100
AcDbHatch
 10
0.0
 20
0.0
 30
0.0
210
0.0
220
0.0
230
1.0
  2
SOLID
 70
     1
 71
     1
 91
        1
 92
        7
 72
     1
 73
     1
 93
        2
 10
9.158222022695899
 20
1.980107384526513
 42
1.0
 10
9.12990934884289
 20
1.980107384526513
 42
1.0
 97
        1
330
803
 75
     0
 76
     1
 47
0.0005711186240036
 98
        1
 10
9.138060222735787
 20
1.979103013748533
  0
CIRCLE
  5
803
102
{ACAD_REACTORS
330
802
102
}
330
19
100
AcDbEntity
  8
0
100
AcDbCircle
 10
9.144065685769395
 20
1.980107384526513
 30
0.0
 40
0.0141563369265043
  0
HATCH
  5
804
330
19
100
AcDbEntity
  8
0
100
AcDbHatch
 10
0.0
 20
0.0
 30
0.0
210
0.0
220
0.0
230
1.0
  2
SOLID
 70
     1
 71
     1
 91
        1
 92
        7
 72
     1
 73
     1
 93
        2
 10
9.276349475824125
 20
1.964157532882448
 42
1.0
 10
9.248036801971116
 20
1.964157532882448
 42
1.0
 97
        1
330
805
 75
     0
 76
     1
 47
0.0005711186240036
 98
        1
 10
9.256187675864013
 20
1.963153162104469
  0
CIRCLE
  5
805
102
{ACAD_REACTORS
330
804
102
}
330
19
100
AcDbEntity
  8
0
100
AcDbCircle
 10
9.26219313889762
 20
1.964157532882448
 30
0.0
 40
0.0141563369265043
  0
HATCH
  5
806
330
19
100
AcDbEntity
  8
0
100
AcDbHatch
 10
0.0
 20
0.0
 30
0.0
210
0.0
220
0.0
230
1.0
  2
SOLID
 70
     1
 71
     1
 91
        1
 92
        7
 72
     1
 73
     1
 93
        2
 10
9.184304801034587
 20
1.879020567108907
 42
1.0
 10
9.155992127181579
 20
1.879020567108907
 42
1.0
 97
        1
330
807
 75
     0
 76
     1
 47
0.0005711186240036
 98
        1
 10
9.164143001074475
 20
1.878016196330927
  0
CIRCLE
  5
807
102
{ACAD_REACTORS
330
806
102
}
330
19
100
AcDbEntity
  8
0
100
AcDbCircle
 10
9.170148464108083
 20
1.879020567108907
 30
0.0
 40
0.0141563369265043
  0
HATCH
  5
808
330
19
100
AcDbEntity
  8
0
100
AcDbHatch
 10
0.0
 20
0.0
 30
0.0
210
0.0
220
0.0
230
1.0
  2
SOLID
 70
     1
 71
     1
 91
        1
 92
        7
 72
     1
 73
     1
 93
        2
 10
9.159302145382695
 20
1.838966377918587
 42
1.0
 10
9.130989471529686
 20
1.838966377918587
 42
1.0
 97
        1
330
809
 75
     0
 76
     1
 47
0.0005711186240036
 98
        1
 10
9.139140345422582
 20
1.837962007140608
  0
CIRCLE
  5
809
102
{ACAD_REACTORS
330
808
102
}
330
19
100
AcDbEntity
  8
0
100
AcDbCircle
 10
9.14514580845619
 20
1.838966377918587
 30
0.0
 40
0.0141563369265043
  0
HATCH
  5
80A
330
19
100
AcDbEntity
  8
0
100
AcDbHatch
 10
0.0
 20
0.0
 30
0.0
210
0.0
220
0.0
230
1.0
  2
SOLID
 70
     1
 71
     1
 91
        1
 92
        7
 72
     1
 73
     1
 93
        2
 10
9.029214828585047
 20
1.761816121597338
 42
1.0
 10
9.000902154732039
 20
1.761816121597338
 42
1.0
 97
        1
330
80B
 75
     0
 76
     1
 47
0.0005711186240036
 98
        1
 10
9.009053028624935
 20
1.760811750819359
  0
CIRCLE
  5
80B
102
{ACAD_REACTORS
330
80A
102
}
330
19
100
AcDbEntity
  8
0
100
AcDbCircle
 10
9.015058491658543
 20
1.761816121597338
 30
0.0
 40
0.0141563369265043
  0
HATCH
  5
80C
330
19
100
AcDbEntity
  8
0
100
AcDbHatch
 10
0.0
 20
0.0
 30
0.0
210
0.0
220
0.0
230
1.0
  2
SOLID
 70
     1
 71
     1
 91
        1
 92
        7
 72
     1
 73
     1
 93
        2
 10
9.0072320187701
 20
1.691733494988478
 42
1.0
 10
8.978919344917092
 20
1.691733494988478
 42
1.0
 97
        1
330
80D
 75
     0
 76
     1
 47
0.0005711186240036
 98
        1
 10
8.987070218809988
 20
1.690729124210498
  0
CIRCLE
  5
80D
102
{ACAD_REACTORS
330
80C
102
}
330
19
100
AcDbEntity
  8
0
100
AcDbCircle
 10
8.993075681843596
 20
1.691733494988478
 30
0.0
 40
0.0141563369265043
  0
HATCH
  5
80E
330
19
100
AcDbEntity
  8
0
100
AcDbHatch
 10
0.0
 20
0.0
 30
0.0
210
0.0
220
0.0
230
1.0
  2
SOLID
 70
     1
 71
     1
 91
        1
 92
        7
 72
     1
 73
     1
 93
        2
 10
9.235447469800713
 20
1.715885528181025
 42
1.0
 10
9.207134795947704
 20
1.715885528181025
 42
1.0
 97
        1
330
80F
 75
     0
 76
     1
 47
0.0005711186240036
 98
        1
 10
9.215285669840601
 20
1.714881157403045
  0
CIRCLE
  5
80F
102
{ACAD_REACTORS
330
80E
102
}
330
19
100
AcDbEntity
  8
0
100
AcDbCircle
 10
9.221291132874208
 20
1.715885528181025
 30
0.0
 40
0.0141563369265043
  0
HATCH
  5
810
330
19
100
AcDbEntity
  8
0
100
AcDbHatch
 10
0.0
 20
0.0
 30
0.0
210
0.0
220
0.0
230
1.0
  2
SOLID
 70
     1
 71
     1
 91
        1
 92
        7
 72
     1
 73
     1
 93
        2
 10
9.175395645090886
 20
1.700836800268849
 42
1.0
 10
9.147082971237877
 20
1.700836800268849
 42
1.0
 97
        1
330
811
 75
     0
 76
     1
 47
0.0005711186240036
 98
        1
 10
9.155233845130773
 20
1.69983242949087
  0
CIRCLE
  5
811
102
{ACAD_REACTORS
330
810
102
}
330
19
100
AcDbEntity
  8
0
100
AcDbCircle
 10
9.161239308164381
 20
1.700836800268849
 30
0.0
 40
0.0141563369265043
  0
HATCH
  5
812
330
19
100
AcDbEntity
  8
0
100
AcDbHatch
 10
0.0
 20
0.0
 30
0.0
210
0.0
220
0.0
230
1.0
  2
SOLID
 70
     1
 71
     1
 91
        1
 92
        7
 72
     1
 73
     1
 93
        2
 10
9.035322977539497
 20
1.579636755530132
 42
1.0
 10
9.007010303686489
 20
1.579636755530132
 42
1.0
 97
        1
330
813
 75
     0
 76
     1
 47
0.0005711186240036
 98
        1
 10
9.015161177579385
 20
1.578632384752153
  0
CIRCLE
  5
813
102
{ACAD_REACTORS
330
812
102
}
330
19
100
AcDbEntity
  8
0
100
AcDbCircle
 10
9.021166640612993
 20
1.579636755530132
 30
0.0
 40
0.0141563369265043
  0
HATCH
  5
814
330
19
100
AcDbEntity
  8
0
100
AcDbHatch
 10
0.0
 20
0.0
 30
0.0
210
0.0
220
0.0
230
1.0
  2
SOLID
 70
     1
 71
     1
 91
        1
 92
        7
 72
     1
 73
     1
 93
        2
 10
9.126400876942839
 20
1.603711914563361
 42
1.0
 10
9.09808820308983
 20
1.603711914563361
 42
1.0
 97
        1
330
815
 75
     0
 76
     1
 47
0.0005711186240036
 98
        1
 10
9.106239076982726
 20
1.602707543785382
  0
CIRCLE
  5
815
102
{ACAD_REACTORS
330
814
102
}
330
19
100
AcDbEntity
  8
0
100
AcDbCircle
 10
9.112244540016334
 20
1.603711914563361
 30
0.0
 40
0.0141563369265043
  0
HATCH
  5
816
330
19
100
AcDbEntity
  8
0
100
AcDbHatch
 10
0.0
 20
0.0
 30
0.0
210
0.0
220
0.0
230
1.0
  2
SOLID
 70
     1
 71
     1
 91
        1
 92
        7
 72
     1
 73
     1
 93
        2
 10
9.1334370836412
 20
1.551663633063341
 42
1.0
 10
9.105124409788191
 20
1.551663633063341
 42
1.0
 97
        1
330
817
 75
     0
 76
     1
 47
0.0005711186240036
 98
        1
 10
9.113275283681087
 20
1.550659262285361
  0
CIRCLE
  5
817
102
{ACAD_REACTORS
330
816
102
}
330
19
100
AcDbEntity
  8
0
100
AcDbCircle
 10
9.119280746714695
 20
1.551663633063341
 30
0.0
 40
0.0141563369265043
  0
HATCH
  5
818
330
19
100
AcDbEntity
  8
0
100
AcDbHatch
 10
0.0
 20
0.0
 30
0.0
210
0.0
220
0.0
230
1.0
  2
SOLID
 70
     1
 71
     1
 91
        1
 92
        7
 72
     1
 73
     1
 93
        2
 10
9.190478601643342
 20
1.579723729943959
 42
1.0
 10
9.162165927790333
 20
1.579723729943959
 42
1.0
 97
        1
330
819
 75
     0
 76
     1
 47
0.0005711186240036
 98
        1
 10
9.17031680168323
 20
1.578719359165979
  0
CIRCLE
  5
819
102
{ACAD_REACTORS
330
818
102
}
330
19
100
AcDbEntity
  8
0
100
AcDbCircle
 10
9.176322264716838
 20
1.579723729943959
 30
0.0
 40
0.0141563369265043
  0
HATCH
  5
81A
330
19
100
AcDbEntity
  8
0
100
AcDbHatch
 10
0.0
 20
0.0
 30
0.0
210
0.0
220
0.0
230
1.0
  2
SOLID
 70
     1
 71
     1
 91
        1
 92
        7
 72
     1
 73
     1
 93
        2
 10
9.233594159939143
 20
1.450618338914271
 42
1.0
 10
9.205281486086134
 20
1.450618338914271
 42
1.0
 97
        1
330
81B
 75
     0
 76
     1
 47
0.0005711186240036
 98
        1
 10
9.213432359979031
 20
1.449613968136292
  0
CIRCLE
  5
81B
102
{ACAD_REACTORS
330
81A
102
}
330
19
100
AcDbEntity
  8
0
100
AcDbCircle
 10
9.219437823012639
 20
1.450618338914271
 30
0.0
 40
0.0141563369265043
  0
HATCH
  5
81C
330
19
100
AcDbEntity
  8
0
100
AcDbHatch
 10
0.0
 20
0.0
 30
0.0
210
0.0
220
0.0
230
1.0
  2
SOLID
 70
     1
 71
     1
 91
        1
 92
        7
 72
     1
 73
     1
 93
        2
 10
8.962091446286078
 20
1.861878928853198
 42
1.0
 10
8.933778772433069
 20
1.861878928853198
 42
1.0
 97
        1
330
81D
 75
     0
 76
     1
 47
0.0005711186240036
 98
        1
 10
8.941929646325965
 20
1.860874558075218
  0
CIRCLE
  5
81D
102
{ACAD_REACTORS
330
81C
102
}
330
19
100
AcDbEntity
  8
0
100
AcDbCircle
 10
8.947935109359573
 20
1.861878928853198
 30
0.0
 40
0.0141563369265043
  0
HATCH
  5
81E
330
19
100
AcDbEntity
  8
0
100
AcDbHatch
 10
0.0
 20
0.0
 30
0.0
210
0.0
220
0.0
230
1.0
  2
SOLID
 70
     1
 71
     1
 91
        1
 92
        7
 72
     1
 73
     1
 93
        2
 10
8.889080998381354
 20
1.749725515744552
 42
1.0
 10
8.860768324528346
 20
1.749725515744552
 42
1.0
 97
        1
330
81F
 75
     0
 76
     1
 47
0.0005711186240036
 98
        1
 10
8.868919198421242
 20
1.748721144966573
  0
CIRCLE
  5
81F
102
{ACAD_REACTORS
330
81E
102
}
330
19
100
AcDbEntity
  8
0
100
AcDbCircle
 10
8.87492466145485
 20
1.749725515744552
 30
0.0
 40
0.0141563369265043
  0
HATCH
  5
820
330
19
100
AcDbEntity
  8
0
100
AcDbHatch
 10
0.0
 20
0.0
 30
0.0
210
0.0
220
0.0
230
1.0
  2
SOLID
 70
     1
 71
     1
 91
        1
 92
        7
 72
     1
 73
     1
 93
        2
 10
9.004039907481255
 20
2.029070168535281
 42
1.0
 10
8.975727233628247
 20
2.029070168535281
 42
1.0
 97
        1
330
821
 75
     0
 76
     1
 47
0.0005711186240036
 98
        1
 10
8.983878107521143
 20
2.028065797757302
  0
CIRCLE
  5
821
102
{ACAD_REACTORS
330
820
102
}
330
19
100
AcDbEntity
  8
0
100
AcDbCircle
 10
8.989883570554751
 20
2.029070168535281
 30
0.0
 40
0.0141563369265043
  0
HATCH
  5
822
330
19
100
AcDbEntity
  8
0
100
AcDbHatch
 10
0.0
 20
0.0
 30
0.0
210
0.0
220
0.0
230
1.0
  2
SOLID
 70
     1
 71
     1
 91
        1
 92
        7
 72
     1
 73
     1
 93
        2
 10
8.775909747488717
 20
1.852765523318318
 42
1.0
 10
8.747597073635708
 20
1.852765523318318
 42
1.0
 97
        1
330
823
 75
     0
 76
     1
 47
0.0005711186240036
 98
        1
 10
8.755747947528604
 20
1.851761152540338
  0
CIRCLE
  5
823
102
{ACAD_REACTORS
330
822
102
}
330
19
100
AcDbEntity
  8
0
100
AcDbCircle
 10
8.761753410562212
 20
1.852765523318318
 30
0.0
 40
0.0141563369265043
  0
HATCH
  5
824
330
19
100
AcDbEntity
  8
0
100
AcDbHatch
 10
0.0
 20
0.0
 30
0.0
210
0.0
220
0.0
230
1.0
  2
SOLID
 70
     1
 71
     1
 91
        1
 92
        7
 72
     1
 73
     1
 93
        2
 10
8.693793749802621
 20
1.912779752636363
 42
1.0
 10
8.665481075949613
 20
1.912779752636363
 42
1.0
 97
        1
330
825
 75
     0
 76
     1
 47
0.0005711186240036
 98
        1
 10
8.673631949842509
 20
1.911775381858383
  0
CIRCLE
  5
825
102
{ACAD_REACTORS
330
824
102
}
330
19
100
AcDbEntity
  8
0
100
AcDbCircle
 10
8.679637412876117
 20
1.912779752636363
 30
0.0
 40
0.0141563369265043
  0
HATCH
  5
826
330
19
100
AcDbEntity
  8
0
100
AcDbHatch
 10
0.0
 20
0.0
 30
0.0
210
0.0
220
0.0
230
1.0
  2
SOLID
 70
     1
 71
     1
 91
        1
 92
        7
 72
     1
 73
     1
 93
        2
 10
8.593597394737143
 20
2.083895328638781
 42
1.0
 10
8.565284720884135
 20
2.083895328638781
 42
1.0
 97
        1
330
827
 75
     0
 76
     1
 47
0.0005711186240036
 98
        1
 10
8.573435594777031
 20
2.082890957860802
  0
CIRCLE
  5
827
102
{ACAD_REACTORS
330
826
102
}
330
19
100
AcDbEntity
  8
0
100
AcDbCircle
 10
8.579441057810639
 20
2.083895328638781
 30
0.0
 40
0.0141563369265043
  0
HATCH
  5
828
330
19
100
AcDbEntity
  8
0
100
AcDbHatch
 10
0.0
 20
0.0
 30
0.0
210
0.0
220
0.0
230
1.0
  2
SOLID
 70
     1
 71
     1
 91
        1
 92
        7
 72
     1
 73
     1
 93
        2
 10
8.776670589907981
 20
2.281195807775478
 42
1.0
 10
8.748357916054973
 20
2.281195807775478
 42
1.0
 97
        1
330
829
 75
     0
 76
     1
 47
0.0005711186240036
 98
        1
 10
8.756508789947869
 20
2.280191436997498
  0
CIRCLE
  5
829
102
{ACAD_REACTORS
330
828
102
}
330
19
100
AcDbEntity
  8
0
100
AcDbCircle
 10
8.762514252981477
 20
2.281195807775478
 30
0.0
 40
0.0141563369265043
  0
HATCH
  5
82A
330
19
100
AcDbEntity
  8
0
100
AcDbHatch
 10
0.0
 20
0.0
 30
0.0
210
0.0
220
0.0
230
1.0
  2
SOLID
 70
     1
 71
     1
 91
        1
 92
        7
 72
     1
 73
     1
 93
        2
 10
8.978875086631971
 20
2.278306142996648
 42
1.0
 10
8.950562412778963
 20
2.278306142996648
 42
1.0
 97
        1
330
82B
 75
     0
 76
     1
 47
0.0005711186240036
 98
        1
 10
8.958713286671859
 20
2.277301772218669
  0
CIRCLE
  5
82B
102
{ACAD_REACTORS
330
82A
102
}
330
19
100
AcDbEntity
  8
0
100
AcDbCircle
 10
8.964718749705467
 20
2.278306142996648
 30
0.0
 40
0.0141563369265043
  0
HATCH
  5
82C
330
19
100
AcDbEntity
  8
0
100
AcDbHatch
 10
0.0
 20
0.0
 30
0.0
210
0.0
220
0.0
230
1.0
  2
SOLID
 70
     1
 71
     1
 91
        1
 92
        7
 72
     1
 73
     1
 93
        2
 10
8.977912800247779
 20
2.209236304044524
 42
1.0
 10
8.94960012639477
 20
2.209236304044524
 42
1.0
 97
        1
330
82D
 75
     0
 76
     1
 47
0.0005711186240036
 98
        1
 10
8.957751000287667
 20
2.208231933266545
  0
CIRCLE
  5
82D
102
{ACAD_REACTORS
330
82C
102
}
330
19
100
AcDbEntity
  8
0
100
AcDbCircle
 10
8.963756463321275
 20
2.209236304044524
 30
0.0
 40
0.0141563369265043
  0
HATCH
  5
82E
330
19
100
AcDbEntity
  8
0
100
AcDbHatch
 10
0.0
 20
0.0
 30
0.0
210
0.0
220
0.0
230
1.0
  2
SOLID
 70
     1
 71
     1
 91
        1
 92
        7
 72
     1
 73
     1
 93
        2
 10
9.166053861579053
 20
2.294427137842114
 42
1.0
 10
9.137741187726045
 20
2.294427137842114
 42
1.0
 97
        1
330
82F
 75
     0
 76
     1
 47
0.0005711186240036
 98
        1
 10
9.145892061618941
 20
2.293422767064135
  0
CIRCLE
  5
82F
102
{ACAD_REACTORS
330
82E
102
}
330
19
100
AcDbEntity
  8
0
100
AcDbCircle
 10
9.151897524652549
 20
2.294427137842114
 30
0.0
 40
0.0141563369265043
  0
HATCH
  5
830
330
19
100
AcDbEntity
  8
0
100
AcDbHatch
 10
0.0
 20
0.0
 30
0.0
210
0.0
220
0.0
230
1.0
  2
SOLID
 70
     1
 71
     1
 91
        1
 92
        7
 72
     1
 73
     1
 93
        2
 10
9.227987052412978
 20
2.524692853697222
 42
1.0
 10
9.199674378559969
 20
2.524692853697222
 42
1.0
 97
        1
330
831
 75
     0
 76
     1
 47
0.0005711186240036
 98
        1
 10
9.207825252452865
 20
2.523688482919242
  0
CIRCLE
  5
831
102
{ACAD_REACTORS
330
830
102
}
330
19
100
AcDbEntity
  8
0
100
AcDbCircle
 10
9.213830715486473
 20
2.524692853697222
 30
0.0
 40
0.0141563369265043
  0
HATCH
  5
832
330
19
100
AcDbEntity
  8
0
100
AcDbHatch
 10
0.0
 20
0.0
 30
0.0
210
0.0
220
0.0
230
1.0
  2
SOLID
 70
     1
 71
     1
 91
        1
 92
        7
 72
     1
 73
     1
 93
        2
 10
9.06781406342124
 20
2.546625162239624
 42
1.0
 10
9.039501389568232
 20
2.546625162239624
 42
1.0
 97
        1
330
833
 75
     0
 76
     1
 47
0.0005711186240036
 98
        1
 10
9.047652263461128
 20
2.545620791461645
  0
CIRCLE
  5
833
102
{ACAD_REACTORS
330
832
102
}
330
19
100
AcDbEntity
  8
0
100
AcDbCircle
 10
9.053657726494736
 20
2.546625162239624
 30
0.0
 40
0.0141563369265043
  0
HATCH
  5
834
330
19
100
AcDbEntity
  8
0
100
AcDbHatch
 10
0.0
 20
0.0
 30
0.0
210
0.0
220
0.0
230
1.0
  2
SOLID
 70
     1
 71
     1
 91
        1
 92
        7
 72
     1
 73
     1
 93
        2
 10
9.028715988237359
 20
2.651708701134879
 42
1.0
 10
9.00040331438435
 20
2.651708701134879
 42
1.0
 97
        1
330
835
 75
     0
 76
     1
 47
0.0005711186240036
 98
        1
 10
9.008554188277246
 20
2.6507043303569
  0
CIRCLE
  5
835
102
{ACAD_REACTORS
330
834
102
}
330
19
100
AcDbEntity
  8
0
100
AcDbCircle
 10
9.014559651310854
 20
2.651708701134879
 30
0.0
 40
0.0141563369265043
  0
HATCH
  5
836
330
19
100
AcDbEntity
  8
0
100
AcDbHatch
 10
0.0
 20
0.0
 30
0.0
210
0.0
220
0.0
230
1.0
  2
SOLID
 70
     1
 71
     1
 91
        1
 92
        7
 72
     1
 73
     1
 93
        2
 10
9.121708360154576
 20
2.831941610548932
 42
1.0
 10
9.093395686301568
 20
2.831941610548932
 42
1.0
 97
        1
330
837
 75
     0
 76
     1
 47
0.0005711186240036
 98
        1
 10
9.101546560194464
 20
2.830937239770952
  0
CIRCLE
  5
837
102
{ACAD_REACTORS
330
836
102
}
330
19
100
AcDbEntity
  8
0
100
AcDbCircle
 10
9.107552023228072
 20
2.831941610548932
 30
0.0
 40
0.0141563369265043
  0
HATCH
  5
838
330
19
100
AcDbEntity
  8
0
100
AcDbHatch
 10
0.0
 20
0.0
 30
0.0
210
0.0
220
0.0
230
1.0
  2
SOLID
 70
     1
 71
     1
 91
        1
 92
        7
 72
     1
 73
     1
 93
        2
 10
9.237792843086563
 20
2.889063930587145
 42
1.0
 10
9.209480169233554
 20
2.889063930587145
 42
1.0
 97
        1
330
839
 75
     0
 76
     1
 47
0.0005711186240036
 98
        1
 10
9.217631043126451
 20
2.888059559809165
  0
CIRCLE
  5
839
102
{ACAD_REACTORS
330
838
102
}
330
19
100
AcDbEntity
  8
0
100
AcDbCircle
 10
9.223636506160059
 20
2.889063930587145
 30
0.0
 40
0.0141563369265043
  0
HATCH
  5
83A
330
19
100
AcDbEntity
  8
0
100
AcDbHatch
 10
0.0
 20
0.0
 30
0.0
210
0.0
220
0.0
230
1.0
  2
SOLID
 70
     1
 71
     1
 91
        1
 92
        7
 72
     1
 73
     1
 93
        2
 10
8.31524252346788
 20
2.218874879393461
 42
1.0
 10
8.286929849614872
 20
2.218874879393461
 42
1.0
 97
        1
330
83B
 75
     0
 76
     1
 47
0.0005711186240036
 98
        1
 10
8.295080723507768
 20
2.217870508615482
  0
CIRCLE
  5
83B
102
{ACAD_REACTORS
330
83A
102
}
330
19
100
AcDbEntity
  8
0
100
AcDbCircle
 10
8.301086186541376
 20
2.218874879393461
 30
0.0
 40
0.0141563369265043
  0
HATCH
  5
83C
330
19
100
AcDbEntity
  8
0
100
AcDbHatch
 10
0.0
 20
0.0
 30
0.0
210
0.0
220
0.0
230
1.0
  2
SOLID
 70
     1
 71
     1
 91
        1
 92
        7
 72
     1
 73
     1
 93
        2
 10
8.381313278217331
 20
2.210903881448182
 42
1.0
 10
8.353000604364322
 20
2.210903881448182
 42
1.0
 97
        1
330
83D
 75
     0
 76
     1
 47
0.0005711186240036
 98
        1
 10
8.361151478257218
 20
2.209899510670203
  0
CIRCLE
  5
83D
102
{ACAD_REACTORS
330
83C
102
}
330
19
100
AcDbEntity
  8
0
100
AcDbCircle
 10
8.367156941290826
 20
2.210903881448182
 30
0.0
 40
0.0141563369265043
  0
HATCH
  5
83E
330
19
100
AcDbEntity
  8
0
100
AcDbHatch
 10
0.0
 20
0.0
 30
0.0
210
0.0
220
0.0
230
1.0
  2
SOLID
 70
     1
 71
     1
 91
        1
 92
        7
 72
     1
 73
     1
 93
        2
 10
8.548370408964544
 20
2.408195382580871
 42
1.0
 10
8.520057735111536
 20
2.408195382580871
 42
1.0
 97
        1
330
83F
 75
     0
 76
     1
 47
0.0005711186240036
 98
        1
 10
8.528208609004432
 20
2.407191011802891
  0
CIRCLE
  5
83F
102
{ACAD_REACTORS
330
83E
102
}
330
19
100
AcDbEntity
  8
0
100
AcDbCircle
 10
8.53421407203804
 20
2.408195382580871
 30
0.0
 40
0.0141563369265043
  0
HATCH
  5
840
330
19
100
AcDbEntity
  8
0
100
AcDbHatch
 10
0.0
 20
0.0
 30
0.0
210
0.0
220
0.0
230
1.0
  2
SOLID
 70
     1
 71
     1
 91
        1
 92
        7
 72
     1
 73
     1
 93
        2
 10
8.868461074959047
 20
2.81978759754284
 42
1.0
 10
8.840148401106038
 20
2.81978759754284
 42
1.0
 97
        1
330
841
 75
     0
 76
     1
 47
0.0005711186240036
 98
        1
 10
8.848299274998935
 20
2.81878322676486
  0
CIRCLE
  5
841
102
{ACAD_REACTORS
330
840
102
}
330
19
100
AcDbEntity
  8
0
100
AcDbCircle
 10
8.854304738032543
 20
2.81978759754284
 30
0.0
 40
0.0141563369265043
  0
HATCH
  5
842
330
19
100
AcDbEntity
  8
0
100
AcDbHatch
 10
0.0
 20
0.0
 30
0.0
210
0.0
220
0.0
230
1.0
  2
SOLID
 70
     1
 71
     1
 91
        1
 92
        7
 72
     1
 73
     1
 93
        2
 10
8.768384800697175
 20
2.776688311879303
 42
1.0
 10
8.740072126844167
 20
2.776688311879303
 42
1.0
 97
        1
330
843
 75
     0
 76
     1
 47
0.0005711186240036
 98
        1
 10
8.748223000737063
 20
2.775683941101324
  0
CIRCLE
  5
843
102
{ACAD_REACTORS
330
842
102
}
330
19
100
AcDbEntity
  8
0
100
AcDbCircle
 10
8.754228463770671
 20
2.776688311879303
 30
0.0
 40
0.0141563369265043
  0
HATCH
  5
844
330
19
100
AcDbEntity
  8
0
100
AcDbHatch
 10
0.0
 20
0.0
 30
0.0
210
0.0
220
0.0
230
1.0
  2
SOLID
 70
     1
 71
     1
 91
        1
 92
        7
 72
     1
 73
     1
 93
        2
 10
8.609239749743937
 20
2.750572988276088
 42
1.0
 10
8.580927075890928
 20
2.750572988276088
 42
1.0
 97
        1
330
845
 75
     0
 76
     1
 47
0.0005711186240036
 98
        1
 10
8.589077949783825
 20
2.749568617498109
  0
CIRCLE
  5
845
102
{ACAD_REACTORS
330
844
102
}
330
19
100
AcDbEntity
  8
0
100
AcDbCircle
 10
8.595083412817433
 20
2.750572988276088
 30
0.0
 40
0.0141563369265043
  0
HATCH
  5
846
330
19
100
AcDbEntity
  8
0
100
AcDbHatch
 10
0.0
 20
0.0
 30
0.0
210
0.0
220
0.0
230
1.0
  2
SOLID
 70
     1
 71
     1
 91
        1
 92
        7
 72
     1
 73
     1
 93
        2
 10
8.02066172693131
 20
2.728220958046316
 42
1.0
 10
7.992349053078302
 20
2.728220958046316
 42
1.0
 97
        1
330
847
 75
     0
 76
     1
 47
0.0005711186240036
 98
        1
 10
8.000499926971198
 20
2.727216587268337
  0
CIRCLE
  5
847
102
{ACAD_REACTORS
330
846
102
}
330
19
100
AcDbEntity
  8
0
100
AcDbCircle
 10
8.006505390004806
 20
2.728220958046316
 30
0.0
 40
0.0141563369265043
  0
HATCH
  5
848
330
19
100
AcDbEntity
  8
0
100
AcDbHatch
 10
0.0
 20
0.0
 30
0.0
210
0.0
220
0.0
230
1.0
  2
SOLID
 70
     1
 71
     1
 91
        1
 92
        7
 72
     1
 73
     1
 93
        2
 10
8.010745394583381
 20
2.561047674372248
 42
1.0
 10
7.982432720730372
 20
2.561047674372248
 42
1.0
 97
        1
330
849
 75
     0
 76
     1
 47
0.0005711186240036
 98
        1
 10
7.990583594623268
 20
2.560043303594268
  0
CIRCLE
  5
849
102
{ACAD_REACTORS
330
848
102
}
330
19
100
AcDbEntity
  8
0
100
AcDbCircle
 10
7.996589057656876
 20
2.561047674372248
 30
0.0
 40
0.0141563369265043
  0
HATCH
  5
84A
330
19
100
AcDbEntity
  8
0
100
AcDbHatch
 10
0.0
 20
0.0
 30
0.0
210
0.0
220
0.0
230
1.0
  2
SOLID
 70
     1
 71
     1
 91
        1
 92
        7
 72
     1
 73
     1
 93
        2
 10
8.242893598813085
 20
2.712329463428302
 42
1.0
 10
8.214580924960076
 20
2.712329463428302
 42
1.0
 97
        1
330
84B
 75
     0
 76
     1
 47
0.0005711186240036
 98
        1
 10
8.222731798852973
 20
2.711325092650323
  0
CIRCLE
  5
84B
102
{ACAD_REACTORS
330
84A
102
}
330
19
100
AcDbEntity
  8
0
100
AcDbCircle
 10
8.228737261886581
 20
2.712329463428302
 30
0.0
 40
0.0141563369265043
  0
HATCH
  5
84C
330
19
100
AcDbEntity
  8
0
100
AcDbHatch
 10
0.0
 20
0.0
 30
0.0
210
0.0
220
0.0
230
1.0
  2
SOLID
 70
     1
 71
     1
 91
        1
 92
        7
 72
     1
 73
     1
 93
        2
 10
8.335977995271383
 20
2.728397712500221
 42
1.0
 10
8.307665321418375
 20
2.728397712500221
 42
1.0
 97
        1
330
84D
 75
     0
 76
     1
 47
0.0005711186240036
 98
        1
 10
8.315816195311271
 20
2.727393341722242
  0
CIRCLE
  5
84D
102
{ACAD_REACTORS
330
84C
102
}
330
19
100
AcDbEntity
  8
0
100
AcDbCircle
 10
8.321821658344879
 20
2.728397712500221
 30
0.0
 40
0.0141563369265043
  0
HATCH
  5
84E
330
19
100
AcDbEntity
  8
0
100
AcDbHatch
 10
0.0
 20
0.0
 30
0.0
210
0.0
220
0.0
230
1.0
  2
SOLID
 70
     1
 71
     1
 91
        1
 92
        7
 72
     1
 73
     1
 93
        2
 10
8.290987804354494
 20
2.63027406726926
 42
1.0
 10
8.262675130501485
 20
2.63027406726926
 42
1.0
 97
        1
330
84F
 75
     0
 76
     1
 47
0.0005711186240036
 98
        1
 10
8.270826004394381
 20
2.629269696491281
  0
CIRCLE
  5
84F
102
{ACAD_REACTORS
330
84E
102
}
330
19
100
AcDbEntity
  8
0
100
AcDbCircle
 10
8.276831467427989
 20
2.63027406726926
 30
0.0
 40
0.0141563369265043
  0
HATCH
  5
850
330
19
100
AcDbEntity
  8
0
100
AcDbHatch
 10
0.0
 20
0.0
 30
0.0
210
0.0
220
0.0
230
1.0
  2
SOLID
 70
     1
 71
     1
 91
        1
 92
        7
 72
     1
 73
     1
 93
        2
 10
8.463093723003629
 20
2.749490059963039
 42
1.0
 10
8.434781049150621
 20
2.749490059963039
 42
1.0
 97
        1
330
851
 75
     0
 76
     1
 47
0.0005711186240036
 98
        1
 10
8.442931923043517
 20
2.74848568918506
  0
CIRCLE
  5
851
102
{ACAD_REACTORS
330
850
102
}
330
19
100
AcDbEntity
  8
0
100
AcDbCircle
 10
8.448937386077125
 20
2.749490059963039
 30
0.0
 40
0.0141563369265043
  0
HATCH
  5
852
330
19
100
AcDbEntity
  8
0
100
AcDbHatch
 10
0.0
 20
0.0
 30
0.0
210
0.0
220
0.0
230
1.0
  2
SOLID
 70
     1
 71
     1
 91
        1
 92
        7
 72
     1
 73
     1
 93
        2
 10
8.423014844302287
 20
2.818536892779893
 42
1.0
 10
8.394702170449278
 20
2.818536892779893
 42
1.0
 97
        1
330
853
 75
     0
 76
     1
 47
0.0005711186240036
 98
        1
 10
8.402853044342175
 20
2.817532522001914
  0
CIRCLE
  5
853
102
{ACAD_REACTORS
330
852
102
}
330
19
100
AcDbEntity
  8
0
100
AcDbCircle
 10
8.408858507375783
 20
2.818536892779893
 30
0.0
 40
0.0141563369265043
  0
HATCH
  5
854
330
19
100
AcDbEntity
  8
0
100
AcDbHatch
 10
0.0
 20
0.0
 30
0.0
210
0.0
220
0.0
230
1.0
  2
SOLID
 70
     1
 71
     1
 91
        1
 92
        7
 72
     1
 73
     1
 93
        2
 10
8.536074431270077
 20
2.914696686474935
 42
1.0
 10
8.507761757417068
 20
2.914696686474935
 42
1.0
 97
        1
330
855
 75
     0
 76
     1
 47
0.0005711186240036
 98
        1
 10
8.515912631309965
 20
2.913692315696956
  0
CIRCLE
  5
855
102
{ACAD_REACTORS
330
854
102
}
330
19
100
AcDbEntity
  8
0
100
AcDbCircle
 10
8.521918094343572
 20
2.914696686474935
 30
0.0
 40
0.0141563369265043
  0
HATCH
  5
856
330
19
100
AcDbEntity
  8
0
100
AcDbHatch
 10
0.0
 20
0.0
 30
0.0
210
0.0
220
0.0
230
1.0
  2
SOLID
 70
     1
 71
     1
 91
        1
 92
        7
 72
     1
 73
     1
 93
        2
 10
8.599078205661538
 20
3.020838464172217
 42
1.0
 10
8.570765531808529
 20
3.020838464172217
 42
1.0
 97
        1
330
857
 75
     0
 76
     1
 47
0.0005711186240036
 98
        1
 10
8.578916405701426
 20
3.019834093394238
  0
CIRCLE
  5
857
102
{ACAD_REACTORS
330
856
102
}
330
19
100
AcDbEntity
  8
0
100
AcDbCircle
 10
8.584921868735034
 20
3.020838464172217
 30
0.0
 40
0.0141563369265043
  0
HATCH
  5
858
330
19
100
AcDbEntity
  8
0
100
AcDbHatch
 10
0.0
 20
0.0
 30
0.0
210
0.0
220
0.0
230
1.0
  2
SOLID
 70
     1
 71
     1
 91
        1
 92
        7
 72
     1
 73
     1
 93
        2
 10
8.608237062341708
 20
2.753575439230267
 42
1.0
 10
8.579924388488699
 20
2.753575439230267
 42
1.0
 97
        1
330
859
 75
     0
 76
     1
 47
0.0005711186240036
 98
        1
 10
8.588075262381596
 20
2.752571068452287
  0
CIRCLE
  5
859
102
{ACAD_REACTORS
330
858
102
}
330
19
100
AcDbEntity
  8
0
100
AcDbCircle
 10
8.594080725415203
 20
2.753575439230267
 30
0.0
 40
0.0141563369265043
  0
HATCH
  5
85A
330
19
100
AcDbEntity
  8
0
100
AcDbHatch
 10
0.0
 20
0.0
 30
0.0
210
0.0
220
0.0
230
1.0
  2
SOLID
 70
     1
 71
     1
 91
        1
 92
        7
 72
     1
 73
     1
 93
        2
 10
8.760382940863121
 20
2.765672778586059
 42
1.0
 10
8.732070267010112
 20
2.765672778586059
 42
1.0
 97
        1
330
85B
 75
     0
 76
     1
 47
0.0005711186240036
 98
        1
 10
8.740221140903008
 20
2.76466840780808
  0
CIRCLE
  5
85B
102
{ACAD_REACTORS
330
85A
102
}
330
19
100
AcDbEntity
  8
0
100
AcDbCircle
 10
8.746226603936616
 20
2.765672778586059
 30
0.0
 40
0.0141563369265043
  0
HATCH
  5
85C
330
19
100
AcDbEntity
  8
0
100
AcDbHatch
 10
0.0
 20
0.0
 30
0.0
210
0.0
220
0.0
230
1.0
  2
SOLID
 70
     1
 71
     1
 91
        1
 92
        7
 72
     1
 73
     1
 93
        2
 10
8.864464914606648
 20
2.805771296671167
 42
1.0
 10
8.83615224075364
 20
2.805771296671167
 42
1.0
 97
        1
330
85D
 75
     0
 76
     1
 47
0.0005711186240036
 98
        1
 10
8.844303114646536
 20
2.804766925893188
  0
CIRCLE
  5
85D
102
{ACAD_REACTORS
330
85C
102
}
330
19
100
AcDbEntity
  8
0
100
AcDbCircle
 10
8.850308577680144
 20
2.805771296671167
 30
0.0
 40
0.0141563369265043
  0
HATCH
  5
85E
330
19
100
AcDbEntity
  8
0
100
AcDbHatch
 10
0.0
 20
0.0
 30
0.0
210
0.0
220
0.0
230
1.0
  2
SOLID
 70
     1
 71
     1
 91
        1
 92
        7
 72
     1
 73
     1
 93
        2
 10
9.218499376336018
 20
3.378544238154357
 42
1.0
 10
9.190186702483009
 20
3.378544238154357
 42
1.0
 97
        1
330
85F
 75
     0
 76
     1
 47
0.0005711186240036
 98
        1
 10
9.198337576375906
 20
3.377539867376378
  0
CIRCLE
  5
85F
102
{ACAD_REACTORS
330
85E
102
}
330
19
100
AcDbEntity
  8
0
100
AcDbCircle
 10
9.204343039409514
 20
3.378544238154357
 30
0.0
 40
0.0141563369265043
  0
HATCH
  5
860
330
19
100
AcDbEntity
  8
0
100
AcDbHatch
 10
0.0
 20
0.0
 30
0.0
210
0.0
220
0.0
230
1.0
  2
SOLID
 70
     1
 71
     1
 91
        1
 92
        7
 72
     1
 73
     1
 93
        2
 10
8.987246684585697
 20
3.41545176720112
 42
1.0
 10
8.958934010732689
 20
3.41545176720112
 42
1.0
 97
        1
330
861
 75
     0
 76
     1
 47
0.0005711186240036
 98
        1
 10
8.967084884625585
 20
3.414447396423141
  0
CIRCLE
  5
861
102
{ACAD_REACTORS
330
860
102
}
330
19
100
AcDbEntity
  8
0
100
AcDbCircle
 10
8.973090347659193
 20
3.41545176720112
 30
0.0
 40
0.0141563369265043
  0
HATCH
  5
862
330
19
100
AcDbEntity
  8
0
100
AcDbHatch
 10
0.0
 20
0.0
 30
0.0
210
0.0
220
0.0
230
1.0
  2
SOLID
 70
     1
 71
     1
 91
        1
 92
        7
 72
     1
 73
     1
 93
        2
 10
8.962185671907754
 20
3.479501996764349
 42
1.0
 10
8.933872998054746
 20
3.479501996764349
 42
1.0
 97
        1
330
863
 75
     0
 76
     1
 47
0.0005711186240036
 98
        1
 10
8.942023871947642
 20
3.478497625986369
  0
CIRCLE
  5
863
102
{ACAD_REACTORS
330
862
102
}
330
19
100
AcDbEntity
  8
0
100
AcDbCircle
 10
8.94802933498125
 20
3.479501996764349
 30
0.0
 40
0.0141563369265043
  0
HATCH
  5
864
330
19
100
AcDbEntity
  8
0
100
AcDbHatch
 10
0.0
 20
0.0
 30
0.0
210
0.0
220
0.0
230
1.0
  2
SOLID
 70
     1
 71
     1
 91
        1
 92
        7
 72
     1
 73
     1
 93
        2
 10
9.016205660697201
 20
3.540593543142938
 42
1.0
 10
8.987892986844193
 20
3.540593543142938
 42
1.0
 97
        1
330
865
 75
     0
 76
     1
 47
0.0005711186240036
 98
        1
 10
8.996043860737089
 20
3.539589172364958
  0
CIRCLE
  5
865
102
{ACAD_REACTORS
330
864
102
}
330
19
100
AcDbEntity
  8
0
100
AcDbCircle
 10
9.002049323770697
 20
3.540593543142938
 30
0.0
 40
0.0141563369265043
  0
HATCH
  5
866
330
19
100
AcDbEntity
  8
0
100
AcDbHatch
 10
0.0
 20
0.0
 30
0.0
210
0.0
220
0.0
230
1.0
  2
SOLID
 70
     1
 71
     1
 91
        1
 92
        7
 72
     1
 73
     1
 93
        2
 10
8.738883216468443
 20
3.619517429540188
 42
1.0
 10
8.710570542615434
 20
3.619517429540188
 42
1.0
 97
        1
330
867
 75
     0
 76
     1
 47
0.0005711186240036
 98
        1
 10
8.71872141650833
 20
3.618513058762209
  0
CIRCLE
  5
867
102
{ACAD_REACTORS
330
866
102
}
330
19
100
AcDbEntity
  8
0
100
AcDbCircle
 10
8.724726879541938
 20
3.619517429540188
 30
0.0
 40
0.0141563369265043
  0
HATCH
  5
868
330
19
100
AcDbEntity
  8
0
100
AcDbHatch
 10
0.0
 20
0.0
 30
0.0
210
0.0
220
0.0
230
1.0
  2
SOLID
 70
     1
 71
     1
 91
        1
 92
        7
 72
     1
 73
     1
 93
        2
 10
8.707716860462304
 20
3.860742005038241
 42
1.0
 10
8.679404186609295
 20
3.860742005038241
 42
1.0
 97
        1
330
869
 75
     0
 76
     1
 47
0.0005711186240036
 98
        1
 10
8.687555060502191
 20
3.859737634260262
  0
CIRCLE
  5
869
102
{ACAD_REACTORS
330
868
102
}
330
19
100
AcDbEntity
  8
0
100
AcDbCircle
 10
8.693560523535799
 20
3.860742005038241
 30
0.0
 40
0.0141563369265043
  0
HATCH
  5
86A
330
19
100
AcDbEntity
  8
0
100
AcDbHatch
 10
0.0
 20
0.0
 30
0.0
210
0.0
220
0.0
230
1.0
  2
SOLID
 70
     1
 71
     1
 91
        1
 92
        7
 72
     1
 73
     1
 93
        2
 10
8.285764506499669
 20
3.019661827942336
 42
1.0
 10
8.257451832646661
 20
3.019661827942336
 42
1.0
 97
        1
330
86B
 75
     0
 76
     1
 47
0.0005711186240036
 98
        1
 10
8.265602706539557
 20
3.018657457164357
  0
CIRCLE
  5
86B
102
{ACAD_REACTORS
330
86A
102
}
330
19
100
AcDbEntity
  8
0
100
AcDbCircle
 10
8.271608169573165
 20
3.019661827942336
 30
0.0
 40
0.0141563369265043
  0
HATCH
  5
86C
330
19
100
AcDbEntity
  8
0
100
AcDbHatch
 10
0.0
 20
0.0
 30
0.0
210
0.0
220
0.0
230
1.0
  2
SOLID
 70
     1
 71
     1
 91
        1
 92
        7
 72
     1
 73
     1
 93
        2
 10
8.23076146969176
 20
2.926537591591252
 42
1.0
 10
8.202448795838752
 20
2.926537591591252
 42
1.0
 97
        1
330
86D
 75
     0
 76
     1
 47
0.0005711186240036
 98
        1
 10
8.210599669731648
 20
2.925533220813272
  0
CIRCLE
  5
86D
102
{ACAD_REACTORS
330
86C
102
}
330
19
100
AcDbEntity
  8
0
100
AcDbCircle
 10
8.216605132765256
 20
2.926537591591252
 30
0.0
 40
0.0141563369265043
  0
HATCH
  5
86E
330
19
100
AcDbEntity
  8
0
100
AcDbHatch
 10
0.0
 20
0.0
 30
0.0
210
0.0
220
0.0
230
1.0
  2
SOLID
 70
     1
 71
     1
 91
        1
 92
        7
 72
     1
 73
     1
 93
        2
 10
8.006477649609742
 20
3.031517322315165
 42
1.0
 10
7.978164975756734
 20
3.031517322315165
 42
1.0
 97
        1
330
86F
 75
     0
 76
     1
 47
0.0005711186240036
 98
        1
 10
7.98631584964963
 20
3.030512951537186
  0
CIRCLE
  5
86F
102
{ACAD_REACTORS
330
86E
102
}
330
19
100
AcDbEntity
  8
0
100
AcDbCircle
 10
7.992321312683238
 20
3.031517322315165
 30
0.0
 40
0.0141563369265043
  0
HATCH
  5
870
330
19
100
AcDbEntity
  8
0
100
AcDbHatch
 10
0.0
 20
0.0
 30
0.0
210
0.0
220
0.0
230
1.0
  2
SOLID
 70
     1
 71
     1
 91
        1
 92
        7
 72
     1
 73
     1
 93
        2
 10
7.940386694351275
 20
3.075524465213595
 42
1.0
 10
7.912074020498267
 20
3.075524465213595
 42
1.0
 97
        1
330
871
 75
     0
 76
     1
 47
0.0005711186240036
 98
        1
 10
7.920224894391163
 20
3.074520094435616
  0
CIRCLE
  5
871
102
{ACAD_REACTORS
330
870
102
}
330
19
100
AcDbEntity
  8
0
100
AcDbCircle
 10
7.926230357424771
 20
3.075524465213595
 30
0.0
 40
0.0141563369265043
  0
HATCH
  5
872
330
19
100
AcDbEntity
  8
0
100
AcDbHatch
 10
0.0
 20
0.0
 30
0.0
210
0.0
220
0.0
230
1.0
  2
SOLID
 70
     1
 71
     1
 91
        1
 92
        7
 72
     1
 73
     1
 93
        2
 10
7.785002692270479
 20
3.482846129575673
 42
1.0
 10
7.75669001841747
 20
3.482846129575673
 42
1.0
 97
        1
330
873
 75
     0
 76
     1
 47
0.0005711186240036
 98
        1
 10
7.764840892310366
 20
3.481841758797694
  0
CIRCLE
  5
873
102
{ACAD_REACTORS
330
872
102
}
330
19
100
AcDbEntity
  8
0
100
AcDbCircle
 10
7.770846355343974
 20
3.482846129575673
 30
0.0
 40
0.0141563369265043
  0
HATCH
  5
874
330
19
100
AcDbEntity
  8
0
100
AcDbHatch
 10
0.0
 20
0.0
 30
0.0
210
0.0
220
0.0
230
1.0
  2
SOLID
 70
     1
 71
     1
 91
        1
 92
        7
 72
     1
 73
     1
 93
        2
 10
8.031179542127367
 20
3.608109669696848
 42
1.0
 10
8.002866868274358
 20
3.608109669696848
 42
1.0
 97
        1
330
875
 75
     0
 76
     1
 47
0.0005711186240036
 98
        1
 10
8.011017742167255
 20
3.607105298918868
  0
CIRCLE
  5
875
102
{ACAD_REACTORS
330
874
102
}
330
19
100
AcDbEntity
  8
0
100
AcDbCircle
 10
8.017023205200863
 20
3.608109669696848
 30
0.0
 40
0.0141563369265043
  0
HATCH
  5
876
330
19
100
AcDbEntity
  8
0
100
AcDbHatch
 10
0.0
 20
0.0
 30
0.0
210
0.0
220
0.0
230
1.0
  2
SOLID
 70
     1
 71
     1
 91
        1
 92
        7
 72
     1
 73
     1
 93
        2
 10
8.299455354726053
 20
3.596248002946263
 42
1.0
 10
8.271142680873044
 20
3.596248002946263
 42
1.0
 97
        1
330
877
 75
     0
 76
     1
 47
0.0005711186240036
 98
        1
 10
8.279293554765941
 20
3.595243632168284
  0
CIRCLE
  5
877
102
{ACAD_REACTORS
330
876
102
}
330
19
100
AcDbEntity
  8
0
100
AcDbCircle
 10
8.285299017799549
 20
3.596248002946263
 30
0.0
 40
0.0141563369265043
  0
HATCH
  5
878
330
19
100
AcDbEntity
  8
0
100
AcDbHatch
 10
0.0
 20
0.0
 30
0.0
210
0.0
220
0.0
230
1.0
  2
SOLID
 70
     1
 71
     1
 91
        1
 92
        7
 72
     1
 73
     1
 93
        2
 10
8.373498790796532
 20
3.651344747671003
 42
1.0
 10
8.345186116943523
 20
3.651344747671003
 42
1.0
 97
        1
330
879
 75
     0
 76
     1
 47
0.0005711186240036
 98
        1
 10
8.35333699083642
 20
3.650340376893024
  0
CIRCLE
  5
879
102
{ACAD_REACTORS
330
878
102
}
330
19
100
AcDbEntity
  8
0
100
AcDbCircle
 10
8.359342453870028
 20
3.651344747671003
 30
0.0
 40
0.0141563369265043
  0
HATCH
  5
87A
330
19
100
AcDbEntity
  8
0
100
AcDbHatch
 10
0.0
 20
0.0
 30
0.0
210
0.0
220
0.0
230
1.0
  2
SOLID
 70
     1
 71
     1
 91
        1
 92
        7
 72
     1
 73
     1
 93
        2
 10
8.697477319970087
 20
4.270147040614594
 42
1.0
 10
8.669164646117078
 20
4.270147040614594
 42
1.0
 97
        1
330
87B
 75
     0
 76
     1
 47
0.0005711186240036
 98
        1
 10
8.677315520009975
 20
4.269142669836615
  0
CIRCLE
  5
87B
102
{ACAD_REACTORS
330
87A
102
}
330
19
100
AcDbEntity
  8
0
100
AcDbCircle
 10
8.683320983043583
 20
4.270147040614594
 30
0.0
 40
0.0141563369265043
  0
HATCH
  5
87C
330
19
100
AcDbEntity
  8
0
100
AcDbHatch
 10
0.0
 20
0.0
 30
0.0
210
0.0
220
0.0
230
1.0
  2
SOLID
 70
     1
 71
     1
 91
        1
 92
        7
 72
     1
 73
     1
 93
        2
 10
8.227063223426969
 20
4.16677989701979
 42
1.0
 10
8.19875054957396
 20
4.16677989701979
 42
1.0
 97
        1
330
87D
 75
     0
 76
     1
 47
0.0005711186240036
 98
        1
 10
8.206901423466857
 20
4.165775526241811
  0
CIRCLE
  5
87D
102
{ACAD_REACTORS
330
87C
102
}
330
19
100
AcDbEntity
  8
0
100
AcDbCircle
 10
8.212906886500464
 20
4.16677989701979
 30
0.0
 40
0.0141563369265043
  0
HATCH
  5
87E
330
19
100
AcDbEntity
  8
0
100
AcDbHatch
 10
0.0
 20
0.0
 30
0.0
210
0.0
220
0.0
230
1.0
  2
SOLID
 70
     1
 71
     1
 91
        1
 92
        7
 72
     1
 73
     1
 93
        2
 10
7.870627793591544
 20
4.305719696110836
 42
1.0
 10
7.842315119738536
 20
4.305719696110836
 42
1.0
 97
        1
330
87F
 75
     0
 76
     1
 47
0.0005711186240036
 98
        1
 10
7.850465993631432
 20
4.304715325332857
  0
CIRCLE
  5
87F
102
{ACAD_REACTORS
330
87E
102
}
330
19
100
AcDbEntity
  8
0
100
AcDbCircle
 10
7.85647145666504
 20
4.305719696110836
 30
0.0
 40
0.0141563369265043
  0
HATCH
  5
880
330
19
100
AcDbEntity
  8
0
100
AcDbHatch
 10
0.0
 20
0.0
 30
0.0
210
0.0
220
0.0
230
1.0
  2
SOLID
 70
     1
 71
     1
 91
        1
 92
        7
 72
     1
 73
     1
 93
        2
 10
7.680302358500905
 20
4.545854048667585
 42
1.0
 10
7.651989684647896
 20
4.545854048667585
 42
1.0
 97
        1
330
881
 75
     0
 76
     1
 47
0.0005711186240036
 98
        1
 10
7.660140558540793
 20
4.544849677889606
  0
CIRCLE
  5
881
102
{ACAD_REACTORS
330
880
102
}
330
19
100
AcDbEntity
  8
0
100
AcDbCircle
 10
7.6661460215744
 20
4.545854048667585
 30
0.0
 40
0.0141563369265043
  0
HATCH
  5
882
330
19
100
AcDbEntity
  8
0
100
AcDbHatch
 10
0.0
 20
0.0
 30
0.0
210
0.0
220
0.0
230
1.0
  2
SOLID
 70
     1
 71
     1
 91
        1
 92
        7
 72
     1
 73
     1
 93
        2
 10
7.94448605832936
 20
4.691147769572797
 42
1.0
 10
7.916173384476351
 20
4.691147769572797
 42
1.0
 97
        1
330
883
 75
     0
 76
     1
 47
0.0005711186240036
 98
        1
 10
7.924324258369247
 20
4.690143398794818
  0
CIRCLE
  5
883
102
{ACAD_REACTORS
330
882
102
}
330
19
100
AcDbEntity
  8
0
100
AcDbCircle
 10
7.930329721402855
 20
4.691147769572797
 30
0.0
 40
0.0141563369265043
  0
HATCH
  5
884
330
19
100
AcDbEntity
  8
0
100
AcDbHatch
 10
0.0
 20
0.0
 30
0.0
210
0.0
220
0.0
230
1.0
  2
SOLID
 70
     1
 71
     1
 91
        1
 92
        7
 72
     1
 73
     1
 93
        2
 10
7.726127460370125
 20
4.940275446860817
 42
1.0
 10
7.697814786517117
 20
4.940275446860817
 42
1.0
 97
        1
330
885
 75
     0
 76
     1
 47
0.0005711186240036
 98
        1
 10
7.705965660410013
 20
4.939271076082838
  0
CIRCLE
  5
885
102
{ACAD_REACTORS
330
884
102
}
330
19
100
AcDbEntity
  8
0
100
AcDbCircle
 10
7.711971123443621
 20
4.940275446860817
 30
0.0
 40
0.0141563369265043
  0
CIRCLE
  5
887
102
{ACAD_REACTORS
330
888
102
}
330
19
100
AcDbEntity
  8
0
100
AcDbCircle
 10
10.16513015037298
 20
3.694399186734906
 30
0.0
 40
0.0141563369265043
  0
HATCH
  5
888
330
19
100
AcDbEntity
  8
0
100
AcDbHatch
 10
0.0
 20
0.0
 30
0.0
210
0.0
220
0.0
230
1.0
  2
SOLID
 70
     1
 71
     1
 91
        1
 92
        7
 72
     1
 73
     1
 93
        2
 10
10.17928648729948
 20
3.694399186734906
 42
1.0
 10
10.15097381344647
 20
3.694399186734906
 42
1.0
 97
        1
330
887
 75
     0
 76
     1
 47
0.0005711186240036
 98
        1
 10
10.15912468733937
 20
3.693394815956926
  0
CIRCLE
  5
889
102
{ACAD_REACTORS
330
88A
102
}
330
19
100
AcDbEntity
  8
0
100
AcDbCircle
 10
10.38470522445488
 20
3.060886524405187
 30
0.0
 40
0.0141563369265043
  0
HATCH
  5
88A
330
19
100
AcDbEntity
  8
0
100
AcDbHatch
 10
0.0
 20
0.0
 30
0.0
210
0.0
220
0.0
230
1.0
  2
SOLID
 70
     1
 71
     1
 91
        1
 92
        7
 72
     1
 73
     1
 93
        2
 10
10.39886156138138
 20
3.060886524405187
 42
1.0
 10
10.37054888752837
 20
3.060886524405187
 42
1.0
 97
        1
330
889
 75
     0
 76
     1
 47
0.0005711186240036
 98
        1
 10
10.37869976142127
 20
3.059882153627208
  0
CIRCLE
  5
88B
102
{ACAD_REACTORS
330
88C
102
}
330
19
100
AcDbEntity
  8
0
100
AcDbCircle
 10
9.761075226958061
 20
3.068544975585941
 30
0.0
 40
0.0141563369265043
  0
HATCH
  5
88C
330
19
100
AcDbEntity
  8
0
100
AcDbHatch
 10
0.0
 20
0.0
 30
0.0
210
0.0
220
0.0
230
1.0
  2
SOLID
 70
     1
 71
     1
 91
        1
 92
        7
 72
     1
 73
     1
 93
        2
 10
9.775231563884566
 20
3.068544975585941
 42
1.0
 10
9.746918890031557
 20
3.068544975585941
 42
1.0
 97
        1
330
88B
 75
     0
 76
     1
 47
0.0005711186240036
 98
        1
 10
9.755069763924453
 20
3.067540604807961
  0
CIRCLE
  5
88D
102
{ACAD_REACTORS
330
88E
102
}
330
19
100
AcDbEntity
  8
0
100
AcDbCircle
 10
9.645956958287018
 20
3.073485466314516
 30
0.0
 40
0.0141563369265043
  0
HATCH
  5
88E
330
19
100
AcDbEntity
  8
0
100
AcDbHatch
 10
0.0
 20
0.0
 30
0.0
210
0.0
220
0.0
230
1.0
  2
SOLID
 70
     1
 71
     1
 91
        1
 92
        7
 72
     1
 73
     1
 93
        2
 10
9.660113295213522
 20
3.073485466314516
 42
1.0
 10
9.631800621360513
 20
3.073485466314516
 42
1.0
 97
        1
330
88D
 75
     0
 76
     1
 47
0.0005711186240036
 98
        1
 10
9.63995149525341
 20
3.072481095536537
  0
CIRCLE
  5
88F
102
{ACAD_REACTORS
330
890
102
}
330
19
100
AcDbEntity
  8
0
100
AcDbCircle
 10
9.829412279753443
 20
2.589102203420767
 30
0.0
 40
0.0141563369265043
  0
HATCH
  5
890
330
19
100
AcDbEntity
  8
0
100
AcDbHatch
 10
0.0
 20
0.0
 30
0.0
210
0.0
220
0.0
230
1.0
  2
SOLID
 70
     1
 71
     1
 91
        1
 92
        7
 72
     1
 73
     1
 93
        2
 10
9.843568616679947
 20
2.589102203420767
 42
1.0
 10
9.815255942826939
 20
2.589102203420767
 42
1.0
 97
        1
330
88F
 75
     0
 76
     1
 47
0.0005711186240036
 98
        1
 10
9.823406816719835
 20
2.588097832642788
  0
CIRCLE
  5
891
102
{ACAD_REACTORS
330
892
102
}
330
19
100
AcDbEntity
  8
0
100
AcDbCircle
 10
9.899621159543667
 20
2.341893487648625
 30
0.0
 40
0.0141563369265043
  0
HATCH
  5
892
330
19
100
AcDbEntity
  8
0
100
AcDbHatch
 10
0.0
 20
0.0
 30
0.0
210
0.0
220
0.0
230
1.0
  2
SOLID
 70
     1
 71
     1
 91
        1
 92
        7
 72
     1
 73
     1
 93
        2
 10
9.913777496470171
 20
2.341893487648625
 42
1.0
 10
9.885464822617163
 20
2.341893487648625
 42
1.0
 97
        1
330
891
 75
     0
 76
     1
 47
0.0005711186240036
 98
        1
 10
9.893615696510059
 20
2.340889116870646
  0
CIRCLE
  5
893
102
{ACAD_REACTORS
330
894
102
}
330
19
100
AcDbEntity
  8
0
100
AcDbCircle
 10
9.557435458684118
 20
2.060419451373081
 30
0.0
 40
0.0141563369265043
  0
HATCH
  5
894
330
19
100
AcDbEntity
  8
0
100
AcDbHatch
 10
0.0
 20
0.0
 30
0.0
210
0.0
220
0.0
230
1.0
  2
SOLID
 70
     1
 71
     1
 91
        1
 92
        7
 72
     1
 73
     1
 93
        2
 10
9.571591795610623
 20
2.060419451373081
 42
1.0
 10
9.543279121757614
 20
2.060419451373081
 42
1.0
 97
        1
330
893
 75
     0
 76
     1
 47
0.0005711186240036
 98
        1
 10
9.55142999565051
 20
2.059415080595101
  0
CIRCLE
  5
895
102
{ACAD_REACTORS
330
896
102
}
330
19
100
AcDbEntity
  8
0
100
AcDbCircle
 10
9.66262953925372
 20
1.902319733341108
 30
0.0
 40
0.0141563369265043
  0
HATCH
  5
896
330
19
100
AcDbEntity
  8
0
100
AcDbHatch
 10
0.0
 20
0.0
 30
0.0
210
0.0
220
0.0
230
1.0
  2
SOLID
 70
     1
 71
     1
 91
        1
 92
        7
 72
     1
 73
     1
 93
        2
 10
9.676785876180224
 20
1.902319733341108
 42
1.0
 10
9.648473202327216
 20
1.902319733341108
 42
1.0
 97
        1
330
895
 75
     0
 76
     1
 47
0.0005711186240036
 98
        1
 10
9.656624076220112
 20
1.901315362563128
  0
CIRCLE
  5
897
102
{ACAD_REACTORS
330
898
102
}
330
19
100
AcDbEntity
  8
0
100
AcDbCircle
 10
9.863013271380666
 20
1.576104645759892
 30
0.0
 40
0.0141563369265043
  0
HATCH
  5
898
330
19
100
AcDbEntity
  8
0
100
AcDbHatch
 10
0.0
 20
0.0
 30
0.0
210
0.0
220
0.0
230
1.0
  2
SOLID
 70
     1
 71
     1
 91
        1
 92
        7
 72
     1
 73
     1
 93
        2
 10
9.87716960830717
 20
1.576104645759892
 42
1.0
 10
9.848856934454162
 20
1.576104645759892
 42
1.0
 97
        1
330
897
 75
     0
 76
     1
 47
0.0005711186240036
 98
        1
 10
9.857007808347058
 20
1.575100274981913
  0
CIRCLE
  5
899
102
{ACAD_REACTORS
330
89A
102
}
330
19
100
AcDbEntity
  8
0
100
AcDbCircle
 10
10.16920042267885
 20
1.790491211752499
 30
0.0
 40
0.0141563369265043
  0
HATCH
  5
89A
330
19
100
AcDbEntity
  8
0
100
AcDbHatch
 10
0.0
 20
0.0
 30
0.0
210
0.0
220
0.0
230
1.0
  2
SOLID
 70
     1
 71
     1
 91
        1
 92
        7
 72
     1
 73
     1
 93
        2
 10
10.18335675960535
 20
1.790491211752499
 42
1.0
 10
10.15504408575234
 20
1.790491211752499
 42
1.0
 97
        1
330
899
 75
     0
 76
     1
 47
0.0005711186240036
 98
        1
 10
10.16319495964524
 20
1.789486840974519
  0
CIRCLE
  5
89B
102
{ACAD_REACTORS
330
89C
102
}
330
19
100
AcDbEntity
  8
0
100
AcDbCircle
 10
10.36637184300793
 20
1.837648942671238
 30
0.0
 40
0.0141563369265043
  0
HATCH
  5
89C
330
19
100
AcDbEntity
  8
0
100
AcDbHatch
 10
0.0
 20
0.0
 30
0.0
210
0.0
220
0.0
230
1.0
  2
SOLID
 70
     1
 71
     1
 91
        1
 92
        7
 72
     1
 73
     1
 93
        2
 10
10.38052817993443
 20
1.837648942671238
 42
1.0
 10
10.35221550608143
 20
1.837648942671238
 42
1.0
 97
        1
330
89B
 75
     0
 76
     1
 47
0.0005711186240036
 98
        1
 10
10.36036637997432
 20
1.836644571893259
  0
CIRCLE
  5
89D
102
{ACAD_REACTORS
330
89E
102
}
330
19
100
AcDbEntity
  8
0
100
AcDbCircle
 10
11.45827813668429
 20
2.175599487242083
 30
0.0
 40
0.0141563369265043
  0
HATCH
  5
89E
330
19
100
AcDbEntity
  8
0
100
AcDbHatch
 10
0.0
 20
0.0
 30
0.0
210
0.0
220
0.0
230
1.0
  2
SOLID
 70
     1
 71
     1
 91
        1
 92
        7
 72
     1
 73
     1
 93
        2
 10
11.4724344736108
 20
2.175599487242083
 42
1.0
 10
11.44412179975779
 20
2.175599487242083
 42
1.0
 97
        1
330
89D
 75
     0
 76
     1
 47
0.0005711186240036
 98
        1
 10
11.45227267365068
 20
2.174595116464103
  0
CIRCLE
  5
89F
102
{ACAD_REACTORS
330
8A0
102
}
330
19
100
AcDbEntity
  8
0
100
AcDbCircle
 10
11.56121209158571
 20
2.477960499138764
 30
0.0
 40
0.0141563369265043
  0
HATCH
  5
8A0
330
19
100
AcDbEntity
  8
0
100
AcDbHatch
 10
0.0
 20
0.0
 30
0.0
210
0.0
220
0.0
230
1.0
  2
SOLID
 70
     1
 71
     1
 91
        1
 92
        7
 72
     1
 73
     1
 93
        2
 10
11.57536842851222
 20
2.477960499138764
 42
1.0
 10
11.54705575465921
 20
2.477960499138764
 42
1.0
 97
        1
330
89F
 75
     0
 76
     1
 47
0.0005711186240036
 98
        1
 10
11.55520662855211
 20
2.476956128360784
  0
CIRCLE
  5
8A1
102
{ACAD_REACTORS
330
8A2
102
}
330
19
100
AcDbEntity
  8
0
100
AcDbCircle
 10
13.21081393802491
 20
4.358771356399554
 30
0.0
 40
0.0141563369265043
  0
HATCH
  5
8A2
330
19
100
AcDbEntity
  8
0
100
AcDbHatch
 10
0.0
 20
0.0
 30
0.0
210
0.0
220
0.0
230
1.0
  2
SOLID
 70
     1
 71
     1
 91
        1
 92
        7
 72
     1
 73
     1
 93
        2
 10
13.22497027495141
 20
4.358771356399554
 42
1.0
 10
13.1966576010984
 20
4.358771356399554
 42
1.0
 97
        1
330
8A1
 75
     0
 76
     1
 47
0.0005711186240036
 98
        1
 10
13.2048084749913
 20
4.357766985621575
  0
CIRCLE
  5
8A3
102
{ACAD_REACTORS
330
8A4
102
}
330
19
100
AcDbEntity
  8
0
100
AcDbCircle
 10
13.27777459400124
 20
4.548999716821858
 30
0.0
 40
0.0141563369265043
  0
HATCH
  5
8A4
330
19
100
AcDbEntity
  8
0
100
AcDbHatch
 10
0.0
 20
0.0
 30
0.0
210
0.0
220
0.0
230
1.0
  2
SOLID
 70
     1
 71
     1
 91
        1
 92
        7
 72
     1
 73
     1
 93
        2
 10
13.29193093092774
 20
4.548999716821858
 42
1.0
 10
13.26361825707473
 20
4.548999716821858
 42
1.0
 97
        1
330
8A3
 75
     0
 76
     1
 47
0.0005711186240036
 98
        1
 10
13.27176913096763
 20
4.547995346043878
  0
ENDSEC
  0
SECTION
  2
OBJECTS
  0
DICTIONARY
  5
C
330
0
100
AcDbDictionary
281
     1
  3
ACAD_COLOR
350
8B1
  3
ACAD_GROUP
350
D
  3
ACAD_LAYOUT
350
8AC
  3
ACAD_MATERIAL
350
8B3
  3
ACAD_MLINESTYLE
350
E
  3
ACDBHEADERROUNDTRIPXREC
350
8B0
  3
ACDBVARIABLEDICTIONARY
350
AC
  0
DICTIONARY
  5
8B1
102
{ACAD_REACTORS
330
C
102
}
330
C
100
AcDbDictionary
281
     1
  0
DICTIONARY
  5
D
102
{ACAD_REACTORS
330
C
102
}
330
C
100
AcDbDictionary
281
     1
  0
DICTIONARY
  5
8AC
102
{ACAD_REACTORS
330
C
102
}
330
C
100
AcDbDictionary
281
     1
  3
Layout1
350
8AE
  3
Model
350
8AD
  0
DICTIONARY
  5
8B3
102
{ACAD_REACTORS
330
C
102
}
330
C
100
AcDbDictionary
281
     1
  0
DICTIONARY
  5
E
102
{ACAD_REACTORS
330
C
102
}
330
C
100
AcDbDictionary
281
     1
  3
STANDARD
350
1C
  0
DICTIONARY
  5
8B0
102
{ACAD_REACTORS
330
C
102
}
330
C
100
AcDbDictionary
281
     1
  3
COLORDICT
350
8B2
  3
MATERIALDICT
350
8B4
  0
DICTIONARY
  5
AC
102
{ACAD_REACTORS
330
C
102
}
330
C
100
AcDbDictionary
281
     1
  3
SORTENTS
350
8AF
  0
LAYOUT
  5
8AE
102
{ACAD_REACTORS
330
8AC
102
}
102
{ACAD_XDICTIONARY
360
8B5
102
}
330
8AC
100
AcDbPlotSettings
  1

  2

  4

  6

 40
0.0
 41
0.0
 42
0.0
 43
0.0
 44
0.0
 45
0.0
 46
0.0
 47
0.0
 48
0.0
 49
0.0
140
0.0
141
0.0
142
1.0
143
1.0
 70
   688
 72
     0
 73
     0
 74
     5
  7

 75
    16
147
1.0
148
0.0
149
0.0
100
AcDbLayout
  1
Layout1
 70
     1
 71
     1
 10
0.0
 20
0.0
 11
0.0
 21
0.0
 12
0.0
 22
0.0
 32
0.0
 14
0.0
 24
0.0
 34
0.0
 15
0.0
 25
0.0
 35
0.0
146
0.0
 13
0.0
 23
0.0
 33
0.0
 16
1.0
 26
0.0
 36
0.0
 17
0.0
 27
1.0
 37
0.0
 76
     0
330
16
  0
LAYOUT
  5
8AD
102
{ACAD_REACTORS
330
8AC
102
}
102
{ACAD_XDICTIONARY
360
8B7
102
}
330
8AC
100
AcDbPlotSettings
  1

  2

  4

  6

 40
0.0
 41
0.0
 42
0.0
 43
0.0
 44
0.0
 45
0.0
 46
0.0
 47
0.0
 48
0.0
 49
0.0
140
0.0
141
0.0
142
1.0
143
1.0
 70
   688
 72
     0
 73
     0
 74
     5
  7

 75
    16
147
1.0
148
0.0
149
0.0
100
AcDbLayout
  1
Model
 70
     1
 71
     0
 10
0.0
 20
0.0
 11
0.0
 21
0.0
 12
0.0
 22
0.0
 32
0.0
 14
0.0
 24
0.0
 34
0.0
 15
0.0
 25
0.0
 35
0.0
146
0.0
 13
0.0
 23
0.0
 33
0.0
 16
1.0
 26
0.0
 36
0.0
 17
0.0
 27
1.0
 37
0.0
 76
     0
330
19
  0
MLINESTYLE
  5
1C
102
{ACAD_REACTORS
330
E
102
}
330
E
100
AcDbMlineStyle
  2
STANDARD
 70
     0
  3

 62
     0
 51
90.0
 52
90.0
 71
     2
 49
0.5
 62
   256
  6
BYLAYER
 49
-0.5
 62
   256
  6
BYLAYER
  0
XRECORD
  5
8B2
102
{ACAD_REACTORS
330
8B0
102
}
330
8B0
100
AcDbXrecord
340
8B1
  0
XRECORD
  5
8B4
102
{ACAD_REACTORS
330
8B0
102
}
330
8B0
100
AcDbXrecord
340
8B3
  0
DICTIONARYVAR
  5
8AF
102
{ACAD_REACTORS
330
AC
102
}
330
AC
100
DictionaryVariables
280
     0
  1
96
  0
DICTIONARY
  5
8B5
330
8AE
100
AcDbDictionary
280
     1
281
     1
  3
ACAD_XREC_ROUNDTRIP
360
8B6
  0
DICTIONARY
  5
8B7
330
8AD
100
AcDbDictionary
280
     1
281
     1
  3
ACAD_XREC_ROUNDTRIP
360
8B8
  0
XRECORD
  5
8B6
102
{ACAD_REACTORS
330
8B5
102
}
330
8B5
100
AcDbXrecord
102
SHADEPLOT
 70
 15296
102
SHADEPLOTRESLEVEL
 70
 22216
102
SHADEPLOTCUSTOMDPI
 70
 22256
  0
XRECORD
  5
8B8
102
{ACAD_REACTORS
330
8B7
102
}
330
8B7
100
AcDbXrecord
102
SHADEPLOT
 70
  4264
102
SHADEPLOTRESLEVEL
 70
-31226
102
SHADEPLOTCUSTOMDPI
 70
-32688
  0
ENDSEC
  0
EOF
