  0
SECTION
  2
HEADER
  9
$ACADVER
  1
AC1015
  9
$ACADMAINTVER
 70
     6
  9
$DWGCODEPAGE
  3
ANSI_1252
  9
$INSBASE
 10
0.0
 20
0.0
 30
0.0
  9
$EXTMIN
 10
32.89234797042567
 20
62.92575505066072
 30
-0.0015258207003612
  9
$EXTMAX
 10
175.660921678814
 20
197.255358683433
 30
0.0000000349246008
  9
$LIMMIN
 10
44.14614257812499
 20
84.81497802734374
  9
$LIMMAX
 10
175.9182888454861
 20
197.397942437066
  9
$ORTHOMODE
 70
     0
  9
$REGENMODE
 70
     1
  9
$FILLMODE
 70
     1
  9
$QTEXTMODE
 70
     0
  9
$MIRRTEXT
 70
     1
  9
$LTSCALE
 40
1.0
  9
$ATTMODE
 70
     1
  9
$TEXTSIZE
 40
0.2
  9
$TRACEWID
 40
0.05
  9
$TEXTSTYLE
  7
STANDARD
  9
$CLAYER
  8
0
  9
$CELTYPE
  6
CONTINUOUS
  9
$CECOLOR
 62
   256
  9
$CELTSCALE
 40
1.0
  9
$DISPSILH
 70
     0
  9
$DIMSCALE
 40
1.0
  9
$DIMASZ
 40
0.18
  9
$DIMEXO
 40
0.0625
  9
$DIMDLI
 40
0.38
  9
$DIMRND
 40
0.0
  9
$DIMDLE
 40
0.0
  9
$DIMEXE
 40
0.18
  9
$DIMTP
 40
0.0
  9
$DIMTM
 40
0.0
  9
$DIMTXT
 40
0.18
  9
$DIMCEN
 40
0.09
  9
$DIMTSZ
 40
0.0
  9
$DIMTOL
 70
     0
  9
$DIMLIM
 70
     0
  9
$DIMTIH
 70
     1
  9
$DIMTOH
 70
     1
  9
$DIMSE1
 70
     0
  9
$DIMSE2
 70
     0
  9
$DIMTAD
 70
     0
  9
$DIMZIN
 70
     0
  9
$DIMBLK
  1

  9
$DIMASO
 70
     1
  9
$DIMSHO
 70
     1
  9
$DIMPOST
  1

  9
$DIMAPOST
  1

  9
$DIMALT
 70
     0
  9
$DIMALTD
 70
     2
  9
$DIMALTF
 40
25.4
  9
$DIMLFAC
 40
1.0
  9
$DIMTOFL
 70
     0
  9
$DIMTVP
 40
0.0
  9
$DIMTIX
 70
     0
  9
$DIMSOXD
 70
     0
  9
$DIMSAH
 70
     0
  9
$DIMBLK1
  1

  9
$DIMBLK2
  1

  9
$DIMSTYLE
  2
STANDARD
  9
$DIMCLRD
 70
     0
  9
$DIMCLRE
 70
     0
  9
$DIMCLRT
 70
     0
  9
$DIMTFAC
 40
1.0
  9
$DIMGAP
 40
0.09
  9
$DIMJUST
 70
     0
  9
$DIMSD1
 70
     0
  9
$DIMSD2
 70
     0
  9
$DIMTOLJ
 70
     1
  9
$DIMTZIN
 70
     0
  9
$DIMALTZ
 70
     0
  9
$DIMALTTZ
 70
     0
  9
$DIMUPT
 70
     0
  9
$DIMDEC
 70
     4
  9
$DIMTDEC
 70
     4
  9
$DIMALTU
 70
     2
  9
$DIMALTTD
 70
     2
  9
$DIMTXSTY
  7
STANDARD
  9
$DIMAUNIT
 70
     0
  9
$DIMADEC
 70
     0
  9
$DIMALTRND
 40
0.0
  9
$DIMAZIN
 70
     0
  9
$DIMDSEP
 70
    46
  9
$DIMATFIT
 70
     3
  9
$DIMFRAC
 70
     0
  9
$DIMLDRBLK
  1

  9
$DIMLUNIT
 70
     2
  9
$DIMLWD
 70
    -2
  9
$DIMLWE
 70
    -2
  9
$DIMTMOVE
 70
     0
  9
$LUNITS
 70
     2
  9
$LUPREC
 70
     4
  9
$SKETCHINC
 40
0.1
  9
$FILLETRAD
 40
0.0
  9
$AUNITS
 70
     0
  9
$AUPREC
 70
     0
  9
$MENU
  1
acad
  9
$ELEVATION
 40
0.0
  9
$PELEVATION
 40
0.0
  9
$THICKNESS
 40
0.0
  9
$LIMCHECK
 70
     0
  9
$CHAMFERA
 40
0.0
  9
$CHAMFERB
 40
0.0
  9
$CHAMFERC
 40
0.0
  9
$CHAMFERD
 40
0.0
  9
$SKPOLY
 70
     0
  9
$TDCREATE
 40
2444971.666666667
  9
$TDUCREATE
 40
2444972.0
  9
$TDUPDATE
 40
2452215.482007408
  9
$TDUUPDATE
 40
2452215.815340741
  9
$TDINDWG
 40
0.0011170139
  9
$TDUSRTIMER
 40
0.0011170139
  9
$USRTIMER
 70
     1
  9
$ANGBASE
 50
0.0
  9
$ANGDIR
 70
     0
  9
$PDMODE
 70
     0
  9
$PDSIZE
 40
0.0
  9
$PLINEWID
 40
0.0
  9
$SPLFRAME
 70
     0
  9
$SPLINETYPE
 70
     6
  9
$SPLINESEGS
 70
     8
  9
$HANDSEED
  5
542
  9
$SURFTAB1
 70
     6
  9
$SURFTAB2
 70
     6
  9
$SURFTYPE
 70
     6
  9
$SURFU
 70
     6
  9
$SURFV
 70
     6
  9
$UCSBASE
  2

  9
$UCSNAME
  2

  9
$UCSORG
 10
0.0
 20
0.0
 30
0.0
  9
$UCSXDIR
 10
1.0
 20
0.0
 30
0.0
  9
$UCSYDIR
 10
0.0
 20
1.0
 30
0.0
  9
$UCSORTHOREF
  2

  9
$UCSORTHOVIEW
 70
     0
  9
$UCSORGTOP
 10
0.0
 20
0.0
 30
0.0
  9
$UCSORGBOTTOM
 10
0.0
 20
0.0
 30
0.0
  9
$UCSORGLEFT
 10
0.0
 20
0.0
 30
0.0
  9
$UCSORGRIGHT
 10
0.0
 20
0.0
 30
0.0
  9
$UCSORGFRONT
 10
0.0
 20
0.0
 30
0.0
  9
$UCSORGBACK
 10
0.0
 20
0.0
 30
0.0
  9
$PUCSBASE
  2

  9
$PUCSNAME
  2

  9
$PUCSORG
 10
0.0
 20
0.0
 30
0.0
  9
$PUCSXDIR
 10
1.0
 20
0.0
 30
0.0
  9
$PUCSYDIR
 10
0.0
 20
1.0
 30
0.0
  9
$PUCSORTHOREF
  2

  9
$PUCSORTHOVIEW
 70
     0
  9
$PUCSORGTOP
 10
0.0
 20
0.0
 30
0.0
  9
$PUCSORGBOTTOM
 10
0.0
 20
0.0
 30
0.0
  9
$PUCSORGLEFT
 10
0.0
 20
0.0
 30
0.0
  9
$PUCSORGRIGHT
 10
0.0
 20
0.0
 30
0.0
  9
$PUCSORGFRONT
 10
0.0
 20
0.0
 30
0.0
  9
$PUCSORGBACK
 10
0.0
 20
0.0
 30
0.0
  9
$USERI1
 70
     0
  9
$USERI2
 70
     0
  9
$USERI3
 70
     0
  9
$USERI4
 70
     0
  9
$USERI5
 70
     0
  9
$USERR1
 40
0.0
  9
$USERR2
 40
0.0
  9
$USERR3
 40
0.0
  9
$USERR4
 40
0.0
  9
$USERR5
 40
0.0
  9
$WORLDVIEW
 70
     1
  9
$SHADEDGE
 70
     3
  9
$SHADEDIF
 70
    70
  9
$TILEMODE
 70
     1
  9
$MAXACTVP
 70
    16
  9
$PINSBASE
 10
0.0
 20
0.0
 30
0.0
  9
$PLIMCHECK
 70
     0
  9
$PEXTMIN
 10
1.000000000000000E+20
 20
1.000000000000000E+20
 30
1.000000000000000E+20
  9
$PEXTMAX
 10
-1.000000000000000E+20
 20
-1.000000000000000E+20
 30
-1.000000000000000E+20
  9
$PLIMMIN
 10
0.0
 20
0.0
  9
$PLIMMAX
 10
12.0
 20
9.0
  9
$UNITMODE
 70
     0
  9
$VISRETAIN
 70
     0
  9
$PLINEGEN
 70
     1
  9
$PSLTSCALE
 70
     0
  9
$TREEDEPTH
 70
  3020
  9
$CMLSTYLE
  2
STANDARD
  9
$CMLJUST
 70
     0
  9
$CMLSCALE
 40
1.0
  9
$PROXYGRAPHICS
 70
     0
  9
$MEASUREMENT
 70
     0
  9
$CELWEIGHT
370
    -1
  9
$ENDCAPS
280
     0
  9
$JOINSTYLE
280
     0
  9
$LWDISPLAY
290
     0
  9
$INSUNITS
 70
     0
  9
$HYPERLINKBASE
  1

  9
$STYLESHEET
  1

  9
$XEDIT
290
     1
  9
$CEPSNTYPE
380
     0
  9
$PSTYLEMODE
290
     1
  9
$FINGERPRINTGUID
  2
{87DE9540-CEA3-11D5-923F-00805F198AD5}
  9
$VERSIONGUID
  2
{87DE9542-CEA3-11D5-923F-00805F198AD5}
  9
$EXTNAMES
290
     1
  9
$PSVPSCALE
 40
0.0
  9
$OLESTARTUP
290
     0
  0
ENDSEC
  0
SECTION
  2
CLASSES
  0
CLASS
  1
LWPOLYLINE
  2
AcDbPolyline
  3
AutoCAD 2000
 90
        0
280
     0
281
     1
  0
CLASS
  1
IMAGE
  2
AcDbRasterImage
  3
ISM
 90
      127
280
     0
281
     1
  0
CLASS
  1
OLE2FRAME
  2
AcDbOle2Frame
  3
AutoCAD 2000
 90
        0
280
     0
281
     1
  0
CLASS
  1
HATCH
  2
AcDbHatch
  3
AutoCAD 2000
 90
        0
280
     0
281
     1
  0
CLASS
  1
DICTIONARYVAR
  2
AcDbDictionaryVar
  3
AutoCAD 2000
 90
        0
280
     0
281
     0
  0
CLASS
  1
RASTERVARIABLES
  2
AcDbRasterVariables
  3
ISM
 90
        0
280
     0
281
     0
  0
CLASS
  1
IMAGEDEF
  2
AcDbRasterImageDef
  3
ISM
 90
        0
280
     0
281
     0
  0
CLASS
  1
IMAGEDEF_REACTOR
  2
AcDbRasterImageDefReactor
  3
ISM
 90
        1
280
     0
281
     0
  0
CLASS
  1
IDBUFFER
  2
AcDbIdBuffer
  3
AutoCAD 2000
 90
        0
280
     0
281
     0
  0
CLASS
  1
SPATIAL_FILTER
  2
AcDbSpatialFilter
  3
AutoCAD 2000
 90
        0
280
     0
281
     0
  0
CLASS
  1
XRECORD
  2
AcDbXrecord
  3
AutoCAD 2000
 90
        0
280
     0
281
     0
  0
CLASS
  1
SORTENTSTABLE
  2
AcDbSortentsTable
  3
AutoCAD 2000
 90
        0
280
     0
281
     0
  0
CLASS
  1
LAYER_INDEX
  2
AcDbLayerIndex
  3
AutoCAD 2000
 90
        0
280
     0
281
     0
  0
CLASS
  1
SPATIAL_INDEX
  2
AcDbSpatialIndex
  3
AutoCAD 2000
 90
        0
280
     0
281
     0
  0
CLASS
  1
OBJECT_PTR
  2
CAseDLPNTableRecord
  3
ASE-LPNTableRecord
 90
        1
280
     1
281
     0
  0
CLASS
  1
LAYOUT
  2
AcDbLayout
  3
ObjectDBX Classes
 90
        0
280
     0
281
     0
  0
CLASS
  1
PLOTSETTINGS
  2
AcDbPlotSettings
  3
AutoCAD 2000
 90
        0
280
     0
281
     0
  0
CLASS
  1
ACDBDICTIONARYWDFLT
  2
AcDbDictionaryWithDefault
  3
AutoCAD 2000
 90
        0
280
     0
281
     0
  0
CLASS
  1
ACDBPLACEHOLDER
  2
AcDbPlaceHolder
  3
ObjectDBX Classes
 90
        0
280
     0
281
     0
  0
CLASS
  1
VBAPROJECT
  2
AcDbVbaProject
  3
ObjectDBX Classes
 90
        0
280
     0
281
     0
  0
CLASS
  1
WIPEOUT
  2
AcDbWipeout
  3
WipeOut|AutoCAD Express Tool|expresstools@autodesk.com
 90
      127
280
     0
281
     1
  0
CLASS
  1
WIPEOUTVARIABLES
  2
AcDbWipeoutVariables
  3
WipeOut|AutoCAD Express Tool|expresstools@autodesk.com
 90
        0
280
     0
281
     0
  0
CLASS
  1
RTEXT
  2
RText
  3
RText|AutoCAD Express Tool|expresstools@autodesk.com
 90
        0
280
     0
281
     1
  0
CLASS
  1
ARCALIGNEDTEXT
  2
AcDbArcAlignedText
  3
ATEXT|AutoCAD Express Tool|expresstools@autodesk.com
 90
        0
280
     0
281
     1
  0
CLASS
  1
LONG_TRANSACTION
  2
AcDbLongTransaction
  3
AutoCAD 2000
 90
        0
280
     1
281
     0
  0
CLASS
  1
LWPOLYLINE
  2
AcDbPolyline
  3
AutoCAD 2000
 90
        0
280
     0
281
     1
  0
CLASS
  1
HATCH
  2
AcDbHatch
  3
AutoCAD 2000
 90
        0
280
     0
281
     1
  0
CLASS
  1
XRECORD
  2
AcDbXrecord
  3
AutoCAD 2000
 90
        0
280
     0
281
     0
  0
ENDSEC
  0
SECTION
  2
TABLES
  0
TABLE
  2
VPORT
  5
7
330
0
100
AcDbSymbolTable
 70
     2
  0
VPORT
  5
50E
330
7
100
AcDbSymbolTableRecord
100
AcDbViewportTableRecord
  2
*Active
 70
     0
 10
0.0
 20
0.0
 11
1.0
 21
1.0
 12
104.2766348246198
 22
130.0905568670469
 13
0.0
 23
0.0
 14
1.0
 24
1.0
 15
0.0
 25
0.0
 16
0.0
 26
0.0
 36
1.0
 17
0.0
 27
0.0
 37
0.0
 40
136.4450304616348
 41
1.836842105263158
 42
50.0
 43
0.0
 44
0.0
 50
0.0
 51
0.0
 71
     0
 72
   100
 73
     1
 74
     1
 75
     0
 76
     0
 77
     0
 78
     0
281
     0
 65
     1
110
0.0
120
0.0
130
0.0
111
1.0
121
0.0
131
0.0
112
0.0
122
1.0
132
0.0
 79
     0
146
0.0
  0
ENDTAB
  0
TABLE
  2
LTYPE
  5
4
330
0
100
AcDbSymbolTable
 70
     1
  0
LTYPE
  5
11
330
4
100
AcDbSymbolTableRecord
100
AcDbLinetypeTableRecord
  2
BYBLOCK
 70
     0
  3

 72
    65
 73
     0
 40
0.0
  0
LTYPE
  5
12
330
4
100
AcDbSymbolTableRecord
100
AcDbLinetypeTableRecord
  2
BYLAYER
 70
     0
  3

 72
    65
 73
     0
 40
0.0
  0
LTYPE
  5
13
330
4
100
AcDbSymbolTableRecord
100
AcDbLinetypeTableRecord
  2
CONTINUOUS
 70
     0
  3
Solid line
 72
    65
 73
     0
 40
0.0
  0
ENDTAB
  0
TABLE
  2
LAYER
  5
2
330
0
100
AcDbSymbolTable
 70
     2
  0
LAYER
  5
14
330
2
100
AcDbSymbolTableRecord
100
AcDbLayerTableRecord
  2
0
 70
     0
 62
     7
  6
CONTINUOUS
370
    -3
390
0
  0
LAYER
  5
21
330
2
100
AcDbSymbolTableRecord
100
AcDbLayerTableRecord
  2
H16-2
 70
     0
 62
     5
  6
CONTINUOUS
370
    -3
390
0
  0
ENDTAB
  0
TABLE
  2
STYLE
  5
3
330
0
100
AcDbSymbolTable
 70
     5
  0
STYLE
  5
17
330
3
100
AcDbSymbolTableRecord
100
AcDbTextStyleTableRecord
  2
STANDARD
 70
     0
 40
0.0
 41
1.0
 50
0.0
 71
     0
 42
0.2
  3
txt
  4

  0
STYLE
  5
1D
330
3
100
AcDbSymbolTableRecord
100
AcDbTextStyleTableRecord
  2
STD
 70
     0
 40
0.0
 41
1.0
 50
0.0
 71
     0
 42
0.2
  3
txt
  4

  0
STYLE
  5
1E
330
3
100
AcDbSymbolTableRecord
100
AcDbTextStyleTableRecord
  2
TATESTD
 70
     4
 40
0.0
 41
1.0
 50
0.0
 71
     0
 42
0.2
  3
txt
  4

  0
STYLE
  5
1F
330
3
100
AcDbSymbolTableRecord
100
AcDbTextStyleTableRecord
  2
KANJISTD
 70
     0
 40
0.0
 41
1.0
 50
0.0
 71
     0
 42
0.2
  3
txt
  4
extfont
  0
STYLE
  5
20
330
3
100
AcDbSymbolTableRecord
100
AcDbTextStyleTableRecord
  2
KANJITATE
 70
     4
 40
0.0
 41
1.0
 50
0.0
 71
     0
 42
0.2
  3
txt
  4
extfont
  0
ENDTAB
  0
TABLE
  2
VIEW
  5
5
330
0
100
AcDbSymbolTable
 70
     0
  0
ENDTAB
  0
TABLE
  2
UCS
  5
6
330
0
100
AcDbSymbolTable
 70
     0
  0
ENDTAB
  0
TABLE
  2
APPID
  5
8
330
0
100
AcDbSymbolTable
 70
     1
  0
APPID
  5
16
330
8
100
AcDbSymbolTableRecord
100
AcDbRegAppTableRecord
  2
ACAD
 70
     0
  0
ENDTAB
  0
TABLE
  2
DIMSTYLE
  5
9
330
0
100
AcDbSymbolTable
 70
     1
100
AcDbDimStyleTable
  0
DIMSTYLE
105
18
330
9
100
AcDbSymbolTableRecord
100
AcDbDimStyleTableRecord
  2
STANDARD
 70
     0
  3

  4

289
     0
340
17
  0
ENDTAB
  0
TABLE
  2
BLOCK_RECORD
  5
1
330
0
100
AcDbSymbolTable
 70
    71
  0
BLOCK_RECORD
  5
A
330
1
100
AcDbSymbolTableRecord
100
AcDbBlockTableRecord
  2
*MODEL_SPACE
340
509
  0
BLOCK_RECORD
  5
B
330
1
100
AcDbSymbolTableRecord
100
AcDbBlockTableRecord
  2
*PAPER_SPACE
340
50A
  0
BLOCK_RECORD
  5
22
330
1
100
AcDbSymbolTableRecord
100
AcDbBlockTableRecord
  2
AI9-BLK1
340
0
102
{BLKREFS
331
23
102
}
  0
BLOCK_RECORD
  5
28
330
1
100
AcDbSymbolTableRecord
100
AcDbBlockTableRecord
  2
AI9-BLK2
340
0
102
{BLKREFS
331
29
102
}
  0
BLOCK_RECORD
  5
2E
330
1
100
AcDbSymbolTableRecord
100
AcDbBlockTableRecord
  2
AI9-BLK3
340
0
102
{BLKREFS
331
2F
102
}
  0
BLOCK_RECORD
  5
34
330
1
100
AcDbSymbolTableRecord
100
AcDbBlockTableRecord
  2
AI9-BLK4
340
0
102
{BLKREFS
331
35
102
}
  0
BLOCK_RECORD
  5
3A
330
1
100
AcDbSymbolTableRecord
100
AcDbBlockTableRecord
  2
AI9-BLK5
340
0
102
{BLKREFS
331
3B
102
}
  0
BLOCK_RECORD
  5
40
330
1
100
AcDbSymbolTableRecord
100
AcDbBlockTableRecord
  2
AI9-BLK6
340
0
102
{BLKREFS
331
41
102
}
  0
BLOCK_RECORD
  5
51
330
1
100
AcDbSymbolTableRecord
100
AcDbBlockTableRecord
  2
AI9-BLK7
340
0
102
{BLKREFS
331
52
102
}
  0
BLOCK_RECORD
  5
57
330
1
100
AcDbSymbolTableRecord
100
AcDbBlockTableRecord
  2
AI9-BLK8
340
0
102
{BLKREFS
331
58
102
}
  0
BLOCK_RECORD
  5
5D
330
1
100
AcDbSymbolTableRecord
100
AcDbBlockTableRecord
  2
AI9-BLK9
340
0
102
{BLKREFS
331
5E
102
}
  0
BLOCK_RECORD
  5
63
330
1
100
AcDbSymbolTableRecord
100
AcDbBlockTableRecord
  2
AI9-BLK10
340
0
102
{BLKREFS
331
64
102
}
  0
BLOCK_RECORD
  5
71
330
1
100
AcDbSymbolTableRecord
100
AcDbBlockTableRecord
  2
AI9-BLK11
340
0
102
{BLKREFS
331
72
102
}
  0
BLOCK_RECORD
  5
77
330
1
100
AcDbSymbolTableRecord
100
AcDbBlockTableRecord
  2
AI9-BLK12
340
0
102
{BLKREFS
331
78
102
}
  0
BLOCK_RECORD
  5
7D
330
1
100
AcDbSymbolTableRecord
100
AcDbBlockTableRecord
  2
AI9-BLK13
340
0
102
{BLKREFS
331
7E
102
}
  0
BLOCK_RECORD
  5
83
330
1
100
AcDbSymbolTableRecord
100
AcDbBlockTableRecord
  2
AI9-BLK14
340
0
102
{BLKREFS
331
84
102
}
  0
BLOCK_RECORD
  5
8E
330
1
100
AcDbSymbolTableRecord
100
AcDbBlockTableRecord
  2
AI9-BLK15
340
0
102
{BLKREFS
331
8F
102
}
  0
BLOCK_RECORD
  5
94
330
1
100
AcDbSymbolTableRecord
100
AcDbBlockTableRecord
  2
AI9-BLK16
340
0
102
{BLKREFS
331
95
102
}
  0
BLOCK_RECORD
  5
9A
330
1
100
AcDbSymbolTableRecord
100
AcDbBlockTableRecord
  2
AI9-BLK17
340
0
102
{BLKREFS
331
9B
102
}
  0
BLOCK_RECORD
  5
A0
330
1
100
AcDbSymbolTableRecord
100
AcDbBlockTableRecord
  2
AI9-BLK18
340
0
102
{BLKREFS
331
A1
102
}
  0
BLOCK_RECORD
  5
A6
330
1
100
AcDbSymbolTableRecord
100
AcDbBlockTableRecord
  2
AI9-BLK19
340
0
102
{BLKREFS
331
A7
102
}
  0
BLOCK_RECORD
  5
AC
330
1
100
AcDbSymbolTableRecord
100
AcDbBlockTableRecord
  2
AI9-BLK20
340
0
102
{BLKREFS
331
AD
102
}
  0
BLOCK_RECORD
  5
B2
330
1
100
AcDbSymbolTableRecord
100
AcDbBlockTableRecord
  2
AI9-BLK21
340
0
102
{BLKREFS
331
B3
102
}
  0
BLOCK_RECORD
  5
B8
330
1
100
AcDbSymbolTableRecord
100
AcDbBlockTableRecord
  2
AI9-BLK22
340
0
102
{BLKREFS
331
B9
102
}
  0
BLOCK_RECORD
  5
BE
330
1
100
AcDbSymbolTableRecord
100
AcDbBlockTableRecord
  2
AI9-BLK23
340
0
102
{BLKREFS
331
BF
102
}
  0
BLOCK_RECORD
  5
C4
330
1
100
AcDbSymbolTableRecord
100
AcDbBlockTableRecord
  2
AI9-BLK24
340
0
102
{BLKREFS
331
C5
102
}
  0
BLOCK_RECORD
  5
CF
330
1
100
AcDbSymbolTableRecord
100
AcDbBlockTableRecord
  2
AI9-BLK25
340
0
102
{BLKREFS
331
D0
102
}
  0
BLOCK_RECORD
  5
D8
330
1
100
AcDbSymbolTableRecord
100
AcDbBlockTableRecord
  2
AI9-BLK26
340
0
102
{BLKREFS
331
D9
102
}
  0
BLOCK_RECORD
  5
DB
330
1
100
AcDbSymbolTableRecord
100
AcDbBlockTableRecord
  2
AI9-BLK27
340
0
102
{BLKREFS
331
DC
102
}
  0
BLOCK_RECORD
  5
DE
330
1
100
AcDbSymbolTableRecord
100
AcDbBlockTableRecord
  2
AI9-BLK28
340
0
102
{BLKREFS
331
DF
102
}
  0
BLOCK_RECORD
  5
EC
330
1
100
AcDbSymbolTableRecord
100
AcDbBlockTableRecord
  2
AI9-BLK29
340
0
102
{BLKREFS
331
ED
102
}
  0
BLOCK_RECORD
  5
FA
330
1
100
AcDbSymbolTableRecord
100
AcDbBlockTableRecord
  2
AI9-BLK30
340
0
102
{BLKREFS
331
FB
102
}
  0
BLOCK_RECORD
  5
108
330
1
100
AcDbSymbolTableRecord
100
AcDbBlockTableRecord
  2
AI9-BLK31
340
0
102
{BLKREFS
331
109
102
}
  0
BLOCK_RECORD
  5
11E
330
1
100
AcDbSymbolTableRecord
100
AcDbBlockTableRecord
  2
AI9-BLK32
340
0
102
{BLKREFS
331
11F
102
}
  0
BLOCK_RECORD
  5
121
330
1
100
AcDbSymbolTableRecord
100
AcDbBlockTableRecord
  2
AI9-BLK33
340
0
102
{BLKREFS
331
122
102
}
  0
BLOCK_RECORD
  5
12F
330
1
100
AcDbSymbolTableRecord
100
AcDbBlockTableRecord
  2
AI9-BLK34
340
0
102
{BLKREFS
331
130
102
}
  0
BLOCK_RECORD
  5
13D
330
1
100
AcDbSymbolTableRecord
100
AcDbBlockTableRecord
  2
AI9-BLK35
340
0
102
{BLKREFS
331
13E
102
}
  0
BLOCK_RECORD
  5
14B
330
1
100
AcDbSymbolTableRecord
100
AcDbBlockTableRecord
  2
AI9-BLK36
340
0
102
{BLKREFS
331
14C
102
}
  0
BLOCK_RECORD
  5
161
330
1
100
AcDbSymbolTableRecord
100
AcDbBlockTableRecord
  2
AI9-BLK37
340
0
102
{BLKREFS
331
162
102
}
  0
BLOCK_RECORD
  5
164
330
1
100
AcDbSymbolTableRecord
100
AcDbBlockTableRecord
  2
AI9-BLK38
340
0
102
{BLKREFS
331
165
102
}
  0
BLOCK_RECORD
  5
172
330
1
100
AcDbSymbolTableRecord
100
AcDbBlockTableRecord
  2
AI9-BLK39
340
0
102
{BLKREFS
331
173
102
}
  0
BLOCK_RECORD
  5
180
330
1
100
AcDbSymbolTableRecord
100
AcDbBlockTableRecord
  2
AI9-BLK40
340
0
102
{BLKREFS
331
181
102
}
  0
BLOCK_RECORD
  5
18E
330
1
100
AcDbSymbolTableRecord
100
AcDbBlockTableRecord
  2
AI9-BLK41
340
0
102
{BLKREFS
331
18F
102
}
  0
BLOCK_RECORD
  5
1A4
330
1
100
AcDbSymbolTableRecord
100
AcDbBlockTableRecord
  2
AI9-BLK42
340
0
102
{BLKREFS
331
1A5
102
}
  0
BLOCK_RECORD
  5
1A7
330
1
100
AcDbSymbolTableRecord
100
AcDbBlockTableRecord
  2
AI9-BLK43
340
0
102
{BLKREFS
331
1A8
102
}
  0
BLOCK_RECORD
  5
1B5
330
1
100
AcDbSymbolTableRecord
100
AcDbBlockTableRecord
  2
AI9-BLK44
340
0
102
{BLKREFS
331
1B6
102
}
  0
BLOCK_RECORD
  5
1C3
330
1
100
AcDbSymbolTableRecord
100
AcDbBlockTableRecord
  2
AI9-BLK45
340
0
102
{BLKREFS
331
1C4
102
}
  0
BLOCK_RECORD
  5
1D1
330
1
100
AcDbSymbolTableRecord
100
AcDbBlockTableRecord
  2
AI9-BLK46
340
0
102
{BLKREFS
331
1D2
102
}
  0
BLOCK_RECORD
  5
1E7
330
1
100
AcDbSymbolTableRecord
100
AcDbBlockTableRecord
  2
AI9-BLK47
340
0
102
{BLKREFS
331
1E8
102
}
  0
BLOCK_RECORD
  5
1EA
330
1
100
AcDbSymbolTableRecord
100
AcDbBlockTableRecord
  2
AI9-BLK48
340
0
102
{BLKREFS
331
1EB
102
}
  0
BLOCK_RECORD
  5
1F8
330
1
100
AcDbSymbolTableRecord
100
AcDbBlockTableRecord
  2
AI9-BLK49
340
0
102
{BLKREFS
331
1F9
102
}
  0
BLOCK_RECORD
  5
206
330
1
100
AcDbSymbolTableRecord
100
AcDbBlockTableRecord
  2
AI9-BLK50
340
0
102
{BLKREFS
331
207
102
}
  0
BLOCK_RECORD
  5
214
330
1
100
AcDbSymbolTableRecord
100
AcDbBlockTableRecord
  2
AI9-BLK51
340
0
102
{BLKREFS
331
215
102
}
  0
BLOCK_RECORD
  5
22A
330
1
100
AcDbSymbolTableRecord
100
AcDbBlockTableRecord
  2
AI9-BLK52
340
0
102
{BLKREFS
331
22B
102
}
  0
BLOCK_RECORD
  5
22D
330
1
100
AcDbSymbolTableRecord
100
AcDbBlockTableRecord
  2
AI9-BLK53
340
0
102
{BLKREFS
331
22E
102
}
  0
BLOCK_RECORD
  5
23B
330
1
100
AcDbSymbolTableRecord
100
AcDbBlockTableRecord
  2
AI9-BLK54
340
0
102
{BLKREFS
331
23C
102
}
  0
BLOCK_RECORD
  5
249
330
1
100
AcDbSymbolTableRecord
100
AcDbBlockTableRecord
  2
AI9-BLK55
340
0
102
{BLKREFS
331
24A
102
}
  0
BLOCK_RECORD
  5
257
330
1
100
AcDbSymbolTableRecord
100
AcDbBlockTableRecord
  2
AI9-BLK56
340
0
102
{BLKREFS
331
258
102
}
  0
BLOCK_RECORD
  5
26D
330
1
100
AcDbSymbolTableRecord
100
AcDbBlockTableRecord
  2
AI9-BLK57
340
0
102
{BLKREFS
331
26E
102
}
  0
BLOCK_RECORD
  5
270
330
1
100
AcDbSymbolTableRecord
100
AcDbBlockTableRecord
  2
AI9-BLK58
340
0
102
{BLKREFS
331
271
102
}
  0
BLOCK_RECORD
  5
27E
330
1
100
AcDbSymbolTableRecord
100
AcDbBlockTableRecord
  2
AI9-BLK59
340
0
102
{BLKREFS
331
27F
102
}
  0
BLOCK_RECORD
  5
28C
330
1
100
AcDbSymbolTableRecord
100
AcDbBlockTableRecord
  2
AI9-BLK60
340
0
102
{BLKREFS
331
28D
102
}
  0
BLOCK_RECORD
  5
29A
330
1
100
AcDbSymbolTableRecord
100
AcDbBlockTableRecord
  2
AI9-BLK61
340
0
102
{BLKREFS
331
29B
102
}
  0
BLOCK_RECORD
  5
2B0
330
1
100
AcDbSymbolTableRecord
100
AcDbBlockTableRecord
  2
AI9-BLK62
340
0
102
{BLKREFS
331
2B1
102
}
  0
BLOCK_RECORD
  5
2B3
330
1
100
AcDbSymbolTableRecord
100
AcDbBlockTableRecord
  2
AI9-BLK63
340
0
102
{BLKREFS
331
2B4
102
}
  0
BLOCK_RECORD
  5
2C1
330
1
100
AcDbSymbolTableRecord
100
AcDbBlockTableRecord
  2
AI9-BLK64
340
0
102
{BLKREFS
331
2C2
102
}
  0
BLOCK_RECORD
  5
2CF
330
1
100
AcDbSymbolTableRecord
100
AcDbBlockTableRecord
  2
AI9-BLK65
340
0
102
{BLKREFS
331
2D0
102
}
  0
BLOCK_RECORD
  5
2DD
330
1
100
AcDbSymbolTableRecord
100
AcDbBlockTableRecord
  2
AI9-BLK66
340
0
102
{BLKREFS
331
2DE
102
}
  0
BLOCK_RECORD
  5
2F3
330
1
100
AcDbSymbolTableRecord
100
AcDbBlockTableRecord
  2
AI9-BLK67
340
0
102
{BLKREFS
331
2F4
102
}
  0
BLOCK_RECORD
  5
2F6
330
1
100
AcDbSymbolTableRecord
100
AcDbBlockTableRecord
  2
AI9-BLK68
340
0
102
{BLKREFS
331
2F7
102
}
  0
BLOCK_RECORD
  5
304
330
1
100
AcDbSymbolTableRecord
100
AcDbBlockTableRecord
  2
AI9-BLK69
340
0
102
{BLKREFS
331
305
102
}
  0
BLOCK_RECORD
  5
312
330
1
100
AcDbSymbolTableRecord
100
AcDbBlockTableRecord
  2
AI9-BLK70
340
0
102
{BLKREFS
331
313
102
}
  0
BLOCK_RECORD
  5
320
330
1
100
AcDbSymbolTableRecord
100
AcDbBlockTableRecord
  2
AI9-BLK71
340
0
102
{BLKREFS
331
321
102
}
  0
ENDTAB
  0
ENDSEC
  0
SECTION
  2
BLOCKS
  0
BLOCK
  5
D
330
A
100
AcDbEntity
  8
0
100
AcDbBlockBegin
  2
*MODEL_SPACE
 70
     0
 10
0.0
 20
0.0
 30
0.0
  3
*MODEL_SPACE
  1

  4

  0
ENDBLK
  5
E
330
A
100
AcDbEntity
  8
0
100
AcDbBlockEnd
  0
BLOCK
  5
F
330
B
100
AcDbEntity
 67
     1
  8
0
100
AcDbBlockBegin
  2
*PAPER_SPACE
 70
     0
 10
0.0
 20
0.0
 30
0.0
  3
*PAPER_SPACE
  1

  4

  0
ENDBLK
  5
10
330
B
100
AcDbEntity
 67
     1
  8
0
100
AcDbBlockEnd
  0
BLOCK
  5
24
330
22
100
AcDbEntity
  8
H16-2
 62
     7
100
AcDbBlockBegin
  2
AI9-BLK1
 70
     0
 10
0.0
 20
0.0
 30
0.0
  3
AI9-BLK1
  1

  4

  0
SPLINE
  5
26
330
22
100
AcDbEntity
  8
H16-2
 62
     7
100
AcDbSpline
210
0.0
220
0.0
230
1.0
 70
    11
 71
     3
 72
    23
 73
    19
 74
     0
 42
0.0000000001
 43
0.0000000001
 40
0.0
 40
0.0
 40
0.0
 40
0.0
 40
1.0
 40
1.0
 40
1.0
 40
2.0
 40
2.0
 40
2.0
 40
3.0
 40
3.0
 40
3.0
 40
4.0
 40
4.0
 40
4.0
 40
5.0
 40
5.0
 40
5.0
 40
6.0
 40
6.0
 40
6.0
 40
6.0
 10
0.1409905327690972
 20
-0.6611138237847222
 30
0.0
 10
0.6293328179253471
 20
-0.6140882703993055
 30
0.0
 10
0.9669521755642361
 20
-0.3353800455729166
 30
0.0
 10
0.8939161512586805
 20
-0.0385850694444444
 30
0.0
 10
0.8887485080295138
 20
-0.0184312608506944
 30
0.0
 10
0.8949496799045138
 20
0.1409044053819444
 30
0.0
 10
0.8796190049913194
 20
0.2037773980034722
 30
0.0
 10
0.8069274902343749
 20
0.5005723741319444
 30
0.0
 10
0.3516581217447916
 20
0.7024549696180555
 30
0.0
 10
-0.1368564181857639
 20
0.6554294162326388
 30
0.0
 10
-0.6253709581163194
 20
0.6084038628472221
 30
0.0
 10
-0.962301296657986
 20
0.3298678927951388
 30
0.0
 10
-0.8890930175781249
 20
0.0330729166666667
 30
0.0
 10
-0.8840976291232638
 20
0.0125745985243056
 30
0.0
 10
-0.8908155653211805
 20
-0.1465888129340278
 30
0.0
 10
-0.8747958713107639
 20
-0.2098063151041666
 30
0.0
 10
-0.8027933756510416
 20
-0.5059122721354167
 30
0.0
 10
-0.3475240071614583
 20
-0.7079671223958333
 30
0.0
 10
0.1409905327690972
 20
-0.6611138237847222
 30
0.0
  0
ELLIPSE
  5
25
330
22
100
AcDbEntity
  8
H16-2
 62
     7
100
AcDbEllipse
 10
0.0091295030381944
 20
-0.1243679470486111
 30
0.0
 11
-0.8839253743489582
 21
-0.08543836805555555
 31
0.0
210
0.0
220
0.0
230
1.0
 40
0.6223847184877382
 41
0.0
 42
6.283185307179586
  0
ENDBLK
  5
27
330
22
100
AcDbEntity
  8
H16-2
100
AcDbBlockEnd
  0
BLOCK
  5
2A
330
28
100
AcDbEntity
  8
H16-2
 62
     7
100
AcDbBlockBegin
  2
AI9-BLK2
 70
     0
 10
0.0
 20
0.0
 30
0.0
  3
AI9-BLK2
  1

  4

  0
SPLINE
  5
2C
330
28
100
AcDbEntity
  8
H16-2
 62
     7
100
AcDbSpline
210
0.0
220
0.0
230
1.0
 70
    11
 71
     3
 72
    23
 73
    19
 74
     0
 42
0.0000000001
 43
0.0000000001
 40
0.0
 40
0.0
 40
0.0
 40
0.0
 40
1.0
 40
1.0
 40
1.0
 40
2.0
 40
2.0
 40
2.0
 40
3.0
 40
3.0
 40
3.0
 40
4.0
 40
4.0
 40
4.0
 40
5.0
 40
5.0
 40
5.0
 40
6.0
 40
6.0
 40
6.0
 40
6.0
 10
0.1343587239583333
 20
-0.658099365234375
 30
0.0
 10
0.6227010091145833
 20
-0.6110738118489583
 30
0.0
 10
0.9603203667534721
 20
-0.3323655870225694
 30
0.0
 10
0.8872843424479165
 20
-0.0355706108940972
 30
0.0
 10
0.8821166992187499
 20
-0.0154168023003472
 30
0.0
 10
0.8883178710937499
 20
0.1439188639322916
 30
0.0
 10
0.8729871961805554
 20
0.2067918565538194
 30
0.0
 10
0.8002956814236111
 20
0.5035868326822917
 30
0.0
 10
0.3450263129340278
 20
0.7054694281684028
 30
0.0
 10
-0.1434882269965278
 20
0.6584438747829861
 30
0.0
 10
-0.6320027669270832
 20
0.6114183213975694
 30
0.0
 10
-0.9689331054687499
 20
0.3328823513454861
 30
0.0
 10
-0.8957248263888888
 20
0.0360873752170139
 30
0.0
 10
-0.8907294379340277
 20
0.0155890570746528
 30
0.0
 10
-0.8974473741319443
 20
-0.1435743543836806
 30
0.0
 10
-0.8814276801215277
 20
-0.2067918565538194
 30
0.0
 10
-0.8094251844618055
 20
-0.5028978135850694
 30
0.0
 10
-0.3541558159722222
 20
-0.7049526638454861
 30
0.0
 10
0.1343587239583333
 20
-0.658099365234375
 30
0.0
  0
ELLIPSE
  5
2B
330
28
100
AcDbEntity
  8
H16-2
 62
     7
100
AcDbEllipse
 10
0.0024976942274306
 20
-0.1213534884982639
 30
0.0
 11
-0.8839253743489582
 21
-0.08543836805555555
 31
0.0
210
0.0
220
0.0
230
1.0
 40
0.6223847184877382
 41
0.0
 42
6.283185307179586
  0
ENDBLK
  5
2D
330
28
100
AcDbEntity
  8
H16-2
100
AcDbBlockEnd
  0
BLOCK
  5
30
330
2E
100
AcDbEntity
  8
H16-2
 62
     7
100
AcDbBlockBegin
  2
AI9-BLK3
 70
     0
 10
0.0
 20
0.0
 30
0.0
  3
AI9-BLK3
  1

  4

  0
SPLINE
  5
32
330
2E
100
AcDbEntity
  8
H16-2
 62
     7
100
AcDbSpline
210
0.0
220
0.0
230
1.0
 70
    11
 71
     3
 72
    23
 73
    19
 74
     0
 42
0.0000000001
 43
0.0000000001
 40
0.0
 40
0.0
 40
0.0
 40
0.0
 40
1.0
 40
1.0
 40
1.0
 40
2.0
 40
2.0
 40
2.0
 40
3.0
 40
3.0
 40
3.0
 40
4.0
 40
4.0
 40
4.0
 40
5.0
 40
5.0
 40
5.0
 40
6.0
 40
6.0
 40
6.0
 40
6.0
 10
0.1385789659288194
 20
-0.6611138237847222
 30
0.0
 10
0.6269212510850694
 20
-0.6140882703993055
 30
0.0
 10
0.9645406087239582
 20
-0.3353800455729166
 30
0.0
 10
0.8915045844184028
 20
-0.0385850694444444
 30
0.0
 10
0.886336941189236
 20
-0.0184312608506944
 30
0.0
 10
0.892538113064236
 20
0.1409044053819444
 30
0.0
 10
0.8772074381510416
 20
0.2037773980034722
 30
0.0
 10
0.8045159233940972
 20
0.5005723741319444
 30
0.0
 10
0.3492465549045138
 20
0.7024549696180555
 30
0.0
 10
-0.1392679850260417
 20
0.6554294162326388
 30
0.0
 10
-0.6277825249565971
 20
0.6084038628472221
 30
0.0
 10
-0.9647128634982638
 20
0.3298678927951388
 30
0.0
 10
-0.8915045844184028
 20
0.0330729166666667
 30
0.0
 10
-0.8865091959635416
 20
0.0125745985243056
 30
0.0
 10
-0.8932271321614582
 20
-0.1465888129340278
 30
0.0
 10
-0.8772074381510416
 20
-0.2098063151041666
 30
0.0
 10
-0.8052049424913194
 20
-0.5059122721354167
 30
0.0
 10
-0.3499355740017361
 20
-0.7079671223958333
 30
0.0
 10
0.1385789659288194
 20
-0.6611138237847222
 30
0.0
  0
ELLIPSE
  5
31
330
2E
100
AcDbEntity
  8
H16-2
 62
     7
100
AcDbEllipse
 10
0.0067179361979167
 20
-0.1243679470486111
 30
0.0
 11
-0.8839253743489582
 21
-0.08543836805555555
 31
0.0
210
0.0
220
0.0
230
1.0
 40
0.6223847184877382
 41
0.0
 42
6.283185307179586
  0
ENDBLK
  5
33
330
2E
100
AcDbEntity
  8
H16-2
100
AcDbBlockEnd
  0
BLOCK
  5
36
330
34
100
AcDbEntity
  8
H16-2
 62
     7
100
AcDbBlockBegin
  2
AI9-BLK4
 70
     0
 10
0.0
 20
0.0
 30
0.0
  3
AI9-BLK4
  1

  4

  0
SPLINE
  5
38
330
34
100
AcDbEntity
  8
H16-2
 62
     7
100
AcDbSpline
210
0.0
220
0.0
230
1.0
 70
    11
 71
     3
 72
    23
 73
    19
 74
     0
 42
0.0000000001
 43
0.0000000001
 40
0.0
 40
0.0
 40
0.0
 40
0.0
 40
1.0
 40
1.0
 40
1.0
 40
2.0
 40
2.0
 40
2.0
 40
3.0
 40
3.0
 40
3.0
 40
4.0
 40
4.0
 40
4.0
 40
5.0
 40
5.0
 40
5.0
 40
6.0
 40
6.0
 40
6.0
 40
6.0
 10
0.1343587239583333
 20
-0.6582716200086805
 30
0.0
 10
0.6227010091145833
 20
-0.6112460666232639
 30
0.0
 10
0.9603203667534721
 20
-0.332537841796875
 30
0.0
 10
0.8872843424479165
 20
-0.0357428656684028
 30
0.0
 10
0.8821166992187499
 20
-0.0155890570746528
 30
0.0
 10
0.8883178710937499
 20
0.1437466091579861
 30
0.0
 10
0.8729871961805554
 20
0.2066196017795139
 30
0.0
 10
0.8002956814236111
 20
0.5034145779079861
 30
0.0
 10
0.3450263129340278
 20
0.7052971733940971
 30
0.0
 10
-0.1434882269965278
 20
0.6582716200086805
 30
0.0
 10
-0.6320027669270832
 20
0.6112460666232639
 30
0.0
 10
-0.9689331054687499
 20
0.3327100965711805
 30
0.0
 10
-0.8957248263888888
 20
0.0359151204427083
 30
0.0
 10
-0.8907294379340277
 20
0.0154168023003472
 30
0.0
 10
-0.8974473741319443
 20
-0.1437466091579861
 30
0.0
 10
-0.8814276801215277
 20
-0.206964111328125
 30
0.0
 10
-0.8094251844618055
 20
-0.503070068359375
 30
0.0
 10
-0.3541558159722222
 20
-0.7051249186197917
 30
0.0
 10
0.1343587239583333
 20
-0.6582716200086805
 30
0.0
  0
ELLIPSE
  5
37
330
34
100
AcDbEntity
  8
H16-2
 62
     7
100
AcDbEllipse
 10
0.0024976942274306
 20
-0.1215257432725694
 30
0.0
 11
-0.8839253743489582
 21
-0.08543836805555555
 31
0.0
210
0.0
220
0.0
230
1.0
 40
0.6223847184877382
 41
0.0
 42
6.283185307179586
  0
ENDBLK
  5
39
330
34
100
AcDbEntity
  8
H16-2
100
AcDbBlockEnd
  0
BLOCK
  5
3C
330
3A
100
AcDbEntity
  8
H16-2
 62
     7
100
AcDbBlockBegin
  2
AI9-BLK5
 70
     0
 10
0.0
 20
0.0
 30
0.0
  3
AI9-BLK5
  1

  4

  0
SPLINE
  5
3E
330
3A
100
AcDbEntity
  8
H16-2
 62
     7
100
AcDbSpline
210
0.0
220
0.0
230
1.0
 70
    11
 71
     3
 72
    23
 73
    19
 74
     0
 42
0.0000000001
 43
0.0000000001
 40
0.0
 40
0.0
 40
0.0
 40
0.0
 40
1.0
 40
1.0
 40
1.0
 40
2.0
 40
2.0
 40
2.0
 40
3.0
 40
3.0
 40
3.0
 40
4.0
 40
4.0
 40
4.0
 40
5.0
 40
5.0
 40
5.0
 40
6.0
 40
6.0
 40
6.0
 40
6.0
 10
0.1421101888020833
 20
-0.6546542697482638
 30
0.0
 10
0.6304524739583333
 20
-0.6076287163628472
 30
0.0
 10
0.9680718315972221
 20
-0.3289204915364583
 30
0.0
 10
0.8950358072916665
 20
-0.0321255154079861
 30
0.0
 10
0.8898681640624999
 20
-0.0119717068142361
 30
0.0
 10
0.8960693359374999
 20
0.1473639594184028
 30
0.0
 10
0.8807386610243054
 20
0.2102369520399305
 30
0.0
 10
0.8080471462673611
 20
0.5070319281684027
 30
0.0
 10
0.3527777777777778
 20
0.7089145236545138
 30
0.0
 10
-0.1357367621527778
 20
0.6618889702690972
 30
0.0
 10
-0.6242513020833332
 20
0.6148634168836805
 30
0.0
 10
-0.9611816406249999
 20
0.3363274468315972
 30
0.0
 10
-0.8879733615451388
 20
0.039532470703125
 30
0.0
 10
-0.8829779730902777
 20
0.0190341525607639
 30
0.0
 10
-0.8896959092881943
 20
-0.1401292588975694
 30
0.0
 10
-0.8736762152777777
 20
-0.2033467610677083
 30
0.0
 10
-0.8016737196180555
 20
-0.4994527180989583
 30
0.0
 10
-0.3464043511284722
 20
-0.7015075683593749
 30
0.0
 10
0.1421101888020833
 20
-0.6546542697482638
 30
0.0
  0
ELLIPSE
  5
3D
330
3A
100
AcDbEntity
  8
H16-2
 62
     7
100
AcDbEllipse
 10
0.0102491590711806
 20
-0.1179083930121528
 30
0.0
 11
-0.8839253743489582
 21
-0.08543836805555555
 31
0.0
210
0.0
220
0.0
230
1.0
 40
0.6223847184877382
 41
0.0
 42
6.283185307179586
  0
ENDBLK
  5
3F
330
3A
100
AcDbEntity
  8
H16-2
100
AcDbBlockEnd
  0
BLOCK
  5
42
330
40
100
AcDbEntity
  8
H16-2
 62
     7
100
AcDbBlockBegin
  2
AI9-BLK6
 70
     0
 10
0.0
 20
0.0
 30
0.0
  3
AI9-BLK6
  1

  4

  0
SPLINE
  5
44
330
40
100
AcDbEntity
  8
H16-2
 62
     7
100
AcDbSpline
210
0.0
220
0.0
230
1.0
 70
    11
 71
     3
 72
    23
 73
    19
 74
     0
 42
0.0000000001
 43
0.0000000001
 40
0.0
 40
0.0
 40
0.0
 40
0.0
 40
1.0
 40
1.0
 40
1.0
 40
2.0
 40
2.0
 40
2.0
 40
3.0
 40
3.0
 40
3.0
 40
4.0
 40
4.0
 40
4.0
 40
5.0
 40
5.0
 40
5.0
 40
6.0
 40
6.0
 40
6.0
 40
6.0
 10
0.1343587239583333
 20
-0.6618889702690972
 30
0.0
 10
0.6227010091145833
 20
-0.6148634168836805
 30
0.0
 10
0.9603203667534721
 20
-0.3361551920572917
 30
0.0
 10
0.8872843424479165
 20
-0.0393602159288194
 30
0.0
 10
0.8821166992187499
 20
-0.0192064073350694
 30
0.0
 10
0.8883178710937499
 20
0.1401292588975694
 30
0.0
 10
0.8729871961805554
 20
0.2030022515190972
 30
0.0
 10
0.8002956814236111
 20
0.4997972276475694
 30
0.0
 10
0.3450263129340278
 20
0.7016798231336805
 30
0.0
 10
-0.1434882269965278
 20
0.6546542697482638
 30
0.0
 10
-0.6320027669270832
 20
0.6076287163628472
 30
0.0
 10
-0.9689331054687499
 20
0.3290927463107639
 30
0.0
 10
-0.8957248263888888
 20
0.0322977701822917
 30
0.0
 10
-0.8907294379340277
 20
0.0117994520399306
 30
0.0
 10
-0.8974473741319443
 20
-0.1473639594184028
 30
0.0
 10
-0.8814276801215277
 20
-0.2105814615885417
 30
0.0
 10
-0.8094251844618055
 20
-0.5066874186197916
 30
0.0
 10
-0.3541558159722222
 20
-0.7087422688802083
 30
0.0
 10
0.1343587239583333
 20
-0.6618889702690972
 30
0.0
  0
ELLIPSE
  5
43
330
40
100
AcDbEntity
  8
H16-2
 62
     7
100
AcDbEllipse
 10
0.0024976942274306
 20
-0.1251430935329861
 30
0.0
 11
-0.8839253743489582
 21
-0.08543836805555555
 31
0.0
210
0.0
220
0.0
230
1.0
 40
0.6223847184877382
 41
0.0
 42
6.283185307179586
  0
ENDBLK
  5
45
330
40
100
AcDbEntity
  8
H16-2
100
AcDbBlockEnd
  0
BLOCK
  5
53
330
51
100
AcDbEntity
  8
H16-2
 62
     7
100
AcDbBlockBegin
  2
AI9-BLK7
 70
     0
 10
0.0
 20
0.0
 30
0.0
  3
AI9-BLK7
  1

  4

  0
SPLINE
  5
55
330
51
100
AcDbEntity
  8
H16-2
 62
     7
100
AcDbSpline
210
0.0
220
0.0
230
1.0
 70
    11
 71
     3
 72
    17
 73
    13
 74
     0
 42
0.0000000001
 43
0.0000000001
 40
0.0
 40
0.0
 40
0.0
 40
0.0
 40
1.0
 40
1.0
 40
1.0
 40
2.0
 40
2.0
 40
2.0
 40
3.0
 40
3.0
 40
3.0
 40
4.0
 40
4.0
 40
4.0
 40
4.0
 10
-0.580154079861111
 20
0.1898247612847222
 30
0.0
 10
-0.4316704644097222
 20
0.1450385199652778
 30
0.0
 10
-0.2273763020833333
 20
0.1171332465277778
 30
0.0
 10
-0.00155029296875
 20
0.1171332465277778
 30
0.0
 10
0.2177300347222222
 20
0.1171332465277778
 30
0.0
 10
0.4158230251736111
 20
0.1436604817708333
 30
0.0
 10
0.563100857204861
 20
0.1856906467013889
 30
0.0
 10
0.4144449869791667
 20
0.2304768880208333
 30
0.0
 10
0.2101508246527778
 20
0.2587266710069444
 30
0.0
 10
-0.0155029296875
 20
0.2587266710069444
 30
0.0
 10
-0.2349555121527778
 20
0.2587266710069444
 30
0.0
 10
-0.4328762478298611
 20
0.2321994357638889
 30
0.0
 10
-0.580154079861111
 20
0.1898247612847222
 30
0.0
  0
ELLIPSE
  5
54
330
51
100
AcDbEntity
  8
H16-2
 62
     7
100
AcDbEllipse
 10
0.0
 20
0.0
 30
0.0
 11
1.014236111111111
 21
0.0
 31
0.0
210
0.0
220
0.0
230
1.0
 40
0.3043478260869565
 41
0.0
 42
6.283185307179586
  0
ENDBLK
  5
56
330
51
100
AcDbEntity
  8
H16-2
100
AcDbBlockEnd
  0
BLOCK
  5
59
330
57
100
AcDbEntity
  8
H16-2
 62
     7
100
AcDbBlockBegin
  2
AI9-BLK8
 70
     0
 10
0.0
 20
0.0
 30
0.0
  3
AI9-BLK8
  1

  4

  0
SPLINE
  5
5B
330
57
100
AcDbEntity
  8
H16-2
 62
     7
100
AcDbSpline
210
0.0
220
0.0
230
1.0
 70
    11
 71
     3
 72
    17
 73
    13
 74
     0
 42
0.0000000001
 43
0.0000000001
 40
0.0
 40
0.0
 40
0.0
 40
0.0
 40
1.0
 40
1.0
 40
1.0
 40
2.0
 40
2.0
 40
2.0
 40
3.0
 40
3.0
 40
3.0
 40
4.0
 40
4.0
 40
4.0
 40
4.0
 10
-0.5219319661458333
 20
0.1708767361111111
 30
0.0
 10
-0.3882622612847222
 20
0.1305691189236111
 30
0.0
 10
-0.2049831814236111
 20
0.105419921875
 30
0.0
 10
-0.0010335286458333
 20
0.105419921875
 30
0.0
 10
0.1960259331597222
 20
0.105419921875
 30
0.0
 10
0.3744818793402778
 20
0.1291910807291667
 30
0.0
 10
0.5067735460069444
 20
0.1670871310763889
 30
0.0
 10
0.3731038411458333
 20
0.2073947482638889
 30
0.0
 10
0.1891357421875
 20
0.2328884548611111
 30
0.0
 10
-0.0141248914930556
 20
0.2328884548611111
 30
0.0
 10
-0.2118733723958333
 20
0.2328884548611111
 30
0.0
 10
-0.3896402994791666
 20
0.2087727864583333
 30
0.0
 10
-0.5219319661458333
 20
0.1708767361111111
 30
0.0
  0
ELLIPSE
  5
5A
330
57
100
AcDbEntity
  8
H16-2
 62
     7
100
AcDbEllipse
 10
0.0
 20
0.0
 30
0.0
 11
0.9126057942708332
 21
0.0
 31
0.0
210
0.0
220
0.0
230
1.0
 40
0.3042659948460385
 41
0.0
 42
6.283185307179586
  0
ENDBLK
  5
5C
330
57
100
AcDbEntity
  8
H16-2
100
AcDbBlockEnd
  0
BLOCK
  5
5F
330
5D
100
AcDbEntity
  8
H16-2
 62
     7
100
AcDbBlockBegin
  2
AI9-BLK9
 70
     0
 10
0.0
 20
0.0
 30
0.0
  3
AI9-BLK9
  1

  4

  0
SPLINE
  5
61
330
5D
100
AcDbEntity
  8
H16-2
 62
     7
100
AcDbSpline
210
0.0
220
0.0
230
1.0
 70
    11
 71
     3
 72
    17
 73
    13
 74
     0
 42
0.0000000001
 43
0.0000000001
 40
0.0
 40
0.0
 40
0.0
 40
0.0
 40
1.0
 40
1.0
 40
1.0
 40
2.0
 40
2.0
 40
2.0
 40
3.0
 40
3.0
 40
3.0
 40
4.0
 40
4.0
 40
4.0
 40
4.0
 10
-0.5219319661458333
 20
0.1708767361111111
 30
0.0
 10
-0.3882622612847222
 20
0.1305691189236111
 30
0.0
 10
-0.2049831814236111
 20
0.105419921875
 30
0.0
 10
-0.0010335286458333
 20
0.105419921875
 30
0.0
 10
0.1960259331597222
 20
0.105419921875
 30
0.0
 10
0.3744818793402778
 20
0.1291910807291667
 30
0.0
 10
0.5067735460069444
 20
0.1670871310763889
 30
0.0
 10
0.3731038411458333
 20
0.2073947482638889
 30
0.0
 10
0.1891357421875
 20
0.2328884548611111
 30
0.0
 10
-0.0141248914930556
 20
0.2328884548611111
 30
0.0
 10
-0.2118733723958333
 20
0.2328884548611111
 30
0.0
 10
-0.3896402994791666
 20
0.2087727864583333
 30
0.0
 10
-0.5219319661458333
 20
0.1708767361111111
 30
0.0
  0
ELLIPSE
  5
60
330
5D
100
AcDbEntity
  8
H16-2
 62
     7
100
AcDbEllipse
 10
0.0
 20
0.0
 30
0.0
 11
0.9126057942708332
 21
0.0
 31
0.0
210
0.0
220
0.0
230
1.0
 40
0.3042659948460385
 41
0.0
 42
6.283185307179586
  0
ENDBLK
  5
62
330
5D
100
AcDbEntity
  8
H16-2
100
AcDbBlockEnd
  0
BLOCK
  5
65
330
63
100
AcDbEntity
  8
H16-2
 62
     7
100
AcDbBlockBegin
  2
AI9-BLK10
 70
     0
 10
0.0
 20
0.0
 30
0.0
  3
AI9-BLK10
  1

  4

  0
SPLINE
  5
67
330
63
100
AcDbEntity
  8
H16-2
 62
     7
100
AcDbSpline
210
0.0
220
0.0
230
1.0
 70
    11
 71
     3
 72
    17
 73
    13
 74
     0
 42
0.0000000001
 43
0.0000000001
 40
0.0
 40
0.0
 40
0.0
 40
0.0
 40
1.0
 40
1.0
 40
1.0
 40
2.0
 40
2.0
 40
2.0
 40
3.0
 40
3.0
 40
3.0
 40
4.0
 40
4.0
 40
4.0
 40
4.0
 10
-0.580154079861111
 20
0.1898247612847222
 30
0.0
 10
-0.4316704644097222
 20
0.1450385199652778
 30
0.0
 10
-0.2273763020833333
 20
0.1171332465277778
 30
0.0
 10
-0.00155029296875
 20
0.1171332465277778
 30
0.0
 10
0.2177300347222222
 20
0.1171332465277778
 30
0.0
 10
0.4158230251736111
 20
0.1436604817708333
 30
0.0
 10
0.563100857204861
 20
0.1856906467013889
 30
0.0
 10
0.4144449869791667
 20
0.2304768880208333
 30
0.0
 10
0.2101508246527778
 20
0.2587266710069444
 30
0.0
 10
-0.0155029296875
 20
0.2587266710069444
 30
0.0
 10
-0.2349555121527778
 20
0.2587266710069444
 30
0.0
 10
-0.4328762478298611
 20
0.2321994357638889
 30
0.0
 10
-0.580154079861111
 20
0.1898247612847222
 30
0.0
  0
ELLIPSE
  5
66
330
63
100
AcDbEntity
  8
H16-2
 62
     7
100
AcDbEllipse
 10
0.0
 20
0.0
 30
0.0
 11
1.014236111111111
 21
0.0
 31
0.0
210
0.0
220
0.0
230
1.0
 40
0.3043478260869565
 41
0.0
 42
6.283185307179586
  0
ENDBLK
  5
68
330
63
100
AcDbEntity
  8
H16-2
100
AcDbBlockEnd
  0
BLOCK
  5
73
330
71
100
AcDbEntity
  8
H16-2
 62
     7
100
AcDbBlockBegin
  2
AI9-BLK11
 70
     0
 10
0.0
 20
0.0
 30
0.0
  3
AI9-BLK11
  1

  4

  0
SPLINE
  5
75
330
71
100
AcDbEntity
  8
H16-2
 62
     7
100
AcDbSpline
210
0.0
220
0.0
230
1.0
 70
    11
 71
     3
 72
    23
 73
    19
 74
     0
 42
0.0000000001
 43
0.0000000001
 40
0.0
 40
0.0
 40
0.0
 40
0.0
 40
1.0
 40
1.0
 40
1.0
 40
2.0
 40
2.0
 40
2.0
 40
3.0
 40
3.0
 40
3.0
 40
4.0
 40
4.0
 40
4.0
 40
5.0
 40
5.0
 40
5.0
 40
6.0
 40
6.0
 40
6.0
 40
6.0
 10
0.9181179470486111
 20
0.2690619574652778
 30
0.0
 10
0.7548204210069444
 20
0.7686008029513888
 30
0.0
 10
0.2883544921875
 20
1.065568033854167
 30
0.0
 10
-0.1229899088541667
 20
0.9308648003472222
 30
0.0
 10
-0.1512396918402778
 20
0.9215630425347221
 30
0.0
 10
-0.3813720703125
 20
0.8967583550347221
 30
0.0
 10
-0.4688774956597222
 20
0.8681640624999999
 30
0.0
 10
-0.8805664062499999
 20
0.7338053385416666
 30
0.0
 10
-1.081759982638889
 20
0.2191080729166667
 30
0.0
 10
-0.9181179470486111
 20
-0.2807752821180555
 30
0.0
 10
-0.7548204210069444
 20
-0.7810031467013888
 30
0.0
 10
-0.2886990017361111
 20
-1.077281358506944
 30
0.0
 10
0.1229899088541667
 20
-0.9422336154513888
 30
0.0
 10
0.1512396918402778
 20
-0.9332763671875
 30
0.0
 10
0.3813720703125
 20
-0.9084716796874999
 30
0.0
 10
0.4688774956597222
 20
-0.8795328776041665
 30
0.0
 10
0.8802218967013888
 20
-0.7458631727430555
 30
0.0
 10
1.081415473090278
 20
-0.2311659071180555
 30
0.0
 10
0.9181179470486111
 20
0.2690619574652778
 30
0.0
  0
ELLIPSE
  5
74
330
71
100
AcDbEntity
  8
H16-2
 62
     7
100
AcDbEllipse
 10
0.1729437934027778
 20
0.0254937065972222
 30
0.0
 11
0.2959337022569444
 21
-0.9050265842013888
 31
0.0
210
0.0
220
0.0
230
1.0
 40
0.823341511810084
 41
0.0
 42
6.283185307179586
  0
ENDBLK
  5
76
330
71
100
AcDbEntity
  8
H16-2
100
AcDbBlockEnd
  0
BLOCK
  5
79
330
77
100
AcDbEntity
  8
H16-2
 62
     7
100
AcDbBlockBegin
  2
AI9-BLK12
 70
     0
 10
0.0
 20
0.0
 30
0.0
  3
AI9-BLK12
  1

  4

  0
SPLINE
  5
7B
330
77
100
AcDbEntity
  8
H16-2
 62
     7
100
AcDbSpline
210
0.0
220
0.0
230
1.0
 70
    11
 71
     3
 72
    23
 73
    19
 74
     0
 42
0.0000000001
 43
0.0000000001
 40
0.0
 40
0.0
 40
0.0
 40
0.0
 40
1.0
 40
1.0
 40
1.0
 40
2.0
 40
2.0
 40
2.0
 40
3.0
 40
3.0
 40
3.0
 40
4.0
 40
4.0
 40
4.0
 40
5.0
 40
5.0
 40
5.0
 40
6.0
 40
6.0
 40
6.0
 40
6.0
 10
0.8716091579861111
 20
0.2610521104600694
 30
0.0
 10
0.7165798611111111
 20
0.7357862684461805
 30
0.0
 10
0.2735405815972222
 20
1.017595079210069
 30
0.0
 10
-0.1171332465277778
 20
0.8897820366753472
 30
0.0
 10
-0.1433159722222222
 20
0.8811692979600694
 30
0.0
 10
-0.3624240451388889
 20
0.8573981391059027
 30
0.0
 10
-0.4457953559027778
 20
0.8301818847656249
 30
0.0
 10
-0.8364691840277777
 20
0.7027133517795138
 30
0.0
 10
-1.027327473958333
 20
0.2135097927517361
 30
0.0
 10
-0.8722981770833332
 20
-0.261224365234375
 30
0.0
 10
-0.7172688802083332
 20
-0.7366475423177082
 30
0.0
 10
-0.2742296006944444
 20
-1.017767333984375
 30
0.0
 10
0.1164442274305556
 20
-0.8896097819010416
 30
0.0
 10
0.1433159722222222
 20
-0.8813415527343749
 30
0.0
 10
0.3617350260416666
 20
-0.8575703938802083
 30
0.0
 10
0.4457953559027778
 20
-0.8300096299913193
 30
0.0
 10
0.8357801649305555
 20
-0.7028856065538194
 30
0.0
 10
1.027327473958333
 20
-0.2143710666232639
 30
0.0
 10
0.8716091579861111
 20
0.2610521104600694
 30
0.0
  0
ELLIPSE
  5
7A
330
77
100
AcDbEntity
  8
H16-2
 62
     7
100
AcDbEllipse
 10
0.1639865451388889
 20
0.0297139485677083
 30
0.0
 11
0.2818088107638889
 21
-0.8597235785590277
 31
0.0
210
0.0
220
0.0
230
1.0
 40
0.822870592433771
 41
0.0
 42
6.283185307179586
  0
ENDBLK
  5
7C
330
77
100
AcDbEntity
  8
H16-2
100
AcDbBlockEnd
  0
BLOCK
  5
7F
330
7D
100
AcDbEntity
  8
H16-2
 62
     7
100
AcDbBlockBegin
  2
AI9-BLK13
 70
     0
 10
0.0
 20
0.0
 30
0.0
  3
AI9-BLK13
  1

  4

  0
SPLINE
  5
81
330
7D
100
AcDbEntity
  8
H16-2
 62
     7
100
AcDbSpline
210
0.0
220
0.0
230
1.0
 70
    11
 71
     3
 72
    23
 73
    19
 74
     0
 42
0.0000000001
 43
0.0000000001
 40
0.0
 40
0.0
 40
0.0
 40
0.0
 40
1.0
 40
1.0
 40
1.0
 40
2.0
 40
2.0
 40
2.0
 40
3.0
 40
3.0
 40
3.0
 40
4.0
 40
4.0
 40
4.0
 40
5.0
 40
5.0
 40
5.0
 40
6.0
 40
6.0
 40
6.0
 40
6.0
 10
0.8720397949218749
 20
0.245721435546875
 30
0.0
 10
0.7170104980468749
 20
0.7204555935329861
 30
0.0
 10
0.2739712185329861
 20
1.002264404296875
 30
0.0
 10
-0.1167026095920139
 20
0.8744513617621527
 30
0.0
 10
-0.1435743543836806
 20
0.8658386230468749
 30
0.0
 10
-0.361993408203125
 20
0.8420674641927083
 30
0.0
 10
-0.4453647189670139
 20
0.8148512098524305
 30
0.0
 10
-0.8360385470920139
 20
0.6873826768663194
 30
0.0
 10
-1.027585856119792
 20
0.1981791178385416
 30
0.0
 10
-0.8725565592447916
 20
-0.2765550401475694
 30
0.0
 10
-0.7168382432725694
 20
-0.7519782172309028
 30
0.0
 10
-0.2737989637586805
 20
-1.033098008897569
 30
0.0
 10
0.1168748643663194
 20
-0.9049404568142361
 30
0.0
 10
0.1437466091579861
 20
-0.8966722276475694
 30
0.0
 10
0.3621656629774305
 20
-0.8729010687934027
 30
0.0
 10
0.4455369737413194
 20
-0.8453403049045138
 30
0.0
 10
0.8362108018663194
 20
-0.7182162814670138
 30
0.0
 10
1.027069091796875
 20
-0.2297017415364583
 30
0.0
 10
0.8720397949218749
 20
0.245721435546875
 30
0.0
  0
ELLIPSE
  5
80
330
7D
100
AcDbEntity
  8
H16-2
 62
     7
100
AcDbEllipse
 10
0.1644171820746528
 20
0.0143832736545139
 30
0.0
 11
0.2811197916666667
 21
-0.8597235785590278
 31
0.0
210
0.0
220
0.0
230
1.0
 40
0.8230656218618939
 41
0.0
 42
6.283185307179586
  0
ENDBLK
  5
82
330
7D
100
AcDbEntity
  8
H16-2
100
AcDbBlockEnd
  0
BLOCK
  5
85
330
83
100
AcDbEntity
  8
H16-2
 62
     7
100
AcDbBlockBegin
  2
AI9-BLK14
 70
     0
 10
0.0
 20
0.0
 30
0.0
  3
AI9-BLK14
  1

  4

  0
SPLINE
  5
87
330
83
100
AcDbEntity
  8
H16-2
 62
     7
100
AcDbSpline
210
0.0
220
0.0
230
1.0
 70
    11
 71
     3
 72
    23
 73
    19
 74
     0
 42
0.0000000001
 43
0.0000000001
 40
0.0
 40
0.0
 40
0.0
 40
0.0
 40
1.0
 40
1.0
 40
1.0
 40
2.0
 40
2.0
 40
2.0
 40
3.0
 40
3.0
 40
3.0
 40
4.0
 40
4.0
 40
4.0
 40
5.0
 40
5.0
 40
5.0
 40
6.0
 40
6.0
 40
6.0
 40
6.0
 10
0.9172566731770833
 20
0.2669087727864583
 30
0.0
 10
0.7537868923611111
 20
0.7664476182725694
 30
0.0
 10
0.2874932183159722
 20
1.063414849175347
 30
0.0
 10
-0.1236789279513889
 20
0.9287116156684027
 30
0.0
 10
-0.1519287109375
 20
0.9194098578559027
 30
0.0
 10
-0.3820610894097222
 20
0.8946051703559027
 30
0.0
 10
-0.4697387695312499
 20
0.8660108778211805
 30
0.0
 10
-0.8814276801215277
 20
0.7316521538628472
 30
0.0
 10
-1.082621256510417
 20
0.2169548882378472
 30
0.0
 10
-0.9189792209201388
 20
-0.282928466796875
 30
0.0
 10
-0.7555094401041667
 20
-0.7831563313802082
 30
0.0
 10
-0.2895602756076389
 20
-1.079434543185764
 30
0.0
 10
0.1221286349826389
 20
-0.9443868001302083
 30
0.0
 10
0.1502061631944444
 20
-0.9354295518663194
 30
0.0
 10
0.3803385416666666
 20
-0.9106248643663194
 30
0.0
 10
0.4681884765625
 20
-0.8816860622829861
 30
0.0
 10
0.8793606228298611
 20
-0.7480163574218749
 30
0.0
 10
1.08055419921875
 20
-0.233319091796875
 30
0.0
 10
0.9172566731770833
 20
0.2669087727864583
 30
0.0
  0
ELLIPSE
  5
86
330
83
100
AcDbEntity
  8
H16-2
 62
     7
100
AcDbEllipse
 10
0.1721686469184028
 20
0.0233405219184028
 30
0.0
 11
0.2960198296440972
 21
-0.9050265842013888
 31
0.0
210
0.0
220
0.0
230
1.0
 40
0.8232323898709025
 41
0.0
 42
6.283185307179586
  0
ENDBLK
  5
88
330
83
100
AcDbEntity
  8
H16-2
100
AcDbBlockEnd
  0
BLOCK
  5
90
330
8E
100
AcDbEntity
  8
H16-2
 62
     7
100
AcDbBlockBegin
  2
AI9-BLK15
 70
     0
 10
0.0
 20
0.0
 30
0.0
  3
AI9-BLK15
  1

  4

  0
SPLINE
  5
92
330
8E
100
AcDbEntity
  8
H16-2
 62
     7
100
AcDbSpline
210
0.0
220
0.0
230
1.0
 70
    11
 71
     3
 72
    17
 73
    13
 74
     0
 42
0.0000000001
 43
0.0000000001
 40
0.0
 40
0.0
 40
0.0
 40
0.0
 40
1.0
 40
1.0
 40
1.0
 40
2.0
 40
2.0
 40
2.0
 40
3.0
 40
3.0
 40
3.0
 40
4.0
 40
4.0
 40
4.0
 40
4.0
 10
-0.1412489149305556
 20
-0.3695726182725694
 30
0.0
 10
-0.1150661892361111
 20
-0.2903354220920139
 30
0.0
 10
-0.1092095269097222
 20
-0.200762939453125
 30
0.0
 10
-0.1383205837673611
 20
-0.1118794759114583
 30
0.0
 10
-0.1769056532118055
 20
0.0059427897135417
 30
0.0
 10
-0.2609659830729166
 20
0.0941372341579861
 30
0.0
 10
-0.3593234592013889
 20
0.1358228895399306
 30
0.0
 10
-0.3855061848958333
 20
0.0569302029079861
 30
0.0
 10
-0.3913628472222222
 20
-0.0326422797309028
 30
0.0
 10
-0.3620795355902777
 20
-0.1218702528211805
 30
0.0
 10
-0.3236667209201389
 20
-0.2393480088975694
 30
0.0
 10
-0.2397786458333333
 20
-0.3275424533420139
 30
0.0
 10
-0.1412489149305556
 20
-0.3695726182725694
 30
0.0
  0
ELLIPSE
  5
91
330
8E
100
AcDbEntity
  8
H16-2
 62
     7
100
AcDbEllipse
 10
0.0130052354600694
 20
0.0078375922309028
 30
0.0
 11
0.1483974880642361
 21
-0.4532023111979168
 31
0.0
210
0.0
220
0.0
230
1.0
 40
0.885205344827565
 41
0.0
 42
6.283185307179586
  0
ENDBLK
  5
93
330
8E
100
AcDbEntity
  8
H16-2
100
AcDbBlockEnd
  0
BLOCK
  5
96
330
94
100
AcDbEntity
  8
H16-2
 62
     7
100
AcDbBlockBegin
  2
AI9-BLK16
 70
     0
 10
0.0
 20
0.0
 30
0.0
  3
AI9-BLK16
  1

  4

  0
SPLINE
  5
98
330
94
100
AcDbEntity
  8
H16-2
 62
     7
100
AcDbSpline
210
0.0
220
0.0
230
1.0
 70
    11
 71
     3
 72
    17
 73
    13
 74
     0
 42
0.0000000001
 43
0.0000000001
 40
0.0
 40
0.0
 40
0.0
 40
0.0
 40
1.0
 40
1.0
 40
1.0
 40
2.0
 40
2.0
 40
2.0
 40
3.0
 40
3.0
 40
3.0
 40
4.0
 40
4.0
 40
4.0
 40
4.0
 10
-0.1361673990885416
 20
-0.3775824652777777
 30
0.0
 10
-0.1099846733940972
 20
-0.2983452690972222
 30
0.0
 10
-0.1044725206163194
 20
-0.2087727864583333
 30
0.0
 10
-0.1334113226996528
 20
-0.1198893229166667
 30
0.0
 10
-0.1719963921440972
 20
-0.0020670572916667
 30
0.0
 10
-0.2560567220052083
 20
0.0861273871527778
 30
0.0
 10
-0.3545864529079861
 20
0.1278130425347222
 30
0.0
 10
-0.3807691786024305
 20
0.0489203559027778
 30
0.0
 10
-0.3862813313802083
 20
-0.0406521267361111
 30
0.0
 10
-0.357342529296875
 20
-0.1298800998263889
 30
0.0
 10
-0.3187574598524305
 20
-0.2473578559027778
 30
0.0
 10
-0.2346971299913194
 20
-0.3355523003472222
 30
0.0
 10
-0.1361673990885416
 20
-0.3775824652777777
 30
0.0
  0
ELLIPSE
  5
97
330
94
100
AcDbEntity
  8
H16-2
 62
     7
100
AcDbEllipse
 10
0.017828369140625
 20
-0.0001722547743056
 30
0.0
 11
0.1484836154513889
 21
-0.4532023111979167
 31
0.0
210
0.0
220
0.0
230
1.0
 40
0.8853272542095183
 41
0.0
 42
6.283185307179586
  0
ENDBLK
  5
99
330
94
100
AcDbEntity
  8
H16-2
100
AcDbBlockEnd
  0
BLOCK
  5
9C
330
9A
100
AcDbEntity
  8
H16-2
 62
     7
100
AcDbBlockBegin
  2
AI9-BLK17
 70
     0
 10
0.0
 20
0.0
 30
0.0
  3
AI9-BLK17
  1

  4

  0
SPLINE
  5
9E
330
9A
100
AcDbEntity
  8
H16-2
 62
     7
100
AcDbSpline
210
0.0
220
0.0
230
1.0
 70
    11
 71
     3
 72
    17
 73
    13
 74
     0
 42
0.0000000001
 43
0.0000000001
 40
0.0
 40
0.0
 40
0.0
 40
0.0
 40
1.0
 40
1.0
 40
1.0
 40
2.0
 40
2.0
 40
2.0
 40
3.0
 40
3.0
 40
3.0
 40
4.0
 40
4.0
 40
4.0
 40
4.0
 10
-0.1670010036892361
 20
-0.37362060546875
 30
0.0
 10
-0.1408182779947917
 20
-0.2943834092881944
 30
0.0
 10
-0.1353061252170139
 20
-0.2048109266493055
 30
0.0
 10
-0.1642449273003472
 20
-0.1159274631076389
 30
0.0
 10
-0.2028299967447917
 20
0.0018948025173611
 30
0.0
 10
-0.2868903266059028
 20
0.0900892469618056
 30
0.0
 10
-0.3854200575086805
 20
0.13177490234375
 30
0.0
 10
-0.411602783203125
 20
0.0528822157118055
 30
0.0
 10
-0.4171149359809027
 20
-0.0366902669270833
 30
0.0
 10
-0.3881761338975694
 20
-0.1259182400173611
 30
0.0
 10
-0.349591064453125
 20
-0.24339599609375
 30
0.0
 10
-0.2655307345920139
 20
-0.3315904405381944
 30
0.0
 10
-0.1670010036892361
 20
-0.37362060546875
 30
0.0
  0
ELLIPSE
  5
9D
330
9A
100
AcDbEntity
  8
H16-2
 62
     7
100
AcDbEllipse
 10
-0.0130052354600694
 20
0.0037896050347222
 30
0.0
 11
0.1484836154513889
 21
-0.4532023111979167
 31
0.0
210
0.0
220
0.0
230
1.0
 40
0.8853272542095183
 41
0.0
 42
6.283185307179586
  0
ENDBLK
  5
9F
330
9A
100
AcDbEntity
  8
H16-2
100
AcDbBlockEnd
  0
BLOCK
  5
A2
330
A0
100
AcDbEntity
  8
H16-2
 62
     7
100
AcDbBlockBegin
  2
AI9-BLK18
 70
     0
 10
0.0
 20
0.0
 30
0.0
  3
AI9-BLK18
  1

  4

  0
SPLINE
  5
A4
330
A0
100
AcDbEntity
  8
H16-2
 62
     7
100
AcDbSpline
210
0.0
220
0.0
230
1.0
 70
    11
 71
     3
 72
    17
 73
    13
 74
     0
 42
0.0000000001
 43
0.0000000001
 40
0.0
 40
0.0
 40
0.0
 40
0.0
 40
1.0
 40
1.0
 40
1.0
 40
2.0
 40
2.0
 40
2.0
 40
3.0
 40
3.0
 40
3.0
 40
4.0
 40
4.0
 40
4.0
 40
4.0
 10
-0.1539957682291667
 20
-0.3780131022135416
 30
0.0
 10
-0.1278130425347222
 20
-0.2987759060329861
 30
0.0
 10
-0.1223008897569444
 20
-0.2092034233940972
 30
0.0
 10
-0.1512396918402778
 20
-0.1203199598524306
 30
0.0
 10
-0.1898247612847222
 20
-0.0024976942274306
 30
0.0
 10
-0.2738850911458333
 20
0.0856967502170139
 30
0.0
 10
-0.3724148220486111
 20
0.1273824055989583
 30
0.0
 10
-0.3985975477430555
 20
0.0484897189670139
 30
0.0
 10
-0.4041097005208333
 20
-0.041082763671875
 30
0.0
 10
-0.3751708984375
 20
-0.1303107367621528
 30
0.0
 10
-0.3365858289930555
 20
-0.2477884928385417
 30
0.0
 10
-0.2525254991319444
 20
-0.3359829372829861
 30
0.0
 10
-0.1539957682291667
 20
-0.3780131022135416
 30
0.0
  0
ELLIPSE
  5
A3
330
A0
100
AcDbEntity
  8
H16-2
 62
     7
100
AcDbEllipse
 10
0.0
 20
-0.0006028917100694
 30
0.0
 11
0.1484836154513889
 21
-0.4532023111979167
 31
0.0
210
0.0
220
0.0
230
1.0
 40
0.8853272542095183
 41
0.0
 42
6.283185307179586
  0
ENDBLK
  5
A5
330
A0
100
AcDbEntity
  8
H16-2
100
AcDbBlockEnd
  0
BLOCK
  5
A8
330
A6
100
AcDbEntity
  8
H16-2
 62
     7
100
AcDbBlockBegin
  2
AI9-BLK19
 70
     0
 10
0.0
 20
0.0
 30
0.0
  3
AI9-BLK19
  1

  4

  0
SPLINE
  5
AA
330
A6
100
AcDbEntity
  8
H16-2
 62
     7
100
AcDbSpline
210
0.0
220
0.0
230
1.0
 70
    11
 71
     3
 72
    17
 73
    13
 74
     0
 42
0.0000000001
 43
0.0000000001
 40
0.0
 40
0.0
 40
0.0
 40
0.0
 40
1.0
 40
1.0
 40
1.0
 40
2.0
 40
2.0
 40
2.0
 40
3.0
 40
3.0
 40
3.0
 40
4.0
 40
4.0
 40
4.0
 40
4.0
 10
-0.1539957682291667
 20
-0.3780131022135416
 30
0.0
 10
-0.1278130425347222
 20
-0.2987759060329861
 30
0.0
 10
-0.1223008897569444
 20
-0.2092034233940972
 30
0.0
 10
-0.1512396918402778
 20
-0.1203199598524306
 30
0.0
 10
-0.1898247612847222
 20
-0.0024976942274306
 30
0.0
 10
-0.2738850911458333
 20
0.0856967502170139
 30
0.0
 10
-0.3724148220486111
 20
0.1273824055989583
 30
0.0
 10
-0.3985975477430555
 20
0.0484897189670139
 30
0.0
 10
-0.4041097005208333
 20
-0.041082763671875
 30
0.0
 10
-0.3751708984375
 20
-0.1303107367621528
 30
0.0
 10
-0.3365858289930555
 20
-0.2477884928385417
 30
0.0
 10
-0.2525254991319444
 20
-0.3359829372829861
 30
0.0
 10
-0.1539957682291667
 20
-0.3780131022135416
 30
0.0
  0
ELLIPSE
  5
A9
330
A6
100
AcDbEntity
  8
H16-2
 62
     7
100
AcDbEllipse
 10
0.0
 20
-0.0006028917100694
 30
0.0
 11
0.1484836154513889
 21
-0.4532023111979167
 31
0.0
210
0.0
220
0.0
230
1.0
 40
0.8853272542095183
 41
0.0
 42
6.283185307179586
  0
ENDBLK
  5
AB
330
A6
100
AcDbEntity
  8
H16-2
100
AcDbBlockEnd
  0
BLOCK
  5
AE
330
AC
100
AcDbEntity
  8
H16-2
 62
     7
100
AcDbBlockBegin
  2
AI9-BLK20
 70
     0
 10
0.0
 20
0.0
 30
0.0
  3
AI9-BLK20
  1

  4

  0
SPLINE
  5
B0
330
AC
100
AcDbEntity
  8
H16-2
 62
     7
100
AcDbSpline
210
0.0
220
0.0
230
1.0
 70
    11
 71
     3
 72
    17
 73
    13
 74
     0
 42
0.0000000001
 43
0.0000000001
 40
0.0
 40
0.0
 40
0.0
 40
0.0
 40
1.0
 40
1.0
 40
1.0
 40
2.0
 40
2.0
 40
2.0
 40
3.0
 40
3.0
 40
3.0
 40
4.0
 40
4.0
 40
4.0
 40
4.0
 10
-0.1412489149305556
 20
-0.3695726182725694
 30
0.0
 10
-0.1150661892361111
 20
-0.2903354220920139
 30
0.0
 10
-0.1092095269097222
 20
-0.200762939453125
 30
0.0
 10
-0.1383205837673611
 20
-0.1118794759114583
 30
0.0
 10
-0.1769056532118055
 20
0.0059427897135417
 30
0.0
 10
-0.2609659830729166
 20
0.0941372341579861
 30
0.0
 10
-0.3593234592013889
 20
0.1358228895399306
 30
0.0
 10
-0.3855061848958333
 20
0.0569302029079861
 30
0.0
 10
-0.3913628472222222
 20
-0.0326422797309028
 30
0.0
 10
-0.3620795355902777
 20
-0.1218702528211805
 30
0.0
 10
-0.3236667209201389
 20
-0.2393480088975694
 30
0.0
 10
-0.2397786458333333
 20
-0.3275424533420139
 30
0.0
 10
-0.1412489149305556
 20
-0.3695726182725694
 30
0.0
  0
ELLIPSE
  5
AF
330
AC
100
AcDbEntity
  8
H16-2
 62
     7
100
AcDbEllipse
 10
0.0130052354600694
 20
0.0078375922309028
 30
0.0
 11
0.1483974880642361
 21
-0.4532023111979168
 31
0.0
210
0.0
220
0.0
230
1.0
 40
0.885205344827565
 41
0.0
 42
6.283185307179586
  0
ENDBLK
  5
B1
330
AC
100
AcDbEntity
  8
H16-2
100
AcDbBlockEnd
  0
BLOCK
  5
B4
330
B2
100
AcDbEntity
  8
H16-2
 62
     7
100
AcDbBlockBegin
  2
AI9-BLK21
 70
     0
 10
0.0
 20
0.0
 30
0.0
  3
AI9-BLK21
  1

  4

  0
SPLINE
  5
B6
330
B2
100
AcDbEntity
  8
H16-2
 62
     7
100
AcDbSpline
210
0.0
220
0.0
230
1.0
 70
    11
 71
     3
 72
    17
 73
    13
 74
     0
 42
0.0000000001
 43
0.0000000001
 40
0.0
 40
0.0
 40
0.0
 40
0.0
 40
1.0
 40
1.0
 40
1.0
 40
2.0
 40
2.0
 40
2.0
 40
3.0
 40
3.0
 40
3.0
 40
4.0
 40
4.0
 40
4.0
 40
4.0
 10
-0.1539957682291667
 20
-0.3780131022135416
 30
0.0
 10
-0.1278130425347222
 20
-0.2987759060329861
 30
0.0
 10
-0.1223008897569444
 20
-0.2092034233940972
 30
0.0
 10
-0.1512396918402778
 20
-0.1203199598524306
 30
0.0
 10
-0.1898247612847222
 20
-0.0024976942274306
 30
0.0
 10
-0.2738850911458333
 20
0.0856967502170139
 30
0.0
 10
-0.3724148220486111
 20
0.1273824055989583
 30
0.0
 10
-0.3985975477430555
 20
0.0484897189670139
 30
0.0
 10
-0.4041097005208333
 20
-0.041082763671875
 30
0.0
 10
-0.3751708984375
 20
-0.1303107367621528
 30
0.0
 10
-0.3365858289930555
 20
-0.2477884928385417
 30
0.0
 10
-0.2525254991319444
 20
-0.3359829372829861
 30
0.0
 10
-0.1539957682291667
 20
-0.3780131022135416
 30
0.0
  0
ELLIPSE
  5
B5
330
B2
100
AcDbEntity
  8
H16-2
 62
     7
100
AcDbEllipse
 10
0.0
 20
-0.0006028917100694
 30
0.0
 11
0.1484836154513889
 21
-0.4532023111979167
 31
0.0
210
0.0
220
0.0
230
1.0
 40
0.8853272542095183
 41
0.0
 42
6.283185307179586
  0
ENDBLK
  5
B7
330
B2
100
AcDbEntity
  8
H16-2
100
AcDbBlockEnd
  0
BLOCK
  5
BA
330
B8
100
AcDbEntity
  8
H16-2
 62
     7
100
AcDbBlockBegin
  2
AI9-BLK22
 70
     0
 10
0.0
 20
0.0
 30
0.0
  3
AI9-BLK22
  1

  4

  0
SPLINE
  5
BC
330
B8
100
AcDbEntity
  8
H16-2
 62
     7
100
AcDbSpline
210
0.0
220
0.0
230
1.0
 70
    11
 71
     3
 72
    17
 73
    13
 74
     0
 42
0.0000000001
 43
0.0000000001
 40
0.0
 40
0.0
 40
0.0
 40
0.0
 40
1.0
 40
1.0
 40
1.0
 40
2.0
 40
2.0
 40
2.0
 40
3.0
 40
3.0
 40
3.0
 40
4.0
 40
4.0
 40
4.0
 40
4.0
 10
-0.1412489149305556
 20
-0.3695726182725694
 30
0.0
 10
-0.1150661892361111
 20
-0.2903354220920139
 30
0.0
 10
-0.1092095269097222
 20
-0.200762939453125
 30
0.0
 10
-0.1383205837673611
 20
-0.1118794759114583
 30
0.0
 10
-0.1769056532118055
 20
0.0059427897135417
 30
0.0
 10
-0.2609659830729166
 20
0.0941372341579861
 30
0.0
 10
-0.3593234592013889
 20
0.1358228895399306
 30
0.0
 10
-0.3855061848958333
 20
0.0569302029079861
 30
0.0
 10
-0.3913628472222222
 20
-0.0326422797309028
 30
0.0
 10
-0.3620795355902777
 20
-0.1218702528211805
 30
0.0
 10
-0.3236667209201389
 20
-0.2393480088975694
 30
0.0
 10
-0.2397786458333333
 20
-0.3275424533420139
 30
0.0
 10
-0.1412489149305556
 20
-0.3695726182725694
 30
0.0
  0
ELLIPSE
  5
BB
330
B8
100
AcDbEntity
  8
H16-2
 62
     7
100
AcDbEllipse
 10
0.0130052354600694
 20
0.0078375922309028
 30
0.0
 11
0.1483974880642361
 21
-0.4532023111979168
 31
0.0
210
0.0
220
0.0
230
1.0
 40
0.885205344827565
 41
0.0
 42
6.283185307179586
  0
ENDBLK
  5
BD
330
B8
100
AcDbEntity
  8
H16-2
100
AcDbBlockEnd
  0
BLOCK
  5
C0
330
BE
100
AcDbEntity
  8
H16-2
 62
     7
100
AcDbBlockBegin
  2
AI9-BLK23
 70
     0
 10
0.0
 20
0.0
 30
0.0
  3
AI9-BLK23
  1

  4

  0
SPLINE
  5
C2
330
BE
100
AcDbEntity
  8
H16-2
 62
     7
100
AcDbSpline
210
0.0
220
0.0
230
1.0
 70
    11
 71
     3
 72
    17
 73
    13
 74
     0
 42
0.0000000001
 43
0.0000000001
 40
0.0
 40
0.0
 40
0.0
 40
0.0
 40
1.0
 40
1.0
 40
1.0
 40
2.0
 40
2.0
 40
2.0
 40
3.0
 40
3.0
 40
3.0
 40
4.0
 40
4.0
 40
4.0
 40
4.0
 10
-0.1539957682291667
 20
-0.3780131022135416
 30
0.0
 10
-0.1278130425347222
 20
-0.2987759060329861
 30
0.0
 10
-0.1223008897569444
 20
-0.2092034233940972
 30
0.0
 10
-0.1512396918402778
 20
-0.1203199598524306
 30
0.0
 10
-0.1898247612847222
 20
-0.0024976942274306
 30
0.0
 10
-0.2738850911458333
 20
0.0856967502170139
 30
0.0
 10
-0.3724148220486111
 20
0.1273824055989583
 30
0.0
 10
-0.3985975477430555
 20
0.0484897189670139
 30
0.0
 10
-0.4041097005208333
 20
-0.041082763671875
 30
0.0
 10
-0.3751708984375
 20
-0.1303107367621528
 30
0.0
 10
-0.3365858289930555
 20
-0.2477884928385417
 30
0.0
 10
-0.2525254991319444
 20
-0.3359829372829861
 30
0.0
 10
-0.1539957682291667
 20
-0.3780131022135416
 30
0.0
  0
ELLIPSE
  5
C1
330
BE
100
AcDbEntity
  8
H16-2
 62
     7
100
AcDbEllipse
 10
0.0
 20
-0.0006028917100694
 30
0.0
 11
0.1484836154513889
 21
-0.4532023111979167
 31
0.0
210
0.0
220
0.0
230
1.0
 40
0.8853272542095183
 41
0.0
 42
6.283185307179586
  0
ENDBLK
  5
C3
330
BE
100
AcDbEntity
  8
H16-2
100
AcDbBlockEnd
  0
BLOCK
  5
C6
330
C4
100
AcDbEntity
  8
H16-2
 62
     7
100
AcDbBlockBegin
  2
AI9-BLK24
 70
     0
 10
0.0
 20
0.0
 30
0.0
  3
AI9-BLK24
  1

  4

  0
SPLINE
  5
C8
330
C4
100
AcDbEntity
  8
H16-2
 62
     7
100
AcDbSpline
210
0.0
220
0.0
230
1.0
 70
    11
 71
     3
 72
    17
 73
    13
 74
     0
 42
0.0000000001
 43
0.0000000001
 40
0.0
 40
0.0
 40
0.0
 40
0.0
 40
1.0
 40
1.0
 40
1.0
 40
2.0
 40
2.0
 40
2.0
 40
3.0
 40
3.0
 40
3.0
 40
4.0
 40
4.0
 40
4.0
 40
4.0
 10
-0.1412489149305556
 20
-0.3695726182725694
 30
0.0
 10
-0.1150661892361111
 20
-0.2903354220920139
 30
0.0
 10
-0.1092095269097222
 20
-0.200762939453125
 30
0.0
 10
-0.1383205837673611
 20
-0.1118794759114583
 30
0.0
 10
-0.1769056532118055
 20
0.0059427897135417
 30
0.0
 10
-0.2609659830729166
 20
0.0941372341579861
 30
0.0
 10
-0.3593234592013889
 20
0.1358228895399306
 30
0.0
 10
-0.3855061848958333
 20
0.0569302029079861
 30
0.0
 10
-0.3913628472222222
 20
-0.0326422797309028
 30
0.0
 10
-0.3620795355902777
 20
-0.1218702528211805
 30
0.0
 10
-0.3236667209201389
 20
-0.2393480088975694
 30
0.0
 10
-0.2397786458333333
 20
-0.3275424533420139
 30
0.0
 10
-0.1412489149305556
 20
-0.3695726182725694
 30
0.0
  0
ELLIPSE
  5
C7
330
C4
100
AcDbEntity
  8
H16-2
 62
     7
100
AcDbEllipse
 10
0.0130052354600694
 20
0.0078375922309028
 30
0.0
 11
0.1483974880642361
 21
-0.4532023111979168
 31
0.0
210
0.0
220
0.0
230
1.0
 40
0.885205344827565
 41
0.0
 42
6.283185307179586
  0
ENDBLK
  5
C9
330
C4
100
AcDbEntity
  8
H16-2
100
AcDbBlockEnd
  0
BLOCK
  5
D1
330
CF
100
AcDbEntity
  8
H16-2
 62
     7
100
AcDbBlockBegin
  2
AI9-BLK25
 70
     0
 10
0.0
 20
0.0
 30
0.0
  3
AI9-BLK25
  1

  4

  0
LINE
  5
D4
330
CF
100
AcDbEntity
  8
H16-2
 62
     7
100
AcDbLine
 10
3.298851182725694
 20
-0.3722425672743056
 30
0.0
 11
3.843865288628472
 21
-0.4339097764756944
 31
0.0
  0
LINE
  5
D3
330
CF
100
AcDbEntity
  8
H16-2
 62
     7
100
AcDbLine
 10
-2.73006591796875
 20
0.30850830078125
 30
0.0
 11
2.653240288628472
 21
-0.29920654296875
 31
0.0
  0
LINE
  5
D2
330
CF
100
AcDbEntity
  8
H16-2
 62
     7
100
AcDbLine
 10
-3.843865288628472
 20
0.4339097764756944
 30
0.0
 11
-3.289549424913194
 21
0.3712090386284722
 31
0.0
  0
ENDBLK
  5
D5
330
CF
100
AcDbEntity
  8
H16-2
100
AcDbBlockEnd
  0
BLOCK
  5
DA
330
D8
100
AcDbEntity
  8
H16-2
 62
     7
100
AcDbBlockBegin
  2
AI9-BLK26
 70
     0
 10
0.0
 20
0.0
 30
0.0
  3
AI9-BLK26
  1

  4

  0
LWPOLYLINE
  5
33C
330
D8
100
AcDbEntity
  8
H16-2
 62
     7
100
AcDbPolyline
 90
        6
 70
     1
 43
0.0
 10
-12.61180555555555
 20
-18.75957845052083
 10
-12.07299262152778
 20
-18.88429090711805
 10
12.61180555555555
 20
-7.823467339409722
 10
12.61180555555555
 20
18.63486599392361
 10
12.10503200954861
 20
18.87361111111111
 10
-12.61180555555555
 20
4.347365993923611
  0
LWPOLYLINE
  5
337
330
D8
100
AcDbEntity
  8
H16-2
 62
     7
100
AcDbPolyline
 90
        3
 70
     0
 43
0.0
 10
12.14602864583333
 20
18.95353732638889
 10
12.14602864583333
 20
-7.524088541666666
 10
-12.61800672743055
 20
-18.6872314453125
  0
LINE
  5
336
330
D8
100
AcDbEntity
  8
H16-2
 62
     7
100
AcDbLine
 10
11.93518880208333
 20
-7.51616482204861
 30
0.0
 11
12.64005533854167
 21
-7.761800130208333
 31
0.0
  0
INSERT
  5
2F4
330
D8
100
AcDbEntity
  8
H16-2
 62
     7
100
AcDbBlockReference
  2
AI9-BLK67
 10
-2.259035237630208
 20
8.988857014973958
 30
0.0
  0
INSERT
  5
2B1
330
D8
100
AcDbEntity
  8
H16-2
 62
     7
100
AcDbBlockReference
  2
AI9-BLK62
 10
-2.314329020182291
 20
3.832582600911458
 30
0.0
  0
INSERT
  5
26E
330
D8
100
AcDbEntity
  8
H16-2
 62
     7
100
AcDbBlockReference
  2
AI9-BLK57
 10
-2.144658067491319
 20
-6.965207926432291
 30
0.0
  0
INSERT
  5
22B
330
D8
100
AcDbEntity
  8
H16-2
 62
     7
100
AcDbBlockReference
  2
AI9-BLK52
 10
-2.031745062934028
 20
-11.5635491265191
 30
0.0
  0
INSERT
  5
1E8
330
D8
100
AcDbEntity
  8
H16-2
 62
     7
100
AcDbBlockReference
  2
AI9-BLK47
 10
-2.173338487413195
 20
-1.670268419053819
 30
0.0
  0
INSERT
  5
1A5
330
D8
100
AcDbEntity
  8
H16-2
 62
     7
100
AcDbBlockReference
  2
AI9-BLK42
 10
0.2955891927083333
 20
2.33878919813368
 30
0.0
  0
INSERT
  5
162
330
D8
100
AcDbEntity
  8
H16-2
 62
     7
100
AcDbBlockReference
  2
AI9-BLK37
 10
0.2109259711371528
 20
8.088825819227429
 30
0.0
  0
INSERT
  5
11F
330
D8
100
AcDbEntity
  8
H16-2
 62
     7
100
AcDbBlockReference
  2
AI9-BLK32
 10
0.3245279947916667
 20
-3.068632676866319
 30
0.0
  0
INSERT
  5
DC
330
D8
100
AcDbEntity
  8
H16-2
 62
     7
100
AcDbBlockReference
  2
AI9-BLK27
 10
0.3811998155381944
 20
-8.106481933593749
 30
0.0
  0
ENDBLK
  5
344
330
D8
100
AcDbEntity
  8
H16-2
100
AcDbBlockEnd
  0
BLOCK
  5
DD
330
DB
100
AcDbEntity
  8
H16-2
 62
     7
100
AcDbBlockBegin
  2
AI9-BLK27
 70
     0
 10
0.0
 20
0.0
 30
0.0
  3
AI9-BLK27
  1

  4

  0
LWPOLYLINE
  5
116
330
DB
100
AcDbEntity
  8
H16-2
 62
     7
100
AcDbPolyline
 90
        5
 70
     0
 43
0.0
 10
6.761861165364583
 20
2.674944390190972
 10
5.819972059461805
 20
3.058039008246527
 10
9.672966851128471
 20
4.957320149739583
 10
9.672966851128471
 20
3.967888726128472
 10
5.928148057725694
 20
2.180917697482639
  0
INSERT
  5
109
330
DB
100
AcDbEntity
  8
H16-2
 62
     7
100
AcDbBlockReference
  2
AI9-BLK31
 10
2.945126003689236
 20
1.283987087673611
 30
0.0
  0
INSERT
  5
FB
330
DB
100
AcDbEntity
  8
H16-2
 62
     7
100
AcDbBlockReference
  2
AI9-BLK30
 10
-0.9912400987413194
 20
-0.6714491102430555
 30
0.0
  0
INSERT
  5
ED
330
DB
100
AcDbEntity
  8
H16-2
 62
     7
100
AcDbBlockReference
  2
AI9-BLK29
 10
-4.844234890407986
 20
-2.539896647135417
 30
0.0
  0
INSERT
  5
DF
330
DB
100
AcDbEntity
  8
H16-2
 62
     7
100
AcDbBlockReference
  2
AI9-BLK28
 10
-8.368653700086805
 20
-4.176833767361111
 30
0.0
  0
ENDBLK
  5
11D
330
DB
100
AcDbEntity
  8
H16-2
100
AcDbBlockEnd
  0
BLOCK
  5
E0
330
DE
100
AcDbEntity
  8
H16-2
 62
     7
100
AcDbBlockBegin
  2
AI9-BLK28
 70
     0
 10
0.0
 20
0.0
 30
0.0
  3
AI9-BLK28
  1

  4

  0
LWPOLYLINE
  5
E6
330
DE
100
AcDbEntity
  8
H16-2
 62
     7
100
AcDbPolyline
 90
        3
 70
     0
 43
0.0
 10
1.283987087673611
 20
0.8745374891493055
 10
1.30224609375
 20
0.1572686089409722
 10
-0.8595513237847221
 20
-0.8738484700520832
  0
LWPOLYLINE
  5
E1
330
DE
100
AcDbEntity
  8
H16-2
 62
     7
100
AcDbPolyline
 90
        3
 70
     0
 43
0.0
 10
1.283987087673611
 20
0.8745374891493055
 10
-1.02939453125
 20
-0.2657891167534722
 10
-0.0878499348958333
 20
-0.4545803493923611
  0
ENDBLK
  5
EB
330
DE
100
AcDbEntity
  8
H16-2
100
AcDbBlockEnd
  0
BLOCK
  5
EE
330
EC
100
AcDbEntity
  8
H16-2
 62
     7
100
AcDbBlockBegin
  2
AI9-BLK29
 70
     0
 10
0.0
 20
0.0
 30
0.0
  3
AI9-BLK29
  1

  4

  0
LWPOLYLINE
  5
F4
330
EC
100
AcDbEntity
  8
H16-2
 62
     7
100
AcDbPolyline
 90
        3
 70
     0
 43
0.0
 10
1.435140652126736
 20
0.9542914496527777
 10
1.491984727647569
 20
0.2928331163194444
 10
-1.228262668185764
 20
-1.005278862847222
  0
LWPOLYLINE
  5
EF
330
EC
100
AcDbEntity
  8
H16-2
 62
     7
100
AcDbPolyline
 90
        3
 70
     0
 43
0.0
 10
-0.3187574598524305
 20
-0.5078070746527778
 10
-1.249966769748264
 20
-0.2742296006944444
 10
1.346946207682292
 20
1.005967881944444
  0
ENDBLK
  5
F9
330
EC
100
AcDbEntity
  8
H16-2
100
AcDbBlockEnd
  0
BLOCK
  5
FC
330
FA
100
AcDbEntity
  8
H16-2
 62
     7
100
AcDbBlockBegin
  2
AI9-BLK30
 70
     0
 10
0.0
 20
0.0
 30
0.0
  3
AI9-BLK30
  1

  4

  0
LWPOLYLINE
  5
102
330
FA
100
AcDbEntity
  8
H16-2
 62
     7
100
AcDbPolyline
 90
        3
 70
     0
 43
0.0
 10
1.350391303168403
 20
0.9747897677951388
 10
1.310428195529514
 20
0.1765611436631944
 10
-1.119742160373264
 20
-0.9830579969618055
  0
LWPOLYLINE
  5
FD
330
FA
100
AcDbEntity
  8
H16-2
 62
     7
100
AcDbPolyline
 90
        3
 70
     0
 43
0.0
 10
-0.1482252332899305
 20
-0.5110799153645833
 10
-1.133867051866319
 20
-0.1862074110243056
 10
1.240148247612847
 20
0.9837470160590277
  0
ENDBLK
  5
107
330
FA
100
AcDbEntity
  8
H16-2
100
AcDbBlockEnd
  0
BLOCK
  5
10A
330
108
100
AcDbEntity
  8
H16-2
 62
     7
100
AcDbBlockBegin
  2
AI9-BLK31
 70
     0
 10
0.0
 20
0.0
 30
0.0
  3
AI9-BLK31
  1

  4

  0
LWPOLYLINE
  5
110
330
108
100
AcDbEntity
  8
H16-2
 62
     7
100
AcDbPolyline
 90
        3
 70
     0
 43
0.0
 10
1.478893364800347
 20
1.086410861545139
 10
1.45822279188368
 20
0.1696709526909722
 10
-1.172452121310764
 20
-1.085721842447917
  0
LWPOLYLINE
  5
10B
330
108
100
AcDbEntity
  8
H16-2
 62
     7
100
AcDbPolyline
 90
        3
 70
     0
 43
0.0
 10
-0.2942972819010417
 20
-0.6461276584201389
 10
-1.279594590928819
 20
-0.2733683268229166
 10
1.478893364800347
 20
1.086410861545139
  0
ENDBLK
  5
115
330
108
100
AcDbEntity
  8
H16-2
100
AcDbBlockEnd
  0
BLOCK
  5
120
330
11E
100
AcDbEntity
  8
H16-2
 62
     7
100
AcDbBlockBegin
  2
AI9-BLK32
 70
     0
 10
0.0
 20
0.0
 30
0.0
  3
AI9-BLK32
  1

  4

  0
LWPOLYLINE
  5
159
330
11E
100
AcDbEntity
  8
H16-2
 62
     7
100
AcDbPolyline
 90
        5
 70
     0
 43
0.0
 10
6.920163302951388
 20
2.884320068359375
 10
6.004112413194444
 20
3.263969590928819
 10
9.729638671875
 20
5.167040337456597
 10
9.729638671875
 20
4.18484361436632
 10
6.107465277777777
 20
2.384436713324653
  0
INSERT
  5
14C
330
11E
100
AcDbEntity
  8
H16-2
 62
     7
100
AcDbBlockReference
  2
AI9-BLK36
 10
3.173708089192708
 20
1.455638970269097
 30
0.0
  0
INSERT
  5
13E
330
11E
100
AcDbEntity
  8
H16-2
 62
     7
100
AcDbBlockReference
  2
AI9-BLK35
 10
-0.764638943142361
 20
-0.576278347439236
 30
0.0
  0
INSERT
  5
130
330
11E
100
AcDbEntity
  8
H16-2
 62
     7
100
AcDbBlockReference
  2
AI9-BLK34
 10
-4.703072102864583
 20
-2.558758544921875
 30
0.0
  0
INSERT
  5
122
330
11E
100
AcDbEntity
  8
H16-2
 62
     7
100
AcDbBlockReference
  2
AI9-BLK33
 10
-8.370290120442707
 20
-4.327470567491319
 30
0.0
  0
ENDBLK
  5
160
330
11E
100
AcDbEntity
  8
H16-2
100
AcDbBlockEnd
  0
BLOCK
  5
123
330
121
100
AcDbEntity
  8
H16-2
 62
     7
100
AcDbBlockBegin
  2
AI9-BLK33
 70
     0
 10
0.0
 20
0.0
 30
0.0
  3
AI9-BLK33
  1

  4

  0
LWPOLYLINE
  5
129
330
121
100
AcDbEntity
  8
H16-2
 62
     7
100
AcDbPolyline
 90
        3
 70
     0
 43
0.0
 10
1.347807481553819
 20
0.9379272460937499
 10
1.358142768012153
 20
0.19068603515625
 10
-0.9114861382378472
 20
-0.9372382269965277
  0
LWPOLYLINE
  5
124
330
121
100
AcDbEntity
  8
H16-2
 62
     7
100
AcDbPolyline
 90
        3
 70
     0
 43
0.0
 10
1.347807481553819
 20
0.9379272460937499
 10
-1.081673855251736
 20
-0.3026516384548611
 10
-0.0977545844184028
 20
-0.4793850368923611
  0
ENDBLK
  5
12E
330
121
100
AcDbEntity
  8
H16-2
100
AcDbBlockEnd
  0
BLOCK
  5
131
330
12F
100
AcDbEntity
  8
H16-2
 62
     7
100
AcDbBlockBegin
  2
AI9-BLK34
 70
     0
 10
0.0
 20
0.0
 30
0.0
  3
AI9-BLK34
  1

  4

  0
LWPOLYLINE
  5
137
330
12F
100
AcDbEntity
  8
H16-2
 62
     7
100
AcDbPolyline
 90
        3
 70
     0
 43
0.0
 10
1.479151746961805
 20
1.01234130859375
 10
1.531172688802083
 20
0.3309014214409722
 10
-1.273824055989583
 20
-1.063328721788194
  0
LWPOLYLINE
  5
132
330
12F
100
AcDbEntity
  8
H16-2
 62
     7
100
AcDbPolyline
 90
        3
 70
     0
 43
0.0
 10
-0.3309014214409722
 20
-0.5293389214409722
 10
-1.288637966579861
 20
-0.3040296766493055
 10
1.389579264322917
 20
1.064017740885417
  0
ENDBLK
  5
13C
330
12F
100
AcDbEntity
  8
H16-2
100
AcDbBlockEnd
  0
BLOCK
  5
13F
330
13D
100
AcDbEntity
  8
H16-2
 62
     7
100
AcDbBlockBegin
  2
AI9-BLK35
 70
     0
 10
0.0
 20
0.0
 30
0.0
  3
AI9-BLK35
  1

  4

  0
LWPOLYLINE
  5
145
330
13D
100
AcDbEntity
  8
H16-2
 62
     7
100
AcDbPolyline
 90
        3
 70
     0
 43
0.0
 10
1.361673990885417
 20
1.014236111111111
 10
1.316887749565972
 20
0.1998155381944444
 10
-1.140154351128472
 20
-1.021815321180555
  0
LWPOLYLINE
  5
140
330
13D
100
AcDbEntity
  8
H16-2
 62
     7
100
AcDbPolyline
 90
        3
 70
     0
 43
0.0
 10
-0.1545125325520833
 20
-0.5229654947916667
 10
-1.148422580295139
 20
-0.2032606336805555
 10
1.25108642578125
 20
1.022504340277778
  0
ENDBLK
  5
14A
330
13D
100
AcDbEntity
  8
H16-2
100
AcDbBlockEnd
  0
BLOCK
  5
14D
330
14B
100
AcDbEntity
  8
H16-2
 62
     7
100
AcDbBlockBegin
  2
AI9-BLK36
 70
     0
 10
0.0
 20
0.0
 30
0.0
  3
AI9-BLK36
  1

  4

  0
LWPOLYLINE
  5
153
330
14B
100
AcDbEntity
  8
H16-2
 62
     7
100
AcDbPolyline
 90
        3
 70
     0
 43
0.0
 10
1.462701416015625
 20
1.110009765625
 10
1.439274766710069
 20
0.18603515625
 10
-1.166595458984375
 20
-1.109320746527778
  0
LWPOLYLINE
  5
14E
330
14B
100
AcDbEntity
  8
H16-2
 62
     7
100
AcDbPolyline
 90
        3
 70
     0
 43
0.0
 10
-0.2929192437065972
 20
-0.6545681423611111
 10
-1.268914794921875
 20
-0.28525390625
 10
1.462701416015625
 20
1.110009765625
  0
ENDBLK
  5
158
330
14B
100
AcDbEntity
  8
H16-2
100
AcDbBlockEnd
  0
BLOCK
  5
163
330
161
100
AcDbEntity
  8
H16-2
 62
     7
100
AcDbBlockBegin
  2
AI9-BLK37
 70
     0
 10
0.0
 20
0.0
 30
0.0
  3
AI9-BLK37
  1

  4

  0
LWPOLYLINE
  5
19C
330
161
100
AcDbEntity
  8
H16-2
 62
     7
100
AcDbPolyline
 90
        5
 70
     0
 43
0.0
 10
7.222556559244791
 20
3.322708468967014
 10
6.356115044487846
 20
3.696156819661458
 10
9.843240695529513
 20
5.607151285807291
 10
9.843240695529513
 20
4.637012396918403
 10
6.450855170355903
 20
2.811111789279514
  0
INSERT
  5
18F
330
161
100
AcDbEntity
  8
H16-2
 62
     7
100
AcDbBlockReference
  2
AI9-BLK41
 10
3.615972222222222
 20
1.821249728732639
 30
0.0
  0
INSERT
  5
181
330
161
100
AcDbEntity
  8
H16-2
 62
     7
100
AcDbBlockReference
  2
AI9-BLK40
 10
-0.31470947265625
 20
-0.363543701171875
 30
0.0
  0
INSERT
  5
173
330
161
100
AcDbEntity
  8
H16-2
 62
     7
100
AcDbBlockReference
  2
AI9-BLK39
 10
-4.413253445095486
 20
-2.584424506293403
 30
0.0
  0
INSERT
  5
165
330
161
100
AcDbEntity
  8
H16-2
 62
     7
100
AcDbBlockReference
  2
AI9-BLK38
 10
-8.366586642795138
 20
-4.638476562499999
 30
0.0
  0
ENDBLK
  5
1A3
330
161
100
AcDbEntity
  8
H16-2
100
AcDbBlockEnd
  0
BLOCK
  5
166
330
164
100
AcDbEntity
  8
H16-2
 62
     7
100
AcDbBlockBegin
  2
AI9-BLK38
 70
     0
 10
0.0
 20
0.0
 30
0.0
  3
AI9-BLK38
  1

  4

  0
LWPOLYLINE
  5
16C
330
164
100
AcDbEntity
  8
H16-2
 62
     7
100
AcDbPolyline
 90
        3
 70
     0
 43
0.0
 10
1.476654052734375
 20
1.076161702473958
 10
1.47217542860243
 20
0.2662197536892361
 10
-1.021384684244792
 20
-1.075644938151042
  0
LWPOLYLINE
  5
167
330
164
100
AcDbEntity
  8
H16-2
 62
     7
100
AcDbPolyline
 90
        3
 70
     0
 43
0.0
 10
1.476654052734375
 20
1.076161702473958
 10
-1.192950439453125
 20
-0.3869703504774305
 10
-0.1194586859809028
 20
-0.5323533799913194
  0
ENDBLK
  5
171
330
164
100
AcDbEntity
  8
H16-2
100
AcDbBlockEnd
  0
BLOCK
  5
174
330
172
100
AcDbEntity
  8
H16-2
 62
     7
100
AcDbBlockBegin
  2
AI9-BLK39
 70
     0
 10
0.0
 20
0.0
 30
0.0
  3
AI9-BLK39
  1

  4

  0
LWPOLYLINE
  5
17A
330
172
100
AcDbEntity
  8
H16-2
 62
     7
100
AcDbPolyline
 90
        3
 70
     0
 43
0.0
 10
1.564762369791667
 20
1.134297688802083
 10
1.607481553819444
 20
0.4135837131076389
 10
-1.363224283854167
 20
-1.18597412109375
  0
LWPOLYLINE
  5
175
330
172
100
AcDbEntity
  8
H16-2
 62
     7
100
AcDbPolyline
 90
        3
 70
     0
 43
0.0
 10
-0.3538113064236111
 20
-0.5730916341145833
 10
-1.363913302951389
 20
-0.3681084526909722
 10
1.4727783203125
 20
1.186318630642361
  0
ENDBLK
  5
17F
330
172
100
AcDbEntity
  8
H16-2
100
AcDbBlockEnd
  0
BLOCK
  5
182
330
180
100
AcDbEntity
  8
H16-2
 62
     7
100
AcDbBlockBegin
  2
AI9-BLK40
 70
     0
 10
0.0
 20
0.0
 30
0.0
  3
AI9-BLK40
  1

  4

  0
LWPOLYLINE
  5
188
330
180
100
AcDbEntity
  8
H16-2
 62
     7
100
AcDbPolyline
 90
        3
 70
     0
 43
0.0
 10
1.379846869574653
 20
1.093817816840278
 10
1.326103379991319
 20
0.2470133463541666
 10
-1.17606947157118
 20
-1.099674479166667
  0
LWPOLYLINE
  5
183
330
180
100
AcDbEntity
  8
H16-2
 62
     7
100
AcDbPolyline
 90
        3
 70
     0
 43
0.0
 10
-0.1645894368489583
 20
-0.5463921440972221
 10
-1.17296888563368
 20
-0.2384006076388889
 10
1.269603814019097
 20
1.100018988715278
  0
ENDBLK
  5
18D
330
180
100
AcDbEntity
  8
H16-2
100
AcDbBlockEnd
  0
BLOCK
  5
190
330
18E
100
AcDbEntity
  8
H16-2
 62
     7
100
AcDbBlockBegin
  2
AI9-BLK41
 70
     0
 10
0.0
 20
0.0
 30
0.0
  3
AI9-BLK41
  1

  4

  0
LWPOLYLINE
  5
196
330
18E
100
AcDbEntity
  8
H16-2
 62
     7
100
AcDbPolyline
 90
        3
 70
     0
 43
0.0
 10
1.428250461154514
 20
1.156260172526042
 10
1.400345187717014
 20
0.217816162109375
 10
-1.151437038845486
 20
-1.155743408203125
  0
LWPOLYLINE
  5
191
330
18E
100
AcDbEntity
  8
H16-2
 62
     7
100
AcDbPolyline
 90
        3
 70
     0
 43
0.0
 10
-0.2880961100260416
 20
-0.6699849446614583
 10
-1.244799126519097
 20
-0.3085944281684028
 10
1.428250461154514
 20
1.156260172526042
  0
ENDBLK
  5
19B
330
18E
100
AcDbEntity
  8
H16-2
100
AcDbBlockEnd
  0
BLOCK
  5
1A6
330
1A4
100
AcDbEntity
  8
H16-2
 62
     7
100
AcDbBlockBegin
  2
AI9-BLK42
 70
     0
 10
0.0
 20
0.0
 30
0.0
  3
AI9-BLK42
  1

  4

  0
LWPOLYLINE
  5
1DF
330
1A4
100
AcDbEntity
  8
H16-2
 62
     7
100
AcDbPolyline
 90
        5
 70
     0
 43
0.0
 10
7.075192599826388
 20
3.155104573567708
 10
6.1918701171875
 20
3.531653510199652
 10
9.758577473958333
 20
5.448160129123264
 10
9.758577473958333
 20
4.469408501519097
 10
6.290744357638888
 20
2.646263970269097
  0
INSERT
  5
1D2
330
1A4
100
AcDbEntity
  8
H16-2
 62
     7
100
AcDbBlockReference
  2
AI9-BLK46
 10
3.426319715711805
 20
1.676038953993055
 30
0.0
  0
INSERT
  5
1C4
330
1A4
100
AcDbEntity
  8
H16-2
 62
     7
100
AcDbBlockReference
  2
AI9-BLK45
 10
-0.4935099283854166
 20
-0.4560445149739583
 30
0.0
  0
INSERT
  5
1B6
330
1A4
100
AcDbEntity
  8
H16-2
 62
     7
100
AcDbBlockReference
  2
AI9-BLK44
 10
-4.511180284288194
 20
-2.588127983940972
 30
0.0
  0
INSERT
  5
1A8
330
1A4
100
AcDbEntity
  8
H16-2
 62
     7
100
AcDbBlockReference
  2
AI9-BLK43
 10
-8.334375
 20
-4.53150634765625
 30
0.0
  0
ENDBLK
  5
1E6
330
1A4
100
AcDbEntity
  8
H16-2
100
AcDbBlockEnd
  0
BLOCK
  5
1A9
330
1A7
100
AcDbEntity
  8
H16-2
 62
     7
100
AcDbBlockBegin
  2
AI9-BLK43
 70
     0
 10
0.0
 20
0.0
 30
0.0
  3
AI9-BLK43
  1

  4

  0
LWPOLYLINE
  5
1AF
330
1A7
100
AcDbEntity
  8
H16-2
 62
     7
100
AcDbPolyline
 90
        3
 70
     0
 43
0.0
 10
1.4169677734375
 20
1.021384684244792
 10
1.423513454861111
 20
0.2365919325086806
 10
-0.9684163411458332
 20
-1.020867919921875
  0
LWPOLYLINE
  5
1AA
330
1A7
100
AcDbEntity
  8
H16-2
 62
     7
100
AcDbPolyline
 90
        3
 70
     0
 43
0.0
 10
1.4169677734375
 20
1.021384684244792
 10
-1.1441162109375
 20
-0.3545864529079861
 10
-0.1064534505208333
 20
-0.5116828070746528
  0
ENDBLK
  5
1B4
330
1A7
100
AcDbEntity
  8
H16-2
100
AcDbBlockEnd
  0
BLOCK
  5
1B7
330
1B5
100
AcDbEntity
  8
H16-2
 62
     7
100
AcDbBlockBegin
  2
AI9-BLK44
 70
     0
 10
0.0
 20
0.0
 30
0.0
  3
AI9-BLK44
  1

  4

  0
LWPOLYLINE
  5
1BD
330
1B5
100
AcDbEntity
  8
H16-2
 62
     7
100
AcDbPolyline
 90
        3
 70
     0
 43
0.0
 10
1.522559950086805
 20
1.087530517578125
 10
1.572513834635417
 20
0.3816304524739583
 10
-1.319988335503472
 20
-1.139034695095486
  0
LWPOLYLINE
  5
1B8
330
1B5
100
AcDbEntity
  8
H16-2
 62
     7
100
AcDbPolyline
 90
        3
 70
     0
 43
0.0
 10
-0.3419257269965277
 20
-0.5568135579427083
 10
-1.331012641059028
 20
-0.3445956759982639
 10
1.431609429253472
 20
1.139551459418403
  0
ENDBLK
  5
1C2
330
1B5
100
AcDbEntity
  8
H16-2
100
AcDbBlockEnd
  0
BLOCK
  5
1C5
330
1C3
100
AcDbEntity
  8
H16-2
 62
     7
100
AcDbBlockBegin
  2
AI9-BLK45
 70
     0
 10
0.0
 20
0.0
 30
0.0
  3
AI9-BLK45
  1

  4

  0
LWPOLYLINE
  5
1CB
330
1C3
100
AcDbEntity
  8
H16-2
 62
     7
100
AcDbPolyline
 90
        3
 70
     0
 43
0.0
 10
1.367530653211805
 20
1.065223524305555
 10
1.320332845052083
 20
0.229443359375
 10
-1.154623752170139
 20
-1.071769205729167
  0
LWPOLYLINE
  5
1C6
330
1C3
100
AcDbEntity
  8
H16-2
 62
     7
100
AcDbPolyline
 90
        3
 70
     0
 43
0.0
 10
-0.1572686089409722
 20
-0.5384684244791667
 10
-1.159446885850694
 20
-0.2263427734375
 10
1.25728759765625
 20
1.072458224826389
  0
ENDBLK
  5
1D0
330
1C3
100
AcDbEntity
  8
H16-2
100
AcDbBlockEnd
  0
BLOCK
  5
1D3
330
1D1
100
AcDbEntity
  8
H16-2
 62
     7
100
AcDbBlockBegin
  2
AI9-BLK46
 70
     0
 10
0.0
 20
0.0
 30
0.0
  3
AI9-BLK46
  1

  4

  0
LWPOLYLINE
  5
1D9
330
1D1
100
AcDbEntity
  8
H16-2
 62
     7
100
AcDbPolyline
 90
        3
 70
     0
 43
0.0
 10
1.436432562934028
 20
1.141790771484375
 10
1.411972384982639
 20
0.2067918565538194
 10
-1.151178656684028
 20
-1.141274007161458
  0
LWPOLYLINE
  5
1D4
330
1D1
100
AcDbEntity
  8
H16-2
 62
     7
100
AcDbPolyline
 90
        3
 70
     0
 43
0.0
 10
-0.2871487087673611
 20
-0.6661953396267361
 10
-1.250397406684028
 20
-0.3010152180989583
 10
1.436432562934028
 20
1.141790771484375
  0
ENDBLK
  5
1DE
330
1D1
100
AcDbEntity
  8
H16-2
100
AcDbBlockEnd
  0
BLOCK
  5
1E9
330
1E7
100
AcDbEntity
  8
H16-2
 62
     7
100
AcDbBlockBegin
  2
AI9-BLK47
 70
     0
 10
0.0
 20
0.0
 30
0.0
  3
AI9-BLK47
  1

  4

  0
LWPOLYLINE
  5
222
330
1E7
100
AcDbEntity
  8
H16-2
 62
     7
100
AcDbPolyline
 90
        5
 70
     0
 43
0.0
 10
6.994405110677083
 20
2.985605875651042
 10
6.090756564670138
 20
3.363188340928819
 10
9.758060709635416
 20
5.267981635199653
 10
9.758060709635416
 20
4.288885498046875
 10
6.191697862413194
 20
2.482621934678819
  0
INSERT
  5
215
330
1E7
100
AcDbEntity
  8
H16-2
 62
     7
100
AcDbBlockReference
  2
AI9-BLK51
 10
3.280592176649305
 20
1.539268663194444
 30
0.0
  0
INSERT
  5
207
330
1E7
100
AcDbEntity
  8
H16-2
 62
     7
100
AcDbBlockReference
  2
AI9-BLK50
 10
-0.657668728298611
 20
-0.5284776475694444
 30
0.0
  0
INSERT
  5
1F9
330
1E7
100
AcDbEntity
  8
H16-2
 62
     7
100
AcDbBlockReference
  2
AI9-BLK49
 10
-4.635806613498263
 20
-2.566079372829861
 30
0.0
  0
INSERT
  5
1EB
330
1E7
100
AcDbEntity
  8
H16-2
 62
     7
100
AcDbBlockReference
  2
AI9-BLK48
 10
-8.37192654079861
 20
-4.399214680989583
 30
0.0
  0
ENDBLK
  5
229
330
1E7
100
AcDbEntity
  8
H16-2
100
AcDbBlockEnd
  0
BLOCK
  5
1EC
330
1EA
100
AcDbEntity
  8
H16-2
 62
     7
100
AcDbBlockBegin
  2
AI9-BLK48
 70
     0
 10
0.0
 20
0.0
 30
0.0
  3
AI9-BLK48
  1

  4

  0
LWPOLYLINE
  5
1F2
330
1EA
100
AcDbEntity
  8
H16-2
 62
     7
100
AcDbPolyline
 90
        3
 70
     0
 43
0.0
 10
1.378554958767361
 20
0.9690192328559026
 10
1.385445149739583
 20
0.2073086208767361
 10
-0.9365492078993055
 20
-0.9685024685329861
  0
LWPOLYLINE
  5
1ED
330
1EA
100
AcDbEntity
  8
H16-2
 62
     7
100
AcDbPolyline
 90
        3
 70
     0
 43
0.0
 10
1.378554958767361
 20
0.9690192328559026
 10
-1.107081434461805
 20
-0.3215135362413194
 10
-0.1024915907118056
 20
-0.4917012532552083
  0
ENDBLK
  5
1F7
330
1EA
100
AcDbEntity
  8
H16-2
100
AcDbBlockEnd
  0
BLOCK
  5
1FA
330
1F8
100
AcDbEntity
  8
H16-2
 62
     7
100
AcDbBlockBegin
  2
AI9-BLK49
 70
     0
 10
0.0
 20
0.0
 30
0.0
  3
AI9-BLK49
  1

  4

  0
LWPOLYLINE
  5
200
330
1F8
100
AcDbEntity
  8
H16-2
 62
     7
100
AcDbPolyline
 90
        3
 70
     0
 43
0.0
 10
1.499908447265625
 20
1.040332709418403
 10
1.549517822265625
 20
0.349591064453125
 10
-1.295786539713542
 20
-1.091492377387153
  0
LWPOLYLINE
  5
1FB
330
1F8
100
AcDbEntity
  8
H16-2
 62
     7
100
AcDbPolyline
 90
        3
 70
     0
 43
0.0
 10
-0.3370164659288194
 20
-0.5395880805121527
 10
-1.306810845269097
 20
-0.3184129503038194
 10
1.409646945529514
 20
1.092009141710069
  0
ENDBLK
  5
205
330
1F8
100
AcDbEntity
  8
H16-2
100
AcDbBlockEnd
  0
BLOCK
  5
208
330
206
100
AcDbEntity
  8
H16-2
 62
     7
100
AcDbBlockBegin
  2
AI9-BLK50
 70
     0
 10
0.0
 20
0.0
 30
0.0
  3
AI9-BLK50
  1

  4

  0
LWPOLYLINE
  5
20E
330
206
100
AcDbEntity
  8
H16-2
 62
     7
100
AcDbPolyline
 90
        3
 70
     0
 43
0.0
 10
1.366841634114583
 20
1.032925754123264
 10
1.319643825954861
 20
0.2105814615885417
 10
-1.149456108940972
 20
-1.039988199869792
  0
LWPOLYLINE
  5
209
330
206
100
AcDbEntity
  8
H16-2
 62
     7
100
AcDbPolyline
 90
        3
 70
     0
 43
0.0
 10
-0.1572686089409722
 20
-0.5283915201822916
 10
-1.15496826171875
 20
-0.2114427354600694
 10
1.256254069010417
 20
1.040504964192708
  0
ENDBLK
  5
213
330
206
100
AcDbEntity
  8
H16-2
100
AcDbBlockEnd
  0
BLOCK
  5
216
330
214
100
AcDbEntity
  8
H16-2
 62
     7
100
AcDbBlockBegin
  2
AI9-BLK51
 70
     0
 10
0.0
 20
0.0
 30
0.0
  3
AI9-BLK51
  1

  4

  0
LWPOLYLINE
  5
21C
330
214
100
AcDbEntity
  8
H16-2
 62
     7
100
AcDbPolyline
 90
        3
 70
     0
 43
0.0
 10
1.455208333333333
 20
1.120775689019097
 10
1.430403645833333
 20
0.1937004937065972
 10
-1.163408745659722
 20
-1.120258924696181
  0
LWPOLYLINE
  5
217
330
214
100
AcDbEntity
  8
H16-2
 62
     7
100
AcDbPolyline
 90
        3
 70
     0
 43
0.0
 10
-0.2917995876736111
 20
-0.6579271104600694
 10
-1.263661024305556
 20
-0.290679931640625
 10
1.455208333333333
 20
1.120775689019097
  0
ENDBLK
  5
221
330
214
100
AcDbEntity
  8
H16-2
100
AcDbBlockEnd
  0
BLOCK
  5
22C
330
22A
100
AcDbEntity
  8
H16-2
 62
     7
100
AcDbBlockBegin
  2
AI9-BLK52
 70
     0
 10
0.0
 20
0.0
 30
0.0
  3
AI9-BLK52
  1

  4

  0
LWPOLYLINE
  5
265
330
22A
100
AcDbEntity
  8
H16-2
 62
     7
100
AcDbPolyline
 90
        5
 70
     0
 43
0.0
 10
6.623023817274305
 20
2.513283284505208
 10
5.659775119357638
 20
2.899478488498264
 10
9.616467285156249
 20
4.798415120442708
 10
9.616467285156249
 20
3.801748996310764
 10
5.772774251302083
 20
2.023735215928819
  0
INSERT
  5
258
330
22A
100
AcDbEntity
  8
H16-2
 62
     7
100
AcDbBlockReference
  2
AI9-BLK56
 10
2.753148057725694
 20
1.151350911458333
 30
0.0
  0
INSERT
  5
24A
330
22A
100
AcDbEntity
  8
H16-2
 62
     7
100
AcDbBlockReference
  2
AI9-BLK55
 10
-1.174519178602431
 20
-0.7444851345486111
 30
0.0
  0
INSERT
  5
23C
330
22A
100
AcDbEntity
  8
H16-2
 62
     7
100
AcDbBlockReference
  2
AI9-BLK54
 10
-4.950774468315972
 20
-2.525254991319444
 30
0.0
  0
INSERT
  5
22E
330
22A
100
AcDbEntity
  8
H16-2
 62
     7
100
AcDbBlockReference
  2
AI9-BLK53
 10
-8.356251356336804
 20
-4.062628851996528
 30
0.0
  0
ENDBLK
  5
26C
330
22A
100
AcDbEntity
  8
H16-2
100
AcDbBlockEnd
  0
BLOCK
  5
22F
330
22D
100
AcDbEntity
  8
H16-2
 62
     7
100
AcDbBlockBegin
  2
AI9-BLK53
 70
     0
 10
0.0
 20
0.0
 30
0.0
  3
AI9-BLK53
  1

  4

  0
LWPOLYLINE
  5
235
330
22D
100
AcDbEntity
  8
H16-2
 62
     7
100
AcDbPolyline
 90
        3
 70
     0
 43
0.0
 10
1.231277126736111
 20
0.8267367892795138
 10
1.257115342881944
 20
0.1328945583767361
 10
-0.8164876302083333
 20
-0.825875515407986
  0
LWPOLYLINE
  5
230
330
22D
100
AcDbEntity
  8
H16-2
 62
     7
100
AcDbPolyline
 90
        3
 70
     0
 43
0.0
 10
1.231277126736111
 20
0.8267367892795138
 10
-0.9877088758680555
 20
-0.2381422254774305
 10
-0.0792371961805556
 20
-0.4352016872829861
  0
ENDBLK
  5
23A
330
22D
100
AcDbEntity
  8
H16-2
100
AcDbBlockEnd
  0
BLOCK
  5
23D
330
23B
100
AcDbEntity
  8
H16-2
 62
     7
100
AcDbBlockBegin
  2
AI9-BLK54
 70
     0
 10
0.0
 20
0.0
 30
0.0
  3
AI9-BLK54
  1

  4

  0
LWPOLYLINE
  5
243
330
23B
100
AcDbEntity
  8
H16-2
 62
     7
100
AcDbPolyline
 90
        3
 70
     0
 43
0.0
 10
1.396986219618055
 20
0.9102803548177083
 10
1.458653428819444
 20
0.2639804416232638
 10
-1.188213433159722
 20
-0.960406494140625
  0
LWPOLYLINE
  5
23E
330
23B
100
AcDbEntity
  8
H16-2
 62
     7
100
AcDbPolyline
 90
        3
 70
     0
 43
0.0
 10
-0.3073025173611111
 20
-0.4908399793836805
 10
-1.217496744791667
 20
-0.2514058430989583
 10
1.309825303819444
 20
0.9612677680121528
  0
ENDBLK
  5
248
330
23B
100
AcDbEntity
  8
H16-2
100
AcDbBlockEnd
  0
BLOCK
  5
24B
330
249
100
AcDbEntity
  8
H16-2
 62
     7
100
AcDbBlockBegin
  2
AI9-BLK55
 70
     0
 10
0.0
 20
0.0
 30
0.0
  3
AI9-BLK55
  1

  4

  0
LWPOLYLINE
  5
251
330
249
100
AcDbEntity
  8
H16-2
 62
     7
100
AcDbPolyline
 90
        3
 70
     0
 43
0.0
 10
1.338677978515625
 20
0.9440422905815972
 10
1.304227023654514
 20
0.158905029296875
 10
-1.099071587456597
 20
-0.9531717936197915
  0
LWPOLYLINE
  5
24C
330
249
100
AcDbEntity
  8
H16-2
 62
     7
100
AcDbPolyline
 90
        3
 70
     0
 43
0.0
 10
-0.1416795518663194
 20
-0.501519775390625
 10
-1.119742160373264
 20
-0.1732021755642361
 10
1.228779432508681
 20
0.9540330674913193
  0
ENDBLK
  5
256
330
249
100
AcDbEntity
  8
H16-2
100
AcDbBlockEnd
  0
BLOCK
  5
259
330
257
100
AcDbEntity
  8
H16-2
 62
     7
100
AcDbBlockBegin
  2
AI9-BLK56
 70
     0
 10
0.0
 20
0.0
 30
0.0
  3
AI9-BLK56
  1

  4

  0
LWPOLYLINE
  5
25F
330
257
100
AcDbEntity
  8
H16-2
 62
     7
100
AcDbPolyline
 90
        3
 70
     0
 43
0.0
 10
1.489314778645833
 20
1.068065728081597
 10
1.471744791666667
 20
0.1568379720052083
 10
-1.174088541666667
 20
-1.067204454210069
  0
LWPOLYLINE
  5
25A
330
257
100
AcDbEntity
  8
H16-2
 62
     7
100
AcDbPolyline
 90
        3
 70
     0
 43
0.0
 10
-0.2942111545138889
 20
-0.6400126139322916
 10
-1.286054144965278
 20
-0.2641526963975694
 10
1.489314778645833
 20
1.068065728081597
  0
ENDBLK
  5
264
330
257
100
AcDbEntity
  8
H16-2
100
AcDbBlockEnd
  0
BLOCK
  5
26F
330
26D
100
AcDbEntity
  8
H16-2
 62
     7
100
AcDbBlockBegin
  2
AI9-BLK57
 70
     0
 10
0.0
 20
0.0
 30
0.0
  3
AI9-BLK57
  1

  4

  0
LWPOLYLINE
  5
2A8
330
26D
100
AcDbEntity
  8
H16-2
 62
     7
100
AcDbPolyline
 90
        5
 70
     0
 43
0.0
 10
6.885109456380207
 20
2.816623942057292
 10
5.960445827907986
 20
3.196617974175347
 10
9.729380289713541
 20
5.094865587022569
 10
9.729380289713541
 20
4.11232435438368
 10
6.064832221137152
 20
2.319152153862847
  0
INSERT
  5
29B
330
26D
100
AcDbEntity
  8
H16-2
 62
     7
100
AcDbBlockReference
  2
AI9-BLK61
 10
3.111782497829861
 20
1.401895480685764
 30
0.0
  0
INSERT
  5
28D
330
26D
100
AcDbEntity
  8
H16-2
 62
     7
100
AcDbBlockReference
  2
AI9-BLK60
 10
-0.8331963433159721
 20
-0.6036668565538194
 30
0.0
  0
INSERT
  5
27F
330
26D
100
AcDbEntity
  8
H16-2
 62
     7
100
AcDbBlockReference
  2
AI9-BLK59
 10
-4.754231770833333
 20
-2.548251003689236
 30
0.0
  0
INSERT
  5
271
330
26D
100
AcDbEntity
  8
H16-2
 62
     7
100
AcDbBlockReference
  2
AI9-BLK58
 10
-8.385448540581596
 20
-4.273727077907986
 30
0.0
  0
ENDBLK
  5
2AF
330
26D
100
AcDbEntity
  8
H16-2
100
AcDbBlockEnd
  0
BLOCK
  5
272
330
270
100
AcDbEntity
  8
H16-2
 62
     7
100
AcDbBlockBegin
  2
AI9-BLK58
 70
     0
 10
0.0
 20
0.0
 30
0.0
  3
AI9-BLK58
  1

  4

  0
LWPOLYLINE
  5
278
330
270
100
AcDbEntity
  8
H16-2
 62
     7
100
AcDbPolyline
 90
        3
 70
     0
 43
0.0
 10
1.332046169704861
 20
0.9177734375
 10
1.342725965711805
 20
0.1794894748263889
 10
-0.8986531575520833
 20
-0.9170844184027777
  0
LWPOLYLINE
  5
273
330
270
100
AcDbEntity
  8
H16-2
 62
     7
100
AcDbPolyline
 90
        3
 70
     0
 43
0.0
 10
1.332046169704861
 20
0.9177734375
 10
-1.066773817274306
 20
-0.2904215494791667
 10
-0.0959459092881944
 20
-0.4716335720486111
  0
ENDBLK
  5
27D
330
270
100
AcDbEntity
  8
H16-2
100
AcDbBlockEnd
  0
BLOCK
  5
280
330
27E
100
AcDbEntity
  8
H16-2
 62
     7
100
AcDbBlockBegin
  2
AI9-BLK59
 70
     0
 10
0.0
 20
0.0
 30
0.0
  3
AI9-BLK59
  1

  4

  0
LWPOLYLINE
  5
286
330
27E
100
AcDbEntity
  8
H16-2
 62
     7
100
AcDbPolyline
 90
        3
 70
     0
 43
0.0
 10
1.469763861762153
 20
0.9933932834201388
 10
1.521440294053819
 20
0.3184990776909722
 10
-1.263574896918403
 20
-1.044380696614583
  0
LWPOLYLINE
  5
281
330
27E
100
AcDbEntity
  8
H16-2
 62
     7
100
AcDbPolyline
 90
        3
 70
     0
 43
0.0
 10
-0.3285759819878472
 20
-0.5221042209201389
 10
-1.27838880750868
 20
-0.2936943901909722
 10
1.380535888671875
 20
1.045069715711805
  0
ENDBLK
  5
28B
330
27E
100
AcDbEntity
  8
H16-2
100
AcDbBlockEnd
  0
BLOCK
  5
28E
330
28C
100
AcDbEntity
  8
H16-2
 62
     7
100
AcDbBlockBegin
  2
AI9-BLK60
 70
     0
 10
0.0
 20
0.0
 30
0.0
  3
AI9-BLK60
  1

  4

  0
LWPOLYLINE
  5
294
330
28C
100
AcDbEntity
  8
H16-2
 62
     7
100
AcDbPolyline
 90
        3
 70
     0
 43
0.0
 10
1.360726589626736
 20
1.000800238715278
 10
1.316284857855903
 20
0.192236328125
 10
-1.137656656901042
 20
-1.008723958333333
  0
LWPOLYLINE
  5
28F
330
28C
100
AcDbEntity
  8
H16-2
 62
     7
100
AcDbPolyline
 90
        3
 70
     0
 43
0.0
 10
-0.1540818956163194
 20
-0.5188313802083333
 10
-1.145924886067708
 20
-0.1974039713541667
 10
1.25048353407118
 20
1.009412977430555
  0
ENDBLK
  5
299
330
28C
100
AcDbEntity
  8
H16-2
100
AcDbBlockEnd
  0
BLOCK
  5
29C
330
29A
100
AcDbEntity
  8
H16-2
 62
     7
100
AcDbBlockBegin
  2
AI9-BLK61
 70
     0
 10
0.0
 20
0.0
 30
0.0
  3
AI9-BLK61
  1

  4

  0
LWPOLYLINE
  5
2A2
330
29A
100
AcDbEntity
  8
H16-2
 62
     7
100
AcDbPolyline
 90
        3
 70
     0
 43
0.0
 10
1.470280626085069
 20
1.101224772135417
 10
1.446509467230903
 20
0.1806952582465278
 10
-1.171418592664931
 20
-1.100535753038194
  0
LWPOLYLINE
  5
29D
330
29A
100
AcDbEntity
  8
H16-2
 62
     7
100
AcDbPolyline
 90
        3
 70
     0
 43
0.0
 10
-0.2946417914496528
 20
-0.6509507921006944
 10
-1.274082438151042
 20
-0.2809475368923611
 10
1.470280626085069
 20
1.101224772135417
  0
ENDBLK
  5
2A7
330
29A
100
AcDbEntity
  8
H16-2
100
AcDbBlockEnd
  0
BLOCK
  5
2B2
330
2B0
100
AcDbEntity
  8
H16-2
 62
     7
100
AcDbBlockBegin
  2
AI9-BLK62
 70
     0
 10
0.0
 20
0.0
 30
0.0
  3
AI9-BLK62
  1

  4

  0
LWPOLYLINE
  5
2EB
330
2B0
100
AcDbEntity
  8
H16-2
 62
     7
100
AcDbPolyline
 90
        5
 70
     0
 43
0.0
 10
7.266653781467014
 20
3.31392347547743
 10
6.397800699869791
 20
3.68599378797743
 10
9.899051242404513
 20
5.585963948567708
 10
9.899051242404513
 20
4.621337212456597
 10
6.491162787543402
 20
2.805082872178819
  0
INSERT
  5
2DE
330
2B0
100
AcDbEntity
  8
H16-2
 62
     7
100
AcDbBlockReference
  2
AI9-BLK66
 10
3.644049750434027
 20
1.819871690538194
 30
0.0
  0
INSERT
  5
2D0
330
2B0
100
AcDbEntity
  8
H16-2
 62
     7
100
AcDbBlockReference
  2
AI9-BLK65
 10
-0.3078192816840277
 20
-0.3557061089409722
 30
0.0
  0
INSERT
  5
2C2
330
2B0
100
AcDbEntity
  8
H16-2
 62
     7
100
AcDbBlockReference
  2
AI9-BLK64
 10
-4.434354654947916
 20
-2.568663194444444
 30
0.0
  0
INSERT
  5
2B4
330
2B0
100
AcDbEntity
  8
H16-2
 62
     7
100
AcDbBlockReference
  2
AI9-BLK63
 10
-8.4118896484375
 20
-4.616944715711806
 30
0.0
  0
ENDBLK
  5
2F2
330
2B0
100
AcDbEntity
  8
H16-2
100
AcDbBlockEnd
  0
BLOCK
  5
2B5
330
2B3
100
AcDbEntity
  8
H16-2
 62
     7
100
AcDbBlockBegin
  2
AI9-BLK63
 70
     0
 10
0.0
 20
0.0
 30
0.0
  3
AI9-BLK63
  1

  4

  0
LWPOLYLINE
  5
2BB
330
2B3
100
AcDbEntity
  8
H16-2
 62
     7
100
AcDbPolyline
 90
        3
 70
     0
 43
0.0
 10
1.487161593967014
 20
1.075128173828125
 10
1.475448269314236
 20
0.2648417154947916
 10
-1.037404378255208
 20
-1.074611409505208
  0
LWPOLYLINE
  5
2B6
330
2B3
100
AcDbEntity
  8
H16-2
 62
     7
100
AcDbPolyline
 90
        3
 70
     0
 43
0.0
 10
1.487161593967014
 20
1.075128173828125
 10
-1.202079942491319
 20
-0.3842142740885416
 10
-0.127899169921875
 20
-0.5323533799913194
  0
ENDBLK
  5
2C0
330
2B3
100
AcDbEntity
  8
H16-2
100
AcDbBlockEnd
  0
BLOCK
  5
2C3
330
2C1
100
AcDbEntity
  8
H16-2
 62
     7
100
AcDbBlockBegin
  2
AI9-BLK64
 70
     0
 10
0.0
 20
0.0
 30
0.0
  3
AI9-BLK64
  1

  4

  0
LWPOLYLINE
  5
2C9
330
2C1
100
AcDbEntity
  8
H16-2
 62
     7
100
AcDbPolyline
 90
        3
 70
     0
 43
0.0
 10
1.577250840928819
 20
1.131799994574653
 10
1.615491400824653
 20
0.4110860188802083
 10
-1.375885009765625
 20
-1.183304172092014
  0
LWPOLYLINE
  5
2C4
330
2C1
100
AcDbEntity
  8
H16-2
 62
     7
100
AcDbPolyline
 90
        3
 70
     0
 43
0.0
 10
-0.358892822265625
 20
-0.5717997233072916
 10
-1.369683837890625
 20
-0.3654385036892361
 10
1.485611300998264
 20
1.18382093641493
  0
ENDBLK
  5
2CE
330
2C1
100
AcDbEntity
  8
H16-2
100
AcDbBlockEnd
  0
BLOCK
  5
2D1
330
2CF
100
AcDbEntity
  8
H16-2
 62
     7
100
AcDbBlockBegin
  2
AI9-BLK65
 70
     0
 10
0.0
 20
0.0
 30
0.0
  3
AI9-BLK65
  1

  4

  0
LWPOLYLINE
  5
2D7
330
2CF
100
AcDbEntity
  8
H16-2
 62
     7
100
AcDbPolyline
 90
        3
 70
     0
 43
0.0
 10
1.387770589192708
 20
1.090631103515625
 10
1.330237494574653
 20
0.2458936903211805
 10
-1.187438286675347
 20
-1.096315511067708
  0
LWPOLYLINE
  5
2D2
330
2CF
100
AcDbEntity
  8
H16-2
 62
     7
100
AcDbPolyline
 90
        3
 70
     0
 43
0.0
 10
-0.169757080078125
 20
-0.5444112141927083
 10
-1.179170057508681
 20
-0.2357306586371528
 10
1.277527533637153
 20
1.096832275390625
  0
ENDBLK
  5
2DC
330
2CF
100
AcDbEntity
  8
H16-2
100
AcDbBlockEnd
  0
BLOCK
  5
2DF
330
2DD
100
AcDbEntity
  8
H16-2
 62
     7
100
AcDbBlockBegin
  2
AI9-BLK66
 70
     0
 10
0.0
 20
0.0
 30
0.0
  3
AI9-BLK66
  1

  4

  0
LWPOLYLINE
  5
2E5
330
2DD
100
AcDbEntity
  8
H16-2
 62
     7
100
AcDbPolyline
 90
        3
 70
     0
 43
0.0
 10
1.435657416449653
 20
1.151264784071181
 10
1.405340576171875
 20
0.2166103786892361
 10
-1.160222032335069
 20
-1.150748019748264
  0
LWPOLYLINE
  5
2E0
330
2DD
100
AcDbEntity
  8
H16-2
 62
     7
100
AcDbPolyline
 90
        3
 70
     0
 43
0.0
 10
-0.2920579698350694
 20
-0.6674011230468749
 10
-1.25048353407118
 20
-0.3060106065538194
 10
1.435657416449653
 20
1.151264784071181
  0
ENDBLK
  5
2EA
330
2DD
100
AcDbEntity
  8
H16-2
100
AcDbBlockEnd
  0
BLOCK
  5
2F5
330
2F3
100
AcDbEntity
  8
H16-2
 62
     7
100
AcDbBlockBegin
  2
AI9-BLK67
 70
     0
 10
0.0
 20
0.0
 30
0.0
  3
AI9-BLK67
  1

  4

  0
LWPOLYLINE
  5
32E
330
2F3
100
AcDbEntity
  8
H16-2
 62
     7
100
AcDbPolyline
 90
        5
 70
     0
 43
0.0
 10
7.286118570963541
 20
3.472397867838541
 10
6.436558024088541
 20
3.844812689887152
 10
9.84375745985243
 20
5.765453423394097
 10
9.84375745985243
 20
4.795314534505208
 10
6.529575602213541
 20
2.955978054470486
  0
INSERT
  5
321
330
2F3
100
AcDbEntity
  8
H16-2
 62
     7
100
AcDbBlockReference
  2
AI9-BLK71
 10
3.733536105685764
 20
1.943981255425347
 30
0.0
  0
INSERT
  5
313
330
2F3
100
AcDbEntity
  8
H16-2
 62
     7
100
AcDbBlockReference
  2
AI9-BLK70
 10
-0.1786282009548611
 20
-0.2950724283854166
 30
0.0
  0
INSERT
  5
305
330
2F3
100
AcDbEntity
  8
H16-2
 62
     7
100
AcDbBlockReference
  2
AI9-BLK69
 10
-4.306627739800347
 20
-2.598721652560764
 30
0.0
  0
INSERT
  5
2F7
330
2F3
100
AcDbEntity
  8
H16-2
 62
     7
100
AcDbBlockReference
  2
AI9-BLK68
 10
-8.333858235677083
 20
-4.752853732638888
 30
0.0
  0
ENDBLK
  5
335
330
2F3
100
AcDbEntity
  8
H16-2
100
AcDbBlockEnd
  0
BLOCK
  5
2F8
330
2F6
100
AcDbEntity
  8
H16-2
 62
     7
100
AcDbBlockBegin
  2
AI9-BLK68
 70
     0
 10
0.0
 20
0.0
 30
0.0
  3
AI9-BLK68
  1

  4

  0
LWPOLYLINE
  5
2FE
330
2F6
100
AcDbEntity
  8
H16-2
 62
     7
100
AcDbPolyline
 90
        3
 70
     0
 43
0.0
 10
1.509899224175347
 20
1.123876274956597
 10
1.505420600043403
 20
0.2942972819010417
 10
-1.048773193359375
 20
-1.12335951063368
  0
LWPOLYLINE
  5
2F9
330
2F6
100
AcDbEntity
  8
H16-2
 62
     7
100
AcDbPolyline
 90
        3
 70
     0
 43
0.0
 10
1.509899224175347
 20
1.123876274956597
 10
-1.225162082248264
 20
-0.417803955078125
 10
-0.1227315266927083
 20
-0.5500956217447917
  0
ENDBLK
  5
303
330
2F6
100
AcDbEntity
  8
H16-2
100
AcDbBlockEnd
  0
BLOCK
  5
306
330
304
100
AcDbEntity
  8
H16-2
 62
     7
100
AcDbBlockBegin
  2
AI9-BLK69
 70
     0
 10
0.0
 20
0.0
 30
0.0
  3
AI9-BLK69
  1

  4

  0
LWPOLYLINE
  5
30C
330
304
100
AcDbEntity
  8
H16-2
 62
     7
100
AcDbPolyline
 90
        3
 70
     0
 43
0.0
 10
1.582676866319444
 20
1.176327853732639
 10
1.626085069444444
 20
0.4425225151909722
 10
-1.382861328125
 20
-1.228004286024305
  0
LWPOLYLINE
  5
307
330
304
100
AcDbEntity
  8
H16-2
 62
     7
100
AcDbPolyline
 90
        3
 70
     0
 43
0.0
 10
-0.3576009114583333
 20
-0.5875610351562499
 10
-1.383550347222222
 20
-0.3911905924479167
 10
1.490003797743055
 20
1.228348795572917
  0
ENDBLK
  5
311
330
304
100
AcDbEntity
  8
H16-2
100
AcDbBlockEnd
  0
BLOCK
  5
314
330
312
100
AcDbEntity
  8
H16-2
 62
     7
100
AcDbBlockBegin
  2
AI9-BLK70
 70
     0
 10
0.0
 20
0.0
 30
0.0
  3
AI9-BLK70
  1

  4

  0
LWPOLYLINE
  5
31A
330
312
100
AcDbEntity
  8
H16-2
 62
     7
100
AcDbPolyline
 90
        3
 70
     0
 43
0.0
 10
1.379330105251736
 20
1.121636962890625
 10
1.325931125217014
 20
0.2634636773003472
 10
-1.178653293185764
 20
-1.126632351345486
  0
LWPOLYLINE
  5
315
330
312
100
AcDbEntity
  8
H16-2
 62
     7
100
AcDbPolyline
 90
        3
 70
     0
 43
0.0
 10
-0.1640726725260417
 20
-0.5540574815538194
 10
-1.175552707248264
 20
-0.2508890787760417
 10
1.269431559244792
 20
1.127149115668403
  0
ENDBLK
  5
31F
330
312
100
AcDbEntity
  8
H16-2
100
AcDbBlockEnd
  0
BLOCK
  5
322
330
320
100
AcDbEntity
  8
H16-2
 62
     7
100
AcDbBlockBegin
  2
AI9-BLK71
 70
     0
 10
0.0
 20
0.0
 30
0.0
  3
AI9-BLK71
  1

  4

  0
LWPOLYLINE
  5
328
330
320
100
AcDbEntity
  8
H16-2
 62
     7
100
AcDbPolyline
 90
        3
 70
     0
 43
0.0
 10
1.412144639756944
 20
1.173227267795139
 10
1.384583875868056
 20
0.2285820855034722
 10
-1.139982096354167
 20
-1.172882758246528
  0
LWPOLYLINE
  5
323
330
320
100
AcDbEntity
  8
H16-2
 62
     7
100
AcDbPolyline
 90
        3
 70
     0
 43
0.0
 10
-0.2838758680555555
 20
-0.6764444986979166
 10
-1.232999674479167
 20
-0.3171210394965278
 10
1.412144639756944
 20
1.173227267795139
  0
ENDBLK
  5
32D
330
320
100
AcDbEntity
  8
H16-2
100
AcDbBlockEnd
  0
ENDSEC
  0
SECTION
  2
ENTITIES
  0
LWPOLYLINE
  5
4EE
330
A
100
AcDbEntity
  8
H16-2
 62
     7
100
AcDbPolyline
 90
       20
 70
     0
 43
0.0
 10
130.2602661132812
 20
115.3421413845486
 10
172.8163248697917
 20
131.6188395182292
 10
172.8059895833333
 20
141.4073893229167
 10
175.6530164930555
 20
144.315911187066
 10
170.5091444227431
 20
145.3444444444444
 10
172.733642578125
 20
147.4611111111111
 10
172.721240234375
 20
158.4265055338541
 10
162.689466688368
 20
160.8666666666667
 10
156.2805555555555
 20
157.6916666666667
 10
152.9584499782986
 20
158.4854166666667
 10
166.7756944444444
 20
172.0232638888889
 10
162.8200358072917
 20
180.4830403645833
 10
161.2194444444444
 20
180.8573499891493
 10
163.1008110894097
 20
186.2666666666667
 10
159.6129964192708
 20
187.3408474392361
 10
156.2805555555555
 20
194.46875
 10
146.84375
 20
197.246875
 10
142.3065592447917
 20
191.9329874674479
 10
132.8545952690972
 20
194.4535915798611
 10
99.88124186197916
 20
154.1163465711805
  0
LWPOLYLINE
  5
4E2
330
A
100
AcDbEntity
  8
H16-2
 62
     7
100
AcDbPolyline
 90
       10
 70
     0
 43
0.0
 10
114.9395819769965
 20
87.10148790147569
 10
134.9454237196181
 20
84.94881998697916
 10
141.5024739583333
 20
86.43916829427083
 10
145.8767116970486
 20
86.47637532552082
 10
145.9187418619792
 20
87.63771701388887
 10
153.8748453776042
 20
89.70787489149305
 10
153.8748453776042
 20
98.40984157986111
 10
145.8784342447917
 20
99.46783040364582
 10
145.8784342447917
 20
107.8170193142361
 10
130.3324408637153
 20
109.9810560438368
  0
SPLINE
  5
4E1
330
A
100
AcDbEntity
  8
H16-2
 62
     7
100
AcDbSpline
210
0.0
220
0.0
230
1.0
 70
     8
 71
     3
 72
    50
 73
    46
 74
     0
 42
0.0000000001
 43
0.0000000001
 40
0.0
 40
0.0
 40
0.0
 40
0.0
 40
1.0
 40
1.0
 40
1.0
 40
2.0
 40
2.0
 40
2.0
 40
3.0
 40
3.0
 40
3.0
 40
4.0
 40
4.0
 40
4.0
 40
5.0
 40
5.0
 40
5.0
 40
6.0
 40
6.0
 40
6.0
 40
7.0
 40
7.0
 40
7.0
 40
8.0
 40
8.0
 40
8.0
 40
9.0
 40
9.0
 40
9.0
 40
10.0
 40
10.0
 40
10.0
 40
11.0
 40
11.0
 40
11.0
 40
12.0
 40
12.0
 40
12.0
 40
13.0
 40
13.0
 40
13.0
 40
14.0
 40
14.0
 40
14.0
 40
15.0
 40
15.0
 40
15.0
 40
15.0
 10
91.53412000868055
 20
143.9052558051215
 30
0.0
 10
91.53412000868055
 20
143.9052558051215
 30
0.0
 10
70.82789035373263
 20
118.5746744791667
 30
0.0
 10
70.82789035373263
 20
118.5746744791667
 30
0.0
 10
70.82789035373263
 20
118.5746744791667
 30
0.0
 10
57.33121202256944
 20
120.5170193142361
 30
0.0
 10
57.33121202256944
 20
120.5170193142361
 30
0.0
 10
57.33103976779513
 20
120.5170193142361
 30
0.0
 10
51.12711181640625
 20
117.0519422743056
 30
0.0
 10
51.12711181640625
 20
117.0519422743056
 30
0.0
 10
51.12711181640625
 20
117.0519422743056
 30
0.0
 10
51.15742865668403
 20
115.9605360243055
 30
0.0
 10
51.15742865668403
 20
115.9605360243055
 30
0.0
 10
51.15742865668403
 20
115.9605360243055
 30
0.0
 10
46.54186197916666
 20
116.2251193576389
 30
0.0
 10
46.54186197916666
 20
116.2251193576389
 30
0.0
 10
46.54186197916666
 20
116.2251193576389
 30
0.0
 10
46.5306654188368
 20
114.4843126085069
 30
0.0
 10
46.5306654188368
 20
114.4843126085069
 30
0.0
 10
46.5306654188368
 20
114.4843126085069
 30
0.0
 10
44.27843424479166
 20
113.2265082465278
 30
0.0
 10
44.27843424479166
 20
113.2265082465278
 30
0.0
 10
44.27843424479166
 20
113.2265082465278
 30
0.0
 10
44.27843424479166
 20
104.5245415581597
 30
0.0
 10
44.27843424479166
 20
104.5245415581597
 30
0.0
 10
44.27843424479166
 20
104.5245415581597
 30
0.0
 10
51.09886203342013
 20
103.4662082248264
 30
0.0
 10
51.09886203342013
 20
103.4662082248264
 30
0.0
 10
51.09886203342013
 20
103.4662082248264
 30
0.0
 10
51.09886203342013
 20
93.94120822482638
 30
0.0
 10
51.09886203342013
 20
93.94120822482638
 30
0.0
 10
51.09886203342013
 20
93.94120822482638
 30
0.0
 10
65.09232313368055
 20
92.40193956163193
 30
0.0
 10
65.09232313368055
 20
92.40193956163193
 30
0.0
 10
65.09232313368055
 20
92.40193956163193
 30
0.0
 10
65.09232313368055
 20
86.53321940104166
 30
0.0
 10
65.09232313368055
 20
86.53321940104166
 30
0.0
 10
65.09232313368055
 20
86.53321940104166
 30
0.0
 10
79.90898980034721
 20
85.12210828993055
 30
0.0
 10
79.90898980034721
 20
85.12210828993055
 30
0.0
 10
79.90898980034721
 20
85.12210828993055
 30
0.0
 10
85.10763888888889
 20
90.3111111111111
 30
0.0
 10
85.10763888888889
 20
90.3111111111111
 30
0.0
 10
85.10763888888889
 20
90.3111111111111
 30
0.0
 10
102.7094930013021
 20
88.41734212239582
 30
0.0
 10
102.7094930013021
 20
88.41734212239582
 30
0.0
  0
LINE
  5
4E0
330
A
100
AcDbEntity
  8
H16-2
 62
     7
100
AcDbLine
 10
163.1008110894097
 20
186.2666666666667
 30
0.0
 11
153.2230333116319
 21
188.9125
 31
0.0
  0
LINE
  5
4DF
330
A
100
AcDbEntity
  8
H16-2
 62
     7
100
AcDbLine
 10
162.8200358072917
 20
180.4830403645833
 30
0.0
 11
153.6932888454861
 21
182.7976277669271
 31
0.0
  0
LINE
  5
4DE
330
A
100
AcDbEntity
  8
H16-2
 62
     7
100
AcDbLine
 10
175.482484266493
 20
144.2774983723958
 30
0.0
 11
160.0436333550347
 21
147.5198499891493
 31
0.0
  0
LINE
  5
4DD
330
A
100
AcDbEntity
  8
H16-2
 62
     7
100
AcDbLine
 10
172.8059895833333
 20
141.4073893229167
 30
0.0
 11
162.5719889322917
 21
143.4629055447049
 31
0.0
  0
LINE
  5
4DC
330
A
100
AcDbEntity
  8
H16-2
 62
     7
100
AcDbLine
 10
172.733642578125
 20
147.4611111111111
 30
0.0
 11
162.6309000651042
 21
149.9305555555555
 31
0.0
  0
LINE
  5
4DB
330
A
100
AcDbEntity
  8
H16-2
 62
     7
100
AcDbLine
 10
140.6701388888889
 20
157.3388888888889
 30
0.0
 11
157.6034722222222
 21
174.1840277777778
 31
0.0
  0
LINE
  5
4DA
330
A
100
AcDbEntity
  8
H16-2
 62
     7
100
AcDbLine
 10
156.2805555555555
 20
157.6916666666667
 30
0.0
 11
145.8736111111111
 21
160.0729166666667
 31
0.0
  0
LINE
  5
4D9
330
A
100
AcDbEntity
  8
H16-2
 62
     7
100
AcDbLine
 10
136.5084635416667
 20
185.7411173502604
 30
0.0
 11
132.8697536892361
 21
194.4906263563368
 31
0.0
  0
LWPOLYLINE
  5
4D3
330
A
100
AcDbEntity
  8
H16-2
 62
     7
100
AcDbPolyline
 90
        4
 70
     0
 43
0.0
 10
142.7034342447917
 20
170.8467637803819
 10
138.4514973958333
 20
181.0687065972222
 10
136.3534342447917
 20
180.2835693359375
 10
138.9110731336805
 20
186.2807915581597
  0
LINE
  5
4D2
330
A
100
AcDbEntity
  8
H16-2
 62
     7
100
AcDbLine
 10
145.8736111111111
 20
160.0729166666667
 30
0.0
 11
130.2924777560764
 21
151.7533555772569
 31
0.0
  0
LWPOLYLINE
  5
4CD
330
A
100
AcDbEntity
  8
H16-2
 62
     7
100
AcDbPolyline
 90
        3
 70
     0
 43
0.0
 10
51.12711181640625
 20
117.0519422743056
 10
51.15742865668403
 20
115.9605360243055
 10
46.54186197916666
 20
116.2251193576389
  0
LINE
  5
4CC
330
A
100
AcDbEntity
  8
H16-2
 62
     7
100
AcDbLine
 10
51.12711181640625
 20
117.0519422743056
 30
0.0
 11
51.15742865668403
 21
108.0523193359375
 31
0.0
  0
LINE
  5
4CB
330
A
100
AcDbEntity
  8
H16-2
 62
     7
100
AcDbLine
 10
46.54186197916666
 20
116.2251193576389
 30
0.0
 11
46.5306654188368
 21
107.2585693359375
 31
0.0
  0
LINE
  5
4CA
330
A
100
AcDbEntity
  8
H16-2
 62
     7
100
AcDbLine
 10
64.88665093315971
 20
92.44190266927083
 30
0.0
 11
73.79825168185764
 21
91.50276963975693
 31
0.0
  0
LINE
  5
4C9
330
A
100
AcDbEntity
  8
H16-2
 62
     7
100
AcDbLine
 10
89.8863308376736
 20
115.7910373263889
 30
0.0
 11
57.33121202256944
 21
120.5170193142361
 31
0.0
  0
LINE
  5
4C8
330
A
100
AcDbEntity
  8
H16-2
 62
     7
100
AcDbLine
 10
120.0030110677083
 20
111.4188666449653
 30
0.0
 11
100.9282063802083
 21
114.1880343967014
 31
0.0
  0
LINE
  5
4C7
330
A
100
AcDbEntity
  8
H16-2
 62
     7
100
AcDbLine
 10
57.21373426649305
 20
120.6348415798611
 30
0.0
 11
57.21373426649305
 21
110.7298475477431
 31
0.0
  0
LINE
  5
4C6
330
A
100
AcDbEntity
  8
H16-2
 62
     7
100
AcDbLine
 10
130.2387342664931
 20
101.4546169704861
 30
0.0
 11
145.8784342447917
 21
99.46783040364582
 31
0.0
  0
LINE
  5
4C5
330
A
100
AcDbEntity
  8
H16-2
 62
     7
100
AcDbLine
 10
100.7058254665799
 20
105.2066704644097
 30
0.0
 11
120.2543307834201
 21
102.7231011284722
 31
0.0
  0
LWPOLYLINE
  5
4BC
330
A
100
AcDbEntity
  8
H16-2
 62
     7
100
AcDbPolyline
 90
        7
 70
     0
 43
0.0
 10
44.27843424479166
 20
104.5245415581597
 10
47.73438178168402
 20
106.2526014539931
 10
46.60077311197917
 20
107.199658203125
 10
53.27409532335069
 20
106.9647026909722
 10
51.24562310112847
 20
108.0523193359375
 10
57.23130425347222
 20
110.7298475477431
 10
89.78159993489582
 20
106.5945271809896
  0
LINE
  5
4BB
330
A
100
AcDbEntity
  8
H16-2
 62
     7
100
AcDbLine
 10
64.97484537760415
 20
109.816552734375
 30
0.0
 11
64.97484537760415
 21
99.93877495659721
 31
0.0
  0
LWPOLYLINE
  5
4B3
330
A
100
AcDbEntity
  8
H16-2
 62
     7
100
AcDbPolyline
 90
        6
 70
     0
 43
0.0
 10
64.97484537760415
 20
109.816552734375
 10
59.42462429470486
 20
107.2768283420139
 10
59.4477064344618
 20
105.612158203125
 10
54.21477864583333
 20
106.0531304253472
 10
54.19789767795138
 20
104.8845540364583
 10
51.09886203342013
 20
103.4662082248264
  0
LINE
  5
4B2
330
A
100
AcDbEntity
  8
H16-2
 62
     7
100
AcDbLine
 10
59.42462429470486
 20
107.2768283420139
 30
0.0
 11
59.4477064344618
 21
97.56751573350694
 31
0.0
  0
LINE
  5
4B1
330
A
100
AcDbEntity
  8
H16-2
 62
     7
100
AcDbLine
 10
54.21477864583333
 20
106.0531304253472
 30
0.0
 11
54.19789767795138
 21
96.96910264756943
 31
0.0
  0
LINE
  5
4B0
330
A
100
AcDbEntity
  8
H16-2
 62
     7
100
AcDbLine
 10
130.3448432074653
 20
92.41933729383679
 30
0.0
 11
153.8748453776042
 21
89.70787489149305
 31
0.0
  0
LINE
  5
4AF
330
A
100
AcDbEntity
  8
H16-2
 62
     7
100
AcDbLine
 10
100.9440538194444
 20
95.80724419487846
 30
0.0
 11
120.2312486436632
 21
93.58481309678818
 31
0.0
  0
SPLINE
  5
4AE
330
A
100
AcDbEntity
  8
H16-2
 62
     7
100
AcDbSpline
210
0.0
220
0.0
230
1.0
 70
     8
 71
     3
 72
    23
 73
    19
 74
     0
 42
0.0000000001
 43
0.0000000001
 40
0.0
 40
0.0
 40
0.0
 40
0.0
 40
1.0
 40
1.0
 40
1.0
 40
2.0
 40
2.0
 40
2.0
 40
3.0
 40
3.0
 40
3.0
 40
4.0
 40
4.0
 40
4.0
 40
5.0
 40
5.0
 40
5.0
 40
6.0
 40
6.0
 40
6.0
 40
6.0
 10
51.09886203342013
 20
93.94120822482638
 30
0.0
 10
51.09886203342013
 20
93.94086371527777
 30
0.0
 10
55.40936550564236
 20
95.78777940538194
 30
0.0
 10
55.40936550564236
 20
95.78777940538194
 30
0.0
 10
55.40936550564236
 20
95.78777940538194
 30
0.0
 10
54.33242865668402
 20
96.88090820312499
 30
0.0
 10
54.33242865668402
 20
96.88090820312499
 30
0.0
 10
54.33242865668402
 20
96.88090820312499
 30
0.0
 10
61.38798421223958
 20
96.41065266927083
 30
0.0
 10
61.38798421223958
 20
96.41065266927083
 30
0.0
 10
61.38798421223958
 20
96.41065266927083
 30
0.0
 10
59.56105007595485
 20
97.56751573350694
 30
0.0
 10
59.56105007595485
 20
97.56751573350694
 30
0.0
 10
59.56105007595485
 20
97.56751573350694
 30
0.0
 10
65.09232313368055
 20
99.9384304470486
 30
0.0
 10
65.09232313368055
 20
99.9384304470486
 30
0.0
 10
65.09232313368055
 20
99.9384304470486
 30
0.0
 10
89.78332248263888
 20
97.09329833984374
 30
0.0
 10
89.78332248263888
 20
97.09329833984374
 30
0.0
  0
LINE
  5
4AD
330
A
100
AcDbEntity
  8
H16-2
 62
     7
100
AcDbLine
 10
65.20980088975693
 20
86.65069715711805
 30
0.0
 11
70.14868977864583
 21
91.94236382378472
 31
0.0
  0
LINE
  5
4AC
330
A
100
AcDbEntity
  8
H16-2
 62
     7
100
AcDbLine
 10
72.5042738172743
 20
85.90104437934026
 30
0.0
 11
77.01269802517361
 21
90.43961317274305
 31
0.0
  0
LINE
  5
4AB
330
A
100
AcDbEntity
  8
H16-2
 62
     7
100
AcDbLine
 10
142.5597737630208
 20
87.99083930121527
 30
0.0
 11
145.7867947048611
 21
86.47637532552082
 31
0.0
  0
LINE
  5
4AA
330
A
100
AcDbEntity
  8
H16-2
 62
     7
100
AcDbLine
 10
142.6920654296875
 20
87.90264485677082
 30
0.0
 11
145.7327067057292
 21
87.60050998263888
 31
0.0
  0
LINE
  5
4A9
330
A
100
AcDbEntity
  8
H16-2
 62
     7
100
AcDbLine
 10
144.9096733940972
 20
87.69559461805555
 30
0.0
 11
145.9356228298611
 21
87.14713541666666
 31
0.0
  0
LWPOLYLINE
  5
4A1
330
A
100
AcDbEntity
  8
H16-2
 62
     7
100
AcDbPolyline
 90
        6
 70
     0
 43
0.0
 10
145.8784342447917
 20
160.2634304470486
 10
145.8784342447917
 20
149.8566582573785
 10
143.5853786892361
 20
147.4752360026042
 10
148.6124620225694
 20
146.4169026692708
 10
145.7020453559028
 20
143.3300971137153
 10
145.7020453559028
 20
132.7467637803819
  0
LINE
  5
4A0
330
A
100
AcDbEntity
  8
H16-2
 62
     7
100
AcDbLine
 10
143.5853786892361
 20
147.4752360026042
 30
0.0
 11
158.9263888888889
 21
144.1979166666667
 31
0.0
  0
LINE
  5
49F
330
A
100
AcDbEntity
  8
H16-2
 62
     7
100
AcDbLine
 10
145.7902398003472
 20
149.8564860026042
 30
0.0
 11
156.461767578125
 21
147.4752360026042
 31
0.0
  0
LINE
  5
49E
330
A
100
AcDbEntity
  8
H16-2
 62
     7
100
AcDbLine
 10
145.8784342447917
 20
143.4182915581597
 30
0.0
 11
156.461767578125
 21
141.1252360026041
 31
0.0
  0
LWPOLYLINE
  5
499
330
A
100
AcDbEntity
  8
H16-2
 62
     7
100
AcDbPolyline
 90
        3
 70
     0
 43
0.0
 10
130.2363226996528
 20
157.166461859809
 10
142.7034342447917
 20
170.8467637803819
 10
151.8708333333333
 20
168.3631944444444
  0
LWPOLYLINE
  5
494
330
A
100
AcDbEntity
  8
H16-2
 62
     7
100
AcDbPolyline
 90
        3
 70
     0
 43
0.0
 10
136.5084635416667
 20
185.7411173502604
 10
138.9110731336805
 20
186.2807915581597
 10
147.2895453559028
 20
184.3405137803819
  0
LINE
  5
493
330
A
100
AcDbEntity
  8
H16-2
 62
     7
100
AcDbLine
 10
138.4701009114583
 20
181.0773193359375
 30
0.0
 11
147.4604220920139
 21
179.0478135850694
 31
0.0
  0
LINE
  5
492
330
A
100
AcDbEntity
  8
H16-2
 62
     7
100
AcDbLine
 10
134.6777398003472
 20
193.9537082248264
 30
0.0
 11
137.411767578125
 21
186.1044026692708
 31
0.0
  0
LWPOLYLINE
  5
48D
330
A
100
AcDbEntity
  8
H16-2
 62
     7
100
AcDbPolyline
 90
        3
 70
     0
 43
0.0
 10
136.0888509114583
 20
193.6009304470486
 10
137.4999620225694
 20
190.6023193359375
 10
139.3520453559028
 20
186.1925971137153
  0
LINE
  5
48C
330
A
100
AcDbEntity
  8
H16-2
 62
     7
100
AcDbLine
 10
137.8527398003472
 20
193.0717637803819
 30
0.0
 11
141.380517578125
 21
185.751624891493
 31
0.0
  0
LWPOLYLINE
  5
486
330
A
100
AcDbEntity
  8
H16-2
 62
     7
100
AcDbPolyline
 90
        4
 70
     0
 43
0.0
 10
139.5284342447916
 20
192.7189860026041
 10
141.7332953559028
 20
188.9266248914931
 10
142.174267578125
 20
187.5155137803819
 10
143.5853786892361
 20
185.1342637803819
  0
LINE
  5
485
330
A
100
AcDbEntity
  8
H16-2
 62
     7
100
AcDbLine
 10
141.380517578125
 20
192.101624891493
 30
0.0
 11
144.6437120225694
 21
185.751624891493
 31
0.0
  0
LINE
  5
484
330
A
100
AcDbEntity
  8
H16-2
 62
     7
100
AcDbLine
 10
139.9694064670139
 20
186.1044026692708
 30
0.0
 11
137.5881564670139
 21
180.8127360026041
 31
0.0
  0
LINE
  5
483
330
A
100
AcDbEntity
  8
H16-2
 62
     7
100
AcDbLine
 10
142.0860731336805
 20
185.4870415581597
 30
0.0
 11
139.8812120225694
 21
180.8127360026041
 31
0.0
  0
LINE
  5
482
330
A
100
AcDbEntity
  8
H16-2
 62
     7
100
AcDbLine
 10
144.0263509114583
 20
185.1342637803819
 30
0.0
 11
141.8214898003472
 21
180.4599582248264
 31
0.0
  0
LINE
  5
481
330
A
100
AcDbEntity
  8
H16-2
 62
     7
100
AcDbLine
 10
145.4374620225694
 20
184.6932915581597
 30
0.0
 11
143.2326009114583
 21
180.1071804470486
 31
0.0
  0
LINE
  5
480
330
A
100
AcDbEntity
  8
H16-2
 62
     7
100
AcDbLine
 10
146.5839898003472
 20
184.5169026692708
 30
0.0
 11
144.2027398003472
 21
179.8425971137153
 31
0.0
  0
SPLINE
  5
47F
330
A
100
AcDbEntity
  8
H16-2
 62
     7
100
AcDbSpline
210
0.0
220
0.0
230
1.0
 70
     8
 71
     3
 72
     8
 73
     4
 74
     0
 42
0.0000000001
 43
0.0000000001
 40
0.0
 40
0.0
 40
0.0
 40
0.0
 40
1.0
 40
1.0
 40
1.0
 40
1.0
 10
140.9395453559028
 20
175.432874891493
 30
0.0
 10
140.9395453559028
 20
175.432874891493
 30
0.0
 10
143.1444064670139
 20
173.5807915581597
 30
0.0
 10
144.3791286892361
 20
170.4057915581597
 30
0.0
  0
SPLINE
  5
47E
330
A
100
AcDbEntity
  8
H16-2
 62
     7
100
AcDbSpline
210
0.0
220
0.0
230
1.0
 70
     8
 71
     3
 72
    14
 73
    10
 74
     0
 42
0.0000000001
 43
0.0000000001
 40
0.0
 40
0.0
 40
0.0
 40
0.0
 40
1.0
 40
1.0
 40
1.0
 40
2.0
 40
2.0
 40
2.0
 40
3.0
 40
3.0
 40
3.0
 40
3.0
 10
140.4985731336805
 20
180.4599582248264
 30
0.0
 10
140.4985731336805
 20
180.4599582248264
 30
0.0
 10
141.7332953559028
 20
177.3731526692708
 30
0.0
 10
141.7332953559028
 20
177.3731526692708
 30
0.0
 10
141.7332953559028
 20
177.3731526692708
 30
0.0
 10
144.3791286892361
 20
175.3446804470486
 30
0.0
 10
145.349267578125
 20
173.2280137803819
 30
0.0
 10
145.349267578125
 20
173.2280137803819
 30
0.0
 10
146.4076009114583
 20
169.7002360026042
 30
0.0
 10
146.4076009114583
 20
169.7002360026042
 30
0.0
  0
SPLINE
  5
47D
330
A
100
AcDbEntity
  8
H16-2
 62
     7
100
AcDbSpline
210
0.0
220
0.0
230
1.0
 70
     8
 71
     3
 72
    14
 73
    10
 74
     0
 42
0.0000000001
 43
0.0000000001
 40
0.0
 40
0.0
 40
0.0
 40
0.0
 40
1.0
 40
1.0
 40
1.0
 40
2.0
 40
2.0
 40
2.0
 40
3.0
 40
3.0
 40
3.0
 40
3.0
 10
142.2624620225694
 20
180.195374891493
 30
0.0
 10
142.2624620225694
 20
180.195374891493
 30
0.0
 10
142.7916286892361
 20
178.9606526692708
 30
0.0
 10
142.7916286892361
 20
178.9606526692708
 30
0.0
 10
142.7916286892361
 20
178.9606526692708
 30
0.0
 10
145.5256564670139
 20
177.1967637803819
 30
0.0
 10
145.8784342447917
 20
176.226624891493
 30
0.0
 10
145.8784342447917
 20
176.226624891493
 30
0.0
 10
148.2596842447917
 20
169.4356526692708
 30
0.0
 10
148.2596842447917
 20
169.4356526692708
 30
0.0
  0
LWPOLYLINE
  5
478
330
A
100
AcDbEntity
  8
H16-2
 62
     7
100
AcDbPolyline
 90
        3
 70
     0
 43
0.0
 10
145.6138509114583
 20
179.401624891493
 10
147.3777398003472
 20
175.7856526692708
 10
150.0235731336805
 20
168.8182915581597
  0
LINE
  5
477
330
A
100
AcDbEntity
  8
H16-2
 62
     7
100
AcDbLine
 10
146.8485731336805
 20
179.1370415581597
 30
0.0
 11
150.3715277777778
 21
171.9791666666667
 31
0.0
  0
LWPOLYLINE
  5
471
330
A
100
AcDbEntity
  8
H16-2
 62
     7
100
AcDbPolyline
 90
        4
 70
     0
 43
0.0
 10
145.8784342447917
 20
157.7939860026042
 10
146.2312120225694
 20
153.1196804470486
 10
147.1131564670139
 20
149.5037082248264
 10
145.0846842447917
 20
147.2106526692708
  0
LWPOLYLINE
  5
46B
330
A
100
AcDbEntity
  8
H16-2
 62
     7
100
AcDbPolyline
 90
        4
 70
     0
 43
0.0
 10
147.9069064670139
 20
159.7342637803819
 10
148.7888509114583
 20
152.1495415581597
 10
149.9353786892361
 20
148.9745415581597
 10
147.5541286892361
 20
146.6814860026042
  0
LWPOLYLINE
  5
464
330
A
100
AcDbEntity
  8
H16-2
 62
     7
100
AcDbPolyline
 90
        5
 70
     0
 43
0.0
 10
149.7589898003472
 20
159.3814860026042
 10
150.7291286892361
 20
152.5905137803819
 10
151.8756564670139
 20
150.032874891493
 10
151.8756564670139
 20
148.6217637803819
 10
149.7589898003472
 20
146.1523193359375
  0
LWPOLYLINE
  5
45E
330
A
100
AcDbEntity
  8
H16-2
 62
     7
100
AcDbPolyline
 90
        4
 70
     0
 43
0.0
 10
151.1701009114583
 20
158.7641248914931
 10
152.3166286892361
 20
152.3259304470486
 10
153.9041286892361
 20
148.1807915581597
 10
151.3464898003472
 20
145.7995415581597
  0
SPLINE
  5
45D
330
A
100
AcDbEntity
  8
H16-2
 62
     7
100
AcDbSpline
210
0.0
220
0.0
230
1.0
 70
     8
 71
     3
 72
    17
 73
    13
 74
     0
 42
0.0000000001
 43
0.0000000001
 40
0.0
 40
0.0
 40
0.0
 40
0.0
 40
1.0
 40
1.0
 40
1.0
 40
2.0
 40
2.0
 40
2.0
 40
3.0
 40
3.0
 40
3.0
 40
4.0
 40
4.0
 40
4.0
 40
4.0
 10
152.5812120225694
 20
158.4995415581597
 30
0.0
 10
152.5812120225694
 20
158.4995415581597
 30
0.0
 10
153.9041286892361
 20
153.1196804470486
 30
0.0
 10
154.080517578125
 20
152.6787082248264
 30
0.0
 10
154.2569064670139
 20
152.2377360026042
 30
0.0
 10
155.668017578125
 20
149.9446804470486
 30
0.0
 10
155.668017578125
 20
149.9446804470486
 30
0.0
 10
155.668017578125
 20
149.9446804470486
 30
0.0
 10
155.9326009114583
 20
147.5634304470486
 30
0.0
 10
155.9326009114583
 20
147.5634304470486
 30
0.0
 10
155.9326009114583
 20
147.5634304470486
 30
0.0
 10
153.3749620225694
 20
145.5349582248264
 30
0.0
 10
153.3749620225694
 20
145.5349582248264
 30
0.0
  0
LWPOLYLINE
  5
458
330
A
100
AcDbEntity
  8
H16-2
 62
     7
100
AcDbPolyline
 90
        3
 70
     0
 43
0.0
 10
154.4332953559028
 20
157.970374891493
 10
155.1388509114583
 20
154.7953748914931
 10
156.3735731336805
 20
151.5321804470486
  0
LINE
  5
457
330
A
100
AcDbEntity
  8
H16-2
 62
     7
100
AcDbLine
 10
155.7562120225694
 20
157.7939860026042
 30
0.0
 11
156.3735731336805
 21
155.2363471137153
 31
0.0
  0
LWPOLYLINE
  5
451
330
A
100
AcDbEntity
  8
H16-2
 62
     7
100
AcDbPolyline
 90
        4
 70
     0
 43
0.0
 10
150.1999620225694
 20
145.9759304470486
 10
147.0249620225694
 20
143.1537082248264
 10
148.1714898003472
 20
134.9516248914931
 10
148.7888509114583
 20
132.3057915581597
  0
LWPOLYLINE
  5
44B
330
A
100
AcDbEntity
  8
H16-2
 62
     7
100
AcDbPolyline
 90
        4
 70
     0
 43
0.0
 10
151.7874620225694
 20
145.7113471137153
 10
149.2298231336806
 20
142.7127360026042
 10
150.1999620225694
 20
136.539124891493
 10
150.6409342447917
 20
131.9530137803819
  0
SPLINE
  5
44A
330
A
100
AcDbEntity
  8
H16-2
 62
     7
100
AcDbSpline
210
0.0
220
0.0
230
1.0
 70
     8
 71
     3
 72
    14
 73
    10
 74
     0
 42
0.0000000001
 43
0.0000000001
 40
0.0
 40
0.0
 40
0.0
 40
0.0
 40
1.0
 40
1.0
 40
1.0
 40
2.0
 40
2.0
 40
2.0
 40
3.0
 40
3.0
 40
3.0
 40
3.0
 10
153.5513509114583
 20
145.1821804470486
 30
0.0
 10
153.5513509114583
 20
145.1821804470486
 30
0.0
 10
151.7874620225694
 20
142.5363471137153
 30
0.0
 10
151.2582953559028
 20
142.271763780382
 30
0.0
 10
151.2582953559028
 20
142.271763780382
 30
0.0
 10
151.9638509114583
 20
137.2446804470486
 30
0.0
 10
151.9638509114583
 20
137.2446804470486
 30
0.0
 10
151.9638509114583
 20
137.2446804470486
 30
0.0
 10
152.8457953559028
 20
131.6002360026042
 30
0.0
 10
152.8457953559028
 20
131.6002360026042
 30
0.0
  0
LWPOLYLINE
  5
445
330
A
100
AcDbEntity
  8
H16-2
 62
     7
100
AcDbPolyline
 90
        3
 70
     0
 43
0.0
 10
156.0207953559028
 20
144.7412082248264
 10
153.6395453559028
 20
141.6544026692708
 10
155.0506564670139
 20
131.2474582248264
  0
LWPOLYLINE
  5
440
330
A
100
AcDbEntity
  8
H16-2
 62
     7
100
AcDbPolyline
 90
        3
 70
     0
 43
0.0
 10
158.1374620225694
 20
144.2120415581597
 10
155.668017578125
 20
141.3016248914931
 10
156.461767578125
 20
134.7752360026042
  0
LINE
  5
43F
330
A
100
AcDbEntity
  8
H16-2
 62
     7
100
AcDbLine
 10
100.7525065104167
 20
125.059033203125
 30
0.0
 11
104.8654337565104
 21
129.6592692057292
 31
0.0
  0
LINE
  5
43E
330
A
100
AcDbEntity
  8
H16-2
 62
     7
100
AcDbLine
 10
44.27826199001736
 20
111.6682915581597
 30
0.0
 11
46.39492865668402
 21
113.0794026692708
 31
0.0
  0
LINE
  5
43D
330
A
100
AcDbEntity
  8
H16-2
 62
     7
100
AcDbLine
 10
44.3664564344618
 20
109.6398193359375
 30
0.0
 11
46.39492865668402
 21
111.2273193359375
 31
0.0
  0
LINE
  5
43C
330
A
100
AcDbEntity
  8
H16-2
 62
     7
100
AcDbLine
 10
44.27826199001736
 20
107.5231526692708
 30
0.0
 11
46.30673421223958
 21
109.0224582248264
 31
0.0
  0
LINE
  5
43B
330
A
100
AcDbEntity
  8
H16-2
 62
     7
100
AcDbLine
 10
44.27826199001736
 20
105.7592637803819
 30
0.0
 11
46.60077311197917
 21
107.199658203125
 31
0.0
  0
LINE
  5
43A
330
A
100
AcDbEntity
  8
H16-2
 62
     7
100
AcDbLine
 10
46.57131754557291
 20
115.107874891493
 30
0.0
 11
50.98103976779513
 21
114.9314860026042
 31
0.0
  0
LINE
  5
439
330
A
100
AcDbEntity
  8
H16-2
 62
     7
100
AcDbLine
 10
46.57131754557291
 20
113.6967637803819
 30
0.0
 11
50.98103976779513
 21
113.4321804470486
 31
0.0
  0
LINE
  5
438
330
A
100
AcDbEntity
  8
H16-2
 62
     7
100
AcDbLine
 10
46.48312310112847
 20
112.1092637803819
 30
0.0
 11
50.98103976779513
 21
111.7564860026042
 31
0.0
  0
LINE
  5
437
330
A
100
AcDbEntity
  8
H16-2
 62
     7
100
AcDbLine
 10
46.48312310112847
 20
109.9925971137153
 30
0.0
 11
51.15742865668403
 21
109.7280137803819
 31
0.0
  0
LINE
  5
436
330
A
100
AcDbEntity
  8
H16-2
 62
     7
100
AcDbLine
 10
46.48312310112847
 20
108.3169026692708
 30
0.0
 11
51.24562310112847
 21
108.0523193359375
 31
0.0
  0
LWPOLYLINE
  5
431
330
A
100
AcDbEntity
  8
H16-2
 62
     7
100
AcDbPolyline
 90
        3
 70
     0
 43
0.0
 10
51.15742865668403
 20
116.3425971137153
 10
53.80326199001735
 20
117.7537082248264
 10
56.2727064344618
 20
119.870374891493
  0
LWPOLYLINE
  5
42B
330
A
100
AcDbEntity
  8
H16-2
 62
     7
100
AcDbPolyline
 90
        4
 70
     0
 43
0.0
 10
51.33381754557291
 20
114.4905137803819
 10
54.33242865668402
 20
116.5189860026042
 10
56.36090087890624
 20
118.2828748914931
 10
57.24284532335069
 20
118.7238471137153
  0
LWPOLYLINE
  5
425
330
A
100
AcDbEntity
  8
H16-2
 62
     7
100
AcDbPolyline
 90
        4
 70
     0
 43
0.0
 10
51.15742865668403
 20
113.1675971137153
 10
54.24423421223958
 20
115.0196804470486
 10
56.62548421223958
 20
117.1363471137153
 10
57.33103976779513
 20
117.4009304470486
  0
LWPOLYLINE
  5
420
330
A
100
AcDbEntity
  8
H16-2
 62
     7
100
AcDbPolyline
 90
        3
 70
     0
 43
0.0
 10
51.06923421223958
 20
111.4919026692708
 10
55.74353976779513
 20
114.6669026692708
 10
57.15465087890625
 20
115.7252360026042
  0
LWPOLYLINE
  5
41B
330
A
100
AcDbEntity
  8
H16-2
 62
     7
100
AcDbPolyline
 90
        3
 70
     0
 43
0.0
 10
51.15742865668403
 20
110.0807915581597
 10
53.97965087890625
 20
111.5800971137153
 10
57.15465087890625
 20
113.8731526692708
  0
LWPOLYLINE
  5
416
330
A
100
AcDbEntity
  8
H16-2
 62
     7
100
AcDbPolyline
 90
        3
 70
     0
 43
0.0
 10
51.77478976779513
 20
108.4050971137153
 10
55.03798421223958
 20
110.5217637803819
 10
57.0664564344618
 20
112.1092637803819
  0
LINE
  5
415
330
A
100
AcDbEntity
  8
H16-2
 62
     7
100
AcDbLine
 10
51.95117865668402
 20
103.9071804470486
 30
0.0
 11
54.15603976779514
 21
104.2599582248264
 31
0.0
  0
LWPOLYLINE
  5
410
330
A
100
AcDbEntity
  8
H16-2
 62
     7
100
AcDbPolyline
 90
        3
 70
     0
 43
0.0
 10
51.15742865668403
 20
102.2314860026042
 10
53.18590087890625
 20
102.4960693359375
 10
54.24423421223958
 20
102.5842637803819
  0
LINE
  5
40F
330
A
100
AcDbEntity
  8
H16-2
 62
     7
100
AcDbLine
 10
51.15742865668403
 20
101.0849582248264
 30
0.0
 11
54.24423421223958
 21
101.1731526692708
 31
0.0
  0
LINE
  5
40E
330
A
100
AcDbEntity
  8
H16-2
 62
     7
100
AcDbLine
 10
51.15742865668403
 20
99.32106933593749
 30
0.0
 11
54.15603976779514
 21
99.76204155815971
 31
0.0
  0
LINE
  5
40D
330
A
100
AcDbEntity
  8
H16-2
 62
     7
100
AcDbLine
 10
51.33381754557291
 20
97.46898600260415
 30
0.0
 11
53.97965087890625
 21
98.26273600260416
 31
0.0
  0
LINE
  5
40C
330
A
100
AcDbEntity
  8
H16-2
 62
     7
100
AcDbLine
 10
51.15742865668403
 20
95.61690266927083
 30
0.0
 11
54.42062310112847
 21
96.67523600260415
 31
0.0
  0
LINE
  5
40B
330
A
100
AcDbEntity
  8
H16-2
 62
     7
100
AcDbLine
 10
54.19789767795138
 20
104.8845540364583
 30
0.0
 11
59.35951199001735
 21
104.6127360026042
 31
0.0
  0
LINE
  5
40A
330
A
100
AcDbEntity
  8
H16-2
 62
     7
100
AcDbLine
 10
54.33242865668402
 20
103.4662082248264
 30
0.0
 11
59.35951199001735
 21
103.1134304470486
 31
0.0
  0
LINE
  5
409
330
A
100
AcDbEntity
  8
H16-2
 62
     7
100
AcDbLine
 10
54.33242865668402
 20
102.1432915581597
 30
0.0
 11
59.35951199001735
 21
101.6141248914931
 31
0.0
  0
LINE
  5
408
330
A
100
AcDbEntity
  8
H16-2
 62
     7
100
AcDbLine
 10
54.24423421223958
 20
100.5557915581597
 30
0.0
 11
59.35951199001735
 21
100.1148193359375
 31
0.0
  0
LINE
  5
407
330
A
100
AcDbEntity
  8
H16-2
 62
     7
100
AcDbLine
 10
54.24423421223958
 20
98.79190266927083
 30
0.0
 11
59.4477064344618
 21
98.3509304470486
 31
0.0
  0
LINE
  5
406
330
A
100
AcDbEntity
  8
H16-2
 62
     7
100
AcDbLine
 10
54.15603976779514
 20
97.46898600260415
 30
0.0
 11
60.85881754557291
 21
96.76343044704861
 31
0.0
  0
LWPOLYLINE
  5
401
330
A
100
AcDbEntity
  8
H16-2
 62
     7
100
AcDbPolyline
 90
        3
 70
     0
 43
0.0
 10
59.62409532335069
 20
106.0238471137153
 10
62.97548421223958
 20
107.5231526692708
 10
65.0039564344618
 20
108.9342637803819
  0
LWPOLYLINE
  5
3FB
330
A
100
AcDbEntity
  8
H16-2
 62
     7
100
AcDbPolyline
 90
        4
 70
     0
 43
0.0
 10
59.53590087890625
 20
104.3481526692708
 10
62.18173421223958
 20
105.2300971137153
 10
64.03381754557292
 20
106.5530137803819
 10
65.0039564344618
 20
106.8175971137153
  0
LWPOLYLINE
  5
3F6
330
A
100
AcDbEntity
  8
H16-2
 62
     7
100
AcDbPolyline
 90
        3
 70
     0
 43
0.0
 10
59.4477064344618
 20
102.8488471137153
 10
61.74076199001735
 20
103.7307915581597
 10
64.8275675455729
 20
105.4946804470486
  0
LWPOLYLINE
  5
3F1
330
A
100
AcDbEntity
  8
H16-2
 62
     7
100
AcDbPolyline
 90
        3
 70
     0
 43
0.0
 10
59.4477064344618
 20
102.0550971137153
 10
61.38798421223958
 20
102.3196804470486
 10
65.0039564344618
 20
104.3481526692708
  0
LWPOLYLINE
  5
3EB
330
A
100
AcDbEntity
  8
H16-2
 62
     7
100
AcDbPolyline
 90
        4
 70
     0
 43
0.0
 10
59.62409532335069
 20
100.7321804470486
 10
62.09353976779514
 20
101.1731526692708
 10
63.15187310112847
 20
101.6141248914931
 10
65.0039564344618
 20
102.8488471137153
  0
LWPOLYLINE
  5
3E6
330
A
100
AcDbEntity
  8
H16-2
 62
     7
100
AcDbPolyline
 90
        3
 70
     0
 43
0.0
 10
59.4477064344618
 20
99.23287489149304
 10
63.24006754557291
 20
99.85023600260416
 10
65.0039564344618
 20
100.8203748914931
  0
LINE
  5
3E5
330
A
100
AcDbEntity
  8
H16-2
 62
     7
100
AcDbLine
 10
59.53590087890625
 20
97.99815266927082
 30
0.0
 11
61.21159532335069
 21
98.3509304470486
 31
0.0
  0
LWPOLYLINE
  5
3DD
330
A
100
AcDbEntity
  8
H16-2
 62
     7
100
AcDbPolyline
 90
        6
 70
     0
 43
0.0
 10
142.3065592447917
 20
191.9329874674479
 10
145.0798611111111
 20
184.8555555555555
 10
147.5493055555556
 20
184.3263888888889
 10
145.25625
 20
179.6520833333333
 10
147.6375
 20
179.0347222222222
 10
151.8708333333333
 20
168.3631944444444
  0
LWPOLYLINE
  5
3D4
330
A
100
AcDbEntity
  8
H16-2
 62
     7
100
AcDbPolyline
 90
        7
 70
     0
 43
0.0
 10
146.84375
 20
197.246875
 10
150.8800238715278
 20
188.5957234700521
 10
153.046644422743
 20
188.9125
 10
150.9888888888889
 20
182.5035888671875
 10
153.5503173828125
 20
182.8723863389757
 10
157.6034722222222
 20
174.1840277777778
 10
166.7756944444444
 20
172.0232638888889
  0
LWPOLYLINE
  5
3CA
330
A
100
AcDbEntity
  8
H16-2
 62
     7
100
AcDbPolyline
 90
        8
 70
     0
 43
0.0
 10
156.36875
 20
157.8680555555555
 10
156.36875
 20
147.5493055555556
 10
153.8993055555555
 20
145.25625
 10
158.9263888888889
 20
144.1979166666667
 10
156.2805555555555
 20
141.1111111111111
 10
156.461767578125
 20
130.9828748914931
 10
145.5797444661458
 20
132.8208333333333
 10
101.3088894314236
 20
114.2100830078125
  0
LWPOLYLINE
  5
3C2
330
A
100
AcDbEntity
  8
H16-2
 62
     7
100
AcDbPolyline
 90
        6
 70
     0
 43
0.0
 10
162.6305555555555
 20
160.6902777777778
 10
162.6305555555555
 20
149.9305555555555
 10
159.9258110894097
 20
147.5787611219618
 10
165.4527777777778
 20
146.2851277669271
 10
162.6305555555555
 20
143.4629055447049
 10
162.6305555555555
 20
133.4381944444444
  0
LWPOLYLINE
  5
3BD
330
A
100
AcDbEntity
  8
H16-2
 62
     7
100
AcDbPolyline
 90
        3
 70
     0
 43
0.0
 10
172.8611111111111
 20
131.8045301649306
 10
162.5936930338542
 20
133.3320855034722
 10
111.0368055555556
 20
112.7125
  0
LWPOLYLINE
  5
3B8
330
A
100
AcDbEntity
  8
H16-2
 62
     7
100
AcDbPolyline
 90
        3
 70
     0
 43
0.0
 10
148.3430555555555
 20
194.0277777777778
 10
151.6944444444444
 20
190.3823499891493
 10
152.5174777560764
 20
188.9125
  0
LWPOLYLINE
  5
3B2
330
A
100
AcDbEntity
  8
H16-2
 62
     7
100
AcDbPolyline
 90
        4
 70
     0
 43
0.0
 10
147.9902777777778
 20
196.85
 10
149.1660888671875
 20
195.4976277669271
 10
152.3410888671875
 20
192.3813666449653
 10
154.6341444227431
 20
188.6184611002604
  0
LWPOLYLINE
  5
3AC
330
A
100
AcDbEntity
  8
H16-2
 62
     7
100
AcDbPolyline
 90
        4
 70
     0
 43
0.0
 10
151.1063666449653
 20
195.909144422743
 10
151.7530110677083
 20
194.8508110894097
 10
153.5168999565972
 20
192.9105333116319
 10
156.2216444227431
 20
188.2069444444444
  0
LWPOLYLINE
  5
3A7
330
A
100
AcDbEntity
  8
H16-2
 62
     7
100
AcDbPolyline
 90
        3
 70
     0
 43
0.0
 10
153.3994222005208
 20
195.3212388780382
 10
155.3396999782986
 20
192.1462388780382
 10
157.6916666666667
 20
187.7952555338542
  0
LWPOLYLINE
  5
3A2
330
A
100
AcDbEntity
  8
H16-2
 62
     7
100
AcDbPolyline
 90
        3
 70
     0
 43
0.0
 10
155.3396999782986
 20
194.6744222005208
 10
157.1625
 20
191.5583333333333
 10
159.0438666449653
 20
187.5601277669271
  0
LWPOLYLINE
  5
39D
330
A
100
AcDbEntity
  8
H16-2
 62
     7
100
AcDbPolyline
 90
        3
 70
     0
 43
0.0
 10
151.9883110894097
 20
182.7388888888889
 10
153.2230333116319
 20
185.5021999782986
 10
155.0458333333333
 20
188.4420722113715
  0
LWPOLYLINE
  5
397
330
A
100
AcDbEntity
  8
H16-2
 62
     7
100
AcDbPolyline
 90
        4
 70
     0
 43
0.0
 10
154.0460666232639
 20
182.7976277669271
 10
154.6341444227431
 20
184.3263888888889
 10
156.0452555338542
 20
186.3254055447048
 10
156.6918999565972
 20
187.8541666666667
  0
LWPOLYLINE
  5
391
330
A
100
AcDbEntity
  8
H16-2
 62
     7
100
AcDbPolyline
 90
        4
 70
     0
 43
0.0
 10
156.2216444227431
 20
182.2684611002604
 10
157.9855333116319
 20
185.3847222222222
 10
158.2793999565972
 20
186.5017944335937
 10
158.75
 20
187.2660888671875
  0
LWPOLYLINE
  5
38C
330
A
100
AcDbEntity
  8
H16-2
 62
     7
100
AcDbPolyline
 90
        3
 70
     0
 43
0.0
 10
157.9855333116319
 20
181.7980333116319
 10
159.6319444444444
 20
184.4438666449653
 10
160.7488444010417
 20
186.8545722113715
  0
LWPOLYLINE
  5
387
330
A
100
AcDbEntity
  8
H16-2
 62
     7
100
AcDbPolyline
 90
        3
 70
     0
 43
0.0
 10
159.6319444444444
 20
181.386516655816
 10
161.5133110894097
 20
184.6791666666667
 10
162.8069444444444
 20
186.3254055447048
  0
LWPOLYLINE
  5
382
330
A
100
AcDbEntity
  8
H16-2
 62
     7
100
AcDbPolyline
 90
        3
 70
     0
 43
0.0
 10
154.6930555555555
 20
182.5035888671875
 10
157.6327555338542
 20
176.5652777777778
 10
158.75
 20
173.9781833224826
  0
LINE
  5
381
330
A
100
AcDbEntity
  8
H16-2
 62
     7
100
AcDbLine
 10
156.5744222005208
 20
181.9744222005208
 30
0.0
 11
160.2785888671875
 21
173.5666666666667
 31
0.0
  0
LWPOLYLINE
  5
37B
330
A
100
AcDbEntity
  8
H16-2
 62
     7
100
AcDbPolyline
 90
        4
 70
     0
 43
0.0
 10
158.3972222222222
 20
181.5041666666667
 10
160.0432888454861
 20
177.3295722113715
 10
161.3958333333333
 20
173.8017944335937
 10
161.807177734375
 20
173.2138888888889
  0
LWPOLYLINE
  5
376
330
A
100
AcDbEntity
  8
H16-2
 62
     7
100
AcDbPolyline
 90
        3
 70
     0
 43
0.0
 10
159.9847222222222
 20
181.1513888888889
 10
161.807177734375
 20
177.0944444444444
 10
163.394677734375
 20
172.9198499891493
  0
LWPOLYLINE
  5
371
330
A
100
AcDbEntity
  8
H16-2
 62
     7
100
AcDbPolyline
 90
        3
 70
     0
 43
0.0
 10
161.807177734375
 20
180.6809611002604
 10
163.4535888671875
 20
177.2119222005208
 10
165.4527777777778
 20
172.3906833224826
  0
LWPOLYLINE
  5
36B
330
A
100
AcDbEntity
  8
H16-2
 62
     7
100
AcDbPolyline
 90
        4
 70
     0
 43
0.0
 10
164.3355333116319
 20
160.5138888888889
 10
164.2769666883681
 20
154.399016655816
 10
163.4535888671875
 20
149.871644422743
 10
160.9255777994792
 20
147.4021999782986
  0
SPLINE
  5
36A
330
A
100
AcDbEntity
  8
H16-2
 62
     7
100
AcDbSpline
210
0.0
220
0.0
230
1.0
 70
     8
 71
     3
 72
    14
 73
    10
 74
     0
 42
0.0000000001
 43
0.0000000001
 40
0.0
 40
0.0
 40
0.0
 40
0.0
 40
1.0
 40
1.0
 40
1.0
 40
2.0
 40
2.0
 40
2.0
 40
3.0
 40
3.0
 40
3.0
 40
3.0
 10
165.8644666883681
 20
160.1611111111111
 30
0.0
 10
165.8644666883681
 20
160.1611111111111
 30
0.0
 10
166.0994222005208
 20
153.4583333333333
 30
0.0
 10
166.0994222005208
 20
153.4583333333333
 30
0.0
 10
166.0994222005208
 20
153.4583333333333
 30
0.0
 10
164.6886555989583
 20
150.5771999782986
 30
0.0
 10
164.6297444661458
 20
149.4601277669271
 30
0.0
 10
164.6297444661458
 20
149.4601277669271
 30
0.0
 10
161.925
 20
147.2258110894097
 30
0.0
 10
161.925
 20
147.2258110894097
 30
0.0
  0
SPLINE
  5
369
330
A
100
AcDbEntity
  8
H16-2
 62
     7
100
AcDbSpline
210
0.0
220
0.0
230
1.0
 70
     8
 71
     3
 72
    14
 73
    10
 74
     0
 42
0.0000000001
 43
0.0000000001
 40
0.0
 40
0.0
 40
0.0
 40
0.0
 40
1.0
 40
1.0
 40
1.0
 40
2.0
 40
2.0
 40
2.0
 40
3.0
 40
3.0
 40
3.0
 40
3.0
 10
167.1577555338542
 20
159.8670722113715
 30
0.0
 10
167.1577555338542
 20
159.8670722113715
 30
0.0
 10
167.334144422743
 20
151.2240166558159
 30
0.0
 10
167.334144422743
 20
151.2240166558159
 30
0.0
 10
167.334144422743
 20
151.2240166558159
 30
0.0
 10
166.4525444878472
 20
149.636516655816
 30
0.0
 10
166.3936333550347
 20
149.1073499891493
 30
0.0
 10
166.3936333550347
 20
149.1073499891493
 30
0.0
 10
163.3361111111111
 20
146.8142944335937
 30
0.0
 10
163.3361111111111
 20
146.8142944335937
 30
0.0
  0
LWPOLYLINE
  5
364
330
A
100
AcDbEntity
  8
H16-2
 62
     7
100
AcDbPolyline
 90
        3
 70
     0
 43
0.0
 10
168.6866889105903
 20
159.4555555555556
 10
168.5688666449653
 20
148.5194444444444
 10
165.2174777560764
 20
146.4027777777778
  0
LWPOLYLINE
  5
35F
330
A
100
AcDbEntity
  8
H16-2
 62
     7
100
AcDbPolyline
 90
        3
 70
     0
 43
0.0
 10
170.3327555338541
 20
159.1027777777778
 10
169.9214111328125
 20
148.2841444227431
 10
167.0402777777778
 20
146.1087388780382
  0
LWPOLYLINE
  5
359
330
A
100
AcDbEntity
  8
H16-2
 62
     7
100
AcDbPolyline
 90
        4
 70
     0
 43
0.0
 10
172.096644422743
 20
158.6323499891493
 10
171.45
 20
154.5166666666667
 10
170.9208333333333
 20
147.9313666449653
 10
168.3924777560764
 20
145.6972222222222
  0
SPLINE
  5
358
330
A
100
AcDbEntity
  8
H16-2
 62
     7
100
AcDbSpline
210
0.0
220
0.0
230
1.0
 70
     8
 71
     3
 72
    11
 73
     7
 74
     0
 42
0.0000000001
 43
0.0000000001
 40
0.0
 40
0.0
 40
0.0
 40
0.0
 40
1.0
 40
1.0
 40
1.0
 40
2.0
 40
2.0
 40
2.0
 40
2.0
 10
172.8614556206597
 20
152.8704277886285
 30
0.0
 10
172.8614556206597
 20
152.8704277886285
 30
0.0
 10
172.0969889322917
 20
148.9896999782986
 30
0.0
 10
172.0380777994791
 20
147.7549777560764
 30
0.0
 10
172.0380777994791
 20
147.7549777560764
 30
0.0
 10
169.2744222005208
 20
145.4033555772569
 30
0.0
 10
169.5097222222222
 20
145.5208333333333
 30
0.0
  0
LWPOLYLINE
  5
353
330
A
100
AcDbEntity
  8
H16-2
 62
     7
100
AcDbPolyline
 90
        3
 70
     0
 43
0.0
 10
166.6875
 20
146.05
 10
163.8652777777778
 20
143.2277777777778
 10
163.4535888671875
 20
133.232177734375
  0
LWPOLYLINE
  5
34D
330
A
100
AcDbEntity
  8
H16-2
 62
     7
100
AcDbPolyline
 90
        4
 70
     0
 43
0.0
 10
168.7452555338542
 20
145.5795722113715
 10
165.4527777777778
 20
142.875
 10
165.3353000217014
 20
136.8188666449653
 10
164.8646999782986
 20
133.0557888454861
  0
SPLINE
  5
34C
330
A
100
AcDbEntity
  8
H16-2
 62
     7
100
AcDbSpline
210
0.0
220
0.0
230
1.0
 70
     8
 71
     3
 72
    14
 73
    10
 74
     0
 42
0.0000000001
 43
0.0000000001
 40
0.0
 40
0.0
 40
0.0
 40
0.0
 40
1.0
 40
1.0
 40
1.0
 40
2.0
 40
2.0
 40
2.0
 40
3.0
 40
3.0
 40
3.0
 40
3.0
 10
171.0972222222222
 20
145.1680555555556
 30
0.0
 10
171.0972222222222
 20
145.1680555555556
 30
0.0
 10
167.7458333333333
 20
142.4633110894097
 30
0.0
 10
167.7458333333333
 20
142.4633110894097
 30
0.0
 10
167.7458333333333
 20
142.4633110894097
 30
0.0
 10
167.2755777994792
 20
137.171644422743
 30
0.0
 10
167.2755777994792
 20
137.171644422743
 30
0.0
 10
167.2755777994792
 20
137.171644422743
 30
0.0
 10
166.0405110677083
 20
134.1144666883681
 30
0.0
 10
166.0994222005208
 20
132.8208333333333
 30
0.0
  0
SPLINE
  5
34B
330
A
100
AcDbEntity
  8
H16-2
 62
     7
100
AcDbSpline
210
0.0
220
0.0
230
1.0
 70
     8
 71
     3
 72
    14
 73
    10
 74
     0
 42
0.0000000001
 43
0.0000000001
 40
0.0
 40
0.0
 40
0.0
 40
0.0
 40
1.0
 40
1.0
 40
1.0
 40
2.0
 40
2.0
 40
2.0
 40
3.0
 40
3.0
 40
3.0
 40
3.0
 10
172.9200222439236
 20
144.7563666449653
 30
0.0
 10
172.9200222439236
 20
144.7563666449653
 30
0.0
 10
169.5686333550347
 20
142.1105333116319
 30
0.0
 10
169.5686333550347
 20
142.1105333116319
 30
0.0
 10
169.5686333550347
 20
142.1105333116319
 30
0.0
 10
168.9805555555556
 20
135.4077555338542
 30
0.0
 10
168.9805555555556
 20
135.4077555338542
 30
0.0
 10
168.9805555555556
 20
135.4077555338542
 30
0.0
 10
167.5690999348958
 20
133.232177734375
 30
0.0
 10
167.6869222005208
 20
132.5855333116319
 30
0.0
  0
LWPOLYLINE
  5
346
330
A
100
AcDbEntity
  8
H16-2
 62
     7
100
AcDbPolyline
 90
        3
 70
     0
 43
0.0
 10
174.8603000217014
 20
144.3448499891493
 10
171.45
 20
141.7577555338542
 10
170.0978000217014
 20
132.2327555338542
  0
LINE
  5
345
330
A
100
AcDbEntity
  8
H16-2
 62
     7
100
AcDbLine
 10
172.8611111111111
 20
139.1033094618055
 30
0.0
 11
172.2144666883681
 21
131.9388888888889
 31
0.0
  0
INSERT
  5
D9
330
A
100
AcDbEntity
  8
H16-2
 62
     7
100
AcDbBlockReference
  2
AI9-BLK26
 10
117.57421875
 20
144.0387532552083
 30
0.0
  0
SPLINE
  5
D7
330
A
100
AcDbEntity
  8
H16-2
 62
     7
100
AcDbSpline
210
0.0
220
0.0
230
1.0
 70
    11
 71
     3
 72
    17
 73
    13
 74
     0
 42
0.0000000001
 43
0.0000000001
 40
0.0
 40
0.0
 40
0.0
 40
0.0
 40
1.0
 40
1.0
 40
1.0
 40
2.0
 40
2.0
 40
2.0
 40
3.0
 40
3.0
 40
3.0
 40
4.0
 40
4.0
 40
4.0
 40
4.0
 10
125.9175509982639
 20
104.8215087890625
 30
0.0
 10
125.7769911024305
 20
105.2197618272569
 30
0.0
 10
125.4345486111111
 20
105.4722873263889
 30
0.0
 10
125.0983072916667
 20
105.4595404730903
 30
0.0
 10
124.9150282118056
 20
105.2424994574653
 30
0.0
 10
124.8502604166667
 20
104.9038465711806
 30
0.0
 10
124.959814453125
 20
104.5696723090278
 30
0.0
 10
125.0934841579861
 20
104.1593614366319
 30
0.0
 10
125.4421278211806
 20
103.8947781032986
 30
0.0
 10
125.7866373697917
 20
103.9126925998264
 30
0.0
 10
125.9754286024305
 20
104.1324896918403
 30
0.0
 10
126.0374403211805
 20
104.4825113932292
 30
0.0
 10
125.9175509982639
 20
104.8215087890625
 30
0.0
  0
SPLINE
  5
D6
330
A
100
AcDbEntity
  8
H16-2
 62
     7
100
AcDbSpline
210
0.0
220
0.0
230
1.0
 70
    11
 71
     3
 72
    17
 73
    13
 74
     0
 42
0.0000000001
 43
0.0000000001
 40
0.0
 40
0.0
 40
0.0
 40
0.0
 40
1.0
 40
1.0
 40
1.0
 40
2.0
 40
2.0
 40
2.0
 40
3.0
 40
3.0
 40
3.0
 40
4.0
 40
4.0
 40
4.0
 40
4.0
 10
125.9175509982639
 20
96.34622938368055
 30
0.0
 10
125.7769911024305
 20
96.74379340277777
 30
0.0
 10
125.4345486111111
 20
96.99666341145833
 30
0.0
 10
125.0983072916667
 20
96.98391655815972
 30
0.0
 10
124.9150282118056
 20
96.76653103298611
 30
0.0
 10
124.8502604166667
 20
96.42822265624999
 30
0.0
 10
124.959814453125
 20
96.09404839409721
 30
0.0
 10
125.0934841579861
 20
95.68339301215276
 30
0.0
 10
125.4421278211806
 20
95.41915418836804
 30
0.0
 10
125.7866373697917
 20
95.43672417534721
 30
0.0
 10
125.9754286024305
 20
95.6565212673611
 30
0.0
 10
126.0374403211805
 20
96.00654296875
 30
0.0
 10
125.9175509982639
 20
96.34622938368055
 30
0.0
  0
INSERT
  5
D0
330
A
100
AcDbEntity
  8
H16-2
 62
     7
100
AcDbBlockReference
  2
AI9-BLK25
 10
125.3727091471354
 20
92.64430202907985
 30
0.0
  0
LINE
  5
CE
330
A
100
AcDbEntity
  8
H16-2
 62
     7
100
AcDbLine
 10
99.92757839626735
 20
153.4369737413194
 30
0.0
 11
89.87323947482638
 21
137.5619737413194
 31
0.0
  0
LINE
  5
CD
330
A
100
AcDbEntity
  8
H16-2
 62
     7
100
AcDbLine
 10
89.78504503038194
 20
137.5619737413194
 30
0.0
 11
90.49060058593749
 21
137.8265570746528
 31
0.0
  0
LINE
  5
CC
330
A
100
AcDbEntity
  8
H16-2
 62
     7
100
AcDbLine
 10
99.47902696397568
 20
95.52078450520833
 30
0.0
 11
100.1012112087674
 21
95.45050455729165
 31
0.0
  0
LINE
  5
CB
330
A
100
AcDbEntity
  8
H16-2
 62
     7
100
AcDbLine
 10
91.72738986545139
 20
96.39583875868054
 30
0.0
 11
98.77416042751736
 21
95.60036621093749
 31
0.0
  0
LINE
  5
CA
330
A
100
AcDbEntity
  8
H16-2
 62
     7
100
AcDbLine
 10
90.60807834201388
 20
96.52227376302082
 30
0.0
 11
91.02028401692708
 21
96.47576497395832
 31
0.0
  0
INSERT
  5
C5
330
A
100
AcDbEntity
  8
H16-2
 62
     7
100
AcDbBlockReference
  2
AI9-BLK24
 10
92.62225341796874
 20
135.7142829047309
 30
0.0
  0
INSERT
  5
BF
330
A
100
AcDbEntity
  8
H16-2
 62
     7
100
AcDbBlockReference
  2
AI9-BLK23
 10
99.07491726345485
 20
134.3874043782552
 30
0.0
  0
INSERT
  5
B9
330
A
100
AcDbEntity
  8
H16-2
 62
     7
100
AcDbBlockReference
  2
AI9-BLK22
 10
92.62225341796874
 20
127.600394015842
 30
0.0
  0
INSERT
  5
B3
330
A
100
AcDbEntity
  8
H16-2
 62
     7
100
AcDbBlockReference
  2
AI9-BLK21
 10
99.07491726345485
 20
126.2735154893663
 30
0.0
  0
INSERT
  5
AD
330
A
100
AcDbEntity
  8
H16-2
 62
     7
100
AcDbBlockReference
  2
AI9-BLK20
 10
92.62225341796874
 20
119.4865051269531
 30
0.0
  0
INSERT
  5
A7
330
A
100
AcDbEntity
  8
H16-2
 62
     7
100
AcDbBlockReference
  2
AI9-BLK19
 10
99.07491726345485
 20
118.1596266004774
 30
0.0
  0
INSERT
  5
A1
330
A
100
AcDbEntity
  8
H16-2
 62
     7
100
AcDbBlockReference
  2
AI9-BLK18
 10
99.07491726345485
 20
109.6929599338108
 30
0.0
  0
INSERT
  5
9B
330
A
100
AcDbEntity
  8
H16-2
 62
     7
100
AcDbBlockReference
  2
AI9-BLK17
 10
122.8048210991753
 20
107.3459025065104
 30
0.0
  0
INSERT
  5
95
330
A
100
AcDbEntity
  8
H16-2
 62
     7
100
AcDbBlockReference
  2
AI9-BLK16
 10
128.5355651855469
 20
98.06016438802082
 30
0.0
  0
INSERT
  5
8F
330
A
100
AcDbEntity
  8
H16-2
 62
     7
100
AcDbBlockReference
  2
AI9-BLK15
 10
92.62225341796874
 20
102.9059495713976
 30
0.0
  0
ELLIPSE
  5
8D
330
A
100
AcDbEntity
  8
H16-2
 62
     7
100
AcDbEllipse
 10
95.91085544162326
 20
133.4692003038194
 30
0.0
 11
0.3290927463107639
 21
-1.005623372395833
 31
0.0
210
0.0
220
0.0
230
1.0
 40
0.8231640901584598
 41
0.0
 42
6.283185307179586
  0
ELLIPSE
  5
8C
330
A
100
AcDbEntity
  8
H16-2
 62
     7
100
AcDbEllipse
 10
95.91085544162326
 20
125.3553114149305
 30
0.0
 11
0.3290927463107639
 21
-1.005623372395833
 31
0.0
210
0.0
220
0.0
230
1.0
 40
0.8231640901584598
 41
0.0
 42
6.283185307179586
  0
ELLIPSE
  5
8B
330
A
100
AcDbEntity
  8
H16-2
 62
     7
100
AcDbEllipse
 10
95.91085544162326
 20
117.2414225260417
 30
0.0
 11
0.3290927463107639
 21
-1.005623372395833
 31
0.0
210
0.0
220
0.0
230
1.0
 40
0.8231640901584598
 41
0.0
 42
6.283185307179586
  0
ELLIPSE
  5
8A
330
A
100
AcDbEntity
  8
H16-2
 62
     7
100
AcDbEllipse
 10
95.91085544162326
 20
108.774755859375
 30
0.0
 11
0.3290927463107639
 21
-1.005623372395833
 31
0.0
210
0.0
220
0.0
230
1.0
 40
0.8231640901584598
 41
0.0
 42
6.283185307179586
  0
ELLIPSE
  5
89
330
A
100
AcDbEntity
  8
H16-2
 62
     7
100
AcDbEllipse
 10
95.91085544162326
 20
100.3080891927083
 30
0.0
 11
0.3290927463107639
 21
-1.005623372395833
 31
0.0
210
0.0
220
0.0
230
1.0
 40
0.8231640901584598
 41
0.0
 42
6.283185307179586
  0
INSERT
  5
84
330
A
100
AcDbEntity
  8
H16-2
 62
     7
100
AcDbBlockReference
  2
AI9-BLK14
 10
92.63448350694443
 20
110.9848707411024
 30
0.0
  0
INSERT
  5
7E
330
A
100
AcDbEntity
  8
H16-2
 62
     7
100
AcDbBlockReference
  2
AI9-BLK13
 10
128.7035135904948
 20
106.727249484592
 30
0.0
  0
INSERT
  5
78
330
A
100
AcDbEntity
  8
H16-2
 62
     7
100
AcDbBlockReference
  2
AI9-BLK12
 10
122.8472819010417
 20
98.7895772298177
 30
0.0
  0
INSERT
  5
72
330
A
100
AcDbEntity
  8
H16-2
 62
     7
100
AcDbBlockReference
  2
AI9-BLK11
 10
99.02668592664929
 20
101.5989664713542
 30
0.0
  0
ELLIPSE
  5
70
330
A
100
AcDbEntity
  8
H16-2
 62
     7
100
AcDbEllipse
 10
125.6553792317708
 20
104.7886081271701
 30
0.0
 11
0.3124701605902778
 21
-0.9551527235243055
 31
0.0
210
0.0
220
0.0
230
1.0
 40
0.823299257133321
 41
0.0
 42
6.283185307179586
  0
ELLIPSE
  5
6F
330
A
100
AcDbEntity
  8
H16-2
 62
     7
100
AcDbEllipse
 10
125.6553792317708
 20
96.31298421223957
 30
0.0
 11
0.3124701605902778
 21
-0.9554972330729166
 31
0.0
210
0.0
220
0.0
230
1.0
 40
0.8230310957969558
 41
0.0
 42
6.283185307179586
  0
ELLIPSE
  5
6E
330
A
100
AcDbEntity
  8
H16-2
 62
     7
100
AcDbEllipse
 10
91.07850613064235
 20
95.59692111545138
 30
0.0
 11
0.4606092664930555
 21
0.0
 31
0.0
210
0.0
220
0.0
230
1.0
 40
0.2894540014958863
 41
0.0
 42
6.283185307179586
  0
ELLIPSE
  5
6D
330
A
100
AcDbEntity
  8
H16-2
 62
     7
100
AcDbEllipse
 10
96.7229505750868
 20
95.00884331597221
 30
0.0
 11
0.4606092664930555
 21
0.0
 31
0.0
210
0.0
220
0.0
230
1.0
 40
0.2894540014958863
 41
0.0
 42
6.283185307179586
  0
ELLIPSE
  5
6C
330
A
100
AcDbEntity
  8
H16-2
 62
     7
100
AcDbEllipse
 10
125.0865939670139
 20
91.38322482638888
 30
0.0
 11
0.4375271267361111
 21
0.0
 31
0.0
210
0.0
220
0.0
230
1.0
 40
0.2889763779527559
 41
0.0
 42
6.283185307179586
  0
SPLINE
  5
6B
330
A
100
AcDbEntity
  8
H16-2
 62
     7
100
AcDbSpline
210
0.0
220
0.0
230
1.0
 70
    11
 71
     3
 72
    17
 73
    13
 74
     0
 42
0.0000000001
 43
0.0000000001
 40
0.0
 40
0.0
 40
0.0
 40
0.0
 40
1.0
 40
1.0
 40
1.0
 40
2.0
 40
2.0
 40
2.0
 40
3.0
 40
3.0
 40
3.0
 40
4.0
 40
4.0
 40
4.0
 40
4.0
 10
107.8552598741319
 20
87.91435818142361
 30
0.0
 10
107.8552598741319
 20
87.84442274305555
 30
0.0
 10
107.83837890625
 20
87.84166666666665
 30
0.0
 10
107.5972222222222
 20
87.84166666666665
 30
0.0
 10
107.3553765190972
 20
87.84166666666665
 30
0.0
 10
106.9802056206597
 20
87.84442274305555
 30
0.0
 10
106.9802056206597
 20
87.91435818142361
 30
0.0
 10
106.9802056206597
 20
87.98360460069443
 30
0.0
 10
107.1758870442708
 20
88.04010416666667
 30
0.0
 10
107.4177327473958
 20
88.04010416666667
 30
0.0
 10
107.6588894314236
 20
88.04010416666667
 30
0.0
 10
107.8552598741319
 20
87.98360460069443
 30
0.0
 10
107.8552598741319
 20
87.91435818142361
 30
0.0
  0
ELLIPSE
  5
6A
330
A
100
AcDbEntity
  8
H16-2
 62
     7
100
AcDbEllipse
 10
112.6212049696181
 20
87.29699707031249
 30
0.0
 11
0.4375271267361111
 21
0.0
 31
0.0
210
0.0
220
0.0
230
1.0
 40
0.2889763779527559
 41
0.0
 42
6.283185307179586
  0
ELLIPSE
  5
69
330
A
100
AcDbEntity
  8
H16-2
 62
     7
100
AcDbEllipse
 10
78.26085611979165
 20
91.36358778211805
 30
0.0
 11
0.4606092664930555
 21
0.0
 31
0.0
210
0.0
220
0.0
230
1.0
 40
0.2894540014958863
 41
0.0
 42
6.283185307179586
  0
INSERT
  5
64
330
A
100
AcDbEntity
  8
H16-2
 62
     7
100
AcDbBlockReference
  2
AI9-BLK10
 10
91.83074273003471
 20
94.43626844618055
 30
0.0
  0
INSERT
  5
5E
330
A
100
AcDbEntity
  8
H16-2
 62
     7
100
AcDbBlockReference
  2
AI9-BLK9
 10
120.335462782118
 20
90.62840440538194
 30
0.0
  0
INSERT
  5
58
330
A
100
AcDbEntity
  8
H16-2
 62
     7
100
AcDbBlockReference
  2
AI9-BLK8
 10
113.1245334201389
 20
88.53103027343749
 30
0.0
  0
INSERT
  5
52
330
A
100
AcDbEntity
  8
H16-2
 62
     7
100
AcDbBlockReference
  2
AI9-BLK7
 10
84.99567328559027
 20
92.09911566840277
 30
0.0
  0
SPLINE
  5
50
330
A
100
AcDbEntity
  8
H16-2
 62
     7
100
AcDbSpline
210
0.0
220
0.0
230
1.0
 70
    11
 71
     3
 72
    56
 73
    52
 74
     0
 42
0.0000000001
 43
0.0000000001
 40
0.0
 40
0.0
 40
0.0
 40
0.0
 40
1.0
 40
1.0
 40
1.0
 40
2.0
 40
2.0
 40
2.0
 40
3.0
 40
3.0
 40
3.0
 40
4.0
 40
4.0
 40
4.0
 40
5.0
 40
5.0
 40
5.0
 40
6.0
 40
6.0
 40
6.0
 40
7.0
 40
7.0
 40
7.0
 40
8.0
 40
8.0
 40
8.0
 40
9.0
 40
9.0
 40
9.0
 40
10.0
 40
10.0
 40
10.0
 40
11.0
 40
11.0
 40
11.0
 40
12.0
 40
12.0
 40
12.0
 40
13.0
 40
13.0
 40
13.0
 40
14.0
 40
14.0
 40
14.0
 40
15.0
 40
15.0
 40
15.0
 40
16.0
 40
16.0
 40
16.0
 40
17.0
 40
17.0
 40
17.0
 40
17.0
 10
99.92757839626735
 20
153.4369737413194
 30
0.0
 10
99.83938395182291
 20
152.9960015190972
 30
0.0
 10
100.8095228407118
 20
152.8196126302083
 30
0.0
 10
100.8095228407118
 20
152.8196126302083
 30
0.0
 10
100.8095228407118
 20
152.8196126302083
 30
0.0
 10
100.8095228407118
 20
95.93419596354165
 30
0.0
 10
100.8095228407118
 20
95.93419596354165
 30
0.0
 10
100.8095228407118
 20
95.40502929687499
 30
0.0
 10
100.1921617296007
 20
95.05225151909721
 30
0.0
 10
100.1921617296007
 20
95.05225151909721
 30
0.0
 10
100.1921617296007
 20
95.05225151909721
 30
0.0
 10
84.37572835286457
 20
89.81915147569444
 30
0.0
 10
84.37572835286457
 20
89.81915147569444
 30
0.0
 10
83.84656168619792
 20
89.55456814236111
 30
0.0
 10
83.14100613064235
 20
89.73095703124999
 30
0.0
 10
83.14100613064235
 20
89.73095703124999
 30
0.0
 10
83.14100613064235
 20
89.73095703124999
 30
0.0
 10
74.0762708875868
 20
90.70144042968749
 30
0.0
 10
74.0762708875868
 20
90.70144042968749
 30
0.0
 10
73.01793755425346
 20
90.87782931857637
 30
0.0
 10
72.93990614149305
 20
91.52447374131944
 30
0.0
 10
72.93990614149305
 20
91.52447374131944
 30
0.0
 10
72.93990614149305
 20
91.52447374131944
 30
0.0
 10
73.73365614149304
 20
91.43627929687499
 30
0.0
 10
73.73365614149304
 20
91.43627929687499
 30
0.0
 10
73.73365614149304
 20
91.43627929687499
 30
0.0
 10
89.87323947482638
 20
97.08072374131943
 30
0.0
 10
89.87323947482638
 20
97.08072374131943
 30
0.0
 10
89.87323947482638
 20
97.08072374131943
 30
0.0
 10
89.87323947482638
 20
137.5619737413194
 30
0.0
 10
89.87323947482638
 20
137.5619737413194
 30
0.0
 10
89.87323947482638
 20
137.5619737413194
 30
0.0
 10
92.34268391927083
 20
141.5307237413194
 30
0.0
 10
92.34268391927083
 20
141.5307237413194
 30
0.0
 10
92.34268391927083
 20
141.5307237413194
 30
0.0
 10
91.63712836371526
 20
143.2064181857639
 30
0.0
 10
91.63712836371526
 20
143.2064181857639
 30
0.0
 10
91.46073947482638
 20
143.6473904079861
 30
0.0
 10
91.63712836371526
 20
144.2647515190972
 30
0.0
 10
91.63712836371526
 20
144.2647515190972
 30
0.0
 10
92.16629503038193
 20
145.1466959635417
 30
0.0
 10
91.9017116970486
 20
145.4994737413194
 30
0.0
 10
91.9017116970486
 20
145.4994737413194
 30
0.0
 10
91.9017116970486
 20
145.4994737413194
 30
0.0
 10
98.86924506293401
 20
154.0543348524305
 30
0.0
 10
98.86924506293401
 20
154.0543348524305
 30
0.0
 10
99.13382839626735
 20
154.3189181857639
 30
0.0
 10
99.92757839626735
 20
154.4953070746528
 30
0.0
 10
99.92757839626735
 20
154.4953070746528
 30
0.0
 10
99.92757839626735
 20
154.4953070746528
 30
0.0
 10
99.92757839626735
 20
153.4369737413194
 30
0.0
 10
99.92757839626735
 20
153.4369737413194
 30
0.0
  0
SPLINE
  5
4F
330
A
100
AcDbEntity
  8
H16-2
 62
     7
100
AcDbSpline
210
0.0
220
0.0
230
1.0
 70
    11
 71
     3
 72
    17
 73
    13
 74
     0
 42
0.0000000001
 43
0.0000000001
 40
0.0
 40
0.0
 40
0.0
 40
0.0
 40
1.0
 40
1.0
 40
1.0
 40
2.0
 40
2.0
 40
2.0
 40
3.0
 40
3.0
 40
3.0
 40
4.0
 40
4.0
 40
4.0
 40
4.0
 10
96.18620469835068
 20
133.5039957682292
 30
0.0
 10
96.03875461154513
 20
133.9229193793403
 30
0.0
 10
95.6783976236979
 20
134.188880750868
 30
0.0
 10
95.32406955295139
 20
134.1754448784722
 30
0.0
 10
95.13131646050347
 20
133.9466905381945
 30
0.0
 10
95.06275906032985
 20
133.5904676649305
 30
0.0
 10
95.17816975911458
 20
133.2387234157986
 30
0.0
 10
95.31924641927083
 20
132.8067084418403
 30
0.0
 10
95.68597683376736
 20
132.5283447265625
 30
0.0
 10
96.04874538845485
 20
132.5469482421875
 30
0.0
 10
96.24683837890625
 20
132.7784586588542
 30
0.0
 10
96.31229519314235
 20
133.1467393663194
 30
0.0
 10
96.18620469835068
 20
133.5039957682292
 30
0.0
  0
SPLINE
  5
4E
330
A
100
AcDbEntity
  8
H16-2
 62
     7
100
AcDbSpline
210
0.0
220
0.0
230
1.0
 70
    11
 71
     3
 72
    17
 73
    13
 74
     0
 42
0.0000000001
 43
0.0000000001
 40
0.0
 40
0.0
 40
0.0
 40
0.0
 40
1.0
 40
1.0
 40
1.0
 40
2.0
 40
2.0
 40
2.0
 40
3.0
 40
3.0
 40
3.0
 40
4.0
 40
4.0
 40
4.0
 40
4.0
 10
96.18620469835068
 20
125.3901068793403
 30
0.0
 10
96.03875461154513
 20
125.8090304904514
 30
0.0
 10
95.6783976236979
 20
126.0749918619792
 30
0.0
 10
95.32406955295139
 20
126.0615559895833
 30
0.0
 10
95.13131646050347
 20
125.8328016493055
 30
0.0
 10
95.06275906032985
 20
125.4765787760417
 30
0.0
 10
95.17816975911458
 20
125.1248345269097
 30
0.0
 10
95.31924641927083
 20
124.6928195529514
 30
0.0
 10
95.68597683376736
 20
124.4144558376736
 30
0.0
 10
96.04874538845485
 20
124.4330593532986
 30
0.0
 10
96.24683837890625
 20
124.6645697699653
 30
0.0
 10
96.31229519314235
 20
125.0328504774305
 30
0.0
 10
96.18620469835068
 20
125.3901068793403
 30
0.0
  0
SPLINE
  5
4D
330
A
100
AcDbEntity
  8
H16-2
 62
     7
100
AcDbSpline
210
0.0
220
0.0
230
1.0
 70
    11
 71
     3
 72
    17
 73
    13
 74
     0
 42
0.0000000001
 43
0.0000000001
 40
0.0
 40
0.0
 40
0.0
 40
0.0
 40
1.0
 40
1.0
 40
1.0
 40
2.0
 40
2.0
 40
2.0
 40
3.0
 40
3.0
 40
3.0
 40
4.0
 40
4.0
 40
4.0
 40
4.0
 10
96.18620469835068
 20
117.2762179904514
 30
0.0
 10
96.03875461154513
 20
117.6951416015625
 30
0.0
 10
95.6783976236979
 20
117.9611029730903
 30
0.0
 10
95.32406955295139
 20
117.9476671006944
 30
0.0
 10
95.13131646050347
 20
117.7189127604167
 30
0.0
 10
95.06275906032985
 20
117.3626898871528
 30
0.0
 10
95.17816975911458
 20
117.0109456380208
 30
0.0
 10
95.31924641927083
 20
116.5789306640625
 30
0.0
 10
95.68597683376736
 20
116.3005669487847
 30
0.0
 10
96.04874538845485
 20
116.3191704644097
 30
0.0
 10
96.24683837890625
 20
116.5506808810764
 30
0.0
 10
96.31229519314235
 20
116.9189615885417
 30
0.0
 10
96.18620469835068
 20
117.2762179904514
 30
0.0
  0
SPLINE
  5
4C
330
A
100
AcDbEntity
  8
H16-2
 62
     7
100
AcDbSpline
210
0.0
220
0.0
230
1.0
 70
    11
 71
     3
 72
    17
 73
    13
 74
     0
 42
0.0000000001
 43
0.0000000001
 40
0.0
 40
0.0
 40
0.0
 40
0.0
 40
1.0
 40
1.0
 40
1.0
 40
2.0
 40
2.0
 40
2.0
 40
3.0
 40
3.0
 40
3.0
 40
4.0
 40
4.0
 40
4.0
 40
4.0
 10
96.18620469835068
 20
108.8095513237847
 30
0.0
 10
96.03875461154513
 20
109.2284749348958
 30
0.0
 10
95.6783976236979
 20
109.4944363064236
 30
0.0
 10
95.32406955295139
 20
109.4810004340278
 30
0.0
 10
95.13131646050347
 20
109.25224609375
 30
0.0
 10
95.06275906032985
 20
108.8960232204861
 30
0.0
 10
95.17816975911458
 20
108.5442789713542
 30
0.0
 10
95.31924641927083
 20
108.1122639973958
 30
0.0
 10
95.68597683376736
 20
107.8339002821181
 30
0.0
 10
96.04874538845485
 20
107.852503797743
 30
0.0
 10
96.24683837890625
 20
108.0840142144097
 30
0.0
 10
96.31229519314235
 20
108.452294921875
 30
0.0
 10
96.18620469835068
 20
108.8095513237847
 30
0.0
  0
SPLINE
  5
4B
330
A
100
AcDbEntity
  8
H16-2
 62
     7
100
AcDbSpline
210
0.0
220
0.0
230
1.0
 70
    11
 71
     3
 72
    17
 73
    13
 74
     0
 42
0.0000000001
 43
0.0000000001
 40
0.0
 40
0.0
 40
0.0
 40
0.0
 40
1.0
 40
1.0
 40
1.0
 40
2.0
 40
2.0
 40
2.0
 40
3.0
 40
3.0
 40
3.0
 40
4.0
 40
4.0
 40
4.0
 40
4.0
 10
96.18620469835068
 20
100.3428846571181
 30
0.0
 10
96.03875461154513
 20
100.7618082682292
 30
0.0
 10
95.6783976236979
 20
101.0277696397569
 30
0.0
 10
95.32406955295139
 20
101.0143337673611
 30
0.0
 10
95.13131646050347
 20
100.7855794270833
 30
0.0
 10
95.06275906032985
 20
100.4293565538194
 30
0.0
 10
95.17816975911458
 20
100.0776123046875
 30
0.0
 10
95.31924641927083
 20
99.64559733072916
 30
0.0
 10
95.68597683376736
 20
99.36723361545138
 30
0.0
 10
96.04874538845485
 20
99.38583713107639
 30
0.0
 10
96.24683837890625
 20
99.61734754774305
 30
0.0
 10
96.31229519314235
 20
99.98562825520833
 30
0.0
 10
96.18620469835068
 20
100.3428846571181
 30
0.0
  0
SPLINE
  5
4A
330
A
100
AcDbEntity
  8
H16-2
 62
     7
100
AcDbSpline
210
0.0
220
0.0
230
1.0
 70
     8
 71
     3
 72
    20
 73
    16
 74
     0
 42
0.0000000001
 43
0.0000000001
 40
0.0
 40
0.0
 40
0.0
 40
0.0
 40
1.0
 40
1.0
 40
1.0
 40
2.0
 40
2.0
 40
2.0
 40
3.0
 40
3.0
 40
3.0
 40
4.0
 40
4.0
 40
4.0
 40
5.0
 40
5.0
 40
5.0
 40
5.0
 10
73.20448947482639
 20
91.25989040798611
 30
0.0
 10
73.46907280815971
 20
90.55433485243054
 30
0.0
 10
74.52740614149305
 20
90.99530707465277
 30
0.0
 10
74.52740614149305
 20
90.99530707465277
 30
0.0
 10
74.52740614149305
 20
90.99530707465277
 30
0.0
 10
89.78504503038194
 20
96.37516818576388
 30
0.0
 10
89.78504503038194
 20
96.37516818576388
 30
0.0
 10
90.49060058593749
 20
96.68384874131944
 30
0.0
 10
90.49060058593749
 20
97.25711263020833
 30
0.0
 10
90.49060058593749
 20
97.25711263020833
 30
0.0
 10
90.49060058593749
 20
97.25711263020833
 30
0.0
 10
90.49060058593749
 20
138.0029459635417
 30
0.0
 10
90.49060058593749
 20
138.0029459635417
 30
0.0
 10
90.49060058593749
 20
138.0029459635417
 30
0.0
 10
100.0157728407118
 20
153.0400987413194
 30
0.0
 10
100.0157728407118
 20
153.0400987413194
 30
0.0
  0
SPLINE
  5
49
330
A
100
AcDbEntity
  8
H16-2
 62
     7
100
AcDbSpline
210
0.0
220
0.0
230
1.0
 70
     8
 71
     3
 72
    17
 73
    13
 74
     0
 42
0.0000000001
 43
0.0000000001
 40
0.0
 40
0.0
 40
0.0
 40
0.0
 40
1.0
 40
1.0
 40
1.0
 40
2.0
 40
2.0
 40
2.0
 40
3.0
 40
3.0
 40
3.0
 40
4.0
 40
4.0
 40
4.0
 40
4.0
 10
120.8401692708333
 20
111.6004231770833
 30
0.0
 10
120.8401692708333
 20
111.6004231770833
 30
0.0
 10
120.8401692708333
 20
93.90744628906249
 30
0.0
 10
120.8401692708333
 20
93.90744628906249
 30
0.0
 10
120.8401692708333
 20
93.90744628906249
 30
0.0
 10
120.9052815755208
 20
93.28526204427082
 30
0.0
 10
120.4708550347222
 20
93.08820258246527
 30
0.0
 10
120.4708550347222
 20
93.08820258246527
 30
0.0
 10
103.6581000434028
 20
87.90057779947917
 30
0.0
 10
103.6581000434028
 20
87.90057779947917
 30
0.0
 10
103.6581000434028
 20
87.90057779947917
 30
0.0
 10
103.2359035915799
 20
87.5980984157986
 30
0.0
 10
102.3617106119792
 20
88.15999348958333
 30
0.0
  0
SPLINE
  5
48
330
A
100
AcDbEntity
  8
H16-2
 62
     7
100
AcDbSpline
210
0.0
220
0.0
230
1.0
 70
    11
 71
     3
 72
    35
 73
    31
 74
     0
 42
0.0000000001
 43
0.0000000001
 40
0.0
 40
0.0
 40
0.0
 40
0.0
 40
1.0
 40
1.0
 40
1.0
 40
2.0
 40
2.0
 40
2.0
 40
3.0
 40
3.0
 40
3.0
 40
4.0
 40
4.0
 40
4.0
 40
5.0
 40
5.0
 40
5.0
 40
6.0
 40
6.0
 40
6.0
 40
7.0
 40
7.0
 40
7.0
 40
8.0
 40
8.0
 40
8.0
 40
9.0
 40
9.0
 40
9.0
 40
10.0
 40
10.0
 40
10.0
 40
10.0
 10
130.2607828776042
 20
115.2567030164931
 30
0.0
 10
130.2607828776042
 20
115.2567030164931
 30
0.0
 10
130.2607828776042
 20
92.61209038628472
 30
0.0
 10
130.2607828776042
 20
92.61209038628472
 30
0.0
 10
130.148472764757
 20
92.02539062499999
 30
0.0
 10
129.6261962890625
 20
91.92548285590277
 30
0.0
 10
129.6261962890625
 20
91.92548285590277
 30
0.0
 10
129.6261962890625
 20
91.92548285590277
 30
0.0
 10
113.7677327473958
 20
86.78850097656249
 30
0.0
 10
113.7677327473958
 20
86.78850097656249
 30
0.0
 10
113.2489013671875
 20
86.52908528645833
 30
0.0
 10
112.5578152126736
 20
86.70202907986111
 30
0.0
 10
112.5578152126736
 20
86.70202907986111
 30
0.0
 10
112.5578152126736
 20
86.70202907986111
 30
0.0
 10
103.156494140625
 20
87.71764322916665
 30
0.0
 10
103.156494140625
 20
87.71764322916665
 30
0.0
 10
102.4073581271701
 20
87.92917209201389
 30
0.0
 10
102.1887668185764
 20
88.41940917968749
 30
0.0
 10
102.1887668185764
 20
88.41940917968749
 30
0.0
 10
102.1887668185764
 20
88.41940917968749
 30
0.0
 10
102.9666693793403
 20
88.3325927734375
 30
0.0
 10
102.9666693793403
 20
88.3325927734375
 30
0.0
 10
102.9666693793403
 20
88.3325927734375
 30
0.0
 10
120.2352105034722
 20
93.66697862413194
 30
0.0
 10
120.2352105034722
 20
93.66697862413194
 30
0.0
 10
120.2352105034722
 20
93.66697862413194
 30
0.0
 10
120.2352105034722
 20
111.4877685546875
 30
0.0
 10
120.2352105034722
 20
111.4877685546875
 30
0.0
 10
120.2352105034722
 20
111.4877685546875
 30
0.0
 10
130.2607828776042
 20
115.2567030164931
 30
0.0
 10
130.2607828776042
 20
115.2567030164931
 30
0.0
  0
SPLINE
  5
47
330
A
100
AcDbEntity
  8
H16-2
 62
     7
100
AcDbSpline
210
0.0
220
0.0
230
1.0
 70
    11
 71
     3
 72
    17
 73
    13
 74
     0
 42
0.0000000001
 43
0.0000000001
 40
0.0
 40
0.0
 40
0.0
 40
0.0
 40
1.0
 40
1.0
 40
1.0
 40
2.0
 40
2.0
 40
2.0
 40
3.0
 40
3.0
 40
3.0
 40
4.0
 40
4.0
 40
4.0
 40
4.0
 10
125.9175509982639
 20
104.8215087890625
 30
0.0
 10
125.7769911024305
 20
105.2197618272569
 30
0.0
 10
125.4345486111111
 20
105.4722873263889
 30
0.0
 10
125.0983072916667
 20
105.4595404730903
 30
0.0
 10
124.9150282118056
 20
105.2424994574653
 30
0.0
 10
124.8502604166667
 20
104.9038465711806
 30
0.0
 10
124.959814453125
 20
104.5696723090278
 30
0.0
 10
125.0934841579861
 20
104.1593614366319
 30
0.0
 10
125.4421278211806
 20
103.8947781032986
 30
0.0
 10
125.7866373697917
 20
103.9126925998264
 30
0.0
 10
125.9754286024305
 20
104.1324896918403
 30
0.0
 10
126.0374403211805
 20
104.4825113932292
 30
0.0
 10
125.9175509982639
 20
104.8215087890625
 30
0.0
  0
SPLINE
  5
46
330
A
100
AcDbEntity
  8
H16-2
 62
     7
100
AcDbSpline
210
0.0
220
0.0
230
1.0
 70
    11
 71
     3
 72
    17
 73
    13
 74
     0
 42
0.0000000001
 43
0.0000000001
 40
0.0
 40
0.0
 40
0.0
 40
0.0
 40
1.0
 40
1.0
 40
1.0
 40
2.0
 40
2.0
 40
2.0
 40
3.0
 40
3.0
 40
3.0
 40
4.0
 40
4.0
 40
4.0
 40
4.0
 10
125.9175509982639
 20
96.34622938368055
 30
0.0
 10
125.7769911024305
 20
96.74379340277777
 30
0.0
 10
125.4345486111111
 20
96.99666341145833
 30
0.0
 10
125.0983072916667
 20
96.98391655815972
 30
0.0
 10
124.9150282118056
 20
96.76653103298611
 30
0.0
 10
124.8502604166667
 20
96.42822265624999
 30
0.0
 10
124.959814453125
 20
96.09404839409721
 30
0.0
 10
125.0934841579861
 20
95.68339301215276
 30
0.0
 10
125.4421278211806
 20
95.41915418836804
 30
0.0
 10
125.7866373697917
 20
95.43672417534721
 30
0.0
 10
125.9754286024305
 20
95.6565212673611
 30
0.0
 10
126.0374403211805
 20
96.00654296875
 30
0.0
 10
125.9175509982639
 20
96.34622938368055
 30
0.0
  0
INSERT
  5
41
330
A
100
AcDbEntity
  8
H16-2
 62
     7
100
AcDbBlockReference
  2
AI9-BLK6
 10
120.3015285915799
 20
91.93142564561632
 30
0.0
  0
INSERT
  5
3B
330
A
100
AcDbEntity
  8
H16-2
 62
     7
100
AcDbBlockReference
  2
AI9-BLK5
 10
83.60488823784722
 20
90.80711873372395
 30
0.0
  0
INSERT
  5
35
330
A
100
AcDbEntity
  8
H16-2
 62
     7
100
AcDbBlockReference
  2
AI9-BLK4
 10
84.49458414713541
 20
93.39783053927951
 30
0.0
  0
INSERT
  5
2F
330
A
100
AcDbEntity
  8
H16-2
 62
     7
100
AcDbBlockReference
  2
AI9-BLK3
 10
89.48799167209201
 20
92.81276719835068
 30
0.0
  0
INSERT
  5
29
330
A
100
AcDbEntity
  8
H16-2
 62
     7
100
AcDbBlockReference
  2
AI9-BLK2
 10
116.8324896918403
 20
89.16432495117186
 30
0.0
  0
INSERT
  5
23
330
A
100
AcDbEntity
  8
H16-2
 62
     7
100
AcDbBlockReference
  2
AI9-BLK1
 10
112.0635301378038
 20
89.57885606553819
 30
0.0
  0
ENDSEC
  0
SECTION
  2
OBJECTS
  0
DICTIONARY
  5
19
330
0
100
AcDbDictionary
281
     1
  3
ACAD_COLOR
350
53A
  3
ACAD_GROUP
350
1A
  3
ACAD_LAYOUT
350
507
  3
ACAD_MATERIAL
350
53C
  3
ACAD_MLINESTYLE
350
1B
  3
ACAD_PLOTSETTINGS
350
508
  3
ACAD_PLOTSTYLENAME
350
505
  3
ACDBHEADERROUNDTRIPXREC
350
539
  0
DICTIONARY
  5
53A
102
{ACAD_REACTORS
330
19
102
}
330
19
100
AcDbDictionary
281
     1
  0
DICTIONARY
  5
1A
102
{ACAD_REACTORS
330
19
102
}
330
19
100
AcDbDictionary
281
     1
  0
DICTIONARY
  5
507
102
{ACAD_REACTORS
330
19
102
}
330
19
100
AcDbDictionary
281
     1
  3
Layout1
350
50A
  3
Model
350
509
  0
DICTIONARY
  5
53C
102
{ACAD_REACTORS
330
19
102
}
330
19
100
AcDbDictionary
281
     1
  0
DICTIONARY
  5
1B
102
{ACAD_REACTORS
330
19
102
}
330
19
100
AcDbDictionary
281
     1
  3
STANDARD
350
1C
  0
DICTIONARY
  5
508
102
{ACAD_REACTORS
330
19
102
}
330
19
100
AcDbDictionary
281
     1
  0
ACDBDICTIONARYWDFLT
  5
505
102
{ACAD_REACTORS
330
19
102
}
330
19
100
AcDbDictionary
281
     1
  3
Normal
350
506
100
AcDbDictionaryWithDefault
340
506
  0
DICTIONARY
  5
539
102
{ACAD_REACTORS
330
19
102
}
330
19
100
AcDbDictionary
281
     1
  3
COLORDICT
350
53B
  3
MATERIALDICT
350
53D
  0
LAYOUT
  5
50A
102
{ACAD_REACTORS
330
507
102
}
102
{ACAD_XDICTIONARY
360
53E
102
}
330
507
100
AcDbPlotSettings
  1

  2
Support Center HP LaserJet 4
  4

  6

 40
0.0
 41
0.0
 42
0.0
 43
0.0
 44
0.0
 45
0.0
 46
0.0
 47
0.0
 48
0.0
 49
0.0
140
0.0
141
0.0
142
1.0
143
1.0
 70
   688
 72
     0
 73
     0
 74
     5
  7

 75
    16
147
1.0
148
0.0
149
0.0
100
AcDbLayout
  1
Layout1
 70
     0
 71
     1
 10
0.0
 20
0.0
 11
12.0
 21
9.0
 12
0.0
 22
0.0
 32
0.0
 14
1.000000000000000E+20
 24
1.000000000000000E+20
 34
1.000000000000000E+20
 15
-1.000000000000000E+20
 25
-1.000000000000000E+20
 35
-1.000000000000000E+20
146
0.0
 13
0.0
 23
0.0
 33
0.0
 16
1.0
 26
0.0
 36
0.0
 17
0.0
 27
1.0
 37
0.0
 76
     0
330
B
  0
LAYOUT
  5
509
102
{ACAD_REACTORS
330
507
102
}
102
{ACAD_XDICTIONARY
360
540
102
}
330
507
100
AcDbPlotSettings
  1

  2
Support Center HP LaserJet 4
  4

  6

 40
0.0
 41
0.0
 42
0.0
 43
0.0
 44
0.0
 45
0.0
 46
0.0
 47
0.0
 48
0.0
 49
0.0
140
0.0
141
0.0
142
1.0
143
1.0
 70
  1712
 72
     0
 73
     0
 74
     0
  7

 75
     0
147
1.0
148
0.0
149
0.0
100
AcDbLayout
  1
Model
 70
     1
 71
     0
 10
0.0
 20
0.0
 11
12.0
 21
9.0
 12
0.0
 22
0.0
 32
0.0
 14
0.0
 24
0.0
 34
0.0
 15
0.0
 25
0.0
 35
0.0
146
0.0
 13
0.0
 23
0.0
 33
0.0
 16
1.0
 26
0.0
 36
0.0
 17
0.0
 27
1.0
 37
0.0
 76
     0
330
A
  0
MLINESTYLE
  5
1C
102
{ACAD_REACTORS
330
1B
102
}
330
1B
100
AcDbMlineStyle
  2
STANDARD
 70
     0
  3

 62
     0
 51
90.0000000000002
 52
90.0000000000002
 71
     2
 49
0.5
 62
   256
  6
BYLAYER
 49
-0.5
 62
   256
  6
BYLAYER
  0
ACDBPLACEHOLDER
  5
506
102
{ACAD_REACTORS
330
505
102
}
330
505
  0
XRECORD
  5
53B
102
{ACAD_REACTORS
330
539
102
}
330
539
100
AcDbXrecord
340
53A
  0
XRECORD
  5
53D
102
{ACAD_REACTORS
330
539
102
}
330
539
100
AcDbXrecord
340
53C
  0
DICTIONARY
  5
53E
330
50A
100
AcDbDictionary
280
     1
281
     1
  3
ACAD_XREC_ROUNDTRIP
360
53F
  0
DICTIONARY
  5
540
330
509
100
AcDbDictionary
280
     1
281
     1
  3
ACAD_XREC_ROUNDTRIP
360
541
  0
XRECORD
  5
53F
102
{ACAD_REACTORS
330
53E
102
}
330
53E
100
AcDbXrecord
102
SHADEPLOT
 70
 15296
102
SHADEPLOTRESLEVEL
 70
 22216
102
SHADEPLOTCUSTOMDPI
 70
 22256
  0
XRECORD
  5
541
102
{ACAD_REACTORS
330
540
102
}
330
540
100
AcDbXrecord
102
SHADEPLOT
 70
  4264
102
SHADEPLOTRESLEVEL
 70
-31226
102
SHADEPLOTCUSTOMDPI
 70
-32688
  0
ENDSEC
  0
EOF
