  0
SECTION
  2
HEADER
  9
$ACADVER
  1
AC1015
  9
$ACADMAINTVER
 70
     6
  9
$DWGCODEPAGE
  3
ANSI_1252
  9
$INSBASE
 10
0.0
 20
0.0
 30
0.0
  9
$EXTMIN
 10
0.163
 20
-0.033
 30
0.0
  9
$EXTMAX
 10
2.998
 20
2.936
 30
0.0
  9
$LIMMIN
 10
0.0
 20
0.0
  9
$LIMMAX
 10
17.0
 20
11.0
  9
$ORTHOMODE
 70
     0
  9
$REGENMODE
 70
     0
  9
$FILLMODE
 70
     1
  9
$QTEXTMODE
 70
     0
  9
$MIRRTEXT
 70
     1
  9
$LTSCALE
 40
0.125
  9
$ATTMODE
 70
     1
  9
$TEXTSIZE
 40
0.125
  9
$TRACEWID
 40
0.05
  9
$TEXTSTYLE
  7
STANDARD
  9
$CLAYER
  8
0
  9
$CELTYPE
  6
ByLayer
  9
$CECOLOR
 62
   256
  9
$CELTSCALE
 40
1.0
  9
$DISPSILH
 70
     0
  9
$DIMSCALE
 40
1.0
  9
$DIMASZ
 40
0.125
  9
$DIMEXO
 40
0.063
  9
$DIMDLI
 40
0.38
  9
$DIMRND
 40
0.0
  9
$DIMDLE
 40
0.0
  9
$DIMEXE
 40
0.18
  9
$DIMTP
 40
0.0
  9
$DIMTM
 40
0.0
  9
$DIMTXT
 40
0.125
  9
$DIMCEN
 40
0.09
  9
$DIMTSZ
 40
0.0
  9
$DIMTOL
 70
     0
  9
$DIMLIM
 70
     0
  9
$DIMTIH
 70
     1
  9
$DIMTOH
 70
     1
  9
$DIMSE1
 70
     0
  9
$DIMSE2
 70
     0
  9
$DIMTAD
 70
     0
  9
$DIMZIN
 70
     0
  9
$DIMBLK
  1

  9
$DIMASO
 70
     0
  9
$DIMSHO
 70
     0
  9
$DIMPOST
  1

  9
$DIMAPOST
  1

  9
$DIMALT
 70
     0
  9
$DIMALTD
 70
     2
  9
$DIMALTF
 40
25.4
  9
$DIMLFAC
 40
1.0
  9
$DIMTOFL
 70
     0
  9
$DIMTVP
 40
0.0
  9
$DIMTIX
 70
     0
  9
$DIMSOXD
 70
     0
  9
$DIMSAH
 70
     0
  9
$DIMBLK1
  1

  9
$DIMBLK2
  1

  9
$DIMSTYLE
  2
Standard
  9
$DIMCLRD
 70
     0
  9
$DIMCLRE
 70
     0
  9
$DIMCLRT
 70
     0
  9
$DIMTFAC
 40
1.0
  9
$DIMGAP
 40
0.09
  9
$DIMJUST
 70
     0
  9
$DIMSD1
 70
     0
  9
$DIMSD2
 70
     0
  9
$DIMTOLJ
 70
     1
  9
$DIMTZIN
 70
     0
  9
$DIMALTZ
 70
     0
  9
$DIMALTTZ
 70
     0
  9
$DIMUPT
 70
     0
  9
$DIMDEC
 70
     4
  9
$DIMTDEC
 70
     4
  9
$DIMALTU
 70
     2
  9
$DIMALTTD
 70
     2
  9
$DIMTXSTY
  7
STANDARD
  9
$DIMAUNIT
 70
     0
  9
$DIMADEC
 70
     0
  9
$DIMALTRND
 40
0.0
  9
$DIMAZIN
 70
     0
  9
$DIMDSEP
 70
    46
  9
$DIMATFIT
 70
     3
  9
$DIMFRAC
 70
     0
  9
$DIMLDRBLK
  1

  9
$DIMLUNIT
 70
     2
  9
$DIMLWD
 70
    -2
  9
$DIMLWE
 70
    -2
  9
$DIMTMOVE
 70
     0
  9
$LUNITS
 70
     2
  9
$LUPREC
 70
     4
  9
$SKETCHINC
 40
0.1
  9
$FILLETRAD
 40
0.0
  9
$AUNITS
 70
     0
  9
$AUPREC
 70
     0
  9
$MENU
  1
acad
  9
$ELEVATION
 40
0.0
  9
$PELEVATION
 40
0.0
  9
$THICKNESS
 40
0.0
  9
$LIMCHECK
 70
     0
  9
$CHAMFERA
 40
0.0
  9
$CHAMFERB
 40
0.0
  9
$CHAMFERC
 40
1.0
  9
$CHAMFERD
 40
0.0
  9
$SKPOLY
 70
     0
  9
$TDCREATE
 40
2453955.561813287
  9
$TDUCREATE
 40
2453955.895146621
  9
$TDUPDATE
 40
2453955.603479965
  9
$TDUUPDATE
 40
2453955.895146632
  9
$TDINDWG
 40
0.0000000116
  9
$TDUSRTIMER
 40
0.0000000116
  9
$USRTIMER
 70
     1
  9
$ANGBASE
 50
0.0
  9
$ANGDIR
 70
     0
  9
$PDMODE
 70
     0
  9
$PDSIZE
 40
0.0
  9
$PLINEWID
 40
0.0
  9
$SPLFRAME
 70
     0
  9
$SPLINETYPE
 70
     6
  9
$SPLINESEGS
 70
     8
  9
$HANDSEED
  5
1F6
  9
$SURFTAB1
 70
     6
  9
$SURFTAB2
 70
     6
  9
$SURFTYPE
 70
     6
  9
$SURFU
 70
     6
  9
$SURFV
 70
     6
  9
$UCSBASE
  2

  9
$UCSNAME
  2

  9
$UCSORG
 10
0.0
 20
0.0
 30
0.0
  9
$UCSXDIR
 10
1.0
 20
0.0
 30
0.0
  9
$UCSYDIR
 10
0.0
 20
1.0
 30
0.0
  9
$UCSORTHOREF
  2

  9
$UCSORTHOVIEW
 70
     0
  9
$UCSORGTOP
 10
0.0
 20
0.0
 30
0.0
  9
$UCSORGBOTTOM
 10
0.0
 20
0.0
 30
0.0
  9
$UCSORGLEFT
 10
0.0
 20
0.0
 30
0.0
  9
$UCSORGRIGHT
 10
0.0
 20
0.0
 30
0.0
  9
$UCSORGFRONT
 10
0.0
 20
0.0
 30
0.0
  9
$UCSORGBACK
 10
0.0
 20
0.0
 30
0.0
  9
$PUCSBASE
  2

  9
$PUCSNAME
  2

  9
$PUCSORG
 10
0.0
 20
0.0
 30
0.0
  9
$PUCSXDIR
 10
1.0
 20
0.0
 30
0.0
  9
$PUCSYDIR
 10
0.0
 20
1.0
 30
0.0
  9
$PUCSORTHOREF
  2

  9
$PUCSORTHOVIEW
 70
     0
  9
$PUCSORGTOP
 10
0.0
 20
0.0
 30
0.0
  9
$PUCSORGBOTTOM
 10
0.0
 20
0.0
 30
0.0
  9
$PUCSORGLEFT
 10
0.0
 20
0.0
 30
0.0
  9
$PUCSORGRIGHT
 10
0.0
 20
0.0
 30
0.0
  9
$PUCSORGFRONT
 10
0.0
 20
0.0
 30
0.0
  9
$PUCSORGBACK
 10
0.0
 20
0.0
 30
0.0
  9
$USERI1
 70
     0
  9
$USERI2
 70
     0
  9
$USERI3
 70
     0
  9
$USERI4
 70
     0
  9
$USERI5
 70
     0
  9
$USERR1
 40
0.0
  9
$USERR2
 40
0.0
  9
$USERR3
 40
0.0
  9
$USERR4
 40
0.0
  9
$USERR5
 40
0.0
  9
$WORLDVIEW
 70
     1
  9
$SHADEDGE
 70
     3
  9
$SHADEDIF
 70
    70
  9
$TILEMODE
 70
     1
  9
$MAXACTVP
 70
    16
  9
$PINSBASE
 10
0.0
 20
0.0
 30
0.0
  9
$PLIMCHECK
 70
     0
  9
$PEXTMIN
 10
1.000000000000000E+20
 20
1.000000000000000E+20
 30
1.000000000000000E+20
  9
$PEXTMAX
 10
-1.000000000000000E+20
 20
-1.000000000000000E+20
 30
-1.000000000000000E+20
  9
$PLIMMIN
 10
0.0
 20
0.0
  9
$PLIMMAX
 10
12.0
 20
9.0
  9
$UNITMODE
 70
     0
  9
$VISRETAIN
 70
     0
  9
$PLINEGEN
 70
     0
  9
$PSLTSCALE
 70
     0
  9
$TREEDEPTH
 70
  3020
  9
$CMLSTYLE
  2
Standard
  9
$CMLJUST
 70
     0
  9
$CMLSCALE
 40
1.0
  9
$PROXYGRAPHICS
 70
     1
  9
$MEASUREMENT
 70
     0
  9
$CELWEIGHT
370
    -1
  9
$ENDCAPS
280
     0
  9
$JOINSTYLE
280
     0
  9
$LWDISPLAY
290
     0
  9
$INSUNITS
 70
     1
  9
$HYPERLINKBASE
  1

  9
$STYLESHEET
  1

  9
$XEDIT
290
     1
  9
$CEPSNTYPE
380
     0
  9
$PSTYLEMODE
290
     0
  9
$FINGERPRINTGUID
  2
{FAEB1C30-E019-11D5-929B-00C0DF256EC4}
  9
$VERSIONGUID
  2
{FAEB1C32-E019-11D5-929B-00C0DF256EC4}
  9
$EXTNAMES
290
     1
  9
$PSVPSCALE
 40
0.0
  9
$OLESTARTUP
290
     0
  0
ENDSEC
  0
SECTION
  2
CLASSES
  0
CLASS
  1
ACDBDICTIONARYWDFLT
  2
AcDbDictionaryWithDefault
  3
AutoCAD 2000
 90
        0
280
     0
281
     0
  0
CLASS
  1
ACDBPLACEHOLDER
  2
AcDbPlaceHolder
  3
ObjectDBX Classes
 90
        0
280
     0
281
     0
  0
CLASS
  1
LAYOUT
  2
AcDbLayout
  3
ObjectDBX Classes
 90
        0
280
     0
281
     0
  0
ENDSEC
  0
SECTION
  2
TABLES
  0
TABLE
  2
VPORT
  5
8
330
0
100
AcDbSymbolTable
 70
     2
  0
VPORT
  5
1E
330
8
100
AcDbSymbolTableRecord
100
AcDbViewportTableRecord
  2
*ACTIVE
 70
     0
 10
0.0
 20
0.0
 11
1.0
 21
1.0
 12
8.5
 22
6.09352705061082
 13
0.0
 23
0.0
 14
1.0
 24
1.0
 15
0.0
 25
0.0
 16
0.0
 26
0.0
 36
1.0
 17
0.0
 27
0.0
 37
0.0
 40
12.25305410122164
 41
0.7207678883071553
 42
50.0
 43
0.0
 44
0.0
 50
0.0
 51
0.0
 71
     0
 72
  2000
 73
     1
 74
     0
 75
     0
 76
     0
 77
     0
 78
     2
281
     0
 65
     1
110
0.0
120
0.0
130
0.0
111
1.0
121
0.0
131
0.0
112
0.0
122
1.0
132
0.0
 79
     0
146
0.0
  0
ENDTAB
  0
TABLE
  2
LTYPE
  5
5
330
0
100
AcDbSymbolTable
 70
     1
  0
LTYPE
  5
10
330
5
100
AcDbSymbolTableRecord
100
AcDbLinetypeTableRecord
  2
ByBlock
 70
     0
  3

 72
    65
 73
     0
 40
0.0
  0
LTYPE
  5
11
330
5
100
AcDbSymbolTableRecord
100
AcDbLinetypeTableRecord
  2
ByLayer
 70
     0
  3

 72
    65
 73
     0
 40
0.0
  0
LTYPE
  5
1B
330
5
100
AcDbSymbolTableRecord
100
AcDbLinetypeTableRecord
  2
CONTINUOUS
 70
     0
  3
Solid line
 72
    65
 73
     0
 40
0.0
  0
ENDTAB
  0
TABLE
  2
LAYER
  5
2
330
0
100
AcDbSymbolTable
 70
     1
  0
LAYER
  5
1C
330
2
100
AcDbSymbolTableRecord
100
AcDbLayerTableRecord
  2
0
 70
     0
 62
     7
  6
CONTINUOUS
370
    -3
390
F
  0
ENDTAB
  0
TABLE
  2
STYLE
  5
3
330
0
100
AcDbSymbolTable
 70
     1
  0
STYLE
  5
20
330
3
100
AcDbSymbolTableRecord
100
AcDbTextStyleTableRecord
  2
STANDARD
 70
     0
 40
0.0
 41
1.0
 50
0.0
 71
     0
 42
0.125
  3
ROMANS
  4

  0
ENDTAB
  0
TABLE
  2
VIEW
  5
6
330
0
100
AcDbSymbolTable
 70
     0
  0
ENDTAB
  0
TABLE
  2
UCS
  5
7
330
0
100
AcDbSymbolTable
 70
     0
  0
ENDTAB
  0
TABLE
  2
APPID
  5
9
330
0
100
AcDbSymbolTable
 70
     1
  0
APPID
  5
1F
330
9
100
AcDbSymbolTableRecord
100
AcDbRegAppTableRecord
  2
ACAD
 70
     0
  0
ENDTAB
  0
TABLE
  2
DIMSTYLE
  5
A
330
0
100
AcDbSymbolTable
 70
     1
100
AcDbDimStyleTable
  0
DIMSTYLE
105
21
330
A
100
AcDbSymbolTableRecord
100
AcDbDimStyleTableRecord
  2
Standard
 70
     0
  3

  4

340
20
  0
ENDTAB
  0
TABLE
  2
BLOCK_RECORD
  5
1
330
0
100
AcDbSymbolTable
 70
     0
  0
BLOCK_RECORD
  5
18
330
1
100
AcDbSymbolTableRecord
100
AcDbBlockTableRecord
  2
*Model_Space
340
19
  0
BLOCK_RECORD
  5
16
330
1
100
AcDbSymbolTableRecord
100
AcDbBlockTableRecord
  2
*Paper_Space
340
17
  0
ENDTAB
  0
ENDSEC
  0
SECTION
  2
BLOCKS
  0
BLOCK
  5
1EB
330
18
100
AcDbEntity
  8
0
100
AcDbBlockBegin
  2
*Model_Space
 70
     0
 10
0.0
 20
0.0
 30
0.0
  3
*Model_Space
  1

  4

  0
ENDBLK
  5
1EC
330
18
100
AcDbEntity
  8
0
100
AcDbBlockEnd
  0
BLOCK
  5
1E9
330
16
100
AcDbEntity
 67
     1
  8
0
100
AcDbBlockBegin
  2
*Paper_Space
 70
     0
 10
0.0
 20
0.0
 30
0.0
  3
*Paper_Space
  1

  4

  0
ENDBLK
  5
1EA
330
16
100
AcDbEntity
 67
     1
  8
0
100
AcDbBlockEnd
  0
ENDSEC
  0
SECTION
  2
ENTITIES
  0
ARC
  5
22
330
18
100
AcDbEntity
  8
0
100
AcDbCircle
 10
1.548
 20
1.574
 30
0.0
 40
0.008
100
AcDbArc
 50
54.05799999999999
 51
86.63500000000001
  0
ARC
  5
23
330
18
100
AcDbEntity
  8
0
100
AcDbCircle
 10
1.545
 20
1.57
 30
0.0
 40
0.014
100
AcDbArc
 50
29.589
 51
54.05799999999999
  0
ARC
  5
24
330
18
100
AcDbEntity
  8
0
100
AcDbCircle
 10
1.54
 20
1.567
 30
0.0
 40
0.019
100
AcDbArc
 50
11.666
 51
29.589
  0
ARC
  5
25
330
18
100
AcDbEntity
  8
0
100
AcDbCircle
 10
1.532
 20
1.565
 30
0.0
 40
0.028
100
AcDbArc
 50
356.635
 51
11.666
  0
ARC
  5
26
330
18
100
AcDbEntity
  8
0
100
AcDbCircle
 10
1.532
 20
1.565
 30
0.0
 40
0.028
100
AcDbArc
 50
341.605
 51
356.635
  0
ARC
  5
27
330
18
100
AcDbEntity
  8
0
100
AcDbCircle
 10
1.54
 20
1.562
 30
0.0
 40
0.019
100
AcDbArc
 50
323.682
 51
341.605
  0
ARC
  5
28
330
18
100
AcDbEntity
  8
0
100
AcDbCircle
 10
1.544
 20
1.559
 30
0.0
 40
0.014
100
AcDbArc
 50
299.213
 51
323.682
  0
ARC
  5
29
330
18
100
AcDbEntity
  8
0
100
AcDbCircle
 10
1.547
 20
1.554
 30
0.0
 40
0.008
100
AcDbArc
 50
266.635
 51
299.213
  0
ARC
  5
2A
330
18
100
AcDbEntity
  8
0
100
AcDbCircle
 10
1.547
 20
1.554
 30
0.0
 40
0.008
100
AcDbArc
 50
234.058
 51
266.635
  0
ARC
  5
2B
330
18
100
AcDbEntity
  8
0
100
AcDbCircle
 10
1.551
 20
1.559
 30
0.0
 40
0.014
100
AcDbArc
 50
209.589
 51
234.058
  0
ARC
  5
2C
330
18
100
AcDbEntity
  8
0
100
AcDbCircle
 10
1.556
 20
1.561
 30
0.0
 40
0.019
100
AcDbArc
 50
191.666
 51
209.589
  0
ARC
  5
2D
330
18
100
AcDbEntity
  8
0
100
AcDbCircle
 10
1.564
 20
1.563
 30
0.0
 40
0.028
100
AcDbArc
 50
176.635
 51
191.666
  0
ARC
  5
2E
330
18
100
AcDbEntity
  8
0
100
AcDbCircle
 10
1.564
 20
1.563
 30
0.0
 40
0.028
100
AcDbArc
 50
161.605
 51
176.635
  0
ARC
  5
2F
330
18
100
AcDbEntity
  8
0
100
AcDbCircle
 10
1.556
 20
1.566
 30
0.0
 40
0.019
100
AcDbArc
 50
143.682
 51
161.605
  0
ARC
  5
30
330
18
100
AcDbEntity
  8
0
100
AcDbCircle
 10
1.551
 20
1.569
 30
0.0
 40
0.014
100
AcDbArc
 50
119.213
 51
143.682
  0
ARC
  5
31
330
18
100
AcDbEntity
  8
0
100
AcDbCircle
 10
1.548
 20
1.574
 30
0.0
 40
0.008
100
AcDbArc
 50
86.63500000000001
 51
119.213
  0
ARC
  5
32
330
18
100
AcDbEntity
  8
0
100
AcDbCircle
 10
1.775
 20
1.453
 30
0.0
 40
0.009
100
AcDbArc
 50
46.89199999999999
 51
77.31
  0
ARC
  5
33
330
18
100
AcDbEntity
  8
0
100
AcDbCircle
 10
1.771
 20
1.449
 30
0.0
 40
0.014
100
AcDbArc
 50
22.513
 51
46.89199999999999
  0
ARC
  5
34
330
18
100
AcDbEntity
  8
0
100
AcDbCircle
 10
1.767
 20
1.447
 30
0.0
 40
0.019
100
AcDbArc
 50
3.6
 51
22.513
  0
ARC
  5
35
330
18
100
AcDbEntity
  8
0
100
AcDbCircle
 10
1.76
 20
1.447
 30
0.0
 40
0.025
100
AcDbArc
 50
347.31
 51
3.6
  0
ARC
  5
36
330
18
100
AcDbEntity
  8
0
100
AcDbCircle
 10
1.76
 20
1.447
 30
0.0
 40
0.025
100
AcDbArc
 50
331.021
 51
347.31
  0
ARC
  5
37
330
18
100
AcDbEntity
  8
0
100
AcDbCircle
 10
1.766
 20
1.444
 30
0.0
 40
0.019
100
AcDbArc
 50
312.108
 51
331.021
  0
ARC
  5
38
330
18
100
AcDbEntity
  8
0
100
AcDbCircle
 10
1.769
 20
1.44
 30
0.0
 40
0.014
100
AcDbArc
 50
287.729
 51
312.108
  0
ARC
  5
39
330
18
100
AcDbEntity
  8
0
100
AcDbCircle
 10
1.771
 20
1.435
 30
0.0
 40
0.009
100
AcDbArc
 50
257.31
 51
287.729
  0
ARC
  5
3A
330
18
100
AcDbEntity
  8
0
100
AcDbCircle
 10
1.771
 20
1.435
 30
0.0
 40
0.009
100
AcDbArc
 50
226.892
 51
257.31
  0
ARC
  5
3B
330
18
100
AcDbEntity
  8
0
100
AcDbCircle
 10
1.774
 20
1.439
 30
0.0
 40
0.014
100
AcDbArc
 50
202.513
 51
226.892
  0
ARC
  5
3C
330
18
100
AcDbEntity
  8
0
100
AcDbCircle
 10
1.779
 20
1.441
 30
0.0
 40
0.019
100
AcDbArc
 50
183.6
 51
202.513
  0
ARC
  5
3D
330
18
100
AcDbEntity
  8
0
100
AcDbCircle
 10
1.785
 20
1.441
 30
0.0
 40
0.025
100
AcDbArc
 50
167.31
 51
183.6
  0
ARC
  5
3E
330
18
100
AcDbEntity
  8
0
100
AcDbCircle
 10
1.785
 20
1.441
 30
0.0
 40
0.025
100
AcDbArc
 50
151.021
 51
167.31
  0
ARC
  5
3F
330
18
100
AcDbEntity
  8
0
100
AcDbCircle
 10
1.779
 20
1.444
 30
0.0
 40
0.019
100
AcDbArc
 50
132.108
 51
151.021
  0
ARC
  5
40
330
18
100
AcDbEntity
  8
0
100
AcDbCircle
 10
1.776
 20
1.448
 30
0.0
 40
0.014
100
AcDbArc
 50
107.729
 51
132.108
  0
ARC
  5
41
330
18
100
AcDbEntity
  8
0
100
AcDbCircle
 10
1.775
 20
1.453
 30
0.0
 40
0.009
100
AcDbArc
 50
77.31
 51
107.729
  0
LINE
  5
42
330
18
100
AcDbEntity
  8
0
100
AcDbLine
 10
2.499
 20
0.773
 30
0.0
 11
2.436
 21
0.755
 31
0.0
  0
LINE
  5
43
330
18
100
AcDbEntity
  8
0
100
AcDbLine
 10
2.576
 20
0.858
 30
0.0
 11
2.499
 21
0.773
 31
0.0
  0
LINE
  5
44
330
18
100
AcDbEntity
  8
0
100
AcDbLine
 10
2.478
 20
0.703
 30
0.0
 11
2.436
 21
0.6829999999999999
 31
0.0
  0
LINE
  5
45
330
18
100
AcDbEntity
  8
0
100
AcDbLine
 10
2.619
 20
0.826
 30
0.0
 11
2.478
 21
0.703
 31
0.0
  0
LINE
  5
46
330
18
100
AcDbEntity
  8
0
100
AcDbLine
 10
2.697
 20
0.9259999999999999
 30
0.0
 11
2.619
 21
0.826
 31
0.0
  0
LINE
  5
47
330
18
100
AcDbEntity
  8
0
100
AcDbLine
 10
2.55
 20
0.6709999999999999
 30
0.0
 11
2.436
 21
0.612
 31
0.0
  0
LINE
  5
48
330
18
100
AcDbEntity
  8
0
100
AcDbLine
 10
2.691
 20
0.8079999999999999
 30
0.0
 11
2.55
 21
0.6709999999999999
 31
0.0
  0
LINE
  5
49
330
18
100
AcDbEntity
  8
0
100
AcDbLine
 10
2.797
 20
0.97
 30
0.0
 11
2.691
 21
0.8079999999999999
 31
0.0
  0
LINE
  5
4A
330
18
100
AcDbEntity
  8
0
100
AcDbLine
 10
2.521
 20
0.609
 30
0.0
 11
2.436
 21
0.5589999999999999
 31
0.0
  0
LINE
  5
4B
330
18
100
AcDbEntity
  8
0
100
AcDbLine
 10
2.635
 20
0.69
 30
0.0
 11
2.521
 21
0.609
 31
0.0
  0
LINE
  5
4C
330
18
100
AcDbEntity
  8
0
100
AcDbLine
 10
2.786
 20
0.836
 30
0.0
 11
2.635
 21
0.69
 31
0.0
  0
LINE
  5
4D
330
18
100
AcDbEntity
  8
0
100
AcDbLine
 10
2.873
 20
0.945
 30
0.0
 11
2.786
 21
0.836
 31
0.0
  0
LINE
  5
4E
330
18
100
AcDbEntity
  8
0
100
AcDbLine
 10
2.911
 20
1.028
 30
0.0
 11
2.873
 21
0.945
 31
0.0
  0
LINE
  5
4F
330
18
100
AcDbEntity
  8
0
100
AcDbLine
 10
2.529
 20
0.5579999999999999
 30
0.0
 11
2.436
 21
0.4920000000000001
 31
0.0
  0
LINE
  5
50
330
18
100
AcDbEntity
  8
0
100
AcDbLine
 10
2.711
 20
0.6829999999999999
 30
0.0
 11
2.529
 21
0.5579999999999999
 31
0.0
  0
LINE
  5
51
330
18
100
AcDbEntity
  8
0
100
AcDbLine
 10
2.881
 20
0.838
 30
0.0
 11
2.711
 21
0.6829999999999999
 31
0.0
  0
LINE
  5
52
330
18
100
AcDbEntity
  8
0
100
AcDbLine
 10
2.975
 20
1.06
 30
0.0
 11
2.881
 21
0.838
 31
0.0
  0
LINE
  5
53
330
18
100
AcDbEntity
  8
0
100
AcDbLine
 10
2.855
 20
0.72
 30
0.0
 11
2.795
 21
0.659
 31
0.0
  0
LINE
  5
54
330
18
100
AcDbEntity
  8
0
100
AcDbLine
 10
2.952
 20
0.862
 30
0.0
 11
2.855
 21
0.72
 31
0.0
  0
LINE
  5
55
330
18
100
AcDbEntity
  8
0
100
AcDbLine
 10
2.998
 20
0.9740000000000001
 30
0.0
 11
2.952
 21
0.862
 31
0.0
  0
LINE
  5
56
330
18
100
AcDbEntity
  8
0
100
AcDbLine
 10
2.954
 20
0.748
 30
0.0
 11
2.937
 21
0.73
 31
0.0
  0
LINE
  5
57
330
18
100
AcDbEntity
  8
0
100
AcDbLine
 10
2.998
 20
0.863
 30
0.0
 11
2.954
 21
0.748
 31
0.0
  0
LINE
  5
58
330
18
100
AcDbEntity
  8
0
100
AcDbLine
 10
2.646
 20
0.956
 30
0.0
 11
2.539
 21
0.84
 31
0.0
  0
LINE
  5
59
330
18
100
AcDbEntity
  8
0
100
AcDbLine
 10
2.776
 20
1.058
 30
0.0
 11
2.646
 21
0.956
 31
0.0
  0
LINE
  5
5A
330
18
100
AcDbEntity
  8
0
100
AcDbLine
 10
2.883
 20
1.098
 30
0.0
 11
2.776
 21
1.058
 31
0.0
  0
LINE
  5
5B
330
18
100
AcDbEntity
  8
0
100
AcDbLine
 10
2.998
 20
1.105
 30
0.0
 11
2.883
 21
1.098
 31
0.0
  0
LINE
  5
5C
330
18
100
AcDbEntity
  8
0
100
AcDbLine
 10
2.537
 20
1.007
 30
0.0
 11
2.436
 21
0.9179999999999999
 31
0.0
  0
LINE
  5
5D
330
18
100
AcDbEntity
  8
0
100
AcDbLine
 10
2.728
 20
1.134
 30
0.0
 11
2.537
 21
1.007
 31
0.0
  0
LINE
  5
5E
330
18
100
AcDbEntity
  8
0
100
AcDbLine
 10
2.818
 20
1.209
 30
0.0
 11
2.728
 21
1.134
 31
0.0
  0
LINE
  5
5F
330
18
100
AcDbEntity
  8
0
100
AcDbLine
 10
2.998
 20
1.253
 30
0.0
 11
2.818
 21
1.209
 31
0.0
  0
LINE
  5
60
330
18
100
AcDbEntity
  8
0
100
AcDbLine
 10
2.482
 20
0.8909999999999999
 30
0.0
 11
2.436
 21
0.8320000000000001
 31
0.0
  0
LINE
  5
61
330
18
100
AcDbEntity
  8
0
100
AcDbLine
 10
2.647
 20
1.018
 30
0.0
 11
2.482
 21
0.8909999999999999
 31
0.0
  0
LINE
  5
62
330
18
100
AcDbEntity
  8
0
100
AcDbLine
 10
2.781
 20
1.112
 30
0.0
 11
2.647
 21
1.018
 31
0.0
  0
LINE
  5
63
330
18
100
AcDbEntity
  8
0
100
AcDbLine
 10
2.894
 20
1.179
 30
0.0
 11
2.781
 21
1.112
 31
0.0
  0
LINE
  5
64
330
18
100
AcDbEntity
  8
0
100
AcDbLine
 10
2.998
 20
1.186
 30
0.0
 11
2.894
 21
1.179
 31
0.0
  0
LINE
  5
65
330
18
100
AcDbEntity
  8
0
100
AcDbLine
 10
2.515
 20
1.074
 30
0.0
 11
2.436
 21
1.023
 31
0.0
  0
LINE
  5
66
330
18
100
AcDbEntity
  8
0
100
AcDbLine
 10
2.633
 20
1.137
 30
0.0
 11
2.515
 21
1.074
 31
0.0
  0
LINE
  5
67
330
18
100
AcDbEntity
  8
0
100
AcDbLine
 10
2.734
 20
1.211
 30
0.0
 11
2.633
 21
1.137
 31
0.0
  0
LINE
  5
68
330
18
100
AcDbEntity
  8
0
100
AcDbLine
 10
2.824
 20
1.259
 30
0.0
 11
2.734
 21
1.211
 31
0.0
  0
LINE
  5
69
330
18
100
AcDbEntity
  8
0
100
AcDbLine
 10
2.908
 20
1.292
 30
0.0
 11
2.824
 21
1.259
 31
0.0
  0
LINE
  5
6A
330
18
100
AcDbEntity
  8
0
100
AcDbLine
 10
2.998
 20
1.319
 30
0.0
 11
2.908
 21
1.292
 31
0.0
  0
LINE
  5
6B
330
18
100
AcDbEntity
  8
0
100
AcDbLine
 10
2.697
 20
0.9259999999999999
 30
0.0
 11
2.69
 21
0.9159999999999999
 31
0.0
  0
LINE
  5
6C
330
18
100
AcDbEntity
  8
0
100
AcDbLine
 10
2.764
 20
0.996
 30
0.0
 11
2.697
 21
0.9259999999999999
 31
0.0
  0
LINE
  5
6D
330
18
100
AcDbEntity
  8
0
100
AcDbLine
 10
2.848
 20
1.03
 30
0.0
 11
2.764
 21
0.996
 31
0.0
  0
LINE
  5
6E
330
18
100
AcDbEntity
  8
0
100
AcDbLine
 10
2.911
 20
1.028
 30
0.0
 11
2.848
 21
1.03
 31
0.0
  0
LINE
  5
6F
330
18
100
AcDbEntity
  8
0
100
AcDbLine
 10
0.397
 20
0.584
 30
0.0
 11
0.448
 21
0.458
 31
0.0
  0
LINE
  5
70
330
18
100
AcDbEntity
  8
0
100
AcDbLine
 10
0.444
 20
0.669
 30
0.0
 11
0.519
 21
0.426
 31
0.0
  0
LINE
  5
71
330
18
100
AcDbEntity
  8
0
100
AcDbLine
 10
0.397
 20
0.775
 30
0.0
 11
0.444
 21
0.669
 31
0.0
  0
LINE
  5
72
330
18
100
AcDbEntity
  8
0
100
AcDbLine
 10
0.544
 20
0.5379999999999999
 30
0.0
 11
0.5710000000000001
 21
0.403
 31
0.0
  0
LINE
  5
73
330
18
100
AcDbEntity
  8
0
100
AcDbLine
 10
0.467
 20
0.8220000000000001
 30
0.0
 11
0.544
 21
0.5379999999999999
 31
0.0
  0
LINE
  5
74
330
18
100
AcDbEntity
  8
0
100
AcDbLine
 10
0.397
 20
1.016
 30
0.0
 11
0.467
 21
0.8220000000000001
 31
0.0
  0
LINE
  5
75
330
18
100
AcDbEntity
  8
0
100
AcDbLine
 10
0.653
 20
0.415
 30
0.0
 11
0.657
 21
0.365
 31
0.0
  0
LINE
  5
76
330
18
100
AcDbEntity
  8
0
100
AcDbLine
 10
0.5600000000000001
 20
0.742
 30
0.0
 11
0.653
 21
0.415
 31
0.0
  0
LINE
  5
77
330
18
100
AcDbEntity
  8
0
100
AcDbLine
 10
0.485
 20
1.01
 30
0.0
 11
0.5600000000000001
 21
0.742
 31
0.0
  0
LINE
  5
78
330
18
100
AcDbEntity
  8
0
100
AcDbLine
 10
0.397
 20
1.249
 30
0.0
 11
0.485
 21
1.01
 31
0.0
  0
LINE
  5
79
330
18
100
AcDbEntity
  8
0
100
AcDbLine
 10
0.657
 20
0.6859999999999999
 30
0.0
 11
0.691
 21
0.5579999999999999
 31
0.0
  0
LINE
  5
7A
330
18
100
AcDbEntity
  8
0
100
AcDbLine
 10
0.5479999999999999
 20
1.022
 30
0.0
 11
0.657
 21
0.6859999999999999
 31
0.0
  0
LINE
  5
7B
330
18
100
AcDbEntity
  8
0
100
AcDbLine
 10
0.471
 20
1.3
 30
0.0
 11
0.5479999999999999
 21
1.022
 31
0.0
  0
LINE
  5
7C
330
18
100
AcDbEntity
  8
0
100
AcDbLine
 10
0.397
 20
1.489
 30
0.0
 11
0.471
 21
1.3
 31
0.0
  0
LINE
  5
7D
330
18
100
AcDbEntity
  8
0
100
AcDbLine
 10
0.648
 20
0.98
 30
0.0
 11
0.691
 21
0.8
 31
0.0
  0
LINE
  5
7E
330
18
100
AcDbEntity
  8
0
100
AcDbLine
 10
0.537
 20
1.286
 30
0.0
 11
0.648
 21
0.98
 31
0.0
  0
LINE
  5
7F
330
18
100
AcDbEntity
  8
0
100
AcDbLine
 10
0.465
 20
1.494
 30
0.0
 11
0.537
 21
1.286
 31
0.0
  0
LINE
  5
80
330
18
100
AcDbEntity
  8
0
100
AcDbLine
 10
0.397
 20
1.681
 30
0.0
 11
0.465
 21
1.494
 31
0.0
  0
LINE
  5
81
330
18
100
AcDbEntity
  8
0
100
AcDbLine
 10
0.65
 20
1.203
 30
0.0
 11
0.691
 21
1.081
 31
0.0
  0
LINE
  5
82
330
18
100
AcDbEntity
  8
0
100
AcDbLine
 10
0.606
 20
1.349
 30
0.0
 11
0.65
 21
1.203
 31
0.0
  0
LINE
  5
83
330
18
100
AcDbEntity
  8
0
100
AcDbLine
 10
0.5379999999999999
 20
1.533
 30
0.0
 11
0.606
 21
1.349
 31
0.0
  0
LINE
  5
84
330
18
100
AcDbEntity
  8
0
100
AcDbLine
 10
0.478
 20
1.673
 30
0.0
 11
0.5379999999999999
 21
1.533
 31
0.0
  0
LINE
  5
85
330
18
100
AcDbEntity
  8
0
100
AcDbLine
 10
0.434
 20
1.796
 30
0.0
 11
0.478
 21
1.673
 31
0.0
  0
LINE
  5
86
330
18
100
AcDbEntity
  8
0
100
AcDbLine
 10
0.657
 20
1.378
 30
0.0
 11
0.691
 21
1.316
 31
0.0
  0
LINE
  5
87
330
18
100
AcDbEntity
  8
0
100
AcDbLine
 10
0.597
 20
1.487
 30
0.0
 11
0.657
 21
1.378
 31
0.0
  0
LINE
  5
88
330
18
100
AcDbEntity
  8
0
100
AcDbLine
 10
0.546
 20
1.636
 30
0.0
 11
0.597
 21
1.487
 31
0.0
  0
LINE
  5
89
330
18
100
AcDbEntity
  8
0
100
AcDbLine
 10
0.526
 20
1.761
 30
0.0
 11
0.546
 21
1.636
 31
0.0
  0
LINE
  5
8A
330
18
100
AcDbEntity
  8
0
100
AcDbLine
 10
0.6659999999999999
 20
1.476
 30
0.0
 11
0.691
 21
1.438
 31
0.0
  0
LINE
  5
8B
330
18
100
AcDbEntity
  8
0
100
AcDbLine
 10
0.624
 20
1.555
 30
0.0
 11
0.6659999999999999
 21
1.476
 31
0.0
  0
LINE
  5
8C
330
18
100
AcDbEntity
  8
0
100
AcDbLine
 10
0.585
 20
1.661
 30
0.0
 11
0.624
 21
1.555
 31
0.0
  0
LINE
  5
8D
330
18
100
AcDbEntity
  8
0
100
AcDbLine
 10
0.585
 20
1.737
 30
0.0
 11
0.585
 21
1.661
 31
0.0
  0
LINE
  5
8E
330
18
100
AcDbEntity
  8
0
100
AcDbLine
 10
0.6870000000000001
 20
1.584
 30
0.0
 11
0.691
 21
1.569
 31
0.0
  0
LINE
  5
8F
330
18
100
AcDbEntity
  8
0
100
AcDbLine
 10
0.647
 20
1.679
 30
0.0
 11
0.6870000000000001
 21
1.584
 31
0.0
  0
LINE
  5
90
330
18
100
AcDbEntity
  8
0
100
AcDbLine
 10
0.637
 20
1.717
 30
0.0
 11
0.647
 21
1.679
 31
0.0
  0
ARC
  5
91
330
18
100
AcDbEntity
  8
0
100
AcDbCircle
 10
1.724
 20
1.325
 30
0.0
 40
0.021
100
AcDbArc
 50
89.96799999999999
 51
111.745
  0
ARC
  5
92
330
18
100
AcDbEntity
  8
0
100
AcDbCircle
 10
1.718
 20
1.324
 30
0.0
 40
0.021
100
AcDbArc
 50
64.07600000000001
 51
89.96799999999999
  0
ARC
  5
93
330
18
100
AcDbEntity
  8
0
100
AcDbCircle
 10
1.717
 20
1.32
 30
0.0
 40
0.025
100
AcDbArc
 50
40.444
 51
64.07600000000001
  0
ARC
  5
94
330
18
100
AcDbEntity
  8
0
100
AcDbCircle
 10
1.714
 20
1.318
 30
0.0
 40
0.029
100
AcDbArc
 50
19.435
 51
40.444
  0
ARC
  5
95
330
18
100
AcDbEntity
  8
0
100
AcDbCircle
 10
1.709
 20
1.316
 30
0.0
 40
0.034
100
AcDbArc
 50
359.968
 51
19.435
  0
ARC
  5
96
330
18
100
AcDbEntity
  8
0
100
AcDbCircle
 10
1.709
 20
1.316
 30
0.0
 40
0.034
100
AcDbArc
 50
340.501
 51
359.968
  0
ARC
  5
97
330
18
100
AcDbEntity
  8
0
100
AcDbCircle
 10
1.714
 20
1.315
 30
0.0
 40
0.029
100
AcDbArc
 50
319.493
 51
340.501
  0
ARC
  5
98
330
18
100
AcDbEntity
  8
0
100
AcDbCircle
 10
1.717
 20
1.312
 30
0.0
 40
0.025
100
AcDbArc
 50
295.86
 51
319.493
  0
ARC
  5
99
330
18
100
AcDbEntity
  8
0
100
AcDbCircle
 10
1.718
 20
1.309
 30
0.0
 40
0.021
100
AcDbArc
 50
269.968
 51
295.86
  0
ARC
  5
9A
330
18
100
AcDbEntity
  8
0
100
AcDbCircle
 10
1.718
 20
1.309
 30
0.0
 40
0.021
100
AcDbArc
 50
244.076
 51
269.968
  0
ARC
  5
9B
330
18
100
AcDbEntity
  8
0
100
AcDbCircle
 10
1.72
 20
1.312
 30
0.0
 40
0.025
100
AcDbArc
 50
220.444
 51
244.076
  0
ARC
  5
9C
330
18
100
AcDbEntity
  8
0
100
AcDbCircle
 10
1.723
 20
1.315
 30
0.0
 40
0.029
100
AcDbArc
 50
199.435
 51
220.444
  0
ARC
  5
9D
330
18
100
AcDbEntity
  8
0
100
AcDbCircle
 10
1.728
 20
1.316
 30
0.0
 40
0.034
100
AcDbArc
 50
179.968
 51
199.435
  0
ARC
  5
9E
330
18
100
AcDbEntity
  8
0
100
AcDbCircle
 10
1.728
 20
1.316
 30
0.0
 40
0.034
100
AcDbArc
 50
160.501
 51
179.968
  0
ARC
  5
9F
330
18
100
AcDbEntity
  8
0
100
AcDbCircle
 10
1.723
 20
1.318
 30
0.0
 40
0.029
100
AcDbArc
 50
139.493
 51
160.501
  0
ARC
  5
A0
330
18
100
AcDbEntity
  8
0
100
AcDbCircle
 10
1.72
 20
1.32
 30
0.0
 40
0.025
100
AcDbArc
 50
115.86
 51
139.493
  0
ARC
  5
A1
330
18
100
AcDbEntity
  8
0
100
AcDbCircle
 10
1.718
 20
1.324
 30
0.0
 40
0.021
100
AcDbArc
 50
89.96799999999999
 51
115.86
  0
ARC
  5
A2
330
18
100
AcDbEntity
  8
0
100
AcDbCircle
 10
1.724
 20
1.325
 30
0.0
 40
0.021
100
AcDbArc
 50
64.07600000000001
 51
89.96799999999999
  0
ARC
  5
A3
330
18
100
AcDbEntity
  8
0
100
AcDbCircle
 10
1.722
 20
1.322
 30
0.0
 40
0.025
100
AcDbArc
 50
40.444
 51
64.07600000000001
  0
ARC
  5
A4
330
18
100
AcDbEntity
  8
0
100
AcDbCircle
 10
1.719
 20
1.319
 30
0.0
 40
0.029
100
AcDbArc
 50
19.435
 51
40.444
  0
ARC
  5
A5
330
18
100
AcDbEntity
  8
0
100
AcDbCircle
 10
1.714
 20
1.318
 30
0.0
 40
0.034
100
AcDbArc
 50
359.968
 51
19.435
  0
ARC
  5
A6
330
18
100
AcDbEntity
  8
0
100
AcDbCircle
 10
1.714
 20
1.318
 30
0.0
 40
0.034
100
AcDbArc
 50
340.501
 51
359.968
  0
ARC
  5
A7
330
18
100
AcDbEntity
  8
0
100
AcDbCircle
 10
1.719
 20
1.316
 30
0.0
 40
0.029
100
AcDbArc
 50
319.493
 51
340.501
  0
ARC
  5
A8
330
18
100
AcDbEntity
  8
0
100
AcDbCircle
 10
1.722
 20
1.314
 30
0.0
 40
0.025
100
AcDbArc
 50
295.86
 51
319.493
  0
ARC
  5
A9
330
18
100
AcDbEntity
  8
0
100
AcDbCircle
 10
1.724
 20
1.31
 30
0.0
 40
0.021
100
AcDbArc
 50
277.116
 51
295.86
  0
ARC
  5
AA
330
18
100
AcDbEntity
  8
0
100
AcDbCircle
 10
1.724
 20
1.138
 30
0.0
 40
0.021
100
AcDbArc
 50
64.07600000000001
 51
89.96799999999999
  0
ARC
  5
AB
330
18
100
AcDbEntity
  8
0
100
AcDbCircle
 10
1.722
 20
1.135
 30
0.0
 40
0.025
100
AcDbArc
 50
40.444
 51
64.07600000000001
  0
ARC
  5
AC
330
18
100
AcDbEntity
  8
0
100
AcDbCircle
 10
1.719
 20
1.132
 30
0.0
 40
0.029
100
AcDbArc
 50
19.435
 51
40.444
  0
ARC
  5
AD
330
18
100
AcDbEntity
  8
0
100
AcDbCircle
 10
1.714
 20
1.131
 30
0.0
 40
0.034
100
AcDbArc
 50
359.968
 51
19.435
  0
ARC
  5
AE
330
18
100
AcDbEntity
  8
0
100
AcDbCircle
 10
1.714
 20
1.131
 30
0.0
 40
0.034
100
AcDbArc
 50
340.501
 51
359.968
  0
ARC
  5
AF
330
18
100
AcDbEntity
  8
0
100
AcDbCircle
 10
1.719
 20
1.129
 30
0.0
 40
0.029
100
AcDbArc
 50
319.493
 51
340.501
  0
ARC
  5
B0
330
18
100
AcDbEntity
  8
0
100
AcDbCircle
 10
1.722
 20
1.127
 30
0.0
 40
0.025
100
AcDbArc
 50
295.86
 51
319.493
  0
ARC
  5
B1
330
18
100
AcDbEntity
  8
0
100
AcDbCircle
 10
1.724
 20
1.123
 30
0.0
 40
0.021
100
AcDbArc
 50
277.116
 51
295.86
  0
ARC
  5
B2
330
18
100
AcDbEntity
  8
0
100
AcDbCircle
 10
1.724
 20
1.138
 30
0.0
 40
0.021
100
AcDbArc
 50
89.96799999999999
 51
111.745
  0
ARC
  5
B3
330
18
100
AcDbEntity
  8
0
100
AcDbCircle
 10
1.718
 20
1.137
 30
0.0
 40
0.021
100
AcDbArc
 50
64.07600000000001
 51
89.96799999999999
  0
ARC
  5
B4
330
18
100
AcDbEntity
  8
0
100
AcDbCircle
 10
1.717
 20
1.133
 30
0.0
 40
0.025
100
AcDbArc
 50
40.444
 51
64.07600000000001
  0
ARC
  5
B5
330
18
100
AcDbEntity
  8
0
100
AcDbCircle
 10
1.714
 20
1.131
 30
0.0
 40
0.029
100
AcDbArc
 50
19.435
 51
40.444
  0
ARC
  5
B6
330
18
100
AcDbEntity
  8
0
100
AcDbCircle
 10
1.709
 20
1.129
 30
0.0
 40
0.034
100
AcDbArc
 50
359.968
 51
19.435
  0
ARC
  5
B7
330
18
100
AcDbEntity
  8
0
100
AcDbCircle
 10
1.709
 20
1.129
 30
0.0
 40
0.034
100
AcDbArc
 50
340.501
 51
359.968
  0
ARC
  5
B8
330
18
100
AcDbEntity
  8
0
100
AcDbCircle
 10
1.714
 20
1.128
 30
0.0
 40
0.029
100
AcDbArc
 50
319.493
 51
340.501
  0
ARC
  5
B9
330
18
100
AcDbEntity
  8
0
100
AcDbCircle
 10
1.717
 20
1.125
 30
0.0
 40
0.025
100
AcDbArc
 50
295.86
 51
319.493
  0
ARC
  5
BA
330
18
100
AcDbEntity
  8
0
100
AcDbCircle
 10
1.718
 20
1.121
 30
0.0
 40
0.021
100
AcDbArc
 50
269.968
 51
295.86
  0
ARC
  5
BB
330
18
100
AcDbEntity
  8
0
100
AcDbCircle
 10
1.718
 20
1.121
 30
0.0
 40
0.021
100
AcDbArc
 50
244.076
 51
269.968
  0
ARC
  5
BC
330
18
100
AcDbEntity
  8
0
100
AcDbCircle
 10
1.72
 20
1.125
 30
0.0
 40
0.025
100
AcDbArc
 50
220.444
 51
244.076
  0
ARC
  5
BD
330
18
100
AcDbEntity
  8
0
100
AcDbCircle
 10
1.723
 20
1.128
 30
0.0
 40
0.029
100
AcDbArc
 50
199.435
 51
220.444
  0
ARC
  5
BE
330
18
100
AcDbEntity
  8
0
100
AcDbCircle
 10
1.728
 20
1.129
 30
0.0
 40
0.034
100
AcDbArc
 50
179.968
 51
199.435
  0
ARC
  5
BF
330
18
100
AcDbEntity
  8
0
100
AcDbCircle
 10
1.728
 20
1.129
 30
0.0
 40
0.034
100
AcDbArc
 50
160.501
 51
179.968
  0
ARC
  5
C0
330
18
100
AcDbEntity
  8
0
100
AcDbCircle
 10
1.723
 20
1.131
 30
0.0
 40
0.029
100
AcDbArc
 50
139.493
 51
160.501
  0
ARC
  5
C1
330
18
100
AcDbEntity
  8
0
100
AcDbCircle
 10
1.72
 20
1.133
 30
0.0
 40
0.025
100
AcDbArc
 50
115.86
 51
139.493
  0
ARC
  5
C2
330
18
100
AcDbEntity
  8
0
100
AcDbCircle
 10
1.718
 20
1.137
 30
0.0
 40
0.021
100
AcDbArc
 50
89.96799999999999
 51
115.86
  0
ARC
  5
C3
330
18
100
AcDbEntity
  8
0
100
AcDbCircle
 10
1.718
 20
0.966
 30
0.0
 40
0.021
100
AcDbArc
 50
64.07600000000001
 51
89.96799999999999
  0
ARC
  5
C4
330
18
100
AcDbEntity
  8
0
100
AcDbCircle
 10
1.717
 20
0.963
 30
0.0
 40
0.025
100
AcDbArc
 50
40.444
 51
64.07600000000001
  0
ARC
  5
C5
330
18
100
AcDbEntity
  8
0
100
AcDbCircle
 10
1.714
 20
0.96
 30
0.0
 40
0.029
100
AcDbArc
 50
19.435
 51
40.444
  0
ARC
  5
C6
330
18
100
AcDbEntity
  8
0
100
AcDbCircle
 10
1.709
 20
0.9590000000000001
 30
0.0
 40
0.034
100
AcDbArc
 50
359.968
 51
19.435
  0
ARC
  5
C7
330
18
100
AcDbEntity
  8
0
100
AcDbCircle
 10
1.709
 20
0.9590000000000001
 30
0.0
 40
0.034
100
AcDbArc
 50
340.501
 51
359.968
  0
ARC
  5
C8
330
18
100
AcDbEntity
  8
0
100
AcDbCircle
 10
1.714
 20
0.9570000000000001
 30
0.0
 40
0.029
100
AcDbArc
 50
319.493
 51
340.501
  0
ARC
  5
C9
330
18
100
AcDbEntity
  8
0
100
AcDbCircle
 10
1.717
 20
0.955
 30
0.0
 40
0.025
100
AcDbArc
 50
295.86
 51
319.493
  0
ARC
  5
CA
330
18
100
AcDbEntity
  8
0
100
AcDbCircle
 10
1.718
 20
0.951
 30
0.0
 40
0.021
100
AcDbArc
 50
269.968
 51
295.86
  0
ARC
  5
CB
330
18
100
AcDbEntity
  8
0
100
AcDbCircle
 10
1.718
 20
0.951
 30
0.0
 40
0.021
100
AcDbArc
 50
244.076
 51
269.968
  0
ARC
  5
CC
330
18
100
AcDbEntity
  8
0
100
AcDbCircle
 10
1.72
 20
0.955
 30
0.0
 40
0.025
100
AcDbArc
 50
220.444
 51
244.076
  0
ARC
  5
CD
330
18
100
AcDbEntity
  8
0
100
AcDbCircle
 10
1.723
 20
0.9570000000000001
 30
0.0
 40
0.029
100
AcDbArc
 50
199.435
 51
220.444
  0
ARC
  5
CE
330
18
100
AcDbEntity
  8
0
100
AcDbCircle
 10
1.728
 20
0.9590000000000001
 30
0.0
 40
0.034
100
AcDbArc
 50
179.968
 51
199.435
  0
ARC
  5
CF
330
18
100
AcDbEntity
  8
0
100
AcDbCircle
 10
1.728
 20
0.9590000000000001
 30
0.0
 40
0.034
100
AcDbArc
 50
160.501
 51
179.968
  0
ARC
  5
D0
330
18
100
AcDbEntity
  8
0
100
AcDbCircle
 10
1.723
 20
0.96
 30
0.0
 40
0.029
100
AcDbArc
 50
139.493
 51
160.501
  0
ARC
  5
D1
330
18
100
AcDbEntity
  8
0
100
AcDbCircle
 10
1.72
 20
0.963
 30
0.0
 40
0.025
100
AcDbArc
 50
115.86
 51
139.493
  0
ARC
  5
D2
330
18
100
AcDbEntity
  8
0
100
AcDbCircle
 10
1.718
 20
0.966
 30
0.0
 40
0.021
100
AcDbArc
 50
89.96799999999999
 51
115.86
  0
ARC
  5
D3
330
18
100
AcDbEntity
  8
0
100
AcDbCircle
 10
1.724
 20
0.968
 30
0.0
 40
0.021
100
AcDbArc
 50
89.96799999999999
 51
111.745
  0
ARC
  5
D4
330
18
100
AcDbEntity
  8
0
100
AcDbCircle
 10
1.724
 20
0.968
 30
0.0
 40
0.021
100
AcDbArc
 50
64.07600000000001
 51
89.96799999999999
  0
ARC
  5
D5
330
18
100
AcDbEntity
  8
0
100
AcDbCircle
 10
1.722
 20
0.9640000000000001
 30
0.0
 40
0.025
100
AcDbArc
 50
40.444
 51
64.07600000000001
  0
ARC
  5
D6
330
18
100
AcDbEntity
  8
0
100
AcDbCircle
 10
1.719
 20
0.961
 30
0.0
 40
0.029
100
AcDbArc
 50
19.435
 51
40.444
  0
ARC
  5
D7
330
18
100
AcDbEntity
  8
0
100
AcDbCircle
 10
1.714
 20
0.96
 30
0.0
 40
0.034
100
AcDbArc
 50
359.968
 51
19.435
  0
ARC
  5
D8
330
18
100
AcDbEntity
  8
0
100
AcDbCircle
 10
1.714
 20
0.96
 30
0.0
 40
0.034
100
AcDbArc
 50
340.501
 51
359.968
  0
ARC
  5
D9
330
18
100
AcDbEntity
  8
0
100
AcDbCircle
 10
1.719
 20
0.958
 30
0.0
 40
0.029
100
AcDbArc
 50
319.493
 51
340.501
  0
ARC
  5
DA
330
18
100
AcDbEntity
  8
0
100
AcDbCircle
 10
1.722
 20
0.956
 30
0.0
 40
0.025
100
AcDbArc
 50
295.86
 51
319.493
  0
ARC
  5
DB
330
18
100
AcDbEntity
  8
0
100
AcDbCircle
 10
1.724
 20
0.9520000000000001
 30
0.0
 40
0.021
100
AcDbArc
 50
277.116
 51
295.86
  0
ARC
  5
DC
330
18
100
AcDbEntity
  8
0
100
AcDbCircle
 10
1.866
 20
0.9079999999999999
 30
0.0
 40
0.021
100
AcDbArc
 50
64.07600000000001
 51
89.96799999999999
  0
ARC
  5
DD
330
18
100
AcDbEntity
  8
0
100
AcDbCircle
 10
1.864
 20
0.904
 30
0.0
 40
0.025
100
AcDbArc
 50
40.444
 51
64.07600000000001
  0
ARC
  5
DE
330
18
100
AcDbEntity
  8
0
100
AcDbCircle
 10
1.861
 20
0.902
 30
0.0
 40
0.029
100
AcDbArc
 50
19.435
 51
40.444
  0
ARC
  5
DF
330
18
100
AcDbEntity
  8
0
100
AcDbCircle
 10
1.857
 20
0.9
 30
0.0
 40
0.034
100
AcDbArc
 50
359.968
 51
19.435
  0
ARC
  5
E0
330
18
100
AcDbEntity
  8
0
100
AcDbCircle
 10
1.857
 20
0.9
 30
0.0
 40
0.034
100
AcDbArc
 50
340.501
 51
359.968
  0
ARC
  5
E1
330
18
100
AcDbEntity
  8
0
100
AcDbCircle
 10
1.861
 20
0.898
 30
0.0
 40
0.029
100
AcDbArc
 50
319.493
 51
340.501
  0
ARC
  5
E2
330
18
100
AcDbEntity
  8
0
100
AcDbCircle
 10
1.864
 20
0.8959999999999999
 30
0.0
 40
0.025
100
AcDbArc
 50
295.86
 51
319.493
  0
ARC
  5
E3
330
18
100
AcDbEntity
  8
0
100
AcDbCircle
 10
1.866
 20
0.892
 30
0.0
 40
0.021
100
AcDbArc
 50
277.116
 51
295.86
  0
ARC
  5
E4
330
18
100
AcDbEntity
  8
0
100
AcDbCircle
 10
1.866
 20
0.9079999999999999
 30
0.0
 40
0.021
100
AcDbArc
 50
89.96799999999999
 51
111.745
  0
ARC
  5
E5
330
18
100
AcDbEntity
  8
0
100
AcDbCircle
 10
1.861
 20
0.9059999999999999
 30
0.0
 40
0.021
100
AcDbArc
 50
64.07600000000001
 51
89.96799999999999
  0
ARC
  5
E6
330
18
100
AcDbEntity
  8
0
100
AcDbCircle
 10
1.859
 20
0.903
 30
0.0
 40
0.025
100
AcDbArc
 50
40.444
 51
64.07600000000001
  0
ARC
  5
E7
330
18
100
AcDbEntity
  8
0
100
AcDbCircle
 10
1.856
 20
0.9
 30
0.0
 40
0.029
100
AcDbArc
 50
19.435
 51
40.444
  0
ARC
  5
E8
330
18
100
AcDbEntity
  8
0
100
AcDbCircle
 10
1.852
 20
0.899
 30
0.0
 40
0.034
100
AcDbArc
 50
359.968
 51
19.435
  0
ARC
  5
E9
330
18
100
AcDbEntity
  8
0
100
AcDbCircle
 10
1.852
 20
0.899
 30
0.0
 40
0.034
100
AcDbArc
 50
340.501
 51
359.968
  0
ARC
  5
EA
330
18
100
AcDbEntity
  8
0
100
AcDbCircle
 10
1.856
 20
0.897
 30
0.0
 40
0.029
100
AcDbArc
 50
319.493
 51
340.501
  0
ARC
  5
EB
330
18
100
AcDbEntity
  8
0
100
AcDbCircle
 10
1.859
 20
0.895
 30
0.0
 40
0.025
100
AcDbArc
 50
295.86
 51
319.493
  0
ARC
  5
EC
330
18
100
AcDbEntity
  8
0
100
AcDbCircle
 10
1.861
 20
0.8909999999999999
 30
0.0
 40
0.021
100
AcDbArc
 50
269.968
 51
295.86
  0
ARC
  5
ED
330
18
100
AcDbEntity
  8
0
100
AcDbCircle
 10
1.861
 20
0.8909999999999999
 30
0.0
 40
0.021
100
AcDbArc
 50
244.076
 51
269.968
  0
ARC
  5
EE
330
18
100
AcDbEntity
  8
0
100
AcDbCircle
 10
1.863
 20
0.895
 30
0.0
 40
0.025
100
AcDbArc
 50
220.444
 51
244.076
  0
ARC
  5
EF
330
18
100
AcDbEntity
  8
0
100
AcDbCircle
 10
1.866
 20
0.897
 30
0.0
 40
0.029
100
AcDbArc
 50
199.435
 51
220.444
  0
ARC
  5
F0
330
18
100
AcDbEntity
  8
0
100
AcDbCircle
 10
1.87
 20
0.899
 30
0.0
 40
0.034
100
AcDbArc
 50
179.968
 51
199.435
  0
ARC
  5
F1
330
18
100
AcDbEntity
  8
0
100
AcDbCircle
 10
1.87
 20
0.899
 30
0.0
 40
0.034
100
AcDbArc
 50
160.501
 51
179.968
  0
ARC
  5
F2
330
18
100
AcDbEntity
  8
0
100
AcDbCircle
 10
1.866
 20
0.9
 30
0.0
 40
0.029
100
AcDbArc
 50
139.493
 51
160.501
  0
ARC
  5
F3
330
18
100
AcDbEntity
  8
0
100
AcDbCircle
 10
1.863
 20
0.903
 30
0.0
 40
0.025
100
AcDbArc
 50
115.86
 51
139.493
  0
ARC
  5
F4
330
18
100
AcDbEntity
  8
0
100
AcDbCircle
 10
1.861
 20
0.9059999999999999
 30
0.0
 40
0.021
100
AcDbArc
 50
89.96799999999999
 51
115.86
  0
ARC
  5
F5
330
18
100
AcDbEntity
  8
0
100
AcDbCircle
 10
1.861
 20
1.077
 30
0.0
 40
0.021
100
AcDbArc
 50
64.07600000000001
 51
89.96799999999999
  0
ARC
  5
F6
330
18
100
AcDbEntity
  8
0
100
AcDbCircle
 10
1.859
 20
1.073
 30
0.0
 40
0.025
100
AcDbArc
 50
40.444
 51
64.07600000000001
  0
ARC
  5
F7
330
18
100
AcDbEntity
  8
0
100
AcDbCircle
 10
1.856
 20
1.071
 30
0.0
 40
0.029
100
AcDbArc
 50
19.435
 51
40.444
  0
ARC
  5
F8
330
18
100
AcDbEntity
  8
0
100
AcDbCircle
 10
1.852
 20
1.069
 30
0.0
 40
0.034
100
AcDbArc
 50
359.968
 51
19.435
  0
ARC
  5
F9
330
18
100
AcDbEntity
  8
0
100
AcDbCircle
 10
1.852
 20
1.069
 30
0.0
 40
0.034
100
AcDbArc
 50
340.501
 51
359.968
  0
ARC
  5
FA
330
18
100
AcDbEntity
  8
0
100
AcDbCircle
 10
1.856
 20
1.068
 30
0.0
 40
0.029
100
AcDbArc
 50
319.493
 51
340.501
  0
ARC
  5
FB
330
18
100
AcDbEntity
  8
0
100
AcDbCircle
 10
1.859
 20
1.065
 30
0.0
 40
0.025
100
AcDbArc
 50
295.86
 51
319.493
  0
ARC
  5
FC
330
18
100
AcDbEntity
  8
0
100
AcDbCircle
 10
1.861
 20
1.062
 30
0.0
 40
0.021
100
AcDbArc
 50
269.968
 51
295.86
  0
ARC
  5
FD
330
18
100
AcDbEntity
  8
0
100
AcDbCircle
 10
1.861
 20
1.062
 30
0.0
 40
0.021
100
AcDbArc
 50
244.076
 51
269.968
  0
ARC
  5
FE
330
18
100
AcDbEntity
  8
0
100
AcDbCircle
 10
1.863
 20
1.065
 30
0.0
 40
0.025
100
AcDbArc
 50
220.444
 51
244.076
  0
ARC
  5
FF
330
18
100
AcDbEntity
  8
0
100
AcDbCircle
 10
1.866
 20
1.068
 30
0.0
 40
0.029
100
AcDbArc
 50
199.435
 51
220.444
  0
ARC
  5
100
330
18
100
AcDbEntity
  8
0
100
AcDbCircle
 10
1.87
 20
1.069
 30
0.0
 40
0.034
100
AcDbArc
 50
179.968
 51
199.435
  0
ARC
  5
101
330
18
100
AcDbEntity
  8
0
100
AcDbCircle
 10
1.87
 20
1.069
 30
0.0
 40
0.034
100
AcDbArc
 50
160.501
 51
179.968
  0
ARC
  5
102
330
18
100
AcDbEntity
  8
0
100
AcDbCircle
 10
1.866
 20
1.071
 30
0.0
 40
0.029
100
AcDbArc
 50
139.493
 51
160.501
  0
ARC
  5
103
330
18
100
AcDbEntity
  8
0
100
AcDbCircle
 10
1.863
 20
1.073
 30
0.0
 40
0.025
100
AcDbArc
 50
115.86
 51
139.493
  0
ARC
  5
104
330
18
100
AcDbEntity
  8
0
100
AcDbCircle
 10
1.861
 20
1.077
 30
0.0
 40
0.021
100
AcDbArc
 50
89.96799999999999
 51
115.86
  0
ARC
  5
105
330
18
100
AcDbEntity
  8
0
100
AcDbCircle
 10
1.866
 20
1.078
 30
0.0
 40
0.021
100
AcDbArc
 50
89.96799999999999
 51
111.745
  0
ARC
  5
106
330
18
100
AcDbEntity
  8
0
100
AcDbCircle
 10
1.866
 20
1.078
 30
0.0
 40
0.021
100
AcDbArc
 50
64.07600000000001
 51
89.96799999999999
  0
ARC
  5
107
330
18
100
AcDbEntity
  8
0
100
AcDbCircle
 10
1.864
 20
1.075
 30
0.0
 40
0.025
100
AcDbArc
 50
40.444
 51
64.07600000000001
  0
ARC
  5
108
330
18
100
AcDbEntity
  8
0
100
AcDbCircle
 10
1.861
 20
1.072
 30
0.0
 40
0.029
100
AcDbArc
 50
19.435
 51
40.444
  0
ARC
  5
109
330
18
100
AcDbEntity
  8
0
100
AcDbCircle
 10
1.857
 20
1.071
 30
0.0
 40
0.034
100
AcDbArc
 50
359.968
 51
19.435
  0
ARC
  5
10A
330
18
100
AcDbEntity
  8
0
100
AcDbCircle
 10
1.857
 20
1.071
 30
0.0
 40
0.034
100
AcDbArc
 50
340.501
 51
359.968
  0
ARC
  5
10B
330
18
100
AcDbEntity
  8
0
100
AcDbCircle
 10
1.861
 20
1.069
 30
0.0
 40
0.029
100
AcDbArc
 50
319.493
 51
340.501
  0
ARC
  5
10C
330
18
100
AcDbEntity
  8
0
100
AcDbCircle
 10
1.864
 20
1.067
 30
0.0
 40
0.025
100
AcDbArc
 50
295.86
 51
319.493
  0
ARC
  5
10D
330
18
100
AcDbEntity
  8
0
100
AcDbCircle
 10
1.866
 20
1.063
 30
0.0
 40
0.021
100
AcDbArc
 50
277.116
 51
295.86
  0
ARC
  5
10E
330
18
100
AcDbEntity
  8
0
100
AcDbCircle
 10
1.866
 20
1.266
 30
0.0
 40
0.021
100
AcDbArc
 50
64.07600000000001
 51
89.96799999999999
  0
ARC
  5
10F
330
18
100
AcDbEntity
  8
0
100
AcDbCircle
 10
1.864
 20
1.262
 30
0.0
 40
0.025
100
AcDbArc
 50
40.444
 51
64.07600000000001
  0
ARC
  5
110
330
18
100
AcDbEntity
  8
0
100
AcDbCircle
 10
1.861
 20
1.259
 30
0.0
 40
0.029
100
AcDbArc
 50
19.435
 51
40.444
  0
ARC
  5
111
330
18
100
AcDbEntity
  8
0
100
AcDbCircle
 10
1.857
 20
1.258
 30
0.0
 40
0.034
100
AcDbArc
 50
359.968
 51
19.435
  0
ARC
  5
112
330
18
100
AcDbEntity
  8
0
100
AcDbCircle
 10
1.857
 20
1.258
 30
0.0
 40
0.034
100
AcDbArc
 50
340.501
 51
359.968
  0
ARC
  5
113
330
18
100
AcDbEntity
  8
0
100
AcDbCircle
 10
1.861
 20
1.256
 30
0.0
 40
0.029
100
AcDbArc
 50
319.493
 51
340.501
  0
ARC
  5
114
330
18
100
AcDbEntity
  8
0
100
AcDbCircle
 10
1.864
 20
1.254
 30
0.0
 40
0.025
100
AcDbArc
 50
295.86
 51
319.493
  0
ARC
  5
115
330
18
100
AcDbEntity
  8
0
100
AcDbCircle
 10
1.866
 20
1.25
 30
0.0
 40
0.021
100
AcDbArc
 50
277.116
 51
295.86
  0
ARC
  5
116
330
18
100
AcDbEntity
  8
0
100
AcDbCircle
 10
1.866
 20
1.266
 30
0.0
 40
0.021
100
AcDbArc
 50
89.96799999999999
 51
111.745
  0
ARC
  5
117
330
18
100
AcDbEntity
  8
0
100
AcDbCircle
 10
1.861
 20
1.264
 30
0.0
 40
0.021
100
AcDbArc
 50
64.07600000000001
 51
89.96799999999999
  0
ARC
  5
118
330
18
100
AcDbEntity
  8
0
100
AcDbCircle
 10
1.859
 20
1.26
 30
0.0
 40
0.025
100
AcDbArc
 50
40.444
 51
64.07600000000001
  0
ARC
  5
119
330
18
100
AcDbEntity
  8
0
100
AcDbCircle
 10
1.856
 20
1.258
 30
0.0
 40
0.029
100
AcDbArc
 50
19.435
 51
40.444
  0
ARC
  5
11A
330
18
100
AcDbEntity
  8
0
100
AcDbCircle
 10
1.852
 20
1.256
 30
0.0
 40
0.034
100
AcDbArc
 50
359.968
 51
19.435
  0
ARC
  5
11B
330
18
100
AcDbEntity
  8
0
100
AcDbCircle
 10
1.852
 20
1.256
 30
0.0
 40
0.034
100
AcDbArc
 50
340.501
 51
359.968
  0
ARC
  5
11C
330
18
100
AcDbEntity
  8
0
100
AcDbCircle
 10
1.856
 20
1.255
 30
0.0
 40
0.029
100
AcDbArc
 50
319.493
 51
340.501
  0
ARC
  5
11D
330
18
100
AcDbEntity
  8
0
100
AcDbCircle
 10
1.859
 20
1.252
 30
0.0
 40
0.025
100
AcDbArc
 50
295.86
 51
319.493
  0
ARC
  5
11E
330
18
100
AcDbEntity
  8
0
100
AcDbCircle
 10
1.861
 20
1.249
 30
0.0
 40
0.021
100
AcDbArc
 50
269.968
 51
295.86
  0
ARC
  5
11F
330
18
100
AcDbEntity
  8
0
100
AcDbCircle
 10
1.861
 20
1.249
 30
0.0
 40
0.021
100
AcDbArc
 50
244.076
 51
269.968
  0
ARC
  5
120
330
18
100
AcDbEntity
  8
0
100
AcDbCircle
 10
1.863
 20
1.252
 30
0.0
 40
0.025
100
AcDbArc
 50
220.444
 51
244.076
  0
ARC
  5
121
330
18
100
AcDbEntity
  8
0
100
AcDbCircle
 10
1.866
 20
1.255
 30
0.0
 40
0.029
100
AcDbArc
 50
199.435
 51
220.444
  0
ARC
  5
122
330
18
100
AcDbEntity
  8
0
100
AcDbCircle
 10
1.87
 20
1.256
 30
0.0
 40
0.034
100
AcDbArc
 50
179.968
 51
199.435
  0
ARC
  5
123
330
18
100
AcDbEntity
  8
0
100
AcDbCircle
 10
1.87
 20
1.256
 30
0.0
 40
0.034
100
AcDbArc
 50
160.501
 51
179.968
  0
ARC
  5
124
330
18
100
AcDbEntity
  8
0
100
AcDbCircle
 10
1.866
 20
1.258
 30
0.0
 40
0.029
100
AcDbArc
 50
139.493
 51
160.501
  0
ARC
  5
125
330
18
100
AcDbEntity
  8
0
100
AcDbCircle
 10
1.863
 20
1.26
 30
0.0
 40
0.025
100
AcDbArc
 50
115.86
 51
139.493
  0
ARC
  5
126
330
18
100
AcDbEntity
  8
0
100
AcDbCircle
 10
1.861
 20
1.264
 30
0.0
 40
0.021
100
AcDbArc
 50
89.96799999999999
 51
115.86
  0
ARC
  5
127
330
18
100
AcDbEntity
  8
0
100
AcDbCircle
 10
1.543
 20
1.678
 30
0.0
 40
0.023
100
AcDbArc
 50
39.319
 51
51.988
  0
ARC
  5
128
330
18
100
AcDbEntity
  8
0
100
AcDbCircle
 10
1.534
 20
1.671
 30
0.0
 40
0.034
100
AcDbArc
 50
14.987
 51
39.319
  0
ARC
  5
129
330
18
100
AcDbEntity
  8
0
100
AcDbCircle
 10
1.524
 20
1.668
 30
0.0
 40
0.045
100
AcDbArc
 50
355.828
 51
14.987
  0
ARC
  5
12A
330
18
100
AcDbEntity
  8
0
100
AcDbCircle
 10
1.509
 20
1.669
 30
0.0
 40
0.059
100
AcDbArc
 50
339.205
 51
355.828
  0
ARC
  5
12B
330
18
100
AcDbEntity
  8
0
100
AcDbCircle
 10
1.509
 20
1.669
 30
0.0
 40
0.059
100
AcDbArc
 50
322.583
 51
339.205
  0
ARC
  5
12C
330
18
100
AcDbEntity
  8
0
100
AcDbCircle
 10
1.521
 20
1.661
 30
0.0
 40
0.045
100
AcDbArc
 50
303.424
 51
322.583
  0
ARC
  5
12D
330
18
100
AcDbEntity
  8
0
100
AcDbCircle
 10
1.527
 20
1.652
 30
0.0
 40
0.034
100
AcDbArc
 50
279.092
 51
303.424
  0
ARC
  5
12E
330
18
100
AcDbEntity
  8
0
100
AcDbCircle
 10
1.528
 20
1.64
 30
0.0
 40
0.023
100
AcDbArc
 50
268.459
 51
279.092
  0
ARC
  5
12F
330
18
100
AcDbEntity
  8
0
100
AcDbCircle
 10
1.556
 20
1.674
 30
0.0
 40
0.023
100
AcDbArc
 50
39.319
 51
69.205
  0
ARC
  5
130
330
18
100
AcDbEntity
  8
0
100
AcDbCircle
 10
1.548
 20
1.666
 30
0.0
 40
0.034
100
AcDbArc
 50
14.987
 51
39.319
  0
ARC
  5
131
330
18
100
AcDbEntity
  8
0
100
AcDbCircle
 10
1.537
 20
1.664
 30
0.0
 40
0.045
100
AcDbArc
 50
355.828
 51
14.987
  0
ARC
  5
132
330
18
100
AcDbEntity
  8
0
100
AcDbCircle
 10
1.522
 20
1.665
 30
0.0
 40
0.059
100
AcDbArc
 50
339.205
 51
355.828
  0
ARC
  5
133
330
18
100
AcDbEntity
  8
0
100
AcDbCircle
 10
1.522
 20
1.665
 30
0.0
 40
0.059
100
AcDbArc
 50
322.583
 51
339.205
  0
ARC
  5
134
330
18
100
AcDbEntity
  8
0
100
AcDbCircle
 10
1.534
 20
1.656
 30
0.0
 40
0.045
100
AcDbArc
 50
303.424
 51
322.583
  0
ARC
  5
135
330
18
100
AcDbEntity
  8
0
100
AcDbCircle
 10
1.54
 20
1.647
 30
0.0
 40
0.034
100
AcDbArc
 50
279.092
 51
303.424
  0
ARC
  5
136
330
18
100
AcDbEntity
  8
0
100
AcDbCircle
 10
1.542
 20
1.636
 30
0.0
 40
0.023
100
AcDbArc
 50
249.205
 51
279.092
  0
ARC
  5
137
330
18
100
AcDbEntity
  8
0
100
AcDbCircle
 10
1.542
 20
1.636
 30
0.0
 40
0.023
100
AcDbArc
 50
219.319
 51
249.205
  0
ARC
  5
138
330
18
100
AcDbEntity
  8
0
100
AcDbCircle
 10
1.551
 20
1.643
 30
0.0
 40
0.034
100
AcDbArc
 50
194.987
 51
219.319
  0
ARC
  5
139
330
18
100
AcDbEntity
  8
0
100
AcDbCircle
 10
1.561
 20
1.646
 30
0.0
 40
0.045
100
AcDbArc
 50
175.828
 51
194.987
  0
ARC
  5
13A
330
18
100
AcDbEntity
  8
0
100
AcDbCircle
 10
1.576
 20
1.644
 30
0.0
 40
0.059
100
AcDbArc
 50
159.205
 51
175.828
  0
ARC
  5
13B
330
18
100
AcDbEntity
  8
0
100
AcDbCircle
 10
1.576
 20
1.644
 30
0.0
 40
0.059
100
AcDbArc
 50
142.583
 51
159.205
  0
ARC
  5
13C
330
18
100
AcDbEntity
  8
0
100
AcDbCircle
 10
1.564
 20
1.653
 30
0.0
 40
0.045
100
AcDbArc
 50
123.424
 51
142.583
  0
ARC
  5
13D
330
18
100
AcDbEntity
  8
0
100
AcDbCircle
 10
1.558
 20
1.662
 30
0.0
 40
0.034
100
AcDbArc
 50
99.09200000000001
 51
123.424
  0
ARC
  5
13E
330
18
100
AcDbEntity
  8
0
100
AcDbCircle
 10
1.556
 20
1.674
 30
0.0
 40
0.023
100
AcDbArc
 50
69.205
 51
99.09200000000001
  0
ARC
  5
13F
330
18
100
AcDbEntity
  8
0
100
AcDbCircle
 10
1.625
 20
1.757
 30
0.0
 40
0.013
100
AcDbArc
 50
57.343
 51
89.96799999999999
  0
ARC
  5
140
330
18
100
AcDbEntity
  8
0
100
AcDbCircle
 10
1.62
 20
1.749
 30
0.0
 40
0.023
100
AcDbArc
 50
32.87300000000001
 51
57.343
  0
ARC
  5
141
330
18
100
AcDbEntity
  8
0
100
AcDbCircle
 10
1.612
 20
1.743
 30
0.0
 40
0.032
100
AcDbArc
 50
14.972
 51
32.87300000000001
  0
ARC
  5
142
330
18
100
AcDbEntity
  8
0
100
AcDbCircle
 10
1.599
 20
1.74
 30
0.0
 40
0.046
100
AcDbArc
 50
359.968
 51
14.972
  0
ARC
  5
143
330
18
100
AcDbEntity
  8
0
100
AcDbCircle
 10
1.599
 20
1.74
 30
0.0
 40
0.046
100
AcDbArc
 50
344.964
 51
359.968
  0
ARC
  5
144
330
18
100
AcDbEntity
  8
0
100
AcDbCircle
 10
1.612
 20
1.736
 30
0.0
 40
0.032
100
AcDbArc
 50
327.063
 51
344.964
  0
ARC
  5
145
330
18
100
AcDbEntity
  8
0
100
AcDbCircle
 10
1.62
 20
1.731
 30
0.0
 40
0.023
100
AcDbArc
 50
302.593
 51
327.063
  0
ARC
  5
146
330
18
100
AcDbEntity
  8
0
100
AcDbCircle
 10
1.625
 20
1.723
 30
0.0
 40
0.013
100
AcDbArc
 50
269.968
 51
302.593
  0
ARC
  5
147
330
18
100
AcDbEntity
  8
0
100
AcDbCircle
 10
1.625
 20
1.723
 30
0.0
 40
0.013
100
AcDbArc
 50
237.343
 51
269.968
  0
ARC
  5
148
330
18
100
AcDbEntity
  8
0
100
AcDbCircle
 10
1.631
 20
1.731
 30
0.0
 40
0.023
100
AcDbArc
 50
212.873
 51
237.343
  0
ARC
  5
149
330
18
100
AcDbEntity
  8
0
100
AcDbCircle
 10
1.639
 20
1.736
 30
0.0
 40
0.032
100
AcDbArc
 50
194.972
 51
212.873
  0
ARC
  5
14A
330
18
100
AcDbEntity
  8
0
100
AcDbCircle
 10
1.652
 20
1.74
 30
0.0
 40
0.046
100
AcDbArc
 50
179.968
 51
194.972
  0
ARC
  5
14B
330
18
100
AcDbEntity
  8
0
100
AcDbCircle
 10
1.652
 20
1.74
 30
0.0
 40
0.046
100
AcDbArc
 50
164.964
 51
179.968
  0
ARC
  5
14C
330
18
100
AcDbEntity
  8
0
100
AcDbCircle
 10
1.639
 20
1.743
 30
0.0
 40
0.032
100
AcDbArc
 50
147.063
 51
164.964
  0
ARC
  5
14D
330
18
100
AcDbEntity
  8
0
100
AcDbCircle
 10
1.631
 20
1.749
 30
0.0
 40
0.023
100
AcDbArc
 50
122.593
 51
147.063
  0
ARC
  5
14E
330
18
100
AcDbEntity
  8
0
100
AcDbCircle
 10
1.625
 20
1.757
 30
0.0
 40
0.013
100
AcDbArc
 50
89.96799999999999
 51
122.593
  0
ARC
  5
14F
330
18
100
AcDbEntity
  8
0
100
AcDbCircle
 10
1.618
 20
1.726
 30
0.0
 40
0.013
100
AcDbArc
 50
237.343
 51
266.081
  0
ARC
  5
150
330
18
100
AcDbEntity
  8
0
100
AcDbCircle
 10
1.623
 20
1.734
 30
0.0
 40
0.023
100
AcDbArc
 50
212.873
 51
237.343
  0
ARC
  5
151
330
18
100
AcDbEntity
  8
0
100
AcDbCircle
 10
1.632
 20
1.739
 30
0.0
 40
0.032
100
AcDbArc
 50
194.972
 51
212.873
  0
ARC
  5
152
330
18
100
AcDbEntity
  8
0
100
AcDbCircle
 10
1.645
 20
1.743
 30
0.0
 40
0.046
100
AcDbArc
 50
179.968
 51
194.972
  0
ARC
  5
153
330
18
100
AcDbEntity
  8
0
100
AcDbCircle
 10
1.645
 20
1.743
 30
0.0
 40
0.046
100
AcDbArc
 50
164.964
 51
179.968
  0
ARC
  5
154
330
18
100
AcDbEntity
  8
0
100
AcDbCircle
 10
1.632
 20
1.746
 30
0.0
 40
0.032
100
AcDbArc
 50
147.063
 51
164.964
  0
ARC
  5
155
330
18
100
AcDbEntity
  8
0
100
AcDbCircle
 10
1.623
 20
1.752
 30
0.0
 40
0.023
100
AcDbArc
 50
122.593
 51
147.063
  0
ARC
  5
156
330
18
100
AcDbEntity
  8
0
100
AcDbCircle
 10
1.618
 20
1.76
 30
0.0
 40
0.013
100
AcDbArc
 50
89.96799999999999
 51
122.593
  0
ARC
  5
157
330
18
100
AcDbEntity
  8
0
100
AcDbCircle
 10
1.618
 20
1.76
 30
0.0
 40
0.013
100
AcDbArc
 50
57.343
 51
89.96799999999999
  0
ARC
  5
158
330
18
100
AcDbEntity
  8
0
100
AcDbCircle
 10
1.613
 20
1.752
 30
0.0
 40
0.023
100
AcDbArc
 50
52.921
 51
57.343
  0
ARC
  5
159
330
18
100
AcDbEntity
  8
0
100
AcDbCircle
 10
1.461
 20
1.695
 30
0.0
 40
0.013
100
AcDbArc
 50
57.343
 51
89.96799999999999
  0
ARC
  5
15A
330
18
100
AcDbEntity
  8
0
100
AcDbCircle
 10
1.456
 20
1.687
 30
0.0
 40
0.023
100
AcDbArc
 50
52.921
 51
57.343
  0
ARC
  5
15B
330
18
100
AcDbEntity
  8
0
100
AcDbCircle
 10
1.461
 20
1.661
 30
0.0
 40
0.013
100
AcDbArc
 50
237.343
 51
266.081
  0
ARC
  5
15C
330
18
100
AcDbEntity
  8
0
100
AcDbCircle
 10
1.467
 20
1.669
 30
0.0
 40
0.023
100
AcDbArc
 50
212.873
 51
237.343
  0
ARC
  5
15D
330
18
100
AcDbEntity
  8
0
100
AcDbCircle
 10
1.475
 20
1.674
 30
0.0
 40
0.032
100
AcDbArc
 50
194.972
 51
212.873
  0
ARC
  5
15E
330
18
100
AcDbEntity
  8
0
100
AcDbCircle
 10
1.488
 20
1.678
 30
0.0
 40
0.046
100
AcDbArc
 50
179.968
 51
194.972
  0
ARC
  5
15F
330
18
100
AcDbEntity
  8
0
100
AcDbCircle
 10
1.488
 20
1.678
 30
0.0
 40
0.046
100
AcDbArc
 50
164.964
 51
179.968
  0
ARC
  5
160
330
18
100
AcDbEntity
  8
0
100
AcDbCircle
 10
1.475
 20
1.681
 30
0.0
 40
0.032
100
AcDbArc
 50
147.063
 51
164.964
  0
ARC
  5
161
330
18
100
AcDbEntity
  8
0
100
AcDbCircle
 10
1.467
 20
1.687
 30
0.0
 40
0.023
100
AcDbArc
 50
122.593
 51
147.063
  0
ARC
  5
162
330
18
100
AcDbEntity
  8
0
100
AcDbCircle
 10
1.461
 20
1.695
 30
0.0
 40
0.013
100
AcDbArc
 50
89.96799999999999
 51
122.593
  0
ARC
  5
163
330
18
100
AcDbEntity
  8
0
100
AcDbCircle
 10
1.469
 20
1.692
 30
0.0
 40
0.013
100
AcDbArc
 50
57.343
 51
89.96799999999999
  0
ARC
  5
164
330
18
100
AcDbEntity
  8
0
100
AcDbCircle
 10
1.464
 20
1.684
 30
0.0
 40
0.023
100
AcDbArc
 50
32.87300000000001
 51
57.343
  0
ARC
  5
165
330
18
100
AcDbEntity
  8
0
100
AcDbCircle
 10
1.455
 20
1.678
 30
0.0
 40
0.032
100
AcDbArc
 50
14.972
 51
32.87300000000001
  0
ARC
  5
166
330
18
100
AcDbEntity
  8
0
100
AcDbCircle
 10
1.442
 20
1.675
 30
0.0
 40
0.046
100
AcDbArc
 50
359.968
 51
14.972
  0
ARC
  5
167
330
18
100
AcDbEntity
  8
0
100
AcDbCircle
 10
1.442
 20
1.675
 30
0.0
 40
0.046
100
AcDbArc
 50
344.964
 51
359.968
  0
ARC
  5
168
330
18
100
AcDbEntity
  8
0
100
AcDbCircle
 10
1.455
 20
1.671
 30
0.0
 40
0.032
100
AcDbArc
 50
327.063
 51
344.964
  0
ARC
  5
169
330
18
100
AcDbEntity
  8
0
100
AcDbCircle
 10
1.464
 20
1.666
 30
0.0
 40
0.023
100
AcDbArc
 50
302.593
 51
327.063
  0
ARC
  5
16A
330
18
100
AcDbEntity
  8
0
100
AcDbCircle
 10
1.469
 20
1.658
 30
0.0
 40
0.013
100
AcDbArc
 50
269.968
 51
302.593
  0
ARC
  5
16B
330
18
100
AcDbEntity
  8
0
100
AcDbCircle
 10
1.469
 20
1.658
 30
0.0
 40
0.013
100
AcDbArc
 50
237.343
 51
269.968
  0
ARC
  5
16C
330
18
100
AcDbEntity
  8
0
100
AcDbCircle
 10
1.474
 20
1.666
 30
0.0
 40
0.023
100
AcDbArc
 50
212.873
 51
237.343
  0
ARC
  5
16D
330
18
100
AcDbEntity
  8
0
100
AcDbCircle
 10
1.482
 20
1.671
 30
0.0
 40
0.032
100
AcDbArc
 50
194.972
 51
212.873
  0
ARC
  5
16E
330
18
100
AcDbEntity
  8
0
100
AcDbCircle
 10
1.496
 20
1.675
 30
0.0
 40
0.046
100
AcDbArc
 50
179.968
 51
194.972
  0
ARC
  5
16F
330
18
100
AcDbEntity
  8
0
100
AcDbCircle
 10
1.496
 20
1.675
 30
0.0
 40
0.046
100
AcDbArc
 50
164.964
 51
179.968
  0
ARC
  5
170
330
18
100
AcDbEntity
  8
0
100
AcDbCircle
 10
1.482
 20
1.678
 30
0.0
 40
0.032
100
AcDbArc
 50
147.063
 51
164.964
  0
ARC
  5
171
330
18
100
AcDbEntity
  8
0
100
AcDbCircle
 10
1.474
 20
1.684
 30
0.0
 40
0.023
100
AcDbArc
 50
122.593
 51
147.063
  0
ARC
  5
172
330
18
100
AcDbEntity
  8
0
100
AcDbCircle
 10
1.469
 20
1.692
 30
0.0
 40
0.013
100
AcDbArc
 50
89.96799999999999
 51
122.593
  0
ARC
  5
173
330
18
100
AcDbEntity
  8
0
100
AcDbCircle
 10
1.469
 20
1.869
 30
0.0
 40
0.013
100
AcDbArc
 50
57.343
 51
89.96799999999999
  0
ARC
  5
174
330
18
100
AcDbEntity
  8
0
100
AcDbCircle
 10
1.464
 20
1.861
 30
0.0
 40
0.023
100
AcDbArc
 50
32.87300000000001
 51
57.343
  0
ARC
  5
175
330
18
100
AcDbEntity
  8
0
100
AcDbCircle
 10
1.455
 20
1.856
 30
0.0
 40
0.032
100
AcDbArc
 50
14.972
 51
32.87300000000001
  0
ARC
  5
176
330
18
100
AcDbEntity
  8
0
100
AcDbCircle
 10
1.442
 20
1.852
 30
0.0
 40
0.046
100
AcDbArc
 50
359.968
 51
14.972
  0
ARC
  5
177
330
18
100
AcDbEntity
  8
0
100
AcDbCircle
 10
1.442
 20
1.852
 30
0.0
 40
0.046
100
AcDbArc
 50
344.964
 51
359.968
  0
ARC
  5
178
330
18
100
AcDbEntity
  8
0
100
AcDbCircle
 10
1.455
 20
1.849
 30
0.0
 40
0.032
100
AcDbArc
 50
327.063
 51
344.964
  0
ARC
  5
179
330
18
100
AcDbEntity
  8
0
100
AcDbCircle
 10
1.464
 20
1.843
 30
0.0
 40
0.023
100
AcDbArc
 50
302.593
 51
327.063
  0
ARC
  5
17A
330
18
100
AcDbEntity
  8
0
100
AcDbCircle
 10
1.469
 20
1.835
 30
0.0
 40
0.013
100
AcDbArc
 50
269.968
 51
302.593
  0
ARC
  5
17B
330
18
100
AcDbEntity
  8
0
100
AcDbCircle
 10
1.469
 20
1.835
 30
0.0
 40
0.013
100
AcDbArc
 50
237.343
 51
269.968
  0
ARC
  5
17C
330
18
100
AcDbEntity
  8
0
100
AcDbCircle
 10
1.474
 20
1.843
 30
0.0
 40
0.023
100
AcDbArc
 50
212.873
 51
237.343
  0
ARC
  5
17D
330
18
100
AcDbEntity
  8
0
100
AcDbCircle
 10
1.482
 20
1.849
 30
0.0
 40
0.032
100
AcDbArc
 50
194.972
 51
212.873
  0
ARC
  5
17E
330
18
100
AcDbEntity
  8
0
100
AcDbCircle
 10
1.496
 20
1.852
 30
0.0
 40
0.046
100
AcDbArc
 50
179.968
 51
194.972
  0
ARC
  5
17F
330
18
100
AcDbEntity
  8
0
100
AcDbCircle
 10
1.496
 20
1.852
 30
0.0
 40
0.046
100
AcDbArc
 50
164.964
 51
179.968
  0
ARC
  5
180
330
18
100
AcDbEntity
  8
0
100
AcDbCircle
 10
1.482
 20
1.856
 30
0.0
 40
0.032
100
AcDbArc
 50
147.063
 51
164.964
  0
ARC
  5
181
330
18
100
AcDbEntity
  8
0
100
AcDbCircle
 10
1.474
 20
1.861
 30
0.0
 40
0.023
100
AcDbArc
 50
122.593
 51
147.063
  0
ARC
  5
182
330
18
100
AcDbEntity
  8
0
100
AcDbCircle
 10
1.469
 20
1.869
 30
0.0
 40
0.013
100
AcDbArc
 50
89.96799999999999
 51
122.593
  0
ARC
  5
183
330
18
100
AcDbEntity
  8
0
100
AcDbCircle
 10
1.461
 20
1.838
 30
0.0
 40
0.013
100
AcDbArc
 50
237.343
 51
266.081
  0
ARC
  5
184
330
18
100
AcDbEntity
  8
0
100
AcDbCircle
 10
1.467
 20
1.846
 30
0.0
 40
0.023
100
AcDbArc
 50
212.873
 51
237.343
  0
ARC
  5
185
330
18
100
AcDbEntity
  8
0
100
AcDbCircle
 10
1.475
 20
1.852
 30
0.0
 40
0.032
100
AcDbArc
 50
194.972
 51
212.873
  0
ARC
  5
186
330
18
100
AcDbEntity
  8
0
100
AcDbCircle
 10
1.488
 20
1.855
 30
0.0
 40
0.046
100
AcDbArc
 50
179.968
 51
194.972
  0
ARC
  5
187
330
18
100
AcDbEntity
  8
0
100
AcDbCircle
 10
1.488
 20
1.855
 30
0.0
 40
0.046
100
AcDbArc
 50
164.964
 51
179.968
  0
ARC
  5
188
330
18
100
AcDbEntity
  8
0
100
AcDbCircle
 10
1.475
 20
1.859
 30
0.0
 40
0.032
100
AcDbArc
 50
147.063
 51
164.964
  0
ARC
  5
189
330
18
100
AcDbEntity
  8
0
100
AcDbCircle
 10
1.467
 20
1.864
 30
0.0
 40
0.023
100
AcDbArc
 50
122.593
 51
147.063
  0
ARC
  5
18A
330
18
100
AcDbEntity
  8
0
100
AcDbCircle
 10
1.461
 20
1.872
 30
0.0
 40
0.013
100
AcDbArc
 50
89.96799999999999
 51
122.593
  0
ARC
  5
18B
330
18
100
AcDbEntity
  8
0
100
AcDbCircle
 10
1.461
 20
1.872
 30
0.0
 40
0.013
100
AcDbArc
 50
57.343
 51
89.96799999999999
  0
ARC
  5
18C
330
18
100
AcDbEntity
  8
0
100
AcDbCircle
 10
1.456
 20
1.864
 30
0.0
 40
0.023
100
AcDbArc
 50
52.921
 51
57.343
  0
ARC
  5
18D
330
18
100
AcDbEntity
  8
0
100
AcDbCircle
 10
1.618
 20
1.937
 30
0.0
 40
0.013
100
AcDbArc
 50
57.343
 51
89.96799999999999
  0
ARC
  5
18E
330
18
100
AcDbEntity
  8
0
100
AcDbCircle
 10
1.613
 20
1.929
 30
0.0
 40
0.023
100
AcDbArc
 50
52.921
 51
57.343
  0
ARC
  5
18F
330
18
100
AcDbEntity
  8
0
100
AcDbCircle
 10
1.618
 20
1.903
 30
0.0
 40
0.013
100
AcDbArc
 50
237.343
 51
266.081
  0
ARC
  5
190
330
18
100
AcDbEntity
  8
0
100
AcDbCircle
 10
1.623
 20
1.911
 30
0.0
 40
0.023
100
AcDbArc
 50
212.873
 51
237.343
  0
ARC
  5
191
330
18
100
AcDbEntity
  8
0
100
AcDbCircle
 10
1.632
 20
1.917
 30
0.0
 40
0.032
100
AcDbArc
 50
194.972
 51
212.873
  0
ARC
  5
192
330
18
100
AcDbEntity
  8
0
100
AcDbCircle
 10
1.645
 20
1.92
 30
0.0
 40
0.046
100
AcDbArc
 50
179.968
 51
194.972
  0
ARC
  5
193
330
18
100
AcDbEntity
  8
0
100
AcDbCircle
 10
1.645
 20
1.92
 30
0.0
 40
0.046
100
AcDbArc
 50
164.964
 51
179.968
  0
ARC
  5
194
330
18
100
AcDbEntity
  8
0
100
AcDbCircle
 10
1.632
 20
1.924
 30
0.0
 40
0.032
100
AcDbArc
 50
147.063
 51
164.964
  0
ARC
  5
195
330
18
100
AcDbEntity
  8
0
100
AcDbCircle
 10
1.623
 20
1.929
 30
0.0
 40
0.023
100
AcDbArc
 50
122.593
 51
147.063
  0
ARC
  5
196
330
18
100
AcDbEntity
  8
0
100
AcDbCircle
 10
1.618
 20
1.937
 30
0.0
 40
0.013
100
AcDbArc
 50
89.96799999999999
 51
122.593
  0
ARC
  5
197
330
18
100
AcDbEntity
  8
0
100
AcDbCircle
 10
1.625
 20
1.934
 30
0.0
 40
0.013
100
AcDbArc
 50
57.343
 51
89.96799999999999
  0
ARC
  5
198
330
18
100
AcDbEntity
  8
0
100
AcDbCircle
 10
1.62
 20
1.926
 30
0.0
 40
0.023
100
AcDbArc
 50
32.87300000000001
 51
57.343
  0
ARC
  5
199
330
18
100
AcDbEntity
  8
0
100
AcDbCircle
 10
1.612
 20
1.921
 30
0.0
 40
0.032
100
AcDbArc
 50
14.972
 51
32.87300000000001
  0
ARC
  5
19A
330
18
100
AcDbEntity
  8
0
100
AcDbCircle
 10
1.599
 20
1.917
 30
0.0
 40
0.046
100
AcDbArc
 50
359.968
 51
14.972
  0
ARC
  5
19B
330
18
100
AcDbEntity
  8
0
100
AcDbCircle
 10
1.599
 20
1.917
 30
0.0
 40
0.046
100
AcDbArc
 50
344.964
 51
359.968
  0
ARC
  5
19C
330
18
100
AcDbEntity
  8
0
100
AcDbCircle
 10
1.612
 20
1.914
 30
0.0
 40
0.032
100
AcDbArc
 50
327.063
 51
344.964
  0
ARC
  5
19D
330
18
100
AcDbEntity
  8
0
100
AcDbCircle
 10
1.62
 20
1.908
 30
0.0
 40
0.023
100
AcDbArc
 50
302.593
 51
327.063
  0
ARC
  5
19E
330
18
100
AcDbEntity
  8
0
100
AcDbCircle
 10
1.625
 20
1.9
 30
0.0
 40
0.013
100
AcDbArc
 50
269.968
 51
302.593
  0
ARC
  5
19F
330
18
100
AcDbEntity
  8
0
100
AcDbCircle
 10
1.625
 20
1.9
 30
0.0
 40
0.013
100
AcDbArc
 50
237.343
 51
269.968
  0
ARC
  5
1A0
330
18
100
AcDbEntity
  8
0
100
AcDbCircle
 10
1.631
 20
1.908
 30
0.0
 40
0.023
100
AcDbArc
 50
212.873
 51
237.343
  0
ARC
  5
1A1
330
18
100
AcDbEntity
  8
0
100
AcDbCircle
 10
1.639
 20
1.914
 30
0.0
 40
0.032
100
AcDbArc
 50
194.972
 51
212.873
  0
ARC
  5
1A2
330
18
100
AcDbEntity
  8
0
100
AcDbCircle
 10
1.652
 20
1.917
 30
0.0
 40
0.046
100
AcDbArc
 50
179.968
 51
194.972
  0
ARC
  5
1A3
330
18
100
AcDbEntity
  8
0
100
AcDbCircle
 10
1.652
 20
1.917
 30
0.0
 40
0.046
100
AcDbArc
 50
164.964
 51
179.968
  0
ARC
  5
1A4
330
18
100
AcDbEntity
  8
0
100
AcDbCircle
 10
1.639
 20
1.921
 30
0.0
 40
0.032
100
AcDbArc
 50
147.063
 51
164.964
  0
ARC
  5
1A5
330
18
100
AcDbEntity
  8
0
100
AcDbCircle
 10
1.631
 20
1.926
 30
0.0
 40
0.023
100
AcDbArc
 50
122.593
 51
147.063
  0
ARC
  5
1A6
330
18
100
AcDbEntity
  8
0
100
AcDbCircle
 10
1.625
 20
1.934
 30
0.0
 40
0.013
100
AcDbArc
 50
89.96799999999999
 51
122.593
  0
TEXT
  5
1A7
330
18
100
AcDbEntity
  8
0
100
AcDbText
 10
0.9159999999999999
 20
-0.033
 30
0.0
 40
0.125
  1
H2.5
100
AcDbText
  0
LINE
  5
1A8
330
18
100
AcDbEntity
  8
0
100
AcDbLine
 10
0.547
 20
2.227
 30
0.0
 11
0.547
 21
2.198
 31
0.0
  0
LINE
  5
1A9
330
18
100
AcDbEntity
  8
0
100
AcDbLine
 10
0.519
 20
2.266
 30
0.0
 11
0.519
 21
2.201
 31
0.0
  0
LINE
  5
1AA
330
18
100
AcDbEntity
  8
0
100
AcDbLine
 10
0.4920000000000001
 20
2.302
 30
0.0
 11
0.4920000000000001
 21
2.204
 31
0.0
  0
LINE
  5
1AB
330
18
100
AcDbEntity
  8
0
100
AcDbLine
 10
0.5770000000000001
 20
2.278
 30
0.0
 11
0.7390000000000001
 21
2.344
 31
0.0
  0
LINE
  5
1AC
330
18
100
AcDbEntity
  8
0
100
AcDbLine
 10
0.4920000000000001
 20
2.302
 30
0.0
 11
0.5770000000000001
 21
2.278
 31
0.0
  0
LINE
  5
1AD
330
18
100
AcDbEntity
  8
0
100
AcDbLine
 10
0.57
 20
2.196
 30
0.0
 11
0.4920000000000001
 21
2.302
 31
0.0
  0
LINE
  5
1AE
330
18
100
AcDbEntity
  8
0
100
AcDbLine
 10
0.415
 20
2.211
 30
0.0
 11
0.57
 21
2.196
 31
0.0
  0
LINE
  5
1AF
330
18
100
AcDbEntity
  8
0
100
AcDbLine
 10
2.436
 20
0.7879999999999999
 30
0.0
 11
2.998
 21
1.072
 31
0.0
  0
LINE
  5
1B0
330
18
100
AcDbEntity
  8
0
100
AcDbLine
 10
1.699
 20
1.382
 30
0.0
 11
1.699
 21
1.629
 31
0.0
  0
LINE
  5
1B1
330
18
100
AcDbEntity
  8
0
100
AcDbLine
 10
1.683
 20
1.407
 30
0.0
 11
1.683
 21
1.657
 31
0.0
  0
LINE
  5
1B2
330
18
100
AcDbEntity
  8
0
100
AcDbLine
 10
2.425
 20
2.436
 30
0.0
 11
2.416
 21
2.401
 31
0.0
  0
LINE
  5
1B3
330
18
100
AcDbEntity
  8
0
100
AcDbLine
 10
2.375
 20
2.456
 30
0.0
 11
2.357
 21
2.393
 31
0.0
  0
LINE
  5
1B4
330
18
100
AcDbEntity
  8
0
100
AcDbLine
 10
2.49
 20
2.411
 30
0.0
 11
2.339
 21
2.47
 31
0.0
  0
LINE
  5
1B5
330
18
100
AcDbEntity
  8
0
100
AcDbLine
 10
2.341
 20
2.478
 30
0.0
 11
2.152
 21
2.845
 31
0.0
  0
LINE
  5
1B6
330
18
100
AcDbEntity
  8
0
100
AcDbLine
 10
2.49
 20
2.411
 30
0.0
 11
2.437
 21
2.291
 31
0.0
  0
LINE
  5
1B7
330
18
100
AcDbEntity
  8
0
100
AcDbLine
 10
2.316
 20
2.387
 30
0.0
 11
2.49
 21
2.411
 31
0.0
  0
LINE
  5
1B8
330
18
100
AcDbEntity
  8
0
100
AcDbLine
 10
2.341
 20
2.478
 30
0.0
 11
2.316
 21
2.387
 31
0.0
  0
LINE
  5
1B9
330
18
100
AcDbEntity
  8
0
100
AcDbLine
 10
1.936
 20
1.024
 30
0.0
 11
2.436
 21
0.7879999999999999
 31
0.0
  0
LINE
  5
1BA
330
18
100
AcDbEntity
  8
0
100
AcDbLine
 10
1.653
 20
1.157
 30
0.0
 11
1.678
 21
1.145
 31
0.0
  0
LINE
  5
1BB
330
18
100
AcDbEntity
  8
0
100
AcDbLine
 10
1.664
 20
2.03
 30
0.0
 11
1.388
 21
1.923
 31
0.0
  0
LINE
  5
1BC
330
18
100
AcDbEntity
  8
0
100
AcDbLine
 10
1.388
 20
1.923
 30
0.0
 11
1.407
 21
1.914
 31
0.0
  0
LINE
  5
1BD
330
18
100
AcDbEntity
  8
0
100
AcDbLine
 10
1.664
 20
2.03
 30
0.0
 11
1.683
 21
2.021
 31
0.0
  0
LINE
  5
1BE
330
18
100
AcDbEntity
  8
0
100
AcDbLine
 10
1.92
 20
0.8050000000000001
 30
0.0
 11
1.936
 21
0.818
 31
0.0
  0
LINE
  5
1BF
330
18
100
AcDbEntity
  8
0
100
AcDbLine
 10
1.92
 20
1.261
 30
0.0
 11
1.936
 21
1.273
 31
0.0
  0
LINE
  5
1C0
330
18
100
AcDbEntity
  8
0
100
AcDbLine
 10
1.936
 20
1.273
 30
0.0
 11
1.683
 21
1.732
 31
0.0
  0
LINE
  5
1C1
330
18
100
AcDbEntity
  8
0
100
AcDbLine
 10
1.936
 20
0.818
 30
0.0
 11
1.936
 21
1.273
 31
0.0
  0
LINE
  5
1C2
330
18
100
AcDbEntity
  8
0
100
AcDbLine
 10
1.388
 20
1.923
 30
0.0
 11
1.388
 21
1.625
 31
0.0
  0
LINE
  5
1C3
330
18
100
AcDbEntity
  8
0
100
AcDbLine
 10
1.841
 20
1.446
 30
0.0
 11
2.352
 21
1.685
 31
0.0
  0
LINE
  5
1C4
330
18
100
AcDbEntity
  8
0
100
AcDbLine
 10
1.683
 20
2.021
 30
0.0
 11
1.407
 21
1.914
 31
0.0
  0
LINE
  5
1C5
330
18
100
AcDbEntity
  8
0
100
AcDbLine
 10
1.683
 20
1.692
 30
0.0
 11
1.683
 21
2.021
 31
0.0
  0
LINE
  5
1C6
330
18
100
AcDbEntity
  8
0
100
AcDbLine
 10
1.92
 20
1.261
 30
0.0
 11
1.683
 21
1.692
 31
0.0
  0
LINE
  5
1C7
330
18
100
AcDbEntity
  8
0
100
AcDbLine
 10
1.92
 20
0.8050000000000001
 30
0.0
 11
1.92
 21
1.261
 31
0.0
  0
LINE
  5
1C8
330
18
100
AcDbEntity
  8
0
100
AcDbLine
 10
1.678
 20
0.9109999999999999
 30
0.0
 11
1.92
 21
0.8050000000000001
 31
0.0
  0
LINE
  5
1C9
330
18
100
AcDbEntity
  8
0
100
AcDbLine
 10
1.678
 20
1.363
 30
0.0
 11
1.678
 21
0.9109999999999999
 31
0.0
  0
LINE
  5
1CA
330
18
100
AcDbEntity
  8
0
100
AcDbLine
 10
1.388
 20
1.625
 30
0.0
 11
1.678
 21
1.363
 31
0.0
  0
LINE
  5
1CB
330
18
100
AcDbEntity
  8
0
100
AcDbLine
 10
1.407
 20
1.914
 30
0.0
 11
1.407
 21
1.608
 31
0.0
  0
LINE
  5
1CC
330
18
100
AcDbEntity
  8
0
100
AcDbLine
 10
1.427
 20
0.955
 30
0.0
 11
2.436
 21
0.479
 31
0.0
  0
LINE
  5
1CD
330
18
100
AcDbEntity
  8
0
100
AcDbLine
 10
1.902
 20
1.334
 30
0.0
 11
2.436
 21
1.097
 31
0.0
  0
LINE
  5
1CE
330
18
100
AcDbEntity
  8
0
100
AcDbLine
 10
2.322
 20
1.671
 30
0.0
 11
2.998
 21
1.383
 31
0.0
  0
LINE
  5
1CF
330
18
100
AcDbEntity
  8
0
100
AcDbLine
 10
0.7390000000000001
 20
2.344
 30
0.0
 11
0.976
 21
2.243
 31
0.0
  0
LINE
  5
1D0
330
18
100
AcDbEntity
  8
0
100
AcDbLine
 10
0.163
 20
2.108
 30
0.0
 11
0.415
 21
2.211
 31
0.0
  0
LINE
  5
1D1
330
18
100
AcDbEntity
  8
0
100
AcDbLine
 10
2.63
 20
1.915
 30
0.0
 11
2.437
 21
2.291
 31
0.0
  0
LINE
  5
1D2
330
18
100
AcDbEntity
  8
0
100
AcDbLine
 10
2.352
 20
1.685
 30
0.0
 11
2.63
 21
1.915
 31
0.0
  0
LINE
  5
1D3
330
18
100
AcDbEntity
  8
0
100
AcDbLine
 10
1.653
 20
1.358
 30
0.0
 11
1.673
 21
1.367
 31
0.0
  0
LINE
  5
1D4
330
18
100
AcDbEntity
  8
0
100
AcDbLine
 10
1.653
 20
1.141
 30
0.0
 11
1.653
 21
1.358
 31
0.0
  0
LINE
  5
1D5
330
18
100
AcDbEntity
  8
0
100
AcDbLine
 10
0.691
 20
0.35
 30
0.0
 11
1.653
 21
1.141
 31
0.0
  0
LINE
  5
1D6
330
18
100
AcDbEntity
  8
0
100
AcDbLine
 10
0.397
 20
0.48
 30
0.0
 11
0.691
 21
0.35
 31
0.0
  0
LINE
  5
1D7
330
18
100
AcDbEntity
  8
0
100
AcDbLine
 10
1.904
 20
2.936
 30
0.0
 11
0.397
 21
1.811
 31
0.0
  0
LINE
  5
1D8
330
18
100
AcDbEntity
  8
0
100
AcDbLine
 10
2.152
 20
2.845
 30
0.0
 11
1.904
 21
2.936
 31
0.0
  0
LINE
  5
1D9
330
18
100
AcDbEntity
  8
0
100
AcDbLine
 10
0.691
 20
1.696
 30
0.0
 11
2.152
 21
2.845
 31
0.0
  0
LINE
  5
1DA
330
18
100
AcDbEntity
  8
0
100
AcDbLine
 10
0.397
 20
1.811
 30
0.0
 11
0.691
 21
1.696
 31
0.0
  0
LINE
  5
1DB
330
18
100
AcDbEntity
  8
0
100
AcDbLine
 10
0.163
 20
1.55
 30
0.0
 11
0.397
 21
1.44
 31
0.0
  0
LINE
  5
1DC
330
18
100
AcDbEntity
  8
0
100
AcDbLine
 10
0.163
 20
2.108
 30
0.0
 11
0.5589999999999999
 21
1.932
 31
0.0
  0
LINE
  5
1DD
330
18
100
AcDbEntity
  8
0
100
AcDbLine
 10
0.163
 20
2.108
 30
0.0
 11
0.163
 21
1.833
 31
0.0
  0
LINE
  5
1DE
330
18
100
AcDbEntity
  8
0
100
AcDbLine
 10
2.998
 20
1.383
 30
0.0
 11
2.436
 21
1.097
 31
0.0
  0
LINE
  5
1DF
330
18
100
AcDbEntity
  8
0
100
AcDbLine
 10
2.436
 20
0.479
 30
0.0
 11
2.998
 21
0.76
 31
0.0
  0
LINE
  5
1E0
330
18
100
AcDbEntity
  8
0
100
AcDbLine
 10
2.436
 20
1.097
 30
0.0
 11
2.436
 21
0.479
 31
0.0
  0
LINE
  5
1E1
330
18
100
AcDbEntity
  8
0
100
AcDbLine
 10
2.998
 20
1.383
 30
0.0
 11
2.998
 21
0.76
 31
0.0
  0
LINE
  5
1E2
330
18
100
AcDbEntity
  8
0
100
AcDbLine
 10
0.691
 20
1.696
 30
0.0
 11
0.691
 21
0.35
 31
0.0
  0
LINE
  5
1E3
330
18
100
AcDbEntity
  8
0
100
AcDbLine
 10
0.397
 20
1.811
 30
0.0
 11
0.397
 21
0.48
 31
0.0
  0
LINE
  5
1E4
330
18
100
AcDbEntity
  8
0
100
AcDbLine
 10
0.166
 20
1.828
 30
0.0
 11
0.397
 21
1.724
 31
0.0
  0
LINE
  5
1E5
330
18
100
AcDbEntity
  8
0
100
AcDbLine
 10
0.163
 20
1.822
 30
0.0
 11
0.163
 21
1.55
 31
0.0
  0
ARC
  5
1E6
330
18
100
AcDbEntity
  8
0
100
AcDbCircle
 10
0.168
 20
1.822
 30
0.0
 40
0.005
100
AcDbArc
 50
65.66800000000001
 51
180.0
  0
ARC
  5
1E7
330
18
100
AcDbEntity
  8
0
100
AcDbCircle
 10
0.168
 20
1.833
 30
0.0
 40
0.005
100
AcDbArc
 50
180.0
 51
245.668
  0
TEXT
  5
1E8
330
18
100
AcDbEntity
  8
0
100
AcDbText
 10
0.9159999999999999
 20
0.155
 30
0.0
 40
0.125
  1
Simpson Strong-Tie
100
AcDbText
  0
ENDSEC
  0
SECTION
  2
OBJECTS
  0
DICTIONARY
  5
C
330
0
100
AcDbDictionary
281
     1
  3
ACAD_COLOR
350
1EE
  3
ACAD_GROUP
350
D
  3
ACAD_LAYOUT
350
15
  3
ACAD_MATERIAL
350
1F0
  3
ACAD_MLINESTYLE
350
12
  3
ACAD_PLOTSETTINGS
350
14
  3
ACAD_PLOTSTYLENAME
350
E
  3
ACDBHEADERROUNDTRIPXREC
350
1ED
  0
DICTIONARY
  5
1EE
102
{ACAD_REACTORS
330
C
102
}
330
C
100
AcDbDictionary
281
     1
  0
DICTIONARY
  5
D
102
{ACAD_REACTORS
330
C
102
}
330
C
100
AcDbDictionary
281
     1
  0
DICTIONARY
  5
15
102
{ACAD_REACTORS
330
C
102
}
330
C
100
AcDbDictionary
281
     1
  3
Layout1
350
17
  3
Model
350
19
  0
DICTIONARY
  5
1F0
102
{ACAD_REACTORS
330
C
102
}
330
C
100
AcDbDictionary
281
     1
  0
DICTIONARY
  5
12
102
{ACAD_REACTORS
330
C
102
}
330
C
100
AcDbDictionary
281
     1
  3
Standard
350
13
  0
DICTIONARY
  5
14
102
{ACAD_REACTORS
330
C
102
}
330
C
100
AcDbDictionary
281
     1
  0
ACDBDICTIONARYWDFLT
  5
E
102
{ACAD_REACTORS
330
C
102
}
330
C
100
AcDbDictionary
281
     1
  3
Normal
350
F
100
AcDbDictionaryWithDefault
340
F
  0
DICTIONARY
  5
1ED
102
{ACAD_REACTORS
330
C
102
}
330
C
100
AcDbDictionary
281
     1
  3
COLORDICT
350
1EF
  3
MATERIALDICT
350
1F1
  0
LAYOUT
  5
17
102
{ACAD_REACTORS
330
15
102
}
102
{ACAD_XDICTIONARY
360
1F2
102
}
330
15
100
AcDbPlotSettings
  1

  2

  4

  6

 40
0.0
 41
0.0
 42
0.0
 43
0.0
 44
0.0
 45
0.0
 46
0.0
 47
0.0
 48
0.0
 49
0.0
140
0.0
141
0.0
142
1.0
143
1.0
 70
   688
 72
     0
 73
     0
 74
     5
  7

 75
    16
147
1.0
148
0.0
149
0.0
100
AcDbLayout
  1
Layout1
 70
     1
 71
     1
 10
0.0
 20
0.0
 11
12.0
 21
9.0
 12
0.0
 22
0.0
 32
0.0
 14
1.000000000000000E+20
 24
1.000000000000000E+20
 34
1.000000000000000E+20
 15
-1.000000000000000E+20
 25
-1.000000000000000E+20
 35
-1.000000000000000E+20
146
0.0
 13
0.0
 23
0.0
 33
0.0
 16
1.0
 26
0.0
 36
0.0
 17
0.0
 27
1.0
 37
0.0
 76
     0
330
16
  0
LAYOUT
  5
19
102
{ACAD_REACTORS
330
15
102
}
102
{ACAD_XDICTIONARY
360
1F4
102
}
330
15
100
AcDbPlotSettings
  1

  2

  4

  6

 40
0.0
 41
0.0
 42
0.0
 43
0.0
 44
0.0
 45
0.0
 46
0.0
 47
0.0
 48
0.0
 49
0.0
140
0.0
141
0.0
142
1.0
143
1.0
 70
  1712
 72
     0
 73
     0
 74
     0
  7

 75
     0
147
1.0
148
0.0
149
0.0
100
AcDbLayout
  1
Model
 70
     1
 71
     0
 10
0.0
 20
0.0
 11
0.0
 21
0.0
 12
0.0
 22
0.0
 32
0.0
 14
0.0
 24
0.0
 34
0.0
 15
0.0
 25
0.0
 35
0.0
146
0.0
 13
0.0
 23
0.0
 33
0.0
 16
1.0
 26
0.0
 36
0.0
 17
0.0
 27
1.0
 37
0.0
 76
     0
330
18
  0
MLINESTYLE
  5
13
102
{ACAD_REACTORS
330
12
102
}
330
12
100
AcDbMlineStyle
  2
Standard
 70
     0
  3

 62
   256
 51
90.0
 52
90.0
 71
     2
 49
0.5
 62
   256
  6
BYLAYER
 49
-0.5
 62
   256
  6
BYLAYER
  0
ACDBPLACEHOLDER
  5
F
102
{ACAD_REACTORS
330
E
102
}
330
E
  0
XRECORD
  5
1EF
102
{ACAD_REACTORS
330
1ED
102
}
330
1ED
100
AcDbXrecord
340
1EE
  0
XRECORD
  5
1F1
102
{ACAD_REACTORS
330
1ED
102
}
330
1ED
100
AcDbXrecord
340
1F0
  0
DICTIONARY
  5
1F2
330
17
100
AcDbDictionary
280
     1
281
     1
  3
ACAD_XREC_ROUNDTRIP
360
1F3
  0
DICTIONARY
  5
1F4
330
19
100
AcDbDictionary
280
     1
281
     1
  3
ACAD_XREC_ROUNDTRIP
360
1F5
  0
XRECORD
  5
1F3
102
{ACAD_REACTORS
330
1F2
102
}
330
1F2
100
AcDbXrecord
102
SHADEPLOT
 70
 31552
102
SHADEPLOTRESLEVEL
 70
 30752
102
SHADEPLOTCUSTOMDPI
 70
 31608
  0
XRECORD
  5
1F5
102
{ACAD_REACTORS
330
1F4
102
}
330
1F4
100
AcDbXrecord
102
SHADEPLOT
 70
     0
102
SHADEPLOTRESLEVEL
 70
     0
102
SHADEPLOTCUSTOMDPI
 70
     0
  0
ENDSEC
  0
EOF
