  0
SECTION
  2
HEADER
  9
$ACADVER
  1
AC1015
  9
$ACADMAINTVER
 70
     6
  9
$DWGCODEPAGE
  3
ANSI_1252
  9
$INSBASE
 10
0.0
 20
0.0
 30
0.0
  9
$EXTMIN
 10
49.74676544141837
 20
104.2870500009856
 30
-0.0015258207003612
  9
$EXTMAX
 10
169.9620075675329
 20
204.4980646704739
 30
0.0000000349246008
  9
$LIMMIN
 10
49.62229410807291
 20
104.1521267361111
  9
$LIMMAX
 10
169.5831027560764
 20
204.6329874674479
  9
$ORTHOMODE
 70
     0
  9
$REGENMODE
 70
     1
  9
$FILLMODE
 70
     1
  9
$QTEXTMODE
 70
     0
  9
$MIRRTEXT
 70
     1
  9
$LTSCALE
 40
1.0
  9
$ATTMODE
 70
     1
  9
$TEXTSIZE
 40
0.2
  9
$TRACEWID
 40
0.05
  9
$TEXTSTYLE
  7
STANDARD
  9
$CLAYER
  8
0
  9
$CELTYPE
  6
CONTINUOUS
  9
$CECOLOR
 62
   256
  9
$CELTSCALE
 40
1.0
  9
$DISPSILH
 70
     0
  9
$DIMSCALE
 40
1.0
  9
$DIMASZ
 40
0.18
  9
$DIMEXO
 40
0.0625
  9
$DIMDLI
 40
0.38
  9
$DIMRND
 40
0.0
  9
$DIMDLE
 40
0.0
  9
$DIMEXE
 40
0.18
  9
$DIMTP
 40
0.0
  9
$DIMTM
 40
0.0
  9
$DIMTXT
 40
0.18
  9
$DIMCEN
 40
0.09
  9
$DIMTSZ
 40
0.0
  9
$DIMTOL
 70
     0
  9
$DIMLIM
 70
     0
  9
$DIMTIH
 70
     1
  9
$DIMTOH
 70
     1
  9
$DIMSE1
 70
     0
  9
$DIMSE2
 70
     0
  9
$DIMTAD
 70
     0
  9
$DIMZIN
 70
     0
  9
$DIMBLK
  1

  9
$DIMASO
 70
     1
  9
$DIMSHO
 70
     1
  9
$DIMPOST
  1

  9
$DIMAPOST
  1

  9
$DIMALT
 70
     0
  9
$DIMALTD
 70
     2
  9
$DIMALTF
 40
25.4
  9
$DIMLFAC
 40
1.0
  9
$DIMTOFL
 70
     0
  9
$DIMTVP
 40
0.0
  9
$DIMTIX
 70
     0
  9
$DIMSOXD
 70
     0
  9
$DIMSAH
 70
     0
  9
$DIMBLK1
  1

  9
$DIMBLK2
  1

  9
$DIMSTYLE
  2
STANDARD
  9
$DIMCLRD
 70
     0
  9
$DIMCLRE
 70
     0
  9
$DIMCLRT
 70
     0
  9
$DIMTFAC
 40
1.0
  9
$DIMGAP
 40
0.09
  9
$DIMJUST
 70
     0
  9
$DIMSD1
 70
     0
  9
$DIMSD2
 70
     0
  9
$DIMTOLJ
 70
     1
  9
$DIMTZIN
 70
     0
  9
$DIMALTZ
 70
     0
  9
$DIMALTTZ
 70
     0
  9
$DIMUPT
 70
     0
  9
$DIMDEC
 70
     4
  9
$DIMTDEC
 70
     4
  9
$DIMALTU
 70
     2
  9
$DIMALTTD
 70
     2
  9
$DIMTXSTY
  7
STANDARD
  9
$DIMAUNIT
 70
     0
  9
$DIMADEC
 70
     0
  9
$DIMALTRND
 40
0.0
  9
$DIMAZIN
 70
     0
  9
$DIMDSEP
 70
    46
  9
$DIMATFIT
 70
     3
  9
$DIMFRAC
 70
     0
  9
$DIMLDRBLK
  1

  9
$DIMLUNIT
 70
     2
  9
$DIMLWD
 70
    -2
  9
$DIMLWE
 70
    -2
  9
$DIMTMOVE
 70
     0
  9
$LUNITS
 70
     2
  9
$LUPREC
 70
     4
  9
$SKETCHINC
 40
0.1
  9
$FILLETRAD
 40
0.0
  9
$AUNITS
 70
     0
  9
$AUPREC
 70
     0
  9
$MENU
  1
acad
  9
$ELEVATION
 40
0.0
  9
$PELEVATION
 40
0.0
  9
$THICKNESS
 40
0.0
  9
$LIMCHECK
 70
     0
  9
$CHAMFERA
 40
0.0
  9
$CHAMFERB
 40
0.0
  9
$CHAMFERC
 40
0.0
  9
$CHAMFERD
 40
0.0
  9
$SKPOLY
 70
     0
  9
$TDCREATE
 40
2444971.666666667
  9
$TDUCREATE
 40
2444972.0
  9
$TDUPDATE
 40
2452215.54460787
  9
$TDUUPDATE
 40
2452215.877941204
  9
$TDINDWG
 40
0.0006599537
  9
$TDUSRTIMER
 40
0.0006599537
  9
$USRTIMER
 70
     1
  9
$ANGBASE
 50
0.0
  9
$ANGDIR
 70
     0
  9
$PDMODE
 70
     0
  9
$PDSIZE
 40
0.0
  9
$PLINEWID
 40
0.0
  9
$SPLFRAME
 70
     0
  9
$SPLINETYPE
 70
     6
  9
$SPLINESEGS
 70
     8
  9
$HANDSEED
  5
17D
  9
$SURFTAB1
 70
     6
  9
$SURFTAB2
 70
     6
  9
$SURFTYPE
 70
     6
  9
$SURFU
 70
     6
  9
$SURFV
 70
     6
  9
$UCSBASE
  2

  9
$UCSNAME
  2

  9
$UCSORG
 10
0.0
 20
0.0
 30
0.0
  9
$UCSXDIR
 10
1.0
 20
0.0
 30
0.0
  9
$UCSYDIR
 10
0.0
 20
1.0
 30
0.0
  9
$UCSORTHOREF
  2

  9
$UCSORTHOVIEW
 70
     0
  9
$UCSORGTOP
 10
0.0
 20
0.0
 30
0.0
  9
$UCSORGBOTTOM
 10
0.0
 20
0.0
 30
0.0
  9
$UCSORGLEFT
 10
0.0
 20
0.0
 30
0.0
  9
$UCSORGRIGHT
 10
0.0
 20
0.0
 30
0.0
  9
$UCSORGFRONT
 10
0.0
 20
0.0
 30
0.0
  9
$UCSORGBACK
 10
0.0
 20
0.0
 30
0.0
  9
$PUCSBASE
  2

  9
$PUCSNAME
  2

  9
$PUCSORG
 10
0.0
 20
0.0
 30
0.0
  9
$PUCSXDIR
 10
1.0
 20
0.0
 30
0.0
  9
$PUCSYDIR
 10
0.0
 20
1.0
 30
0.0
  9
$PUCSORTHOREF
  2

  9
$PUCSORTHOVIEW
 70
     0
  9
$PUCSORGTOP
 10
0.0
 20
0.0
 30
0.0
  9
$PUCSORGBOTTOM
 10
0.0
 20
0.0
 30
0.0
  9
$PUCSORGLEFT
 10
0.0
 20
0.0
 30
0.0
  9
$PUCSORGRIGHT
 10
0.0
 20
0.0
 30
0.0
  9
$PUCSORGFRONT
 10
0.0
 20
0.0
 30
0.0
  9
$PUCSORGBACK
 10
0.0
 20
0.0
 30
0.0
  9
$USERI1
 70
     0
  9
$USERI2
 70
     0
  9
$USERI3
 70
     0
  9
$USERI4
 70
     0
  9
$USERI5
 70
     0
  9
$USERR1
 40
0.0
  9
$USERR2
 40
0.0
  9
$USERR3
 40
0.0
  9
$USERR4
 40
0.0
  9
$USERR5
 40
0.0
  9
$WORLDVIEW
 70
     1
  9
$SHADEDGE
 70
     3
  9
$SHADEDIF
 70
    70
  9
$TILEMODE
 70
     1
  9
$MAXACTVP
 70
    16
  9
$PINSBASE
 10
0.0
 20
0.0
 30
0.0
  9
$PLIMCHECK
 70
     0
  9
$PEXTMIN
 10
1.000000000000000E+20
 20
1.000000000000000E+20
 30
1.000000000000000E+20
  9
$PEXTMAX
 10
-1.000000000000000E+20
 20
-1.000000000000000E+20
 30
-1.000000000000000E+20
  9
$PLIMMIN
 10
0.0
 20
0.0
  9
$PLIMMAX
 10
12.0
 20
9.0
  9
$UNITMODE
 70
     0
  9
$VISRETAIN
 70
     0
  9
$PLINEGEN
 70
     1
  9
$PSLTSCALE
 70
     0
  9
$TREEDEPTH
 70
  3020
  9
$CMLSTYLE
  2
STANDARD
  9
$CMLJUST
 70
     0
  9
$CMLSCALE
 40
1.0
  9
$PROXYGRAPHICS
 70
     0
  9
$MEASUREMENT
 70
     0
  9
$CELWEIGHT
370
    -1
  9
$ENDCAPS
280
     0
  9
$JOINSTYLE
280
     0
  9
$LWDISPLAY
290
     0
  9
$INSUNITS
 70
     0
  9
$HYPERLINKBASE
  1

  9
$STYLESHEET
  1

  9
$XEDIT
290
     1
  9
$CEPSNTYPE
380
     0
  9
$PSTYLEMODE
290
     1
  9
$FINGERPRINTGUID
  2
{890B5525-CEC8-11D5-923F-00805F198AD5}
  9
$VERSIONGUID
  2
{890B5527-CEC8-11D5-923F-00805F198AD5}
  9
$EXTNAMES
290
     1
  9
$PSVPSCALE
 40
0.0
  9
$OLESTARTUP
290
     0
  0
ENDSEC
  0
SECTION
  2
CLASSES
  0
CLASS
  1
LWPOLYLINE
  2
AcDbPolyline
  3
AutoCAD 2000
 90
        0
280
     0
281
     1
  0
CLASS
  1
IMAGE
  2
AcDbRasterImage
  3
ISM
 90
      127
280
     0
281
     1
  0
CLASS
  1
OLE2FRAME
  2
AcDbOle2Frame
  3
AutoCAD 2000
 90
        0
280
     0
281
     1
  0
CLASS
  1
HATCH
  2
AcDbHatch
  3
AutoCAD 2000
 90
        0
280
     0
281
     1
  0
CLASS
  1
DICTIONARYVAR
  2
AcDbDictionaryVar
  3
AutoCAD 2000
 90
        0
280
     0
281
     0
  0
CLASS
  1
RASTERVARIABLES
  2
AcDbRasterVariables
  3
ISM
 90
        0
280
     0
281
     0
  0
CLASS
  1
IMAGEDEF
  2
AcDbRasterImageDef
  3
ISM
 90
        0
280
     0
281
     0
  0
CLASS
  1
IMAGEDEF_REACTOR
  2
AcDbRasterImageDefReactor
  3
ISM
 90
        1
280
     0
281
     0
  0
CLASS
  1
IDBUFFER
  2
AcDbIdBuffer
  3
AutoCAD 2000
 90
        0
280
     0
281
     0
  0
CLASS
  1
SPATIAL_FILTER
  2
AcDbSpatialFilter
  3
AutoCAD 2000
 90
        0
280
     0
281
     0
  0
CLASS
  1
XRECORD
  2
AcDbXrecord
  3
AutoCAD 2000
 90
        0
280
     0
281
     0
  0
CLASS
  1
SORTENTSTABLE
  2
AcDbSortentsTable
  3
AutoCAD 2000
 90
        0
280
     0
281
     0
  0
CLASS
  1
LAYER_INDEX
  2
AcDbLayerIndex
  3
AutoCAD 2000
 90
        0
280
     0
281
     0
  0
CLASS
  1
SPATIAL_INDEX
  2
AcDbSpatialIndex
  3
AutoCAD 2000
 90
        0
280
     0
281
     0
  0
CLASS
  1
OBJECT_PTR
  2
CAseDLPNTableRecord
  3
ASE-LPNTableRecord
 90
        1
280
     1
281
     0
  0
CLASS
  1
LAYOUT
  2
AcDbLayout
  3
ObjectDBX Classes
 90
        0
280
     0
281
     0
  0
CLASS
  1
PLOTSETTINGS
  2
AcDbPlotSettings
  3
AutoCAD 2000
 90
        0
280
     0
281
     0
  0
CLASS
  1
ACDBDICTIONARYWDFLT
  2
AcDbDictionaryWithDefault
  3
AutoCAD 2000
 90
        0
280
     0
281
     0
  0
CLASS
  1
ACDBPLACEHOLDER
  2
AcDbPlaceHolder
  3
ObjectDBX Classes
 90
        0
280
     0
281
     0
  0
CLASS
  1
VBAPROJECT
  2
AcDbVbaProject
  3
ObjectDBX Classes
 90
        0
280
     0
281
     0
  0
CLASS
  1
WIPEOUT
  2
AcDbWipeout
  3
WipeOut|AutoCAD Express Tool|expresstools@autodesk.com
 90
      127
280
     0
281
     1
  0
CLASS
  1
WIPEOUTVARIABLES
  2
AcDbWipeoutVariables
  3
WipeOut|AutoCAD Express Tool|expresstools@autodesk.com
 90
        0
280
     0
281
     0
  0
CLASS
  1
RTEXT
  2
RText
  3
RText|AutoCAD Express Tool|expresstools@autodesk.com
 90
        0
280
     0
281
     1
  0
CLASS
  1
ARCALIGNEDTEXT
  2
AcDbArcAlignedText
  3
ATEXT|AutoCAD Express Tool|expresstools@autodesk.com
 90
        0
280
     0
281
     1
  0
CLASS
  1
LONG_TRANSACTION
  2
AcDbLongTransaction
  3
AutoCAD 2000
 90
        0
280
     1
281
     0
  0
CLASS
  1
LWPOLYLINE
  2
AcDbPolyline
  3
AutoCAD 2000
 90
        0
280
     0
281
     1
  0
CLASS
  1
HATCH
  2
AcDbHatch
  3
AutoCAD 2000
 90
        0
280
     0
281
     1
  0
CLASS
  1
XRECORD
  2
AcDbXrecord
  3
AutoCAD 2000
 90
        0
280
     0
281
     0
  0
ENDSEC
  0
SECTION
  2
TABLES
  0
TABLE
  2
VPORT
  5
7
330
0
100
AcDbSymbolTable
 70
     2
  0
VPORT
  5
149
330
7
100
AcDbSymbolTableRecord
100
AcDbViewportTableRecord
  2
*Active
 70
     0
 10
0.0
 20
0.0
 11
1.0
 21
1.0
 12
109.8543865044756
 22
154.3925573357298
 13
0.0
 23
0.0
 14
1.0
 24
1.0
 15
0.0
 25
0.0
 16
0.0
 26
0.0
 36
1.0
 17
0.0
 27
0.0
 37
0.0
 40
101.7891408847558
 41
1.836842105263158
 42
50.0
 43
0.0
 44
0.0
 50
0.0
 51
0.0
 71
     0
 72
   100
 73
     1
 74
     1
 75
     0
 76
     0
 77
     0
 78
     0
281
     0
 65
     1
110
0.0
120
0.0
130
0.0
111
1.0
121
0.0
131
0.0
112
0.0
122
1.0
132
0.0
 79
     0
146
0.0
  0
ENDTAB
  0
TABLE
  2
LTYPE
  5
4
330
0
100
AcDbSymbolTable
 70
     1
  0
LTYPE
  5
11
330
4
100
AcDbSymbolTableRecord
100
AcDbLinetypeTableRecord
  2
BYBLOCK
 70
     0
  3

 72
    65
 73
     0
 40
0.0
  0
LTYPE
  5
12
330
4
100
AcDbSymbolTableRecord
100
AcDbLinetypeTableRecord
  2
BYLAYER
 70
     0
  3

 72
    65
 73
     0
 40
0.0
  0
LTYPE
  5
13
330
4
100
AcDbSymbolTableRecord
100
AcDbLinetypeTableRecord
  2
CONTINUOUS
 70
     0
  3
Solid line
 72
    65
 73
     0
 40
0.0
  0
ENDTAB
  0
TABLE
  2
LAYER
  5
2
330
0
100
AcDbSymbolTable
 70
     3
  0
LAYER
  5
14
330
2
100
AcDbSymbolTableRecord
100
AcDbLayerTableRecord
  2
0
 70
     0
 62
     7
  6
CONTINUOUS
370
    -3
390
0
  0
LAYER
  5
21
330
2
100
AcDbSymbolTableRecord
100
AcDbLayerTableRecord
  2
H2_5A
 70
     0
 62
     5
  6
CONTINUOUS
370
    -3
390
0
  0
LAYER
  5
9B
330
2
100
AcDbSymbolTableRecord
100
AcDbLayerTableRecord
  2
WOOD
 70
     0
 62
     3
  6
CONTINUOUS
370
    -3
390
0
  0
ENDTAB
  0
TABLE
  2
STYLE
  5
3
330
0
100
AcDbSymbolTable
 70
     5
  0
STYLE
  5
17
330
3
100
AcDbSymbolTableRecord
100
AcDbTextStyleTableRecord
  2
STANDARD
 70
     0
 40
0.0
 41
1.0
 50
0.0
 71
     0
 42
0.2
  3
txt
  4

  0
STYLE
  5
1D
330
3
100
AcDbSymbolTableRecord
100
AcDbTextStyleTableRecord
  2
STD
 70
     0
 40
0.0
 41
1.0
 50
0.0
 71
     0
 42
0.2
  3
txt
  4

  0
STYLE
  5
1E
330
3
100
AcDbSymbolTableRecord
100
AcDbTextStyleTableRecord
  2
TATESTD
 70
     4
 40
0.0
 41
1.0
 50
0.0
 71
     0
 42
0.2
  3
txt
  4

  0
STYLE
  5
1F
330
3
100
AcDbSymbolTableRecord
100
AcDbTextStyleTableRecord
  2
KANJISTD
 70
     0
 40
0.0
 41
1.0
 50
0.0
 71
     0
 42
0.2
  3
txt
  4
extfont
  0
STYLE
  5
20
330
3
100
AcDbSymbolTableRecord
100
AcDbTextStyleTableRecord
  2
KANJITATE
 70
     4
 40
0.0
 41
1.0
 50
0.0
 71
     0
 42
0.2
  3
txt
  4
extfont
  0
ENDTAB
  0
TABLE
  2
VIEW
  5
5
330
0
100
AcDbSymbolTable
 70
     0
  0
ENDTAB
  0
TABLE
  2
UCS
  5
6
330
0
100
AcDbSymbolTable
 70
     0
  0
ENDTAB
  0
TABLE
  2
APPID
  5
8
330
0
100
AcDbSymbolTable
 70
     1
  0
APPID
  5
16
330
8
100
AcDbSymbolTableRecord
100
AcDbRegAppTableRecord
  2
ACAD
 70
     0
  0
ENDTAB
  0
TABLE
  2
DIMSTYLE
  5
9
330
0
100
AcDbSymbolTable
 70
     1
100
AcDbDimStyleTable
  0
DIMSTYLE
105
18
330
9
100
AcDbSymbolTableRecord
100
AcDbDimStyleTableRecord
  2
STANDARD
 70
     0
  3

  4

289
     0
340
17
  0
ENDTAB
  0
TABLE
  2
BLOCK_RECORD
  5
1
330
0
100
AcDbSymbolTable
 70
    18
  0
BLOCK_RECORD
  5
A
330
1
100
AcDbSymbolTableRecord
100
AcDbBlockTableRecord
  2
*MODEL_SPACE
340
144
  0
BLOCK_RECORD
  5
B
330
1
100
AcDbSymbolTableRecord
100
AcDbBlockTableRecord
  2
*PAPER_SPACE
340
145
  0
BLOCK_RECORD
  5
22
330
1
100
AcDbSymbolTableRecord
100
AcDbBlockTableRecord
  2
AI9-BLK1
340
0
102
{BLKREFS
331
23
102
}
  0
BLOCK_RECORD
  5
2F
330
1
100
AcDbSymbolTableRecord
100
AcDbBlockTableRecord
  2
AI9-BLK2
340
0
102
{BLKREFS
331
30
102
}
  0
BLOCK_RECORD
  5
3F
330
1
100
AcDbSymbolTableRecord
100
AcDbBlockTableRecord
  2
AI9-BLK3
340
0
102
{BLKREFS
331
40
102
}
  0
BLOCK_RECORD
  5
45
330
1
100
AcDbSymbolTableRecord
100
AcDbBlockTableRecord
  2
AI9-BLK4
340
0
102
{BLKREFS
331
46
102
}
  0
BLOCK_RECORD
  5
51
330
1
100
AcDbSymbolTableRecord
100
AcDbBlockTableRecord
  2
AI9-BLK5
340
0
102
{BLKREFS
331
52
102
}
  0
BLOCK_RECORD
  5
57
330
1
100
AcDbSymbolTableRecord
100
AcDbBlockTableRecord
  2
AI9-BLK6
340
0
102
{BLKREFS
331
58
102
}
  0
BLOCK_RECORD
  5
5D
330
1
100
AcDbSymbolTableRecord
100
AcDbBlockTableRecord
  2
AI9-BLK7
340
0
102
{BLKREFS
331
5E
102
}
  0
BLOCK_RECORD
  5
63
330
1
100
AcDbSymbolTableRecord
100
AcDbBlockTableRecord
  2
AI9-BLK8
340
0
102
{BLKREFS
331
64
102
}
  0
BLOCK_RECORD
  5
69
330
1
100
AcDbSymbolTableRecord
100
AcDbBlockTableRecord
  2
AI9-BLK9
340
0
102
{BLKREFS
331
6A
102
}
  0
BLOCK_RECORD
  5
6F
330
1
100
AcDbSymbolTableRecord
100
AcDbBlockTableRecord
  2
AI9-BLK10
340
0
102
{BLKREFS
331
70
102
}
  0
BLOCK_RECORD
  5
75
330
1
100
AcDbSymbolTableRecord
100
AcDbBlockTableRecord
  2
AI9-BLK11
340
0
102
{BLKREFS
331
76
102
}
  0
BLOCK_RECORD
  5
7B
330
1
100
AcDbSymbolTableRecord
100
AcDbBlockTableRecord
  2
AI9-BLK12
340
0
102
{BLKREFS
331
7C
102
}
  0
BLOCK_RECORD
  5
81
330
1
100
AcDbSymbolTableRecord
100
AcDbBlockTableRecord
  2
AI9-BLK13
340
0
102
{BLKREFS
331
82
102
}
  0
BLOCK_RECORD
  5
87
330
1
100
AcDbSymbolTableRecord
100
AcDbBlockTableRecord
  2
AI9-BLK14
340
0
102
{BLKREFS
331
88
102
}
  0
BLOCK_RECORD
  5
C0
330
1
100
AcDbSymbolTableRecord
100
AcDbBlockTableRecord
  2
AI9-BLK15
340
0
102
{BLKREFS
331
C1
102
}
  0
BLOCK_RECORD
  5
C6
330
1
100
AcDbSymbolTableRecord
100
AcDbBlockTableRecord
  2
AI9-BLK16
340
0
102
{BLKREFS
331
C7
102
}
  0
BLOCK_RECORD
  5
CC
330
1
100
AcDbSymbolTableRecord
100
AcDbBlockTableRecord
  2
AI9-BLK17
340
0
102
{BLKREFS
331
CD
102
}
  0
BLOCK_RECORD
  5
D3
330
1
100
AcDbSymbolTableRecord
100
AcDbBlockTableRecord
  2
AI9-BLK18
340
0
102
{BLKREFS
331
D4
102
}
  0
ENDTAB
  0
ENDSEC
  0
SECTION
  2
BLOCKS
  0
BLOCK
  5
D
330
A
100
AcDbEntity
  8
0
100
AcDbBlockBegin
  2
*MODEL_SPACE
 70
     0
 10
0.0
 20
0.0
 30
0.0
  3
*MODEL_SPACE
  1

  4

  0
ENDBLK
  5
E
330
A
100
AcDbEntity
  8
0
100
AcDbBlockEnd
  0
BLOCK
  5
F
330
B
100
AcDbEntity
 67
     1
  8
0
100
AcDbBlockBegin
  2
*PAPER_SPACE
 70
     0
 10
0.0
 20
0.0
 30
0.0
  3
*PAPER_SPACE
  1

  4

  0
ENDBLK
  5
10
330
B
100
AcDbEntity
 67
     1
  8
0
100
AcDbBlockEnd
  0
BLOCK
  5
24
330
22
100
AcDbEntity
  8
H2_5A
 62
     7
100
AcDbBlockBegin
  2
AI9-BLK1
 70
     0
 10
0.0
 20
0.0
 30
0.0
  3
AI9-BLK1
  1

  4

  0
HATCH
  5
2D
330
22
100
AcDbEntity
  8
H2_5A
 62
     7
100
AcDbHatch
 10
0.0
 20
0.0
 30
0.0
210
0.0
220
0.0
230
1.0
  2
SOLID
 70
     1
 71
     0
 91
        2
 92
        1
 93
        1
 72
     4
 94
        3
 73
     0
 74
     0
 95
       32
 96
       28
 40
0.0
 40
0.0
 40
0.0
 40
0.0
 40
1.0
 40
1.0
 40
1.0
 40
2.0
 40
2.0
 40
2.0
 40
3.0
 40
3.0
 40
3.0
 40
4.0
 40
4.0
 40
4.0
 40
5.0
 40
5.0
 40
5.0
 40
6.0
 40
6.0
 40
6.0
 40
7.0
 40
7.0
 40
7.0
 40
8.0
 40
8.0
 40
8.0
 40
9.0
 40
9.0
 40
9.0
 40
9.0
 10
1.937952338324653
 20
1.435829671223958
 10
1.937952338324653
 20
1.435829671223958
 10
1.937952338324653
 20
0.6420796712239583
 10
1.937952338324653
 20
0.6420796712239583
 10
1.937952338324653
 20
0.6420796712239583
 10
1.770520697699653
 20
0.5523349338107638
 10
1.770520697699653
 20
0.5523349338107638
 10
1.721255832248264
 20
0.5259799533420139
 10
1.659244113498264
 20
0.5001417371961805
 10
1.621692572699653
 20
0.5244296603732639
 10
1.583452012803819
 20
0.5483730740017361
 10
1.570016140407986
 20
0.6024610731336805
 10
1.570016140407986
 20
0.6660230848524305
 10
1.570016140407986
 20
0.7538730197482638
 10
1.591375732421875
 20
0.8510247124565972
 10
1.659933132595486
 20
0.9269890679253472
 10
1.704374864366319
 20
0.9740146213107638
 10
1.776377360026042
 20
1.012771945529514
 10
1.824953206380208
 20
1.038782416449653
 10
1.824953206380208
 20
1.038782416449653
 10
1.867327880859375
 20
1.061520046657986
 10
1.867327880859375
 20
1.061520046657986
 10
1.867327880859375
 20
1.061520046657986
 10
1.867327880859375
 20
1.398105875651042
 10
1.867327880859375
 20
1.398105875651042
 10
1.867327880859375
 20
1.398105875651042
 10
1.937952338324653
 20
1.435829671223958
 10
1.937952338324653
 20
1.435829671223958
 97
        0
 92
       16
 93
        1
 72
     4
 94
        3
 73
     0
 74
     0
 95
       20
 96
       16
 40
0.0
 40
0.0
 40
0.0
 40
0.0
 40
1.0
 40
1.0
 40
1.0
 40
2.0
 40
2.0
 40
2.0
 40
3.0
 40
3.0
 40
3.0
 40
4.0
 40
4.0
 40
4.0
 40
5.0
 40
5.0
 40
5.0
 40
5.0
 10
1.867327880859375
 20
0.9821105957031249
 10
1.867327880859375
 20
0.9821105957031249
 10
1.798425971137153
 20
0.9452480740017361
 10
1.798425971137153
 20
0.9452480740017361
 10
1.701618787977431
 20
0.8921936035156249
 10
1.642363145616319
 20
0.8434455023871527
 10
1.643052164713541
 20
0.7073642306857638
 10
1.643052164713541
 20
0.5792066786024305
 10
1.708508978949653
 20
0.5964321560329861
 10
1.794291856553819
 20
0.644491238064236
 10
1.794291856553819
 20
0.644491238064236
 10
1.867327880859375
 20
0.6837653266059027
 10
1.867327880859375
 20
0.6837653266059027
 10
1.867327880859375
 20
0.6837653266059027
 10
1.867327880859375
 20
0.9821105957031249
 10
1.867327880859375
 20
0.9821105957031249
 97
        0
 75
     0
 76
     1
 98
        1
 10
0.0
 20
0.0
  0
HATCH
  5
2C
330
22
100
AcDbEntity
  8
H2_5A
 62
     7
100
AcDbHatch
 10
0.0
 20
0.0
 30
0.0
210
0.0
220
0.0
230
1.0
  2
SOLID
 70
     1
 71
     0
 91
        1
 92
        1
 93
        1
 72
     4
 94
        3
 73
     0
 74
     0
 95
       23
 96
       19
 40
0.0
 40
0.0
 40
0.0
 40
0.0
 40
1.0
 40
1.0
 40
1.0
 40
2.0
 40
2.0
 40
2.0
 40
3.0
 40
3.0
 40
3.0
 40
4.0
 40
4.0
 40
4.0
 40
5.0
 40
5.0
 40
5.0
 40
6.0
 40
6.0
 40
6.0
 40
6.0
 10
1.468041314019097
 20
1.18382093641493
 10
1.468041314019097
 20
1.18382093641493
 10
1.468041314019097
 20
0.3900709364149305
 10
1.468041314019097
 20
0.3900709364149305
 10
1.468041314019097
 20
0.3900709364149305
 10
1.397416856553819
 20
0.3523471408420139
 10
1.397416856553819
 20
0.3523471408420139
 10
1.397416856553819
 20
0.3523471408420139
 10
1.397416856553819
 20
1.066687689887153
 10
1.397416856553819
 20
1.066687689887153
 10
1.397416856553819
 20
1.066687689887153
 10
1.13731214735243
 20
0.9271613226996527
 10
1.13731214735243
 20
0.9271613226996527
 10
1.13731214735243
 20
0.9271613226996527
 10
1.13731214735243
 20
1.006570773654514
 10
1.13731214735243
 20
1.006570773654514
 10
1.13731214735243
 20
1.006570773654514
 10
1.468041314019097
 20
1.18382093641493
 10
1.468041314019097
 20
1.18382093641493
 97
        0
 75
     0
 76
     1
 98
        1
 10
0.0
 20
0.0
  0
HATCH
  5
2B
330
22
100
AcDbEntity
  8
H2_5A
 62
     7
100
AcDbHatch
 10
0.0
 20
0.0
 30
0.0
210
0.0
220
0.0
230
1.0
  2
SOLID
 70
     1
 71
     0
 91
        2
 92
       16
 93
        1
 72
     4
 94
        3
 73
     0
 74
     0
 95
       29
 96
       25
 40
0.0
 40
0.0
 40
0.0
 40
0.0
 40
1.0
 40
1.0
 40
1.0
 40
2.0
 40
2.0
 40
2.0
 40
3.0
 40
3.0
 40
3.0
 40
4.0
 40
4.0
 40
4.0
 40
5.0
 40
5.0
 40
5.0
 40
6.0
 40
6.0
 40
6.0
 40
7.0
 40
7.0
 40
7.0
 40
8.0
 40
8.0
 40
8.0
 40
8.0
 10
1.104239230685764
 20
0.9888285319010416
 10
1.104239230685764
 20
0.9888285319010416
 10
1.026035563151042
 20
0.946798366970486
 10
1.026035563151042
 20
0.946798366970486
 10
1.026035563151042
 20
0.946798366970486
 10
0.9795267740885416
 20
0.6932393391927083
 10
0.9795267740885416
 20
0.6932393391927083
 10
0.9795267740885416
 20
0.6932393391927083
 10
0.7779886881510416
 20
0.585235595703125
 10
0.7779886881510416
 20
0.585235595703125
 10
0.7779886881510416
 20
0.585235595703125
 10
0.7280348036024305
 20
0.7869459364149305
 10
0.7280348036024305
 20
0.7869459364149305
 10
0.7280348036024305
 20
0.7869459364149305
 10
0.6498311360677083
 20
0.7449157714843749
 10
0.6498311360677083
 20
0.7449157714843749
 10
0.6498311360677083
 20
0.7449157714843749
 10
0.8289761013454861
 20
0.047283935546875
 10
0.8289761013454861
 20
0.047283935546875
 10
0.8289761013454861
 20
0.047283935546875
 10
0.9223381890190971
 20
0.0974100748697917
 10
0.9223381890190971
 20
0.0974100748697917
 10
0.9223381890190971
 20
0.0974100748697917
 10
1.104239230685764
 20
0.9888285319010416
 10
1.104239230685764
 20
0.9888285319010416
 97
        0
 92
        1
 93
        1
 72
     4
 94
        3
 73
     0
 74
     0
 95
       17
 96
       13
 40
0.0
 40
0.0
 40
0.0
 40
0.0
 40
1.0
 40
1.0
 40
1.0
 40
2.0
 40
2.0
 40
2.0
 40
3.0
 40
3.0
 40
3.0
 40
4.0
 40
4.0
 40
4.0
 40
4.0
 10
0.7941806369357638
 20
0.5144388834635416
 10
0.7941806369357638
 20
0.5144388834635416
 10
0.962301296657986
 20
0.6047003851996528
 10
0.962301296657986
 20
0.6047003851996528
 10
0.962301296657986
 20
0.6047003851996528
 10
0.8782409667968749
 20
0.137200927734375
 10
0.8782409667968749
 20
0.137200927734375
 10
0.8782409667968749
 20
0.137200927734375
 10
0.8765184190538193
 20
0.1363396538628472
 10
0.8765184190538193
 20
0.1363396538628472
 10
0.8765184190538193
 20
0.1363396538628472
 10
0.7941806369357638
 20
0.5144388834635416
 10
0.7941806369357638
 20
0.5144388834635416
 97
        0
 75
     0
 76
     1
 98
        1
 10
0.0
 20
0.0
  0
HATCH
  5
2A
330
22
100
AcDbEntity
  8
H2_5A
 62
     7
100
AcDbHatch
 10
0.0
 20
0.0
 30
0.0
210
0.0
220
0.0
230
1.0
  2
SOLID
 70
     1
 71
     0
 91
        1
 92
       16
 93
        1
 72
     4
 94
        3
 73
     0
 74
     0
 95
       29
 96
       25
 40
0.0
 40
0.0
 40
0.0
 40
0.0
 40
1.0
 40
1.0
 40
1.0
 40
2.0
 40
2.0
 40
2.0
 40
3.0
 40
3.0
 40
3.0
 40
4.0
 40
4.0
 40
4.0
 40
5.0
 40
5.0
 40
5.0
 40
6.0
 40
6.0
 40
6.0
 40
7.0
 40
7.0
 40
7.0
 40
8.0
 40
8.0
 40
8.0
 40
8.0
 10
0.6749803331163193
 20
0.044183349609375
 10
0.6749803331163193
 20
0.044183349609375
 10
0.5103047688802083
 20
-0.044183349609375
 10
0.5103047688802083
 20
-0.044183349609375
 10
0.5103047688802083
 20
-0.044183349609375
 10
0.5103047688802083
 20
0.6701571994357638
 10
0.5103047688802083
 20
0.6701571994357638
 10
0.5103047688802083
 20
0.6701571994357638
 10
0.4396803114149305
 20
0.6322611490885416
 10
0.4396803114149305
 20
0.6322611490885416
 10
0.4396803114149305
 20
0.6322611490885416
 10
0.4396803114149305
 20
-0.0820793999565972
 10
0.4396803114149305
 20
-0.0820793999565972
 10
0.4396803114149305
 20
-0.0820793999565972
 10
0.2750047471788194
 20
-0.1704460991753472
 10
0.2750047471788194
 20
-0.1704460991753472
 10
0.2750047471788194
 20
-0.1704460991753472
 10
0.2750047471788194
 20
-0.2498555501302083
 10
0.2750047471788194
 20
-0.2498555501302083
 10
0.2750047471788194
 20
-0.2498555501302083
 10
0.6749803331163193
 20
-0.0352261013454861
 10
0.6749803331163193
 20
-0.0352261013454861
 10
0.6749803331163193
 20
-0.0352261013454861
 10
0.6749803331163193
 20
0.044183349609375
 10
0.6749803331163193
 20
0.044183349609375
 97
        0
 75
     0
 76
     1
 98
        1
 10
0.0
 20
0.0
  0
HATCH
  5
29
330
22
100
AcDbEntity
  8
H2_5A
 62
     7
100
AcDbHatch
 10
0.0
 20
0.0
 30
0.0
210
0.0
220
0.0
230
1.0
  2
SOLID
 70
     1
 71
     0
 91
        1
 92
        1
 93
        1
 72
     4
 94
        3
 73
     0
 74
     0
 95
       41
 96
       37
 40
0.0
 40
0.0
 40
0.0
 40
0.0
 40
1.0
 40
1.0
 40
1.0
 40
2.0
 40
2.0
 40
2.0
 40
3.0
 40
3.0
 40
3.0
 40
4.0
 40
4.0
 40
4.0
 40
5.0
 40
5.0
 40
5.0
 40
6.0
 40
6.0
 40
6.0
 40
7.0
 40
7.0
 40
7.0
 40
8.0
 40
8.0
 40
8.0
 40
9.0
 40
9.0
 40
9.0
 40
10.0
 40
10.0
 40
10.0
 40
11.0
 40
11.0
 40
11.0
 40
12.0
 40
12.0
 40
12.0
 40
12.0
 10
0.2002461751302083
 20
0.5037590874565971
 10
0.2002461751302083
 20
0.5037590874565971
 10
0.2002461751302083
 20
-0.2899909125434028
 10
0.2002461751302083
 20
-0.2899909125434028
 10
0.2002461751302083
 20
-0.2899909125434028
 10
-0.1184251573350694
 20
-0.4608676486545139
 10
-0.1184251573350694
 20
-0.4608676486545139
 10
-0.1184251573350694
 20
-0.4608676486545139
 10
-0.1184251573350694
 20
-0.3814581976996527
 10
-0.1184251573350694
 20
-0.3814581976996527
 10
-0.1184251573350694
 20
-0.3814581976996527
 10
0.1296217176649306
 20
-0.2484775119357639
 10
0.1296217176649306
 20
-0.2484775119357639
 10
0.1296217176649306
 20
-0.2484775119357639
 10
0.1296217176649306
 20
0.0140387641059028
 10
0.1296217176649306
 20
0.0140387641059028
 10
0.1296217176649306
 20
0.0140387641059028
 10
-0.1032667371961805
 20
-0.110845947265625
 10
-0.1032667371961805
 20
-0.110845947265625
 10
-0.1032667371961805
 20
-0.110845947265625
 10
-0.1032667371961805
 20
-0.0314364963107639
 10
-0.1032667371961805
 20
-0.0314364963107639
 10
-0.1032667371961805
 20
-0.0314364963107639
 10
0.1296217176649306
 20
0.0934482150607639
 10
0.1296217176649306
 20
0.0934482150607639
 10
0.1296217176649306
 20
0.0934482150607639
 10
0.1296217176649306
 20
0.3866258409288194
 10
0.1296217176649306
 20
0.3866258409288194
 10
0.1296217176649306
 20
0.3866258409288194
 10
-0.120147705078125
 20
0.2526116265190972
 10
-0.120147705078125
 20
0.2526116265190972
 10
-0.120147705078125
 20
0.2526116265190972
 10
-0.120147705078125
 20
0.3320210774739583
 10
-0.120147705078125
 20
0.3320210774739583
 10
-0.120147705078125
 20
0.3320210774739583
 10
0.2002461751302083
 20
0.5037590874565971
 10
0.2002461751302083
 20
0.5037590874565971
 97
        0
 75
     0
 76
     1
 98
        1
 10
0.0
 20
0.0
  0
HATCH
  5
28
330
22
100
AcDbEntity
  8
H2_5A
 62
     7
100
AcDbHatch
 10
0.0
 20
0.0
 30
0.0
210
0.0
220
0.0
230
1.0
  2
SOLID
 70
     1
 71
     0
 91
        1
 92
        1
 93
        1
 72
     4
 94
        3
 73
     0
 74
     0
 95
       23
 96
       19
 40
0.0
 40
0.0
 40
0.0
 40
0.0
 40
1.0
 40
1.0
 40
1.0
 40
2.0
 40
2.0
 40
2.0
 40
3.0
 40
3.0
 40
3.0
 40
4.0
 40
4.0
 40
4.0
 40
5.0
 40
5.0
 40
5.0
 40
6.0
 40
6.0
 40
6.0
 40
6.0
 10
-0.4450202094184028
 20
0.1578715006510417
 10
-0.4450202094184028
 20
0.1578715006510417
 10
-0.4450202094184028
 20
-0.6358784993489582
 10
-0.4450202094184028
 20
-0.6358784993489582
 10
-0.4450202094184028
 20
-0.6358784993489582
 10
-0.515472412109375
 20
-0.6737745496961805
 10
-0.515472412109375
 20
-0.6737745496961805
 10
-0.515472412109375
 20
-0.6737745496961805
 10
-0.515472412109375
 20
0.0405659993489583
 10
-0.515472412109375
 20
0.0405659993489583
 10
-0.515472412109375
 20
0.0405659993489583
 10
-0.7754048665364582
 20
-0.0987881130642361
 10
-0.7754048665364582
 20
-0.0987881130642361
 10
-0.7754048665364582
 20
-0.0987881130642361
 10
-0.7754048665364582
 20
-0.019378662109375
 10
-0.7754048665364582
 20
-0.019378662109375
 10
-0.7754048665364582
 20
-0.019378662109375
 10
-0.4450202094184028
 20
0.1578715006510417
 10
-0.4450202094184028
 20
0.1578715006510417
 97
        0
 75
     0
 76
     1
 98
        1
 10
0.0
 20
0.0
  0
HATCH
  5
27
330
22
100
AcDbEntity
  8
H2_5A
 62
     7
100
AcDbHatch
 10
0.0
 20
0.0
 30
0.0
210
0.0
220
0.0
230
1.0
  2
SOLID
 70
     1
 71
     0
 91
        1
 92
        1
 93
        1
 72
     4
 94
        3
 73
     0
 74
     0
 95
       17
 96
       13
 40
0.0
 40
0.0
 40
0.0
 40
0.0
 40
1.0
 40
1.0
 40
1.0
 40
2.0
 40
2.0
 40
2.0
 40
3.0
 40
3.0
 40
3.0
 40
4.0
 40
4.0
 40
4.0
 40
4.0
 10
-0.8825473361545139
 20
-0.0769117567274305
 10
-0.8825473361545139
 20
-0.0769117567274305
 10
-0.8825473361545139
 20
-0.8706617567274305
 10
-0.8825473361545139
 20
-0.8706617567274305
 10
-0.8825473361545139
 20
-0.8706617567274305
 10
-0.9529995388454861
 20
-0.9083855523003471
 10
-0.9529995388454861
 20
-0.9083855523003471
 10
-0.9529995388454861
 20
-0.9083855523003471
 10
-0.9529995388454861
 20
-0.1146355523003472
 10
-0.9529995388454861
 20
-0.1146355523003472
 10
-0.9529995388454861
 20
-0.1146355523003472
 10
-0.8825473361545139
 20
-0.0769117567274305
 10
-0.8825473361545139
 20
-0.0769117567274305
 97
        0
 75
     0
 76
     1
 98
        1
 10
0.0
 20
0.0
  0
HATCH
  5
26
330
22
100
AcDbEntity
  8
H2_5A
 62
     7
100
AcDbHatch
 10
0.0
 20
0.0
 30
0.0
210
0.0
220
0.0
230
1.0
  2
SOLID
 70
     1
 71
     0
 91
        1
 92
        1
 93
        1
 72
     4
 94
        3
 73
     0
 74
     0
 95
       53
 96
       49
 40
0.0
 40
0.0
 40
0.0
 40
0.0
 40
1.0
 40
1.0
 40
1.0
 40
2.0
 40
2.0
 40
2.0
 40
3.0
 40
3.0
 40
3.0
 40
4.0
 40
4.0
 40
4.0
 40
5.0
 40
5.0
 40
5.0
 40
6.0
 40
6.0
 40
6.0
 40
7.0
 40
7.0
 40
7.0
 40
8.0
 40
8.0
 40
8.0
 40
9.0
 40
9.0
 40
9.0
 40
10.0
 40
10.0
 40
10.0
 40
11.0
 40
11.0
 40
11.0
 40
12.0
 40
12.0
 40
12.0
 40
13.0
 40
13.0
 40
13.0
 40
14.0
 40
14.0
 40
14.0
 40
15.0
 40
15.0
 40
15.0
 40
16.0
 40
16.0
 40
16.0
 40
16.0
 10
-1.418604193793403
 20
-1.158154975043403
 10
-1.418604193793403
 20
-1.158154975043403
 10
-1.48922865125868
 20
-1.196051025390625
 10
-1.48922865125868
 20
-1.196051025390625
 10
-1.48922865125868
 20
-1.196051025390625
 10
-1.48922865125868
 20
-0.402301025390625
 10
-1.48922865125868
 20
-0.402301025390625
 10
-1.48922865125868
 20
-0.402301025390625
 10
-1.373645697699653
 20
-0.340289306640625
 10
-1.373645697699653
 20
-0.340289306640625
 10
-1.373645697699653
 20
-0.340289306640625
 10
-1.195189751519097
 20
-0.8796190049913194
 10
-1.195189751519097
 20
-0.8796190049913194
 10
-1.185026719835069
 20
-0.9101081000434027
 10
-1.177275254991319
 20
-0.9419752332899305
 10
-1.171418592664931
 20
-0.9864169650607638
 10
-1.171418592664931
 20
-0.9864169650607638
 10
-1.169696044921875
 20
-0.985555691189236
 10
-1.169696044921875
 20
-0.985555691189236
 10
-1.170557318793403
 20
-0.9457648383246528
 10
-1.171418592664931
 20
-0.9049404568142361
 10
-1.171418592664931
 20
-0.8648050944010416
 10
-1.171418592664931
 20
-0.8648050944010416
 10
-1.171418592664931
 20
-0.231768798828125
 10
-1.171418592664931
 20
-0.231768798828125
 10
-1.171418592664931
 20
-0.231768798828125
 10
-1.100794135199653
 20
-0.1940450032552083
 10
-1.100794135199653
 20
-0.1940450032552083
 10
-1.100794135199653
 20
-0.1940450032552083
 10
-1.100794135199653
 20
-0.9877950032552082
 10
-1.100794135199653
 20
-0.9877950032552082
 10
-1.100794135199653
 20
-0.9877950032552082
 10
-1.215515814887153
 20
-1.049289957682292
 10
-1.215515814887153
 20
-1.049289957682292
 10
-1.215515814887153
 20
-1.049289957682292
 10
-1.396555582682292
 20
-0.4965243869357638
 10
-1.396555582682292
 20
-0.4965243869357638
 10
-1.404307047526042
 20
-0.4763705783420139
 10
-1.41016370985243
 20
-0.4541497124565972
 10
-1.418604193793403
 20
-0.4215935601128472
 10
-1.418604193793403
 20
-0.4215935601128472
 10
-1.420326741536458
 20
-0.4226270887586805
 10
-1.420326741536458
 20
-0.4226270887586805
 10
-1.419465467664931
 20
-0.4507046169704861
 10
-1.418604193793403
 20
-0.4808492024739583
 10
-1.418604193793403
 20
-0.5104770236545139
 10
-1.418604193793403
 20
-0.5104770236545139
 10
-1.418604193793403
 20
-1.158154975043403
 10
-1.418604193793403
 20
-1.158154975043403
 97
        0
 75
     0
 76
     1
 98
        1
 10
0.0
 20
0.0
  0
HATCH
  5
25
330
22
100
AcDbEntity
  8
H2_5A
 62
     7
100
AcDbHatch
 10
0.0
 20
0.0
 30
0.0
210
0.0
220
0.0
230
1.0
  2
SOLID
 70
     1
 71
     0
 91
        1
 92
        1
 93
        1
 72
     4
 94
        3
 73
     0
 74
     0
 95
       41
 96
       37
 40
0.0
 40
0.0
 40
0.0
 40
0.0
 40
1.0
 40
1.0
 40
1.0
 40
2.0
 40
2.0
 40
2.0
 40
3.0
 40
3.0
 40
3.0
 40
4.0
 40
4.0
 40
4.0
 40
5.0
 40
5.0
 40
5.0
 40
6.0
 40
6.0
 40
6.0
 40
7.0
 40
7.0
 40
7.0
 40
8.0
 40
8.0
 40
8.0
 40
9.0
 40
9.0
 40
9.0
 40
10.0
 40
10.0
 40
10.0
 40
11.0
 40
11.0
 40
11.0
 40
12.0
 40
12.0
 40
12.0
 40
12.0
 10
-1.617558458116319
 20
-0.4712029351128472
 10
-1.617558458116319
 20
-0.4712029351128472
 10
-1.617558458116319
 20
-1.264952935112847
 10
-1.617558458116319
 20
-1.264952935112847
 10
-1.617558458116319
 20
-1.264952935112847
 10
-1.936229790581597
 20
-1.435829671223958
 10
-1.936229790581597
 20
-1.435829671223958
 10
-1.936229790581597
 20
-1.435829671223958
 10
-1.936229790581597
 20
-1.356420220269097
 10
-1.936229790581597
 20
-1.356420220269097
 10
-1.936229790581597
 20
-1.356420220269097
 10
-1.688010660807292
 20
-1.223267279730903
 10
-1.688010660807292
 20
-1.223267279730903
 10
-1.688010660807292
 20
-1.223267279730903
 10
-1.688010660807292
 20
-0.9609232584635415
 10
-1.688010660807292
 20
-0.9609232584635415
 10
-1.688010660807292
 20
-0.9609232584635415
 10
-1.920899115668403
 20
-1.085807969835069
 10
-1.920899115668403
 20
-1.085807969835069
 10
-1.920899115668403
 20
-1.085807969835069
 10
-1.920899115668403
 20
-1.006398518880208
 10
-1.920899115668403
 20
-1.006398518880208
 10
-1.920899115668403
 20
-1.006398518880208
 10
-1.688010660807292
 20
-0.8815138075086805
 10
-1.688010660807292
 20
-0.8815138075086805
 10
-1.688010660807292
 20
-0.8815138075086805
 10
-1.688010660807292
 20
-0.588336181640625
 10
-1.688010660807292
 20
-0.588336181640625
 10
-1.688010660807292
 20
-0.588336181640625
 10
-1.937952338324653
 20
-0.7223503960503471
 10
-1.937952338324653
 20
-0.7223503960503471
 10
-1.937952338324653
 20
-0.7223503960503471
 10
-1.937952338324653
 20
-0.6429409450954861
 10
-1.937952338324653
 20
-0.6429409450954861
 10
-1.937952338324653
 20
-0.6429409450954861
 10
-1.617558458116319
 20
-0.4712029351128472
 10
-1.617558458116319
 20
-0.4712029351128472
 97
        0
 75
     0
 76
     1
 98
        1
 10
0.0
 20
0.0
  0
ENDBLK
  5
2E
330
22
100
AcDbEntity
  8
H2_5A
100
AcDbBlockEnd
  0
BLOCK
  5
31
330
2F
100
AcDbEntity
  8
H2_5A
 62
     7
100
AcDbBlockBegin
  2
AI9-BLK2
 70
     0
 10
0.0
 20
0.0
 30
0.0
  3
AI9-BLK2
  1

  4

  0
HATCH
  5
3A
330
2F
100
AcDbEntity
  8
H2_5A
 62
     7
100
AcDbHatch
 10
0.0
 20
0.0
 30
0.0
210
0.0
220
0.0
230
1.0
  2
SOLID
 70
     1
 71
     0
 91
        2
 92
        1
 93
        1
 72
     4
 94
        3
 73
     0
 74
     0
 95
       32
 96
       28
 40
0.0
 40
0.0
 40
0.0
 40
0.0
 40
1.0
 40
1.0
 40
1.0
 40
2.0
 40
2.0
 40
2.0
 40
3.0
 40
3.0
 40
3.0
 40
4.0
 40
4.0
 40
4.0
 40
5.0
 40
5.0
 40
5.0
 40
6.0
 40
6.0
 40
6.0
 40
7.0
 40
7.0
 40
7.0
 40
8.0
 40
8.0
 40
8.0
 40
9.0
 40
9.0
 40
9.0
 40
9.0
 10
-2.284787326388889
 20
0.1126546223958333
 10
-2.284787326388889
 20
0.1126546223958333
 10
-2.282720269097222
 20
0.9064046223958333
 10
-2.282720269097222
 20
0.9064046223958333
 10
-2.282720269097222
 20
0.9064046223958333
 10
-2.085316297743055
 20
0.8624796549479166
 10
-2.085316297743055
 20
0.8624796549479166
 10
-2.027094184027777
 20
0.8493882921006943
 10
-1.954058159722222
 20
0.8257893880208332
 10
-1.910305447048611
 20
0.7713568793402778
 10
-1.865174696180555
 20
0.7169243706597221
 10
-1.849327256944444
 20
0.6519843207465277
 10
-1.849671766493055
 20
0.5884223090277777
 10
-1.849671766493055
 20
0.5005723741319444
 10
-1.875165473090278
 20
0.4204739040798611
 10
-1.9564697265625
 20
0.3994588216145833
 10
-2.008490668402778
 20
0.3877454969618056
 10
-2.093584526909722
 20
0.4066935221354167
 10
-2.150773111979166
 20
0.4194403754340277
 10
-2.150773111979166
 20
0.4194403754340277
 10
-2.200726996527778
 20
0.4306369357638888
 10
-2.200726996527778
 20
0.4306369357638888
 10
-2.200726996527778
 20
0.4306369357638888
 10
-2.201760525173611
 20
0.0940511067708333
 10
-2.201760525173611
 20
0.0940511067708333
 10
-2.201760525173611
 20
0.0940511067708333
 10
-2.284787326388889
 20
0.1126546223958333
 10
-2.284787326388889
 20
0.1126546223958333
 97
        0
 92
       16
 93
        1
 72
     4
 94
        3
 73
     0
 74
     0
 95
       20
 96
       16
 40
0.0
 40
0.0
 40
0.0
 40
0.0
 40
1.0
 40
1.0
 40
1.0
 40
2.0
 40
2.0
 40
2.0
 40
3.0
 40
3.0
 40
3.0
 40
4.0
 40
4.0
 40
4.0
 40
5.0
 40
5.0
 40
5.0
 40
5.0
 10
-2.200726996527778
 20
0.5100463867187499
 10
-2.200726996527778
 20
0.5100463867187499
 10
-2.119422743055555
 20
0.4919596354166666
 10
-2.119422743055555
 20
0.4919596354166666
 10
-2.005390082465278
 20
0.4674994574652777
 10
-1.935110134548611
 20
0.4688774956597222
 10
-1.935799153645833
 20
0.6056477864583333
 10
-1.935454644097222
 20
0.733633083767361
 10
-2.0122802734375
 20
0.7687730577256944
 10
-2.113566080729167
 20
0.7892713758680555
 10
-2.113566080729167
 20
0.7892713758680555
 10
-2.199693467881944
 20
0.8085639105902777
 10
-2.199693467881944
 20
0.8085639105902777
 10
-2.199693467881944
 20
0.8085639105902777
 10
-2.200726996527778
 20
0.5100463867187499
 10
-2.200726996527778
 20
0.5100463867187499
 97
        0
 75
     0
 76
     1
 98
        1
 10
0.0
 20
0.0
  0
HATCH
  5
39
330
2F
100
AcDbEntity
  8
H2_5A
 62
     7
100
AcDbHatch
 10
0.0
 20
0.0
 30
0.0
210
0.0
220
0.0
230
1.0
  2
SOLID
 70
     1
 71
     0
 91
        1
 92
       16
 93
        1
 72
     4
 94
        3
 73
     0
 74
     0
 95
       23
 96
       19
 40
0.0
 40
0.0
 40
0.0
 40
0.0
 40
1.0
 40
1.0
 40
1.0
 40
2.0
 40
2.0
 40
2.0
 40
3.0
 40
3.0
 40
3.0
 40
4.0
 40
4.0
 40
4.0
 40
5.0
 40
5.0
 40
5.0
 40
6.0
 40
6.0
 40
6.0
 40
6.0
 10
-1.341175672743056
 20
-0.0978407118055556
 10
-1.341175672743056
 20
-0.0978407118055556
 10
-1.340831163194444
 20
-0.0184312608506944
 10
-1.340831163194444
 20
-0.0184312608506944
 10
-1.340831163194444
 20
-0.0184312608506944
 10
-1.647444661458333
 20
0.0499538845486111
 10
-1.647444661458333
 20
0.0499538845486111
 10
-1.647444661458333
 20
0.0499538845486111
 10
-1.645377604166667
 20
0.7642944335937499
 10
-1.645377604166667
 20
0.7642944335937499
 10
-1.645377604166667
 20
0.7642944335937499
 10
-1.728748914930556
 20
0.7828979492187499
 10
-1.728748914930556
 20
0.7828979492187499
 10
-1.728748914930556
 20
0.7828979492187499
 10
-1.730815972222222
 20
-0.01085205078125
 10
-1.730815972222222
 20
-0.01085205078125
 10
-1.730815972222222
 20
-0.01085205078125
 10
-1.341175672743056
 20
-0.0978407118055556
 10
-1.341175672743056
 20
-0.0978407118055556
 97
        0
 75
     0
 76
     1
 98
        1
 10
0.0
 20
0.0
  0
HATCH
  5
38
330
2F
100
AcDbEntity
  8
H2_5A
 62
     7
100
AcDbHatch
 10
0.0
 20
0.0
 30
0.0
210
0.0
220
0.0
230
1.0
  2
SOLID
 70
     1
 71
     0
 91
        2
 92
        1
 93
        1
 72
     4
 94
        3
 73
     0
 74
     0
 95
       17
 96
       13
 40
0.0
 40
0.0
 40
0.0
 40
0.0
 40
1.0
 40
1.0
 40
1.0
 40
2.0
 40
2.0
 40
2.0
 40
3.0
 40
3.0
 40
3.0
 40
4.0
 40
4.0
 40
4.0
 40
4.0
 10
-0.9356879340277777
 20
0.1198893229166667
 10
-0.9356879340277777
 20
0.1198893229166667
 10
-1.133780924479167
 20
0.1641587999131944
 10
-1.133780924479167
 20
0.1641587999131944
 10
-1.133780924479167
 20
0.1641587999131944
 10
-1.033528645833333
 20
0.5643066406249999
 10
-1.033528645833333
 20
0.5643066406249999
 10
-1.033528645833333
 20
0.5643066406249999
 10
-1.031461588541667
 20
0.5637898763020833
 10
-1.031461588541667
 20
0.5637898763020833
 10
-1.031461588541667
 20
0.5637898763020833
 10
-0.9356879340277777
 20
0.1198893229166667
 10
-0.9356879340277777
 20
0.1198893229166667
 97
        0
 92
       16
 93
        1
 72
     4
 94
        3
 73
     0
 74
     0
 95
       29
 96
       25
 40
0.0
 40
0.0
 40
0.0
 40
0.0
 40
1.0
 40
1.0
 40
1.0
 40
2.0
 40
2.0
 40
2.0
 40
3.0
 40
3.0
 40
3.0
 40
4.0
 40
4.0
 40
4.0
 40
5.0
 40
5.0
 40
5.0
 40
6.0
 40
6.0
 40
6.0
 40
7.0
 40
7.0
 40
7.0
 40
8.0
 40
8.0
 40
8.0
 40
8.0
 10
-1.30224609375
 20
-0.1064534505208333
 10
-1.30224609375
 20
-0.1064534505208333
 10
-1.209917534722222
 20
-0.1271240234375
 10
-1.209917534722222
 20
-0.1271240234375
 10
-1.209917534722222
 20
-0.1271240234375
 10
-1.154106987847222
 20
0.0892279730902778
 10
-1.154106987847222
 20
0.0892279730902778
 10
-1.154106987847222
 20
0.0892279730902778
 10
-0.9167399088541666
 20
0.0363457573784722
 10
-0.9167399088541666
 20
0.0363457573784722
 10
-0.9167399088541666
 20
0.0363457573784722
 10
-0.8581732855902777
 20
-0.2054999457465278
 10
-0.8581732855902777
 20
-0.2054999457465278
 10
-0.8581732855902777
 20
-0.2054999457465278
 10
-0.766189236111111
 20
-0.2259982638888889
 10
-0.766189236111111
 20
-0.2259982638888889
 10
-0.766189236111111
 20
-0.2259982638888889
 10
-0.9753065321180555
 20
0.6147772894965278
 10
-0.9753065321180555
 20
0.6147772894965278
 10
-0.9753065321180555
 20
0.6147772894965278
 10
-1.085549587673611
 20
0.6394097222222221
 10
-1.085549587673611
 20
0.6394097222222221
 10
-1.085549587673611
 20
0.6394097222222221
 10
-1.30224609375
 20
-0.1064534505208333
 10
-1.30224609375
 20
-0.1064534505208333
 97
        0
 75
     0
 76
     1
 98
        1
 10
0.0
 20
0.0
  0
HATCH
  5
37
330
2F
100
AcDbEntity
  8
H2_5A
 62
     7
100
AcDbHatch
 10
0.0
 20
0.0
 30
0.0
210
0.0
220
0.0
230
1.0
  2
SOLID
 70
     1
 71
     0
 91
        1
 92
        1
 93
        1
 72
     4
 94
        3
 73
     0
 74
     0
 95
       29
 96
       25
 40
0.0
 40
0.0
 40
0.0
 40
0.0
 40
1.0
 40
1.0
 40
1.0
 40
2.0
 40
2.0
 40
2.0
 40
3.0
 40
3.0
 40
3.0
 40
4.0
 40
4.0
 40
4.0
 40
5.0
 40
5.0
 40
5.0
 40
6.0
 40
6.0
 40
6.0
 40
7.0
 40
7.0
 40
7.0
 40
8.0
 40
8.0
 40
8.0
 40
8.0
 10
-0.79375
 20
0.5742974175347222
 10
-0.79375
 20
0.5742974175347222
 10
-0.3221164279513888
 20
0.4690497504340278
 10
-0.3221164279513888
 20
0.4690497504340278
 10
-0.3221164279513888
 20
0.4690497504340278
 10
-0.3221164279513888
 20
0.3898125542534722
 10
-0.3221164279513888
 20
0.3898125542534722
 10
-0.3221164279513888
 20
0.3898125542534722
 10
-0.5164198133680555
 20
0.4330485026041666
 10
-0.5164198133680555
 20
0.4330485026041666
 10
-0.5164198133680555
 20
0.4330485026041666
 10
-0.5184868706597222
 20
-0.2812920464409722
 10
-0.5184868706597222
 20
-0.2812920464409722
 10
-0.5184868706597222
 20
-0.2812920464409722
 10
-0.601858181423611
 20
-0.2626885308159722
 10
-0.601858181423611
 20
-0.2626885308159722
 10
-0.601858181423611
 20
-0.2626885308159722
 10
-0.5997911241319444
 20
0.4516520182291666
 10
-0.5997911241319444
 20
0.4516520182291666
 10
-0.5997911241319444
 20
0.4516520182291666
 10
-0.7940945095486111
 20
0.4950602213541666
 10
-0.7940945095486111
 20
0.4950602213541666
 10
-0.7940945095486111
 20
0.4950602213541666
 10
-0.79375
 20
0.5742974175347222
 10
-0.79375
 20
0.5742974175347222
 97
        0
 75
     0
 76
     1
 98
        1
 10
0.0
 20
0.0
  0
HATCH
  5
36
330
2F
100
AcDbEntity
  8
H2_5A
 62
     7
100
AcDbHatch
 10
0.0
 20
0.0
 30
0.0
210
0.0
220
0.0
230
1.0
  2
SOLID
 70
     1
 71
     0
 91
        1
 92
        1
 93
        1
 72
     4
 94
        3
 73
     0
 74
     0
 95
       41
 96
       37
 40
0.0
 40
0.0
 40
0.0
 40
0.0
 40
1.0
 40
1.0
 40
1.0
 40
2.0
 40
2.0
 40
2.0
 40
3.0
 40
3.0
 40
3.0
 40
4.0
 40
4.0
 40
4.0
 40
5.0
 40
5.0
 40
5.0
 40
6.0
 40
6.0
 40
6.0
 40
7.0
 40
7.0
 40
7.0
 40
8.0
 40
8.0
 40
8.0
 40
9.0
 40
9.0
 40
9.0
 40
10.0
 40
10.0
 40
10.0
 40
11.0
 40
11.0
 40
11.0
 40
12.0
 40
12.0
 40
12.0
 40
12.0
 10
-0.2359890407986111
 20
-0.3443372938368055
 10
-0.2359890407986111
 20
-0.3443372938368055
 10
-0.2339219835069444
 20
0.4494127061631944
 10
-0.2339219835069444
 20
0.4494127061631944
 10
-0.2339219835069444
 20
0.4494127061631944
 10
0.1419379340277778
 20
0.3656968858506944
 10
0.1419379340277778
 20
0.3656968858506944
 10
0.1419379340277778
 20
0.3656968858506944
 10
0.1415934244791667
 20
0.2862874348958333
 10
0.1415934244791667
 20
0.2862874348958333
 10
0.1415934244791667
 20
0.2862874348958333
 10
-0.1508951822916667
 20
0.3515719943576389
 10
-0.1508951822916667
 20
0.3515719943576389
 10
-0.1508951822916667
 20
0.3515719943576389
 10
-0.1515842013888889
 20
0.0890557183159722
 10
-0.1515842013888889
 20
0.0890557183159722
 10
-0.1515842013888889
 20
0.0890557183159722
 10
0.1229899088541667
 20
0.0279052734375
 10
0.1229899088541667
 20
0.0279052734375
 10
0.1229899088541667
 20
0.0279052734375
 10
0.1226453993055555
 20
-0.0515041775173611
 10
0.1226453993055555
 20
-0.0515041775173611
 10
0.1226453993055555
 20
-0.0515041775173611
 10
-0.1519287109375
 20
0.0096462673611111
 10
-0.1519287109375
 20
0.0096462673611111
 10
-0.1519287109375
 20
0.0096462673611111
 10
-0.1526177300347222
 20
-0.2835313585069444
 10
-0.1526177300347222
 20
-0.2835313585069444
 10
-0.1526177300347222
 20
-0.2835313585069444
 10
0.1419379340277778
 20
-0.3491604275173611
 10
0.1419379340277778
 20
-0.3491604275173611
 10
0.1419379340277778
 20
-0.3491604275173611
 10
0.1415934244791667
 20
-0.4285698784722222
 10
0.1415934244791667
 20
-0.4285698784722222
 10
0.1415934244791667
 20
-0.4285698784722222
 10
-0.2359890407986111
 20
-0.3443372938368055
 10
-0.2359890407986111
 20
-0.3443372938368055
 97
        0
 75
     0
 76
     1
 98
        1
 10
0.0
 20
0.0
  0
HATCH
  5
35
330
2F
100
AcDbEntity
  8
H2_5A
 62
     7
100
AcDbHatch
 10
0.0
 20
0.0
 30
0.0
210
0.0
220
0.0
230
1.0
  2
SOLID
 70
     1
 71
     0
 91
        1
 92
       16
 93
        1
 72
     4
 94
        3
 73
     0
 74
     0
 95
       23
 96
       19
 40
0.0
 40
0.0
 40
0.0
 40
0.0
 40
1.0
 40
1.0
 40
1.0
 40
2.0
 40
2.0
 40
2.0
 40
3.0
 40
3.0
 40
3.0
 40
4.0
 40
4.0
 40
4.0
 40
5.0
 40
5.0
 40
5.0
 40
6.0
 40
6.0
 40
6.0
 40
6.0
 10
0.9139838324652777
 20
-0.6008246527777778
 10
0.9139838324652777
 20
-0.6008246527777778
 10
0.9143283420138888
 20
-0.5214152018229167
 10
0.9143283420138888
 20
-0.5214152018229167
 10
0.9143283420138888
 20
-0.5214152018229167
 10
0.60771484375
 20
-0.4530300564236111
 10
0.60771484375
 20
-0.4530300564236111
 10
0.60771484375
 20
-0.4530300564236111
 10
0.6097819010416666
 20
0.2613104926215278
 10
0.6097819010416666
 20
0.2613104926215278
 10
0.6097819010416666
 20
0.2613104926215278
 10
0.5264105902777777
 20
0.2799140082465277
 10
0.5264105902777777
 20
0.2799140082465277
 10
0.5264105902777777
 20
0.2799140082465277
 10
0.524343532986111
 20
-0.5138359917534722
 10
0.524343532986111
 20
-0.5138359917534722
 10
0.524343532986111
 20
-0.5138359917534722
 10
0.9139838324652777
 20
-0.6008246527777778
 10
0.9139838324652777
 20
-0.6008246527777778
 97
        0
 75
     0
 76
     1
 98
        1
 10
0.0
 20
0.0
  0
HATCH
  5
34
330
2F
100
AcDbEntity
  8
H2_5A
 62
     7
100
AcDbHatch
 10
0.0
 20
0.0
 30
0.0
210
0.0
220
0.0
230
1.0
  2
SOLID
 70
     1
 71
     0
 91
        1
 92
       16
 93
        1
 72
     4
 94
        3
 73
     0
 74
     0
 95
       17
 96
       13
 40
0.0
 40
0.0
 40
0.0
 40
0.0
 40
1.0
 40
1.0
 40
1.0
 40
2.0
 40
2.0
 40
2.0
 40
3.0
 40
3.0
 40
3.0
 40
4.0
 40
4.0
 40
4.0
 40
4.0
 10
1.123445638020833
 20
-0.6475056966145832
 10
1.123445638020833
 20
-0.6475056966145832
 10
1.125857204861111
 20
0.1462443033854167
 10
1.125857204861111
 20
0.1462443033854167
 10
1.125857204861111
 20
0.1462443033854167
 10
1.042485894097222
 20
0.1648478190104167
 10
1.042485894097222
 20
0.1648478190104167
 10
1.042485894097222
 20
0.1648478190104167
 10
1.040418836805555
 20
-0.6289021809895833
 10
1.040418836805555
 20
-0.6289021809895833
 10
1.040418836805555
 20
-0.6289021809895833
 10
1.123445638020833
 20
-0.6475056966145832
 10
1.123445638020833
 20
-0.6475056966145832
 97
        0
 75
     0
 76
     1
 98
        1
 10
0.0
 20
0.0
  0
HATCH
  5
33
330
2F
100
AcDbEntity
  8
H2_5A
 62
     7
100
AcDbHatch
 10
0.0
 20
0.0
 30
0.0
210
0.0
220
0.0
230
1.0
  2
SOLID
 70
     1
 71
     0
 91
        1
 92
        1
 93
        1
 72
     4
 94
        3
 73
     0
 74
     0
 95
       53
 96
       49
 40
0.0
 40
0.0
 40
0.0
 40
0.0
 40
1.0
 40
1.0
 40
1.0
 40
2.0
 40
2.0
 40
2.0
 40
3.0
 40
3.0
 40
3.0
 40
4.0
 40
4.0
 40
4.0
 40
5.0
 40
5.0
 40
5.0
 40
6.0
 40
6.0
 40
6.0
 40
7.0
 40
7.0
 40
7.0
 40
8.0
 40
8.0
 40
8.0
 40
9.0
 40
9.0
 40
9.0
 40
10.0
 40
10.0
 40
10.0
 40
11.0
 40
11.0
 40
11.0
 40
12.0
 40
12.0
 40
12.0
 40
13.0
 40
13.0
 40
13.0
 40
14.0
 40
14.0
 40
14.0
 40
15.0
 40
15.0
 40
15.0
 40
16.0
 40
16.0
 40
16.0
 40
16.0
 10
1.674660915798611
 20
0.0237711588541667
 10
1.674660915798611
 20
0.0237711588541667
 10
1.7580322265625
 20
0.0053398980034722
 10
1.7580322265625
 20
0.0053398980034722
 10
1.7580322265625
 20
0.0053398980034722
 10
1.755620659722222
 20
-0.7884101019965277
 10
1.755620659722222
 20
-0.7884101019965277
 10
1.755620659722222
 20
-0.7884101019965277
 10
1.619539388020833
 20
-0.7580932617187499
 10
1.619539388020833
 20
-0.7580932617187499
 10
1.619539388020833
 20
-0.7580932617187499
 10
1.4107666015625
 20
-0.0761366102430556
 10
1.4107666015625
 20
-0.0761366102430556
 10
1.398708767361111
 20
-0.0375515407986111
 10
1.390096028645833
 20
0.0005167643229167
 10
1.383205837673611
 20
0.049609375
 10
1.383205837673611
 20
0.049609375
 10
1.381138780381944
 20
0.0501261393229167
 10
1.381138780381944
 20
0.0501261393229167
 10
1.381827799479167
 20
0.0096462673611111
 10
1.382861328125
 20
-0.0318671332465278
 10
1.382861328125
 20
-0.0720024956597222
 10
1.382861328125
 20
-0.0720024956597222
 10
1.380794270833333
 20
-0.7048665364583333
 10
1.380794270833333
 20
-0.7048665364583333
 10
1.380794270833333
 20
-0.7048665364583333
 10
1.297767469618055
 20
-0.6864352756076388
 10
1.297767469618055
 20
-0.6864352756076388
 10
1.297767469618055
 20
-0.6864352756076388
 10
1.300179036458333
 20
0.1073147243923611
 10
1.300179036458333
 20
0.1073147243923611
 10
1.300179036458333
 20
0.1073147243923611
 10
1.435226779513889
 20
0.0771701388888889
 10
1.435226779513889
 20
0.0771701388888889
 10
1.435226779513889
 20
0.0771701388888889
 10
1.646755642361111
 20
-0.6201171874999999
 10
1.646755642361111
 20
-0.6201171874999999
 10
1.655712890625
 20
-0.64647216796875
 10
1.662603081597222
 20
-0.6735161675347222
 10
1.672593858506944
 20
-0.7127902560763888
 10
1.672593858506944
 20
-0.7127902560763888
 10
1.674660915798611
 20
-0.7133070203993055
 10
1.674660915798611
 20
-0.7133070203993055
 10
1.673627387152778
 20
-0.6843682183159722
 10
1.672938368055555
 20
-0.6535346137152778
 10
1.672938368055555
 20
-0.6239067925347221
 10
1.672938368055555
 20
-0.6239067925347221
 10
1.674660915798611
 20
0.0237711588541667
 10
1.674660915798611
 20
0.0237711588541667
 97
        0
 75
     0
 76
     1
 98
        1
 10
0.0
 20
0.0
  0
HATCH
  5
32
330
2F
100
AcDbEntity
  8
H2_5A
 62
     7
100
AcDbHatch
 10
0.0
 20
0.0
 30
0.0
210
0.0
220
0.0
230
1.0
  2
SOLID
 70
     1
 71
     0
 91
        1
 92
        1
 93
        1
 72
     4
 94
        3
 73
     0
 74
     0
 95
       41
 96
       37
 40
0.0
 40
0.0
 40
0.0
 40
0.0
 40
1.0
 40
1.0
 40
1.0
 40
2.0
 40
2.0
 40
2.0
 40
3.0
 40
3.0
 40
3.0
 40
4.0
 40
4.0
 40
4.0
 40
5.0
 40
5.0
 40
5.0
 40
6.0
 40
6.0
 40
6.0
 40
7.0
 40
7.0
 40
7.0
 40
8.0
 40
8.0
 40
8.0
 40
9.0
 40
9.0
 40
9.0
 40
10.0
 40
10.0
 40
10.0
 40
11.0
 40
11.0
 40
11.0
 40
12.0
 40
12.0
 40
12.0
 40
12.0
 10
1.9068603515625
 20
-0.8221720377604166
 10
1.9068603515625
 20
-0.8221720377604166
 10
1.909271918402778
 20
-0.0284220377604167
 10
1.909271918402778
 20
-0.0284220377604167
 10
1.909271918402778
 20
-0.0284220377604167
 10
2.284787326388889
 20
-0.1123101128472222
 10
2.284787326388889
 20
-0.1123101128472222
 10
2.284787326388889
 20
-0.1123101128472222
 10
2.284787326388889
 20
-0.1917195638020833
 10
2.284787326388889
 20
-0.1917195638020833
 10
2.284787326388889
 20
-0.1917195638020833
 10
1.991954210069444
 20
-0.1264350043402778
 10
1.991954210069444
 20
-0.1264350043402778
 10
1.991954210069444
 20
-0.1264350043402778
 10
1.991265190972222
 20
-0.3887790256076388
 10
1.991265190972222
 20
-0.3887790256076388
 10
1.991265190972222
 20
-0.3887790256076388
 10
2.265839301215278
 20
-0.4501017252604166
 10
2.265839301215278
 20
-0.4501017252604166
 10
2.265839301215278
 20
-0.4501017252604166
 10
2.265494791666666
 20
-0.5295111762152778
 10
2.265494791666666
 20
-0.5295111762152778
 10
2.265494791666666
 20
-0.5295111762152778
 10
1.991265190972222
 20
-0.4681884765625
 10
1.991265190972222
 20
-0.4681884765625
 10
1.991265190972222
 20
-0.4681884765625
 10
1.990231662326389
 20
-0.7613661024305555
 10
1.990231662326389
 20
-0.7613661024305555
 10
1.990231662326389
 20
-0.7613661024305555
 10
2.284787326388889
 20
-0.8271674262152777
 10
2.284787326388889
 20
-0.8271674262152777
 10
2.284787326388889
 20
-0.8271674262152777
 10
2.284787326388889
 20
-0.9064046223958333
 10
2.284787326388889
 20
-0.9064046223958333
 10
2.284787326388889
 20
-0.9064046223958333
 10
1.9068603515625
 20
-0.8221720377604166
 10
1.9068603515625
 20
-0.8221720377604166
 97
        0
 75
     0
 76
     1
 98
        1
 10
0.0
 20
0.0
  0
ENDBLK
  5
3B
330
2F
100
AcDbEntity
  8
H2_5A
100
AcDbBlockEnd
  0
BLOCK
  5
41
330
3F
100
AcDbEntity
  8
H2_5A
 62
     7
100
AcDbBlockBegin
  2
AI9-BLK3
 70
     0
 10
0.0
 20
0.0
 30
0.0
  3
AI9-BLK3
  1

  4

  0
SPLINE
  5
43
330
3F
100
AcDbEntity
  8
H2_5A
 62
     7
100
AcDbSpline
210
0.0
220
0.0
230
1.0
 70
     8
 71
     3
 72
    17
 73
    13
 74
     0
 42
0.0000000001
 43
0.0000000001
 40
0.0
 40
0.0
 40
0.0
 40
0.0
 40
1.0
 40
1.0
 40
1.0
 40
2.0
 40
2.0
 40
2.0
 40
3.0
 40
3.0
 40
3.0
 40
4.0
 40
4.0
 40
4.0
 40
4.0
 10
1.473208957248264
 20
0.0250630696614583
 30
0.0
 10
1.573461235894097
 20
-0.1576992458767361
 30
0.0
 10
1.619970024956597
 20
-0.3521748860677083
 30
0.0
 10
1.606534152560764
 20
-0.5357984754774305
 30
0.0
 10
1.562436930338542
 20
-1.124737548828125
 30
0.0
 10
0.9709140353732638
 20
-0.6703294542100694
 30
0.0
 10
-0.0164503309461806
 20
-0.5976379394531249
 30
0.0
 10
-1.00243665907118
 20
-0.5252909342447917
 30
0.0
 10
-1.654937744140625
 20
-0.887887234157986
 30
0.0
 10
-1.611185031467014
 20
-0.2986036512586806
 30
0.0
 10
-1.600849745008681
 20
-0.155804443359375
 30
0.0
 10
-1.553651936848958
 20
-0.0119717068142361
 30
0.0
 10
-1.474070231119792
 20
0.1230760362413194
 30
0.0
  0
SPLINE
  5
42
330
3F
100
AcDbEntity
  8
H2_5A
 62
     7
100
AcDbSpline
210
0.0
220
0.0
230
1.0
 70
     8
 71
     3
 72
    11
 73
     7
 74
     0
 42
0.0000000001
 43
0.0000000001
 40
0.0
 40
0.0
 40
0.0
 40
0.0
 40
1.0
 40
1.0
 40
1.0
 40
2.0
 40
2.0
 40
2.0
 40
2.0
 10
-0.7654140896267361
 20
0.704608154296875
 30
0.0
 10
-0.5215013292100694
 20
0.8015875922309027
 30
0.0
 10
-0.2331468370225694
 20
0.850335693359375
 30
0.0
 10
0.0889695909288194
 20
0.8267367892795138
 30
0.0
 10
0.428656005859375
 20
0.8017598470052083
 30
0.0
 10
0.7194220648871527
 20
0.7023688422309027
 30
0.0
 10
0.952655029296875
 20
0.5587083604600694
 30
0.0
  0
ENDBLK
  5
44
330
3F
100
AcDbEntity
  8
H2_5A
100
AcDbBlockEnd
  0
BLOCK
  5
47
330
45
100
AcDbEntity
  8
H2_5A
 62
     7
100
AcDbBlockBegin
  2
AI9-BLK4
 70
     0
 10
0.0
 20
0.0
 30
0.0
  3
AI9-BLK4
  1

  4

  0
SPLINE
  5
49
330
45
100
AcDbEntity
  8
H2_5A
 62
     7
100
AcDbSpline
210
0.0
220
0.0
230
1.0
 70
     8
 71
     3
 72
    17
 73
    13
 74
     0
 42
0.0000000001
 43
0.0000000001
 40
0.0
 40
0.0
 40
0.0
 40
0.0
 40
1.0
 40
1.0
 40
1.0
 40
2.0
 40
2.0
 40
2.0
 40
3.0
 40
3.0
 40
3.0
 40
4.0
 40
4.0
 40
4.0
 40
4.0
 10
1.475792778862847
 20
0.0250630696614583
 30
0.0
 10
1.57604505750868
 20
-0.1576992458767361
 30
0.0
 10
1.62255384657118
 20
-0.3521748860677083
 30
0.0
 10
1.609117974175347
 20
-0.5357984754774305
 30
0.0
 10
1.565020751953125
 20
-1.124737548828125
 30
0.0
 10
0.9734978569878472
 20
-0.6703294542100694
 30
0.0
 10
-0.0138665093315972
 20
-0.5976379394531249
 30
0.0
 10
-0.9998528374565971
 20
-0.5252909342447917
 30
0.0
 10
-1.652353922526042
 20
-0.887887234157986
 30
0.0
 10
-1.608601209852431
 20
-0.2986036512586806
 30
0.0
 10
-1.598265923394097
 20
-0.155804443359375
 30
0.0
 10
-1.551068115234375
 20
-0.0119717068142361
 30
0.0
 10
-1.471486409505208
 20
0.1230760362413194
 30
0.0
  0
SPLINE
  5
48
330
45
100
AcDbEntity
  8
H2_5A
 62
     7
100
AcDbSpline
210
0.0
220
0.0
230
1.0
 70
     8
 71
     3
 72
    11
 73
     7
 74
     0
 42
0.0000000001
 43
0.0000000001
 40
0.0
 40
0.0
 40
0.0
 40
0.0
 40
1.0
 40
1.0
 40
1.0
 40
2.0
 40
2.0
 40
2.0
 40
2.0
 10
-0.7628302680121527
 20
0.704608154296875
 30
0.0
 10
-0.5189175075954861
 20
0.8015875922309027
 30
0.0
 10
-0.2305630154079861
 20
0.850335693359375
 30
0.0
 10
0.0915534125434028
 20
0.8267367892795138
 30
0.0
 10
0.4312398274739583
 20
0.8017598470052083
 30
0.0
 10
0.722005886501736
 20
0.7023688422309027
 30
0.0
 10
0.9552388509114582
 20
0.5587083604600694
 30
0.0
  0
ENDBLK
  5
4A
330
45
100
AcDbEntity
  8
H2_5A
100
AcDbBlockEnd
  0
BLOCK
  5
53
330
51
100
AcDbEntity
  8
H2_5A
 62
     7
100
AcDbBlockBegin
  2
AI9-BLK5
 70
     0
 10
0.0
 20
0.0
 30
0.0
  3
AI9-BLK5
  1

  4

  0
ELLIPSE
  5
55
330
51
100
AcDbEntity
  8
H2_5A
 62
     7
100
AcDbEllipse
 10
-0.1775946723090278
 20
-0.1406460232204861
 30
0.0
 11
0.2172132703993056
 21
-1.186232503255208
 31
0.0
210
0.0
220
0.0
230
1.0
 40
0.8064035188273053
 41
0.0
 42
6.283185307179586
  0
SPLINE
  5
54
330
51
100
AcDbEntity
  8
H2_5A
 62
     7
100
AcDbSpline
210
0.0
220
0.0
230
1.0
 70
    11
 71
     3
 72
    23
 73
    19
 74
     0
 42
0.0000000001
 43
0.0000000001
 40
0.0
 40
0.0
 40
0.0
 40
0.0
 40
1.0
 40
1.0
 40
1.0
 40
2.0
 40
2.0
 40
2.0
 40
3.0
 40
3.0
 40
3.0
 40
4.0
 40
4.0
 40
4.0
 40
5.0
 40
5.0
 40
5.0
 40
6.0
 40
6.0
 40
6.0
 40
6.0
 10
1.134814453125
 20
0.3166042751736111
 30
0.0
 10
1.014580620659722
 20
0.9711724175347222
 30
0.0
 10
0.4885145399305555
 20
1.423685709635417
 30
0.0
 10
-0.0392740885416667
 20
1.326706271701389
 30
0.0
 10
-0.2497694227430555
 20
1.288121202256944
 30
0.0
 10
-0.4268473307291666
 20
1.165475802951389
 30
0.0
 10
-0.5584499782986111
 20
0.9932210286458333
 30
0.0
 10
-0.9880533854166665
 20
0.8125257703993055
 30
0.0
 10
-1.240923394097222
 20
0.2673394097222222
 30
0.0
 10
-1.134125434027778
 20
-0.3160875108506944
 30
0.0
 10
-1.0138916015625
 20
-0.9710001627604166
 30
0.0
 10
-0.4878255208333333
 20
-1.423341200086806
 30
0.0
 10
0.0396185980902778
 20
-1.326878526475694
 30
0.0
 10
0.2504584418402778
 20
-1.288121202256944
 30
0.0
 10
0.4275363498263888
 20
-1.165475802951389
 30
0.0
 10
0.5594835069444444
 20
-0.9932210286458333
 30
0.0
 10
0.989431423611111
 20
-0.8123535156249999
 30
0.0
 10
1.241956922743055
 20
-0.2671671549479167
 30
0.0
 10
1.134814453125
 20
0.3166042751736111
 30
0.0
  0
ENDBLK
  5
56
330
51
100
AcDbEntity
  8
H2_5A
100
AcDbBlockEnd
  0
BLOCK
  5
59
330
57
100
AcDbEntity
  8
H2_5A
 62
     7
100
AcDbBlockBegin
  2
AI9-BLK6
 70
     0
 10
0.0
 20
0.0
 30
0.0
  3
AI9-BLK6
  1

  4

  0
ELLIPSE
  5
5B
330
57
100
AcDbEntity
  8
H2_5A
 62
     7
100
AcDbEllipse
 10
-0.1725131564670139
 20
-0.1405598958333333
 30
0.0
 11
0.2172132703993055
 21
-1.186318630642361
 31
0.0
210
0.0
220
0.0
230
1.0
 40
0.8063597590087874
 41
0.0
 42
6.283185307179586
  0
SPLINE
  5
5A
330
57
100
AcDbEntity
  8
H2_5A
 62
     7
100
AcDbSpline
210
0.0
220
0.0
230
1.0
 70
    11
 71
     3
 72
    23
 73
    19
 74
     0
 42
0.0000000001
 43
0.0000000001
 40
0.0
 40
0.0
 40
0.0
 40
0.0
 40
1.0
 40
1.0
 40
1.0
 40
2.0
 40
2.0
 40
2.0
 40
3.0
 40
3.0
 40
3.0
 40
4.0
 40
4.0
 40
4.0
 40
5.0
 40
5.0
 40
5.0
 40
6.0
 40
6.0
 40
6.0
 40
6.0
 10
1.139895968967014
 20
0.3167765299479167
 30
0.0
 10
1.019662136501736
 20
0.9713446723090277
 30
0.0
 10
0.4935960557725694
 20
1.423857964409722
 30
0.0
 10
-0.0341925726996528
 20
1.326878526475694
 30
0.0
 10
-0.2446879069010416
 20
1.28829345703125
 30
0.0
 10
-0.4217658148871528
 20
1.165648057725694
 30
0.0
 10
-0.5533684624565972
 20
0.9933932834201388
 30
0.0
 10
-0.9829718695746527
 20
0.8125257703993055
 30
0.0
 10
-1.235841878255208
 20
0.2675116644965278
 30
0.0
 10
-1.129043918185764
 20
-0.3160875108506944
 30
0.0
 10
-1.008810085720486
 20
-0.9706556532118055
 30
0.0
 10
-0.4827440049913194
 20
-1.423341200086806
 30
0.0
 10
0.0447001139322917
 20
-1.326878526475694
 30
0.0
 10
0.2555399576822917
 20
-1.287948947482639
 30
0.0
 10
0.4326178656684027
 20
-1.165303548177083
 30
0.0
 10
0.5645650227864583
 20
-0.9930487738715277
 30
0.0
 10
0.9945129394531249
 20
-0.8121812608506944
 30
0.0
 10
1.247038438585069
 20
-0.2671671549479167
 30
0.0
 10
1.139895968967014
 20
0.3167765299479167
 30
0.0
  0
ENDBLK
  5
5C
330
57
100
AcDbEntity
  8
H2_5A
100
AcDbBlockEnd
  0
BLOCK
  5
5F
330
5D
100
AcDbEntity
  8
H2_5A
 62
     7
100
AcDbBlockBegin
  2
AI9-BLK7
 70
     0
 10
0.0
 20
0.0
 30
0.0
  3
AI9-BLK7
  1

  4

  0
ELLIPSE
  5
61
330
5D
100
AcDbEntity
  8
H2_5A
 62
     7
100
AcDbEllipse
 10
-0.1725131564670139
 20
-0.1406460232204861
 30
0.0
 11
0.2172132703993055
 21
-1.186318630642361
 31
0.0
210
0.0
220
0.0
230
1.0
 40
0.8063597590087874
 41
0.0
 42
6.283185307179586
  0
SPLINE
  5
60
330
5D
100
AcDbEntity
  8
H2_5A
 62
     7
100
AcDbSpline
210
0.0
220
0.0
230
1.0
 70
    11
 71
     3
 72
    23
 73
    19
 74
     0
 42
0.0000000001
 43
0.0000000001
 40
0.0
 40
0.0
 40
0.0
 40
0.0
 40
1.0
 40
1.0
 40
1.0
 40
2.0
 40
2.0
 40
2.0
 40
3.0
 40
3.0
 40
3.0
 40
4.0
 40
4.0
 40
4.0
 40
5.0
 40
5.0
 40
5.0
 40
6.0
 40
6.0
 40
6.0
 40
6.0
 10
1.139895968967014
 20
0.3166904025607639
 30
0.0
 10
1.019662136501736
 20
0.9712585449218749
 30
0.0
 10
0.4935960557725694
 20
1.423599582248264
 30
0.0
 10
-0.0341925726996528
 20
1.326792399088542
 30
0.0
 10
-0.2446879069010416
 20
1.288207329644097
 30
0.0
 10
-0.4217658148871528
 20
1.165561930338542
 30
0.0
 10
-0.5533684624565972
 20
0.993307156032986
 30
0.0
 10
-0.9829718695746527
 20
0.8124396430121527
 30
0.0
 10
-1.235841878255208
 20
0.267425537109375
 30
0.0
 10
-1.129043918185764
 20
-0.3161736382378472
 30
0.0
 10
-1.008810085720486
 20
-0.9707417805989582
 30
0.0
 10
-0.4827440049913194
 20
-1.423427327473958
 30
0.0
 10
0.0447001139322917
 20
-1.326964653862847
 30
0.0
 10
0.2555399576822917
 20
-1.288035074869792
 30
0.0
 10
0.4326178656684027
 20
-1.165389675564236
 30
0.0
 10
0.5645650227864583
 20
-0.9931349012586804
 30
0.0
 10
0.9945129394531249
 20
-0.8122673882378472
 30
0.0
 10
1.247038438585069
 20
-0.2672532823350694
 30
0.0
 10
1.139895968967014
 20
0.3166904025607639
 30
0.0
  0
ENDBLK
  5
62
330
5D
100
AcDbEntity
  8
H2_5A
100
AcDbBlockEnd
  0
BLOCK
  5
65
330
63
100
AcDbEntity
  8
H2_5A
 62
     7
100
AcDbBlockBegin
  2
AI9-BLK8
 70
     0
 10
0.0
 20
0.0
 30
0.0
  3
AI9-BLK8
  1

  4

  0
ELLIPSE
  5
67
330
63
100
AcDbEntity
  8
H2_5A
 62
     7
100
AcDbEllipse
 10
-0.1831068250868055
 20
-0.1405598958333333
 30
0.0
 11
0.2172132703993056
 21
-1.186146375868056
 31
0.0
210
0.0
220
0.0
230
1.0
 40
0.8064472907807645
 41
0.0
 42
6.283185307179586
  0
SPLINE
  5
66
330
63
100
AcDbEntity
  8
H2_5A
 62
     7
100
AcDbSpline
210
0.0
220
0.0
230
1.0
 70
    11
 71
     3
 72
    23
 73
    19
 74
     0
 42
0.0000000001
 43
0.0000000001
 40
0.0
 40
0.0
 40
0.0
 40
0.0
 40
1.0
 40
1.0
 40
1.0
 40
2.0
 40
2.0
 40
2.0
 40
3.0
 40
3.0
 40
3.0
 40
4.0
 40
4.0
 40
4.0
 40
5.0
 40
5.0
 40
5.0
 40
6.0
 40
6.0
 40
6.0
 40
6.0
 10
1.129302300347222
 20
0.3166042751736111
 30
0.0
 10
1.009068467881944
 20
0.9711724175347222
 30
0.0
 10
0.4830023871527777
 20
1.423857964409722
 30
0.0
 10
-0.0447862413194444
 20
1.326706271701389
 30
0.0
 10
-0.2552815755208333
 20
1.288121202256944
 30
0.0
 10
-0.4323594835069444
 20
1.165475802951389
 30
0.0
 10
-0.5639621310763888
 20
0.9932210286458333
 30
0.0
 10
-0.9935655381944444
 20
0.812698025173611
 30
0.0
 10
-1.246435546875
 20
0.2673394097222222
 30
0.0
 10
-1.139637586805556
 20
-0.3159152560763889
 30
0.0
 10
-1.019403754340278
 20
-0.9711724175347222
 30
0.0
 10
-0.4933376736111111
 20
-1.4231689453125
 30
0.0
 10
0.0341064453125
 20
-1.326706271701389
 30
0.0
 10
0.2449462890625
 20
-1.288121202256944
 30
0.0
 10
0.4220241970486111
 20
-1.165475802951389
 30
0.0
 10
0.5539713541666667
 20
-0.9932210286458333
 30
0.0
 10
0.9839192708333332
 20
-0.8123535156249999
 30
0.0
 10
1.236444769965278
 20
-0.2669949001736111
 30
0.0
 10
1.129302300347222
 20
0.3166042751736111
 30
0.0
  0
ENDBLK
  5
68
330
63
100
AcDbEntity
  8
H2_5A
100
AcDbBlockEnd
  0
BLOCK
  5
6B
330
69
100
AcDbEntity
  8
H2_5A
 62
     7
100
AcDbBlockBegin
  2
AI9-BLK9
 70
     0
 10
0.0
 20
0.0
 30
0.0
  3
AI9-BLK9
  1

  4

  0
ELLIPSE
  5
6D
330
69
100
AcDbEntity
  8
H2_5A
 62
     7
100
AcDbEllipse
 10
-0.1831068250868055
 20
-0.1406460232204861
 30
0.0
 11
0.2172132703993056
 21
-1.186232503255208
 31
0.0
210
0.0
220
0.0
230
1.0
 40
0.8064035188273053
 41
0.0
 42
6.283185307179586
  0
SPLINE
  5
6C
330
69
100
AcDbEntity
  8
H2_5A
 62
     7
100
AcDbSpline
210
0.0
220
0.0
230
1.0
 70
    11
 71
     3
 72
    23
 73
    19
 74
     0
 42
0.0000000001
 43
0.0000000001
 40
0.0
 40
0.0
 40
0.0
 40
0.0
 40
1.0
 40
1.0
 40
1.0
 40
2.0
 40
2.0
 40
2.0
 40
3.0
 40
3.0
 40
3.0
 40
4.0
 40
4.0
 40
4.0
 40
5.0
 40
5.0
 40
5.0
 40
6.0
 40
6.0
 40
6.0
 40
6.0
 10
1.129302300347222
 20
0.3166042751736111
 30
0.0
 10
1.009068467881944
 20
0.9711724175347222
 30
0.0
 10
0.4830023871527777
 20
1.423685709635417
 30
0.0
 10
-0.0447862413194444
 20
1.326706271701389
 30
0.0
 10
-0.2552815755208333
 20
1.288121202256944
 30
0.0
 10
-0.4323594835069444
 20
1.165475802951389
 30
0.0
 10
-0.5639621310763888
 20
0.9932210286458333
 30
0.0
 10
-0.9935655381944444
 20
0.8125257703993055
 30
0.0
 10
-1.246435546875
 20
0.2673394097222222
 30
0.0
 10
-1.139637586805556
 20
-0.3160875108506944
 30
0.0
 10
-1.019403754340278
 20
-0.9710001627604166
 30
0.0
 10
-0.4933376736111111
 20
-1.423341200086806
 30
0.0
 10
0.0341064453125
 20
-1.326878526475694
 30
0.0
 10
0.2449462890625
 20
-1.288121202256944
 30
0.0
 10
0.4220241970486111
 20
-1.165475802951389
 30
0.0
 10
0.5539713541666667
 20
-0.9932210286458333
 30
0.0
 10
0.9839192708333332
 20
-0.8123535156249999
 30
0.0
 10
1.236444769965278
 20
-0.2671671549479167
 30
0.0
 10
1.129302300347222
 20
0.3166042751736111
 30
0.0
  0
ENDBLK
  5
6E
330
69
100
AcDbEntity
  8
H2_5A
100
AcDbBlockEnd
  0
BLOCK
  5
71
330
6F
100
AcDbEntity
  8
H2_5A
 62
     7
100
AcDbBlockBegin
  2
AI9-BLK10
 70
     0
 10
0.0
 20
0.0
 30
0.0
  3
AI9-BLK10
  1

  4

  0
ELLIPSE
  5
73
330
6F
100
AcDbEntity
  8
H2_5A
 62
     7
100
AcDbEllipse
 10
0.2483052571614583
 20
-0.0713996039496528
 30
0.0
 11
-0.3264227973090277
 21
-1.160738796657986
 31
0.0
210
0.0
220
0.0
230
1.0
 40
0.721121087299927
 41
0.0
 42
6.283185307179586
  0
SPLINE
  5
72
330
6F
100
AcDbEntity
  8
H2_5A
 62
     7
100
AcDbSpline
210
0.0
220
0.0
230
1.0
 70
    11
 71
     3
 72
    29
 73
    25
 74
     0
 42
0.0000000001
 43
0.0000000001
 40
0.0
 40
0.0
 40
0.0
 40
0.0
 40
1.0
 40
1.0
 40
1.0
 40
2.0
 40
2.0
 40
2.0
 40
3.0
 40
3.0
 40
3.0
 40
4.0
 40
4.0
 40
4.0
 40
5.0
 40
5.0
 40
5.0
 40
6.0
 40
6.0
 40
6.0
 40
7.0
 40
7.0
 40
7.0
 40
8.0
 40
8.0
 40
8.0
 40
8.0
 10
0.5750725640190971
 20
1.088994683159722
 30
0.0
 10
0.4972134060329861
 20
1.110871039496528
 30
0.0
 10
0.4176317003038194
 20
1.112249077690972
 30
0.0
 10
0.3383945041232639
 20
1.104669867621528
 30
0.0
 10
0.2629469129774306
 20
1.172710503472222
 30
0.0
 10
0.1778530544704861
 20
1.226626247829861
 30
0.0
 10
0.0793233235677083
 20
1.254359266493055
 30
0.0
 10
-0.3826639811197916
 20
1.38441162109375
 30
0.0
 10
-0.9039069281684027
 20
0.9704833984374999
 30
0.0
 10
-1.084429931640625
 20
0.3295233832465278
 30
0.0
 10
-1.264608425564236
 20
-0.3112643771701389
 30
0.0
 10
-1.036198594835069
 20
-0.936721462673611
 30
0.0
 10
-0.5738667805989582
 20
-1.066773817274306
 30
0.0
 10
-0.4960076226128472
 20
-1.088650173611111
 30
0.0
 10
-0.4164259168836805
 20
-1.090028211805556
 30
0.0
 10
-0.3371887207031249
 20
-1.082449001736111
 30
0.0
 10
-0.2617411295572916
 20
-1.150489637586805
 30
0.0
 10
-0.1766472710503472
 20
-1.204405381944444
 30
0.0
 10
-0.0781175401475694
 20
-1.232138400607639
 30
0.0
 10
0.3838697645399306
 20
-1.362190755208333
 30
0.0
 10
0.9047682020399305
 20
-0.9480902777777777
 30
0.0
 10
1.085291205512153
 20
-0.3069580078125
 30
0.0
 10
1.265469699435764
 20
0.3334852430555556
 30
0.0
 10
1.037404378255208
 20
0.9589423285590277
 30
0.0
 10
0.5750725640190971
 20
1.088994683159722
 30
0.0
  0
ENDBLK
  5
74
330
6F
100
AcDbEntity
  8
H2_5A
100
AcDbBlockEnd
  0
BLOCK
  5
77
330
75
100
AcDbEntity
  8
H2_5A
 62
     7
100
AcDbBlockBegin
  2
AI9-BLK11
 70
     0
 10
0.0
 20
0.0
 30
0.0
  3
AI9-BLK11
  1

  4

  0
ELLIPSE
  5
79
330
75
100
AcDbEntity
  8
H2_5A
 62
     7
100
AcDbEllipse
 10
0.2473578559027778
 20
-0.0714857313368056
 30
0.0
 11
-0.3264227973090277
 21
-1.160738796657986
 31
0.0
210
0.0
220
0.0
230
1.0
 40
0.721121087299927
 41
0.0
 42
6.283185307179586
  0
SPLINE
  5
78
330
75
100
AcDbEntity
  8
H2_5A
 62
     7
100
AcDbSpline
210
0.0
220
0.0
230
1.0
 70
    11
 71
     3
 72
    29
 73
    25
 74
     0
 42
0.0000000001
 43
0.0000000001
 40
0.0
 40
0.0
 40
0.0
 40
0.0
 40
1.0
 40
1.0
 40
1.0
 40
2.0
 40
2.0
 40
2.0
 40
3.0
 40
3.0
 40
3.0
 40
4.0
 40
4.0
 40
4.0
 40
5.0
 40
5.0
 40
5.0
 40
6.0
 40
6.0
 40
6.0
 40
7.0
 40
7.0
 40
7.0
 40
8.0
 40
8.0
 40
8.0
 40
8.0
 10
0.5741251627604166
 20
1.088908555772569
 30
0.0
 10
0.4962660047743055
 20
1.110784912109375
 30
0.0
 10
0.4166842990451389
 20
1.112162950303819
 30
0.0
 10
0.3374471028645833
 20
1.104583740234375
 30
0.0
 10
0.26199951171875
 20
1.172624376085069
 30
0.0
 10
0.1769056532118055
 20
1.226540120442708
 30
0.0
 10
0.0783759223090278
 20
1.254273139105903
 30
0.0
 10
-0.3836113823784722
 20
1.384325493706597
 30
0.0
 10
-0.9048543294270832
 20
0.9703972710503471
 30
0.0
 10
-1.085377332899306
 20
0.3294372558593749
 30
0.0
 10
-1.265555826822917
 20
-0.3113505045572916
 30
0.0
 10
-1.03714599609375
 20
-0.9368075900607638
 30
0.0
 10
-0.5748141818576389
 20
-1.066859944661458
 30
0.0
 10
-0.4969550238715277
 20
-1.088736300998264
 30
0.0
 10
-0.4173733181423611
 20
-1.090114339192708
 30
0.0
 10
-0.3381361219618055
 20
-1.082535129123264
 30
0.0
 10
-0.2626885308159722
 20
-1.150575764973958
 30
0.0
 10
-0.1775946723090278
 20
-1.204491509331597
 30
0.0
 10
-0.07906494140625
 20
-1.232224527994792
 30
0.0
 10
0.38292236328125
 20
-1.362276882595486
 30
0.0
 10
0.9038208007812499
 20
-0.9481764051649305
 30
0.0
 10
1.084343804253472
 20
-0.3070441351996527
 30
0.0
 10
1.264522298177083
 20
0.3333991156684028
 30
0.0
 10
1.036456976996528
 20
0.9588562011718749
 30
0.0
 10
0.5741251627604166
 20
1.088908555772569
 30
0.0
  0
ENDBLK
  5
7A
330
75
100
AcDbEntity
  8
H2_5A
100
AcDbBlockEnd
  0
BLOCK
  5
7D
330
7B
100
AcDbEntity
  8
H2_5A
 62
     7
100
AcDbBlockBegin
  2
AI9-BLK12
 70
     0
 10
0.0
 20
0.0
 30
0.0
  3
AI9-BLK12
  1

  4

  0
ELLIPSE
  5
7F
330
7B
100
AcDbEntity
  8
H2_5A
 62
     7
100
AcDbEllipse
 10
0.2483052571614583
 20
-0.0935343424479167
 30
0.0
 11
-0.3264227973090277
 21
-1.160738796657986
 31
0.0
210
0.0
220
0.0
230
1.0
 40
0.721121087299927
 41
0.0
 42
6.283185307179586
  0
SPLINE
  5
7E
330
7B
100
AcDbEntity
  8
H2_5A
 62
     7
100
AcDbSpline
210
0.0
220
0.0
230
1.0
 70
    11
 71
     3
 72
    29
 73
    25
 74
     0
 42
0.0000000001
 43
0.0000000001
 40
0.0
 40
0.0
 40
0.0
 40
0.0
 40
1.0
 40
1.0
 40
1.0
 40
2.0
 40
2.0
 40
2.0
 40
3.0
 40
3.0
 40
3.0
 40
4.0
 40
4.0
 40
4.0
 40
5.0
 40
5.0
 40
5.0
 40
6.0
 40
6.0
 40
6.0
 40
7.0
 40
7.0
 40
7.0
 40
8.0
 40
8.0
 40
8.0
 40
8.0
 10
0.5750725640190971
 20
1.066859944661458
 30
0.0
 10
0.4972134060329861
 20
1.088736300998264
 30
0.0
 10
0.4176317003038194
 20
1.090114339192708
 30
0.0
 10
0.3383945041232639
 20
1.082535129123264
 30
0.0
 10
0.2629469129774306
 20
1.150575764973958
 30
0.0
 10
0.1778530544704861
 20
1.204491509331597
 30
0.0
 10
0.0793233235677083
 20
1.232224527994792
 30
0.0
 10
-0.3826639811197916
 20
1.362276882595486
 30
0.0
 10
-0.9039069281684027
 20
0.948348659939236
 30
0.0
 10
-1.084429931640625
 20
0.3073886447482639
 30
0.0
 10
-1.264608425564236
 20
-0.3333991156684028
 30
0.0
 10
-1.036198594835069
 20
-0.9588562011718749
 30
0.0
 10
-0.5738667805989582
 20
-1.088908555772569
 30
0.0
 10
-0.4960076226128472
 20
-1.110784912109375
 30
0.0
 10
-0.4164259168836805
 20
-1.112162950303819
 30
0.0
 10
-0.3371887207031249
 20
-1.104583740234375
 30
0.0
 10
-0.2617411295572916
 20
-1.172624376085069
 30
0.0
 10
-0.1766472710503472
 20
-1.226540120442708
 30
0.0
 10
-0.0781175401475694
 20
-1.254273139105903
 30
0.0
 10
0.3838697645399306
 20
-1.384325493706597
 30
0.0
 10
0.9047682020399305
 20
-0.9702250162760416
 30
0.0
 10
1.085291205512153
 20
-0.3290927463107639
 30
0.0
 10
1.265469699435764
 20
0.3113505045572916
 30
0.0
 10
1.037404378255208
 20
0.9368075900607638
 30
0.0
 10
0.5750725640190971
 20
1.066859944661458
 30
0.0
  0
ENDBLK
  5
80
330
7B
100
AcDbEntity
  8
H2_5A
100
AcDbBlockEnd
  0
BLOCK
  5
83
330
81
100
AcDbEntity
  8
H2_5A
 62
     7
100
AcDbBlockBegin
  2
AI9-BLK13
 70
     0
 10
0.0
 20
0.0
 30
0.0
  3
AI9-BLK13
  1

  4

  0
ELLIPSE
  5
85
330
81
100
AcDbEntity
  8
H2_5A
 62
     7
100
AcDbEllipse
 10
0.2473578559027778
 20
-0.0936204698350694
 30
0.0
 11
-0.3264227973090277
 21
-1.160738796657986
 31
0.0
210
0.0
220
0.0
230
1.0
 40
0.721121087299927
 41
0.0
 42
6.283185307179586
  0
SPLINE
  5
84
330
81
100
AcDbEntity
  8
H2_5A
 62
     7
100
AcDbSpline
210
0.0
220
0.0
230
1.0
 70
    11
 71
     3
 72
    29
 73
    25
 74
     0
 42
0.0000000001
 43
0.0000000001
 40
0.0
 40
0.0
 40
0.0
 40
0.0
 40
1.0
 40
1.0
 40
1.0
 40
2.0
 40
2.0
 40
2.0
 40
3.0
 40
3.0
 40
3.0
 40
4.0
 40
4.0
 40
4.0
 40
5.0
 40
5.0
 40
5.0
 40
6.0
 40
6.0
 40
6.0
 40
7.0
 40
7.0
 40
7.0
 40
8.0
 40
8.0
 40
8.0
 40
8.0
 10
0.5741251627604166
 20
1.066773817274306
 30
0.0
 10
0.4962660047743055
 20
1.088650173611111
 30
0.0
 10
0.4166842990451389
 20
1.090028211805556
 30
0.0
 10
0.3374471028645833
 20
1.082449001736111
 30
0.0
 10
0.26199951171875
 20
1.150489637586805
 30
0.0
 10
0.1769056532118055
 20
1.204405381944444
 30
0.0
 10
0.0783759223090278
 20
1.232138400607639
 30
0.0
 10
-0.3836113823784722
 20
1.362190755208333
 30
0.0
 10
-0.9048543294270832
 20
0.9482625325520833
 30
0.0
 10
-1.085377332899306
 20
0.3073025173611111
 30
0.0
 10
-1.265555826822917
 20
-0.3334852430555556
 30
0.0
 10
-1.03714599609375
 20
-0.9589423285590277
 30
0.0
 10
-0.5748141818576389
 20
-1.088994683159722
 30
0.0
 10
-0.4969550238715277
 20
-1.110871039496528
 30
0.0
 10
-0.4173733181423611
 20
-1.112249077690972
 30
0.0
 10
-0.3381361219618055
 20
-1.104669867621528
 30
0.0
 10
-0.2626885308159722
 20
-1.172710503472222
 30
0.0
 10
-0.1775946723090278
 20
-1.226626247829861
 30
0.0
 10
-0.07906494140625
 20
-1.254359266493055
 30
0.0
 10
0.38292236328125
 20
-1.38441162109375
 30
0.0
 10
0.9038208007812499
 20
-0.9703111436631944
 30
0.0
 10
1.084343804253472
 20
-0.3291788736979167
 30
0.0
 10
1.264522298177083
 20
0.3112643771701389
 30
0.0
 10
1.036456976996528
 20
0.936721462673611
 30
0.0
 10
0.5741251627604166
 20
1.066773817274306
 30
0.0
  0
ENDBLK
  5
86
330
81
100
AcDbEntity
  8
H2_5A
100
AcDbBlockEnd
  0
BLOCK
  5
89
330
87
100
AcDbEntity
  8
H2_5A
 62
     7
100
AcDbBlockBegin
  2
AI9-BLK14
 70
     0
 10
0.0
 20
0.0
 30
0.0
  3
AI9-BLK14
  1

  4

  0
ELLIPSE
  5
8B
330
87
100
AcDbEntity
  8
H2_5A
 62
     7
100
AcDbEllipse
 10
0.2473578559027778
 20
-0.0936204698350694
 30
0.0
 11
-0.3264227973090277
 21
-1.160738796657986
 31
0.0
210
0.0
220
0.0
230
1.0
 40
0.721121087299927
 41
0.0
 42
6.283185307179586
  0
SPLINE
  5
8A
330
87
100
AcDbEntity
  8
H2_5A
 62
     7
100
AcDbSpline
210
0.0
220
0.0
230
1.0
 70
    11
 71
     3
 72
    29
 73
    25
 74
     0
 42
0.0000000001
 43
0.0000000001
 40
0.0
 40
0.0
 40
0.0
 40
0.0
 40
1.0
 40
1.0
 40
1.0
 40
2.0
 40
2.0
 40
2.0
 40
3.0
 40
3.0
 40
3.0
 40
4.0
 40
4.0
 40
4.0
 40
5.0
 40
5.0
 40
5.0
 40
6.0
 40
6.0
 40
6.0
 40
7.0
 40
7.0
 40
7.0
 40
8.0
 40
8.0
 40
8.0
 40
8.0
 10
0.5741251627604166
 20
1.066773817274306
 30
0.0
 10
0.4962660047743055
 20
1.088650173611111
 30
0.0
 10
0.4166842990451389
 20
1.090028211805556
 30
0.0
 10
0.3374471028645833
 20
1.082449001736111
 30
0.0
 10
0.26199951171875
 20
1.150489637586805
 30
0.0
 10
0.1769056532118055
 20
1.204405381944444
 30
0.0
 10
0.0783759223090278
 20
1.232138400607639
 30
0.0
 10
-0.3836113823784722
 20
1.362190755208333
 30
0.0
 10
-0.9048543294270832
 20
0.9482625325520833
 30
0.0
 10
-1.085377332899306
 20
0.3073025173611111
 30
0.0
 10
-1.265555826822917
 20
-0.3334852430555556
 30
0.0
 10
-1.03714599609375
 20
-0.9589423285590277
 30
0.0
 10
-0.5748141818576389
 20
-1.088994683159722
 30
0.0
 10
-0.4969550238715277
 20
-1.110871039496528
 30
0.0
 10
-0.4173733181423611
 20
-1.112249077690972
 30
0.0
 10
-0.3381361219618055
 20
-1.104669867621528
 30
0.0
 10
-0.2626885308159722
 20
-1.172710503472222
 30
0.0
 10
-0.1775946723090278
 20
-1.226626247829861
 30
0.0
 10
-0.07906494140625
 20
-1.254359266493055
 30
0.0
 10
0.38292236328125
 20
-1.38441162109375
 30
0.0
 10
0.9038208007812499
 20
-0.9703111436631944
 30
0.0
 10
1.084343804253472
 20
-0.3291788736979167
 30
0.0
 10
1.264522298177083
 20
0.3112643771701389
 30
0.0
 10
1.036456976996528
 20
0.936721462673611
 30
0.0
 10
0.5741251627604166
 20
1.066773817274306
 30
0.0
  0
ENDBLK
  5
8C
330
87
100
AcDbEntity
  8
H2_5A
100
AcDbBlockEnd
  0
BLOCK
  5
C2
330
C0
100
AcDbEntity
  8
WOOD
 62
     7
100
AcDbBlockBegin
  2
AI9-BLK15
 70
     0
 10
0.0
 20
0.0
 30
0.0
  3
AI9-BLK15
  1

  4

  0
HATCH
  5
C4
330
C0
100
AcDbEntity
  8
WOOD
 62
     7
100
AcDbHatch
 10
0.0
 20
0.0
 30
0.0
210
0.0
220
0.0
230
1.0
  2
SOLID
 70
     1
 71
     0
 91
        1
 92
        1
 93
        1
 72
     4
 94
        3
 73
     0
 74
     0
 95
       35
 96
       31
 40
0.0
 40
0.0
 40
0.0
 40
0.0
 40
1.0
 40
1.0
 40
1.0
 40
2.0
 40
2.0
 40
2.0
 40
3.0
 40
3.0
 40
3.0
 40
4.0
 40
4.0
 40
4.0
 40
5.0
 40
5.0
 40
5.0
 40
6.0
 40
6.0
 40
6.0
 40
7.0
 40
7.0
 40
7.0
 40
8.0
 40
8.0
 40
8.0
 40
9.0
 40
9.0
 40
9.0
 40
10.0
 40
10.0
 40
10.0
 40
10.0
 10
-1.99677734375
 20
-1.285537380642361
 10
-1.99677734375
 20
-1.285537380642361
 10
-1.99677734375
 20
3.476962619357638
 10
-1.99677734375
 20
3.476962619357638
 10
-1.99677734375
 20
3.476962619357638
 10
0.2132514105902778
 20
3.045292154947917
 10
0.2132514105902778
 20
3.045292154947917
 10
0.2132514105902778
 20
3.045292154947917
 10
0.2132514105902778
 20
2.569007703993055
 10
0.2132514105902778
 20
2.569007703993055
 10
0.2132514105902778
 20
2.569007703993055
 10
-1.475534396701389
 20
2.898875596788194
 10
-1.475534396701389
 20
2.898875596788194
 10
-1.475534396701389
 20
2.898875596788194
 10
-1.475534396701389
 20
1.336869303385417
 10
-1.475534396701389
 20
1.336869303385417
 10
-1.475534396701389
 20
1.336869303385417
 10
0.0940511067708333
 20
1.030255805121528
 10
0.0940511067708333
 20
1.030255805121528
 10
0.0940511067708333
 20
1.030255805121528
 10
0.0940511067708333
 20
0.5539713541666667
 10
0.0940511067708333
 20
0.5539713541666667
 10
0.0940511067708333
 20
0.5539713541666667
 10
-1.475534396701389
 20
0.8605848524305555
 10
-1.475534396701389
 20
0.8605848524305555
 10
-1.475534396701389
 20
0.8605848524305555
 10
-1.475534396701389
 20
-1.387339952256944
 10
-1.475534396701389
 20
-1.387339952256944
 10
-1.475534396701389
 20
-1.387339952256944
 10
-1.99677734375
 20
-1.285537380642361
 10
-1.99677734375
 20
-1.285537380642361
 97
        0
 75
     0
 76
     1
 98
        1
 10
0.0
 20
0.0
  0
HATCH
  5
C3
330
C0
100
AcDbEntity
  8
WOOD
 62
     7
100
AcDbHatch
 10
0.0
 20
0.0
 30
0.0
210
0.0
220
0.0
230
1.0
  2
SOLID
 70
     1
 71
     0
 91
        1
 92
        1
 93
        1
 72
     4
 94
        3
 73
     0
 74
     0
 95
       26
 96
       22
 40
0.0
 40
0.0
 40
0.0
 40
0.0
 40
1.0
 40
1.0
 40
1.0
 40
2.0
 40
2.0
 40
2.0
 40
3.0
 40
3.0
 40
3.0
 40
4.0
 40
4.0
 40
4.0
 40
5.0
 40
5.0
 40
5.0
 40
6.0
 40
6.0
 40
6.0
 40
7.0
 40
7.0
 40
7.0
 40
7.0
 10
1.559250217013889
 20
-0.7911661783854166
 10
1.559250217013889
 20
-0.7911661783854166
 10
0.7162353515625
 20
-0.6263183593749999
 10
0.7162353515625
 20
-0.6263183593749999
 10
0.7162353515625
 20
-0.6263183593749999
 10
0.7162353515625
 20
-0.3167765299479167
 10
0.7162353515625
 20
-0.3167765299479167
 10
1.279852973090278
 20
-0.4173733181423611
 10
1.590945095486111
 20
-0.38292236328125
 10
1.654334852430555
 20
0.1619194878472222
 10
1.654334852430555
 20
0.1619194878472222
 10
1.99677734375
 20
0.0949123806423611
 10
1.99677734375
 20
0.0949123806423611
 10
1.99677734375
 20
0.0949123806423611
 10
1.99677734375
 20
-3.476962619357638
 10
1.99677734375
 20
-3.476962619357638
 10
1.99677734375
 20
-3.476962619357638
 10
1.559250217013889
 20
-3.391351996527777
 10
1.559250217013889
 20
-3.391351996527777
 10
1.559250217013889
 20
-3.391351996527777
 10
1.559250217013889
 20
-0.7911661783854166
 10
1.559250217013889
 20
-0.7911661783854166
 97
        0
 75
     0
 76
     1
 98
        1
 10
0.0
 20
0.0
  0
ENDBLK
  5
C5
330
C0
100
AcDbEntity
  8
WOOD
100
AcDbBlockEnd
  0
BLOCK
  5
C8
330
C6
100
AcDbEntity
  8
WOOD
 62
     7
100
AcDbBlockBegin
  2
AI9-BLK16
 70
     0
 10
0.0
 20
0.0
 30
0.0
  3
AI9-BLK16
  1

  4

  0
HATCH
  5
CA
330
C6
100
AcDbEntity
  8
WOOD
 62
     7
100
AcDbHatch
 10
0.0
 20
0.0
 30
0.0
210
0.0
220
0.0
230
1.0
  2
SOLID
 70
     1
 71
     0
 91
        1
 92
        1
 93
        1
 72
     4
 94
        3
 73
     0
 74
     0
 95
       35
 96
       31
 40
0.0
 40
0.0
 40
0.0
 40
0.0
 40
1.0
 40
1.0
 40
1.0
 40
2.0
 40
2.0
 40
2.0
 40
3.0
 40
3.0
 40
3.0
 40
4.0
 40
4.0
 40
4.0
 40
5.0
 40
5.0
 40
5.0
 40
6.0
 40
6.0
 40
6.0
 40
7.0
 40
7.0
 40
7.0
 40
8.0
 40
8.0
 40
8.0
 40
9.0
 40
9.0
 40
9.0
 40
10.0
 40
10.0
 40
10.0
 40
10.0
 10
-2.153615315755208
 20
-3.021090359157986
 10
-2.153615315755208
 20
-3.021090359157986
 10
-2.153615315755208
 20
1.741409640842014
 10
-2.153615315755208
 20
1.741409640842014
 10
-2.153615315755208
 20
1.741409640842014
 10
-0.003875732421875
 20
3.021090359157986
 10
-0.003875732421875
 20
3.021090359157986
 10
-0.003875732421875
 20
3.021090359157986
 10
-0.003875732421875
 20
2.544805908203125
 10
-0.003875732421875
 20
2.544805908203125
 10
-0.003875732421875
 20
2.544805908203125
 10
-1.646841769748264
 20
1.566915554470486
 10
-1.646841769748264
 20
1.566915554470486
 10
-1.646841769748264
 20
1.566915554470486
 10
-1.646841769748264
 20
0.0047370062934028
 10
-1.646841769748264
 20
0.0047370062934028
 10
-1.646841769748264
 20
0.0047370062934028
 10
-0.1198031955295139
 20
0.9137254503038194
 10
-0.1198031955295139
 20
0.9137254503038194
 10
-0.1198031955295139
 20
0.9137254503038194
 10
-0.1198031955295139
 20
0.4374409993489583
 10
-0.1198031955295139
 20
0.4374409993489583
 10
-0.1198031955295139
 20
0.4374409993489583
 10
-1.646841769748264
 20
-0.4715474446614583
 10
-1.646841769748264
 20
-0.4715474446614583
 10
-1.646841769748264
 20
-0.4715474446614583
 10
-1.646841769748264
 20
-2.719299994574652
 10
-1.646841769748264
 20
-2.719299994574652
 10
-1.646841769748264
 20
-2.719299994574652
 10
-2.153615315755208
 20
-3.021090359157986
 10
-2.153615315755208
 20
-3.021090359157986
 97
        0
 75
     0
 76
     1
 98
        1
 10
0.0
 20
0.0
  0
HATCH
  5
C9
330
C6
100
AcDbEntity
  8
WOOD
 62
     7
100
AcDbHatch
 10
0.0
 20
0.0
 30
0.0
210
0.0
220
0.0
230
1.0
  2
SOLID
 70
     1
 71
     0
 91
        1
 92
        1
 93
        1
 72
     4
 94
        3
 73
     0
 74
     0
 95
       56
 96
       52
 40
0.0
 40
0.0
 40
0.0
 40
0.0
 40
1.0
 40
1.0
 40
1.0
 40
2.0
 40
2.0
 40
2.0
 40
3.0
 40
3.0
 40
3.0
 40
4.0
 40
4.0
 40
4.0
 40
5.0
 40
5.0
 40
5.0
 40
6.0
 40
6.0
 40
6.0
 40
7.0
 40
7.0
 40
7.0
 40
8.0
 40
8.0
 40
8.0
 40
9.0
 40
9.0
 40
9.0
 40
10.0
 40
10.0
 40
10.0
 40
11.0
 40
11.0
 40
11.0
 40
12.0
 40
12.0
 40
12.0
 40
13.0
 40
13.0
 40
13.0
 40
14.0
 40
14.0
 40
14.0
 40
15.0
 40
15.0
 40
15.0
 40
16.0
 40
16.0
 40
16.0
 40
17.0
 40
17.0
 40
17.0
 40
17.0
 10
0.9488654242621527
 20
-1.709197998046875
 10
0.784017605251736
 20
-1.959656439887153
 10
0.7106370713975694
 20
-2.146380615234375
 10
0.7015075683593749
 20
-2.375479465060764
 10
0.7015075683593749
 20
-2.375479465060764
 10
2.153615315755208
 20
-1.511105007595486
 10
2.153615315755208
 20
-1.511105007595486
 10
2.153615315755208
 20
-1.511105007595486
 10
2.153615315755208
 20
-1.868361409505208
 10
2.153615315755208
 20
-1.868361409505208
 10
2.153615315755208
 20
-1.868361409505208
 10
0.3075608995225694
 20
-2.967346869574652
 10
0.3075608995225694
 20
-2.967346869574652
 10
0.3122117784288194
 20
-2.707242160373264
 10
0.3442511664496528
 20
-2.426122368706597
 10
0.4450202094184028
 20
-2.11399671766493
 10
0.495318603515625
 20
-1.960000949435764
 10
0.6145189073350694
 20
-1.755706787109375
 10
0.7152879503038194
 20
-1.595854356553819
 10
0.7152879503038194
 20
-1.595854356553819
 10
1.370372856987847
 20
-0.5487175835503472
 10
1.370372856987847
 20
-0.5487175835503472
 10
1.635989718967014
 20
-0.1237650553385417
 10
1.727629258897569
 20
0.073638916015625
 10
1.727629258897569
 20
0.4641404893663194
 10
1.727629258897569
 20
0.8260477701822916
 10
1.608428955078125
 20
1.021901448567708
 10
1.219133165147569
 20
0.7900465223524305
 10
0.7473273383246527
 20
0.509271240234375
 10
0.7061584472656249
 20
0.0037034776475694
 10
0.7152879503038194
 20
-0.3671610514322916
 10
0.7152879503038194
 20
-0.3671610514322916
 10
0.3351216634114583
 20
-0.5933315700954861
 10
0.3351216634114583
 20
-0.5933315700954861
 10
0.3351216634114583
 20
-0.5933315700954861
 10
0.3351216634114583
 20
-0.374395751953125
 10
0.3351216634114583
 20
-0.374395751953125
 10
0.3351216634114583
 20
-0.112396240234375
 10
0.3992004394531249
 20
0.1733744303385417
 10
0.5549187554253472
 20
0.4708584255642361
 10
0.6603386773003471
 20
0.6479363335503472
 10
0.8527472601996528
 20
0.9292283799913194
 10
1.237392171223958
 20
1.158154975043403
 10
1.823747422960069
 20
1.507143147786458
 10
2.121575927734375
 20
1.279594590928819
 10
2.121575927734375
 20
0.689105224609375
 10
2.121575927734375
 20
0.1652784559461805
 10
1.920037841796875
 20
-0.2119594997829861
 10
1.567260064019097
 20
-0.7552510579427083
 10
1.567260064019097
 20
-0.7552510579427083
 10
0.9488654242621527
 20
-1.709197998046875
 10
0.9488654242621527
 20
-1.709197998046875
 97
        0
 75
     0
 76
     1
 98
        1
 10
0.0
 20
0.0
  0
ENDBLK
  5
CB
330
C6
100
AcDbEntity
  8
WOOD
100
AcDbBlockEnd
  0
BLOCK
  5
CE
330
CC
100
AcDbEntity
  8
WOOD
 62
     7
100
AcDbBlockBegin
  2
AI9-BLK17
 70
     0
 10
0.0
 20
0.0
 30
0.0
  3
AI9-BLK17
  1

  4

  0
LINE
  5
D1
330
CC
100
AcDbEntity
  8
WOOD
 62
     7
100
AcDbLine
 10
-7.582138400607638
 20
-4.535468207465278
 30
0.0
 11
8.116472710503471
 21
4.636754014756944
 31
0.0
  0
HATCH
  5
D0
330
CC
100
AcDbEntity
  8
WOOD
 62
     7
100
AcDbHatch
 10
0.0
 20
0.0
 30
0.0
210
0.0
220
0.0
230
1.0
  2
SOLID
 70
     1
 71
     0
 91
        1
 92
        3
 72
     0
 73
     1
 93
        3
 10
6.705361599392361
 20
1.726337348090278
 10
10.40952826605903
 20
6.047865125868055
 10
6.721036783854166
 20
5.953814019097222
 97
        0
 75
     0
 76
     1
 98
        1
 10
0.0
 20
0.0
  0
HATCH
  5
CF
330
CC
100
AcDbEntity
  8
WOOD
 62
     7
100
AcDbHatch
 10
0.0
 20
0.0
 30
0.0
210
0.0
220
0.0
230
1.0
  2
SOLID
 70
     1
 71
     0
 91
        1
 92
        3
 72
     0
 73
     1
 93
        3
 10
-6.171027289496527
 20
-1.448662651909722
 10
-10.40952826605903
 20
-6.047865125868055
 10
-6.274896918402777
 20
-5.852528211805555
 97
        0
 75
     0
 76
     1
 98
        1
 10
0.0
 20
0.0
  0
ENDBLK
  5
D2
330
CC
100
AcDbEntity
  8
WOOD
100
AcDbBlockEnd
  0
BLOCK
  5
D5
330
D3
100
AcDbEntity
  8
WOOD
 62
     7
100
AcDbBlockBegin
  2
AI9-BLK18
 70
     0
 10
0.0
 20
0.0
 30
0.0
  3
AI9-BLK18
  1

  4

  0
LINE
  5
D8
330
D3
100
AcDbEntity
  8
WOOD
 62
     7
100
AcDbLine
 10
-12.25902777777778
 20
2.601736111111111
 30
0.0
 11
12.43541666666667
 21
-2.689930555555555
 31
0.0
  0
HATCH
  5
D7
330
D3
100
AcDbEntity
  8
WOOD
 62
     7
100
AcDbHatch
 10
0.0
 20
0.0
 30
0.0
210
0.0
220
0.0
230
1.0
  2
SOLID
 70
     1
 71
     0
 91
        1
 92
        3
 72
     0
 73
     1
 93
        3
 10
11.07770453559028
 20
-4.299995930989583
 10
15.69861111111111
 20
-3.307291666666667
 10
11.02430555555556
 20
-0.5732638888888888
 97
        0
 75
     0
 76
     1
 98
        1
 10
0.0
 20
0.0
  0
HATCH
  5
D6
330
D3
100
AcDbEntity
  8
WOOD
 62
     7
100
AcDbHatch
 10
0.0
 20
0.0
 30
0.0
210
0.0
220
0.0
230
1.0
  2
SOLID
 70
     1
 71
     0
 91
        1
 92
        3
 72
     0
 73
     1
 93
        3
 10
-10.81312120225694
 20
4.299995930989583
 10
-15.69861111111111
 20
3.219097222222222
 10
-10.84791666666667
 20
0.7496527777777777
 97
        0
 75
     0
 76
     1
 98
        1
 10
0.0
 20
0.0
  0
ENDBLK
  5
D9
330
D3
100
AcDbEntity
  8
WOOD
100
AcDbBlockEnd
  0
ENDSEC
  0
SECTION
  2
ENTITIES
  0
LINE
  5
13E
330
A
100
AcDbEntity
  8
WOOD
 62
     7
100
AcDbLine
 10
54.66505262586805
 20
150.5797837999132
 30
0.0
 11
54.66505262586805
 21
157.5745334201389
 31
0.0
  0
LINE
  5
13D
330
A
100
AcDbEntity
  8
WOOD
 62
     7
100
AcDbLine
 10
60.9423611111111
 20
163.9534722222222
 30
0.0
 11
63.146533203125
 21
164.9251614040799
 31
0.0
  0
LINE
  5
13C
330
A
100
AcDbEntity
  8
WOOD
 62
     7
100
AcDbLine
 10
69.14444444444443
 20
166.5993055555555
 30
0.0
 11
72.23124999999999
 21
166.6861219618056
 31
0.0
  0
LINE
  5
13B
330
A
100
AcDbEntity
  8
WOOD
 62
     7
100
AcDbLine
 10
61.47152777777777
 20
166.1583333333333
 30
0.0
 11
63.146533203125
 21
164.9251614040799
 31
0.0
  0
LINE
  5
13A
330
A
100
AcDbEntity
  8
WOOD
 62
     7
100
AcDbLine
 10
70.55555555555554
 20
168.0986111111111
 30
0.0
 11
72.23124999999999
 21
166.6861219618056
 31
0.0
  0
LWPOLYLINE
  5
11F
330
A
100
AcDbEntity
  8
WOOD
 62
     7
100
AcDbPolyline
 90
       25
 70
     1
 43
0.0
 10
131.6443332248264
 20
159.3105170355903
 10
141.9451687282986
 20
172.1367797851562
 10
137.3542344835069
 20
184.8154201931423
 10
138.8128879123264
 20
188.581598578559
 10
134.4407172309028
 20
189.7563761393229
 10
135.0846055772569
 20
191.0830824110243
 10
130.7210476345486
 20
203.134026421441
 10
119.8269666883681
 20
204.4934611002604
 10
85.12314181857639
 20
168.6822102864583
 10
76.19999999999999
 20
170.4798611111111
 10
70.56382378472222
 20
168.0793185763889
 10
70.4673611111111
 20
166.5979275173611
 10
61.29513888888889
 20
166.2465277777778
 10
61.29444986979166
 20
164.1314114040798
 10
54.66505262586805
 20
161.3076388888889
 10
54.66505262586805
 20
153.9573554144965
 10
49.75458577473958
 20
151.7835001627604
 10
49.75458577473958
 20
140.6668660481771
 10
76.09630262586805
 20
133.8440266927083
 10
76.09630262586805
 20
107.6537217881944
 10
87.37123887803818
 20
104.3047444661458
 10
104.6268608940972
 20
126.5617838541667
 10
151.1494303385417
 20
114.3881944444444
 10
169.4508110894097
 20
128.5285888671875
 10
169.4508110894097
 20
151.6944444444444
  0
LINE
  5
11E
330
A
100
AcDbEntity
  8
WOOD
 62
     7
100
AcDbLine
 10
133.6576470269097
 20
188.1900634765625
 30
0.0
 11
134.497216796875
 21
189.7779079861111
 31
0.0
  0
LINE
  5
11D
330
A
100
AcDbEntity
  8
WOOD
 62
     7
100
AcDbLine
 10
104.6268608940972
 20
126.5617838541667
 30
0.0
 11
112.5988118489583
 21
136.4919270833333
 31
0.0
  0
LINE
  5
11C
330
A
100
AcDbEntity
  8
WOOD
 62
     7
100
AcDbLine
 10
85.98699951171874
 20
169.6514879014757
 30
0.0
 11
76.09630262586805
 21
159.0200954861111
 31
0.0
  0
LINE
  5
11B
330
A
100
AcDbEntity
  8
WOOD
 62
     7
100
AcDbLine
 10
76.09630262586805
 20
159.0200954861111
 30
0.0
 11
76.09630262586805
 21
132.8297905815972
 31
0.0
  0
LWPOLYLINE
  5
116
330
A
100
AcDbEntity
  8
WOOD
 62
     7
100
AcDbPolyline
 90
        3
 70
     0
 43
0.0
 10
122.3990749782986
 20
145.915296766493
 10
151.1056776258681
 20
139.3918362087674
 10
151.1056776258681
 20
114.5824978298611
  0
LINE
  5
115
330
A
100
AcDbEntity
  8
WOOD
 62
     7
100
AcDbLine
 10
54.66505262586805
 20
161.3076388888889
 30
0.0
 11
76.05909559461804
 21
156.4460923936632
 31
0.0
  0
LINE
  5
114
330
A
100
AcDbEntity
  8
WOOD
 62
     7
100
AcDbLine
 10
151.1056776258681
 20
139.3918362087674
 30
0.0
 11
169.4508110894097
 21
151.6944444444444
 31
0.0
  0
LINE
  5
113
330
A
100
AcDbEntity
  8
WOOD
 62
     7
100
AcDbLine
 10
75.97865261501735
 20
145.3711439344618
 30
0.0
 11
49.79661593967013
 21
151.6734293619792
 31
0.0
  0
LINE
  5
112
330
A
100
AcDbEntity
  8
WOOD
 62
     7
100
AcDbLine
 10
114.7327039930556
 20
136.0426866319444
 30
0.0
 11
112.4885687934028
 21
136.5828776041666
 31
0.0
  0
LWPOLYLINE
  5
10D
330
A
100
AcDbEntity
  8
WOOD
 62
     7
100
AcDbPolyline
 90
        3
 70
     0
 43
0.0
 10
169.4508110894097
 20
140.3016859266493
 10
151.1056776258681
 20
127.2880099826389
 10
125.7621771918403
 20
133.3882405598958
  0
LWPOLYLINE
  5
108
330
A
100
AcDbEntity
  8
WOOD
 62
     7
100
AcDbPolyline
 90
        3
 70
     0
 43
0.0
 10
130.7713460286458
 20
203.3000800238715
 10
87.31852891710069
 20
156.3372273763021
 10
87.31852891710069
 20
104.2906195746528
  0
LINE
  5
107
330
A
100
AcDbEntity
  8
WOOD
 62
     7
100
AcDbLine
 10
76.06202392578125
 20
158.9999416775173
 30
0.0
 11
87.31852891710069
 21
156.3372273763021
 31
0.0
  0
LINE
  5
106
330
A
100
AcDbEntity
  8
WOOD
 62
     7
100
AcDbLine
 10
112.6153483072917
 20
148.1143012152778
 30
0.0
 11
112.6153483072917
 21
136.1012532552083
 31
0.0
  0
LINE
  5
105
330
A
100
AcDbEntity
  8
WOOD
 62
     7
100
AcDbLine
 10
119.0249484592014
 20
152.199323187934
 30
0.0
 11
131.6443332248264
 21
159.3105170355903
 31
0.0
  0
LINE
  5
104
330
A
100
AcDbEntity
  8
WOOD
 62
     7
100
AcDbLine
 10
133.6576470269097
 20
188.1900634765625
 30
0.0
 11
138.6172064887153
 21
188.4512017144097
 31
0.0
  0
LINE
  5
103
330
A
100
AcDbEntity
  8
WOOD
 62
     7
100
AcDbLine
 10
151.0770833333333
 20
138.0243055555555
 30
0.0
 11
158.2208333333333
 21
144.1097222222222
 31
0.0
  0
LWPOLYLINE
  5
FD
330
A
100
AcDbEntity
  8
WOOD
 62
     7
100
AcDbPolyline
 90
        4
 70
     0
 43
0.0
 10
151.0770833333333
 20
135.9958333333333
 10
159.0145833333333
 20
142.1694444444444
 10
161.0430555555556
 20
143.9333333333333
 10
169.3333333333333
 20
149.4895833333333
  0
LINE
  5
FC
330
A
100
AcDbEntity
  8
WOOD
 62
     7
100
AcDbLine
 10
163.6006944444444
 20
147.7256944444444
 30
0.0
 11
169.3333333333333
 21
150.7243055555555
 31
0.0
  0
SPLINE
  5
FB
330
A
100
AcDbEntity
  8
WOOD
 62
     7
100
AcDbSpline
210
0.0
220
0.0
230
1.0
 70
     8
 71
     3
 72
    14
 73
    10
 74
     0
 42
0.0000000001
 43
0.0000000001
 40
0.0
 40
0.0
 40
0.0
 40
0.0
 40
1.0
 40
1.0
 40
1.0
 40
2.0
 40
2.0
 40
2.0
 40
3.0
 40
3.0
 40
3.0
 40
3.0
 10
151.0770833333333
 20
134.3201388888889
 30
0.0
 10
151.3416666666666
 20
134.4083333333333
 30
0.0
 10
160.0729166666667
 20
140.3173611111111
 30
0.0
 10
160.0729166666667
 20
140.3173611111111
 30
0.0
 10
160.0729166666667
 20
140.3173611111111
 30
0.0
 10
162.2777777777778
 20
142.9631944444444
 30
0.0
 10
162.2777777777778
 20
142.9631944444444
 30
0.0
 10
162.2777777777778
 20
142.9631944444444
 30
0.0
 10
169.3333333333333
 20
147.2847222222222
 30
0.0
 10
169.3333333333333
 20
147.2847222222222
 30
0.0
  0
SPLINE
  5
FA
330
A
100
AcDbEntity
  8
WOOD
 62
     7
100
AcDbSpline
210
0.0
220
0.0
230
1.0
 70
     8
 71
     3
 72
    14
 73
    10
 74
     0
 42
0.0000000001
 43
0.0000000001
 40
0.0
 40
0.0
 40
0.0
 40
0.0
 40
1.0
 40
1.0
 40
1.0
 40
2.0
 40
2.0
 40
2.0
 40
3.0
 40
3.0
 40
3.0
 40
3.0
 10
151.0770833333333
 20
132.8208333333333
 30
0.0
 10
151.0770833333333
 20
132.8208333333333
 30
0.0
 10
162.9833333333333
 20
140.6701388888889
 30
0.0
 10
163.2479166666666
 20
140.7583333333333
 30
0.0
 10
163.5125
 20
140.8465277777778
 30
0.0
 10
166.2465277777778
 20
141.9930555555555
 30
0.0
 10
166.2465277777778
 20
141.9930555555555
 30
0.0
 10
166.2465277777778
 20
141.9930555555555
 30
0.0
 10
169.4215277777778
 20
144.7270833333333
 30
0.0
 10
169.4215277777778
 20
144.7270833333333
 30
0.0
  0
SPLINE
  5
F9
330
A
100
AcDbEntity
  8
WOOD
 62
     7
100
AcDbSpline
210
0.0
220
0.0
230
1.0
 70
     8
 71
     3
 72
    14
 73
    10
 74
     0
 42
0.0000000001
 43
0.0000000001
 40
0.0
 40
0.0
 40
0.0
 40
0.0
 40
1.0
 40
1.0
 40
1.0
 40
2.0
 40
2.0
 40
2.0
 40
3.0
 40
3.0
 40
3.0
 40
3.0
 10
151.0770833333333
 20
130.7923611111111
 30
0.0
 10
151.0770833333333
 20
130.7923611111111
 30
0.0
 10
160.6902777777778
 20
137.5833333333333
 30
0.0
 10
161.13125
 20
137.6715277777778
 30
0.0
 10
161.5722222222222
 20
137.7597222222222
 30
0.0
 10
166.0701388888889
 20
139.9645833333333
 30
0.0
 10
166.0701388888889
 20
139.9645833333333
 30
0.0
 10
166.0701388888889
 20
139.9645833333333
 30
0.0
 10
169.3333333333333
 20
142.1694444444444
 30
0.0
 10
169.3333333333333
 20
142.1694444444444
 30
0.0
  0
SPLINE
  5
F8
330
A
100
AcDbEntity
  8
WOOD
 62
     7
100
AcDbSpline
210
0.0
220
0.0
230
1.0
 70
     8
 71
     3
 72
    11
 73
     7
 74
     0
 42
0.0000000001
 43
0.0000000001
 40
0.0
 40
0.0
 40
0.0
 40
0.0
 40
1.0
 40
1.0
 40
1.0
 40
2.0
 40
2.0
 40
2.0
 40
2.0
 10
151.0770833333333
 20
128.3229166666667
 30
0.0
 10
151.0770833333333
 20
128.3229166666667
 30
0.0
 10
157.8680555555555
 20
133.35
 30
0.0
 10
158.1326388888889
 20
133.35
 30
0.0
 10
158.3972222222222
 20
133.35
 30
0.0
 10
166.0701388888889
 20
137.9361111111111
 30
0.0
 10
166.0701388888889
 20
137.9361111111111
 30
0.0
  0
LWPOLYLINE
  5
F2
330
A
100
AcDbEntity
  8
WOOD
 62
     7
100
AcDbPolyline
 90
        4
 70
     0
 43
0.0
 10
151.1652777777778
 20
126.2944444444444
 10
159.4555555555556
 20
132.2916666666667
 10
163.0715277777778
 20
134.4965277777778
 10
169.3333333333333
 20
136.6131944444445
  0
LINE
  5
F1
330
A
100
AcDbEntity
  8
WOOD
 62
     7
100
AcDbLine
 10
162.0131944444444
 20
135.0256944444444
 30
0.0
 11
169.4215277777778
 21
138.5534722222222
 31
0.0
  0
LWPOLYLINE
  5
EA
330
A
100
AcDbEntity
  8
WOOD
 62
     7
100
AcDbPolyline
 90
        5
 70
     0
 43
0.0
 10
151.1652777777778
 20
124.7951388888889
 10
156.36875
 20
128.2347222222222
 10
160.7784722222222
 20
131.1451388888889
 10
162.1013888888889
 20
132.3798611111111
 10
169.3333333333333
 20
134.7611111111111
  0
SPLINE
  5
E9
330
A
100
AcDbEntity
  8
WOOD
 62
     7
100
AcDbSpline
210
0.0
220
0.0
230
1.0
 70
     8
 71
     3
 72
    17
 73
    13
 74
     0
 42
0.0000000001
 43
0.0000000001
 40
0.0
 40
0.0
 40
0.0
 40
0.0
 40
1.0
 40
1.0
 40
1.0
 40
2.0
 40
2.0
 40
2.0
 40
3.0
 40
3.0
 40
3.0
 40
4.0
 40
4.0
 40
4.0
 40
4.0
 10
151.1652777777778
 20
123.3840277777778
 30
0.0
 10
151.60625
 20
123.5604166666667
 30
0.0
 10
157.3388888888889
 20
127.4409722222222
 30
0.0
 10
157.6034722222222
 20
127.6173611111111
 30
0.0
 10
157.8680555555555
 20
127.79375
 30
0.0
 10
159.54375
 20
129.4694444444444
 30
0.0
 10
159.8083333333333
 20
129.5576388888889
 30
0.0
 10
160.0729166666667
 20
129.6458333333333
 30
0.0
 10
167.6576388888889
 20
132.2916666666667
 30
0.0
 10
167.6576388888889
 20
132.2916666666667
 30
0.0
 10
167.6576388888889
 20
132.2916666666667
 30
0.0
 10
169.4215277777778
 20
133.1736111111111
 30
0.0
 10
169.4215277777778
 20
133.1736111111111
 30
0.0
  0
LWPOLYLINE
  5
E2
330
A
100
AcDbEntity
  8
WOOD
 62
     7
100
AcDbPolyline
 90
        5
 70
     0
 43
0.0
 10
151.0770833333333
 20
121.2673611111111
 10
156.8097222222222
 20
125.5888888888889
 10
158.2208333333333
 20
126.6472222222222
 10
166.8638888888889
 20
130.3513888888889
 10
169.4215277777778
 20
131.4097222222222
  0
SPLINE
  5
E1
330
A
100
AcDbEntity
  8
WOOD
 62
     7
100
AcDbSpline
210
0.0
220
0.0
230
1.0
 70
     8
 71
     3
 72
    17
 73
    13
 74
     0
 42
0.0000000001
 43
0.0000000001
 40
0.0
 40
0.0
 40
0.0
 40
0.0
 40
1.0
 40
1.0
 40
1.0
 40
2.0
 40
2.0
 40
2.0
 40
3.0
 40
3.0
 40
3.0
 40
4.0
 40
4.0
 40
4.0
 40
4.0
 10
151.0770833333333
 20
119.3270833333333
 30
0.0
 10
151.4298611111111
 20
119.5034722222222
 30
0.0
 10
155.575
 20
122.6784722222222
 30
0.0
 10
155.8395833333333
 20
122.8548611111111
 30
0.0
 10
156.1041666666667
 20
123.03125
 30
0.0
 10
157.3388888888889
 20
124.4423611111111
 30
0.0
 10
157.3388888888889
 20
124.4423611111111
 30
0.0
 10
157.3388888888889
 20
124.4423611111111
 30
0.0
 10
165.1
 20
127.3527777777778
 30
0.0
 10
165.1
 20
127.3527777777778
 30
0.0
 10
165.1
 20
127.3527777777778
 30
0.0
 10
169.3333333333333
 20
129.4694444444444
 30
0.0
 10
169.3333333333333
 20
129.4694444444444
 30
0.0
  0
LWPOLYLINE
  5
DB
330
A
100
AcDbEntity
  8
WOOD
 62
     7
100
AcDbPolyline
 90
        4
 70
     0
 43
0.0
 10
151.0770833333333
 20
117.9159722222222
 10
154.6930555555555
 20
120.4736111111111
 10
156.1041666666667
 20
122.1493055555555
 10
165.2763888888889
 20
125.4125
  0
SPLINE
  5
DA
330
A
100
AcDbEntity
  8
WOOD
 62
     7
100
AcDbSpline
210
0.0
220
0.0
230
1.0
 70
     8
 71
     3
 72
    11
 73
     7
 74
     0
 42
0.0000000001
 43
0.0000000001
 40
0.0
 40
0.0
 40
0.0
 40
0.0
 40
1.0
 40
1.0
 40
1.0
 40
2.0
 40
2.0
 40
2.0
 40
2.0
 10
151.0770833333333
 20
116.5048611111111
 30
0.0
 10
151.3416666666666
 20
116.5930555555556
 30
0.0
 10
156.5451388888889
 20
120.0326388888889
 30
0.0
 10
156.5451388888889
 20
120.0326388888889
 30
0.0
 10
156.5451388888889
 20
120.0326388888889
 30
0.0
 10
161.2194444444444
 20
122.2375
 30
0.0
 10
161.2194444444444
 20
122.2375
 30
0.0
  0
INSERT
  5
D4
330
A
100
AcDbEntity
  8
WOOD
 62
     7
100
AcDbBlockReference
  2
AI9-BLK18
 10
144.2861111111111
 20
151.3857638888889
 30
0.0
  0
INSERT
  5
CD
330
A
100
AcDbEntity
  8
WOOD
 62
     7
100
AcDbBlockReference
  2
AI9-BLK17
 10
99.74533284505208
 20
135.6806070963542
 30
0.0
  0
INSERT
  5
C7
330
A
100
AcDbEntity
  8
WOOD
 62
     7
100
AcDbBlockReference
  2
AI9-BLK16
 10
98.82592298719617
 20
140.564805094401
 30
0.0
  0
INSERT
  5
C1
330
A
100
AcDbEntity
  8
WOOD
 62
     7
100
AcDbBlockReference
  2
AI9-BLK15
 10
140.7500651041667
 20
147.0067030164931
 30
0.0
  0
LWPOLYLINE
  5
B6
330
A
100
AcDbEntity
  8
WOOD
 62
     7
100
AcDbPolyline
 90
        8
 70
     0
 43
0.0
 10
77.2667738172743
 20
158.6602552625868
 10
77.049560546875
 20
154.535442437066
 10
78.3521511501736
 20
146.1772962782118
 10
78.2436306423611
 20
144.1148898654514
 10
77.4838148328993
 20
139.2300889756944
 10
77.5923353407118
 20
137.8189778645833
 10
76.5069580078125
 20
132.6089599609375
 10
76.07270372178819
 20
129.2437906901042
  0
LWPOLYLINE
  5
AD
330
A
100
AcDbEntity
  8
WOOD
 62
     7
100
AcDbPolyline
 90
        7
 70
     0
 43
0.0
 10
78.67788492838541
 20
158.4430419921875
 10
78.67788492838541
 20
152.2558227539062
 10
79.87178276909721
 20
148.1310099283854
 10
80.08899603949652
 20
135.2137966579861
 10
78.3521511501736
 20
126.5300889756944
 10
77.049560546875
 20
121.2112060546875
 10
76.07270372178819
 20
116.4352701822917
  0
LWPOLYLINE
  5
A4
330
A
100
AcDbEntity
  8
WOOD
 62
     7
100
AcDbPolyline
 90
        7
 70
     0
 43
0.0
 10
80.41455756293402
 20
158.0089599609375
 10
80.41455756293402
 20
153.3413723415798
 10
81.50010715060763
 20
146.7198988172743
 10
82.47696397569443
 20
125.4445393880208
 10
79.54622124565971
 20
118.4975043402778
 10
79.22048746744791
 20
113.2874864366319
 10
78.5691921657986
 20
106.8830539279514
  0
SPLINE
  5
A3
330
A
100
AcDbEntity
  8
WOOD
 62
     7
100
AcDbSpline
210
0.0
220
0.0
230
1.0
 70
     8
 71
     3
 72
    26
 73
    22
 74
     0
 42
0.0000000001
 43
0.0000000001
 40
0.0
 40
0.0
 40
0.0
 40
0.0
 40
1.0
 40
1.0
 40
1.0
 40
2.0
 40
2.0
 40
2.0
 40
3.0
 40
3.0
 40
3.0
 40
4.0
 40
4.0
 40
4.0
 40
5.0
 40
5.0
 40
5.0
 40
6.0
 40
6.0
 40
6.0
 40
7.0
 40
7.0
 40
7.0
 40
7.0
 10
82.36844346788193
 20
157.5747056749132
 30
0.0
 10
82.36844346788193
 20
157.5747056749132
 30
0.0
 10
82.58548448350693
 20
151.1704454210069
 30
0.0
 10
82.58548448350693
 20
151.1704454210069
 30
0.0
 10
82.58548448350693
 20
151.1704454210069
 30
0.0
 10
83.12825927734374
 20
148.7823052300347
 30
0.0
 10
83.12825927734374
 20
148.7823052300347
 30
0.0
 10
83.12825927734374
 20
148.7823052300347
 30
0.0
 10
83.77955457899304
 20
134.7797146267361
 30
0.0
 10
83.77955457899304
 20
134.7797146267361
 30
0.0
 10
83.77955457899304
 20
134.7797146267361
 30
0.0
 10
83.67103407118054
 20
129.6782172309028
 30
0.0
 10
83.67103407118054
 20
129.6782172309028
 30
0.0
 10
83.67103407118054
 20
129.6782172309028
 30
0.0
 10
84.86510416666665
 20
124.3593343098958
 30
0.0
 10
84.86510416666665
 20
124.3593343098958
 30
0.0
 10
84.86510416666665
 20
124.3593343098958
 30
0.0
 10
84.32232937282986
 20
115.1326795789931
 30
0.0
 10
84.32232937282986
 20
115.1326795789931
 30
0.0
 10
84.32232937282986
 20
115.1326795789931
 30
0.0
 10
81.71732042100693
 20
108.9459771050347
 30
0.0
 10
82.15140245225693
 20
106.0148898654514
 30
0.0
  0
SPLINE
  5
A2
330
A
100
AcDbEntity
  8
WOOD
 62
     7
100
AcDbSpline
210
0.0
220
0.0
230
1.0
 70
     8
 71
     3
 72
    17
 73
    13
 74
     0
 42
0.0000000001
 43
0.0000000001
 40
0.0
 40
0.0
 40
0.0
 40
0.0
 40
1.0
 40
1.0
 40
1.0
 40
2.0
 40
2.0
 40
2.0
 40
3.0
 40
3.0
 40
3.0
 40
4.0
 40
4.0
 40
4.0
 40
4.0
 10
83.99659559461804
 20
157.1404513888889
 30
0.0
 10
83.99659559461804
 20
157.1404513888889
 30
0.0
 10
84.53937038845486
 20
152.581556532118
 30
0.0
 10
84.53937038845486
 20
152.581556532118
 30
0.0
 10
84.53937038845486
 20
152.581556532118
 30
0.0
 10
85.08214518229165
 20
142.9208197699653
 30
0.0
 10
85.08214518229165
 20
142.9208197699653
 30
0.0
 10
85.08214518229165
 20
142.9208197699653
 30
0.0
 10
85.08197292751736
 20
131.5234103732639
 30
0.0
 10
86.16752251519097
 20
128.8097086588542
 30
0.0
 10
86.16752251519097
 20
128.8097086588542
 30
0.0
 10
87.36159261067708
 20
120.88564453125
 30
0.0
 10
87.36159261067708
 20
120.88564453125
 30
0.0
  0
SPLINE
  5
A1
330
A
100
AcDbEntity
  8
WOOD
 62
     7
100
AcDbSpline
210
0.0
220
0.0
230
1.0
 70
     8
 71
     3
 72
     8
 73
     4
 74
     0
 42
0.0000000001
 43
0.0000000001
 40
0.0
 40
0.0
 40
0.0
 40
0.0
 40
1.0
 40
1.0
 40
1.0
 40
1.0
 10
87.25307210286458
 20
109.5967556423611
 30
0.0
 10
87.25307210286458
 20
109.5967556423611
 30
0.0
 10
85.51639946831597
 20
106.3404513888889
 30
0.0
 10
85.62491997612847
 20
104.8208197699653
 30
0.0
  0
LWPOLYLINE
  5
9C
330
A
100
AcDbEntity
  8
WOOD
 62
     7
100
AcDbPolyline
 90
        3
 70
     0
 43
0.0
 10
85.84196099175347
 20
156.7063693576389
 10
86.38473578559027
 20
149.433600531684
 10
87.25307210286458
 20
138.1448838975694
  0
SPLINE
  5
9A
330
A
100
AcDbEntity
  8
H2_5A
 62
     7
100
AcDbSpline
210
0.0
220
0.0
230
1.0
 70
    11
 71
     3
 72
    62
 73
    58
 74
     0
 42
0.0000000001
 43
0.0000000001
 40
0.0
 40
0.0
 40
0.0
 40
0.0
 40
1.0
 40
1.0
 40
1.0
 40
2.0
 40
2.0
 40
2.0
 40
3.0
 40
3.0
 40
3.0
 40
4.0
 40
4.0
 40
4.0
 40
5.0
 40
5.0
 40
5.0
 40
6.0
 40
6.0
 40
6.0
 40
7.0
 40
7.0
 40
7.0
 40
8.0
 40
8.0
 40
8.0
 40
9.0
 40
9.0
 40
9.0
 40
10.0
 40
10.0
 40
10.0
 40
11.0
 40
11.0
 40
11.0
 40
12.0
 40
12.0
 40
12.0
 40
13.0
 40
13.0
 40
13.0
 40
14.0
 40
14.0
 40
14.0
 40
15.0
 40
15.0
 40
15.0
 40
16.0
 40
16.0
 40
16.0
 40
17.0
 40
17.0
 40
17.0
 40
18.0
 40
18.0
 40
18.0
 40
19.0
 40
19.0
 40
19.0
 40
19.0
 10
109.4613633897569
 20
173.8731079101562
 30
0.0
 10
109.4613633897569
 20
173.8731079101562
 30
0.0
 10
108.5804524739583
 20
174.1485432942708
 30
0.0
 10
108.5804524739583
 20
174.1485432942708
 30
0.0
 10
108.5804524739583
 20
174.1485432942708
 30
0.0
 10
103.5690443250868
 20
171.7254353841146
 30
0.0
 10
103.5690443250868
 20
171.7254353841146
 30
0.0
 10
103.5690443250868
 20
171.7254353841146
 30
0.0
 10
102.6879611545139
 20
169.1922566731771
 30
0.0
 10
102.6879611545139
 20
169.1922566731771
 30
0.0
 10
102.6879611545139
 20
169.1922566731771
 30
0.0
 10
102.6879611545139
 20
160.5464450412326
 30
0.0
 10
102.6879611545139
 20
160.5464450412326
 30
0.0
 10
102.6879611545139
 20
160.5464450412326
 30
0.0
 10
108.5253309461806
 20
147.6056328667535
 30
0.0
 10
108.8005940755208
 20
147.5505113389757
 30
0.0
 10
109.0758572048611
 20
147.4953898111979
 30
0.0
 10
109.791748046875
 20
147.0547620985243
 30
0.0
 10
109.791748046875
 20
147.0547620985243
 30
0.0
 10
109.791748046875
 20
147.0547620985243
 30
0.0
 10
112.10478515625
 20
148.2664021809896
 30
0.0
 10
112.10478515625
 20
148.2664021809896
 30
0.0
 10
112.10478515625
 20
148.2664021809896
 30
0.0
 10
114.6927408854167
 20
148.1012098524305
 30
0.0
 10
114.7478624131944
 20
146.0636081271701
 30
0.0
 10
114.7478624131944
 20
146.0636081271701
 30
0.0
 10
114.7478624131944
 20
132.7367730034722
 30
0.0
 10
114.7478624131944
 20
132.7367730034722
 30
0.0
 10
114.7478624131944
 20
132.7367730034722
 30
0.0
 10
116.4552517361111
 20
130.4237358940972
 30
0.0
 10
116.4552517361111
 20
130.4237358940972
 30
0.0
 10
116.4552517361111
 20
130.4237358940972
 30
0.0
 10
122.6230061848958
 20
128.9371771918403
 30
0.0
 10
122.6230061848958
 20
128.9371771918403
 30
0.0
 10
122.6230061848958
 20
128.9371771918403
 30
0.0
 10
125.7067111545139
 20
130.8643636067708
 30
0.0
 10
125.7067111545139
 20
130.8643636067708
 30
0.0
 10
125.7067111545139
 20
130.8643636067708
 30
0.0
 10
125.7067111545139
 20
140.1711168077257
 30
0.0
 10
125.7067111545139
 20
140.1711168077257
 30
0.0
 10
125.7067111545139
 20
140.1711168077257
 30
0.0
 10
115.5739963107639
 20
158.2887017144097
 30
0.0
 10
115.5739963107639
 20
158.2887017144097
 30
0.0
 10
115.5739963107639
 20
158.2887017144097
 30
0.0
 10
112.9305745442708
 20
158.9496432834201
 30
0.0
 10
112.9305745442708
 20
158.9496432834201
 30
0.0
 10
112.9305745442708
 20
158.9496432834201
 30
0.0
 10
112.4351698133681
 20
159.1146633572049
 30
0.0
 10
111.7744004991319
 20
158.8394002278646
 30
0.0
 10
111.7744004991319
 20
158.8394002278646
 30
0.0
 10
111.3337727864583
 20
158.2335801866319
 30
0.0
 10
110.728125
 20
158.8945217556424
 30
0.0
 10
110.728125
 20
158.8945217556424
 30
0.0
 10
110.728125
 20
172.4964477539062
 30
0.0
 10
110.728125
 20
172.4964477539062
 30
0.0
 10
110.728125
 20
172.4964477539062
 30
0.0
 10
109.4613633897569
 20
173.8731079101562
 30
0.0
 10
109.4613633897569
 20
173.8731079101562
 30
0.0
  0
LWPOLYLINE
  5
93
330
A
100
AcDbEntity
  8
H2_5A
 62
     7
100
AcDbPolyline
 90
        5
 70
     0
 43
0.0
 10
109.4613633897569
 20
173.8731079101562
 10
104.2849351671007
 20
171.4501722547743
 10
103.513922797309
 20
169.0821858723958
 10
103.513922797309
 20
160.4363742404514
 10
109.5164849175347
 20
147.2199544270833
  0
SPLINE
  5
92
330
A
100
AcDbEntity
  8
H2_5A
 62
     7
100
AcDbSpline
210
0.0
220
0.0
230
1.0
 70
     8
 71
     3
 72
    17
 73
    13
 74
     0
 42
0.0000000001
 43
0.0000000001
 40
0.0
 40
0.0
 40
0.0
 40
0.0
 40
1.0
 40
1.0
 40
1.0
 40
2.0
 40
2.0
 40
2.0
 40
3.0
 40
3.0
 40
3.0
 40
4.0
 40
4.0
 40
4.0
 40
4.0
 10
110.728125
 20
158.8945217556424
 30
0.0
 10
110.728125
 20
158.8945217556424
 30
0.0
 10
110.728125
 20
157.2424262152778
 30
0.0
 10
112.4355143229167
 20
158.3991170247396
 30
0.0
 10
112.4355143229167
 20
158.3991170247396
 30
0.0
 10
115.0238145616319
 20
157.7383477105035
 30
0.0
 10
115.0238145616319
 20
157.7383477105035
 30
0.0
 10
115.0238145616319
 20
157.7383477105035
 30
0.0
 10
125.0459418402778
 20
139.8407321506076
 30
0.0
 10
125.0459418402778
 20
139.8407321506076
 30
0.0
 10
125.0459418402778
 20
139.8407321506076
 30
0.0
 10
125.0459418402778
 20
130.4240804036458
 30
0.0
 10
125.0459418402778
 20
130.4240804036458
 30
0.0
  0
LINE
  5
91
330
A
100
AcDbEntity
  8
H2_5A
 62
     7
100
AcDbLine
 10
115.0234700520833
 20
157.8480740017361
 30
0.0
 11
115.7393608940972
 21
158.1786309136285
 31
0.0
  0
LINE
  5
90
330
A
100
AcDbEntity
  8
H2_5A
 62
     7
100
AcDbLine
 10
125.0459418402778
 20
139.4552259657118
 30
0.0
 11
125.7067111545139
 21
140.1711168077257
 31
0.0
  0
LINE
  5
8F
330
A
100
AcDbEntity
  8
H2_5A
 62
     7
100
AcDbLine
 10
102.5777180989583
 20
160.6566880967882
 30
0.0
 11
103.6241658528646
 21
160.2713541666666
 31
0.0
  0
LINE
  5
8E
330
A
100
AcDbEntity
  8
H2_5A
 62
     7
100
AcDbLine
 10
103.5140950520833
 20
171.7256076388889
 30
0.0
 11
104.1748643663194
 21
171.340101453993
 31
0.0
  0
LINE
  5
8D
330
A
100
AcDbEntity
  8
H2_5A
 62
     7
100
AcDbLine
 10
102.6879611545139
 20
169.1922566731771
 30
0.0
 11
103.4589735243056
 21
168.6968519422743
 31
0.0
  0
INSERT
  5
88
330
A
100
AcDbEntity
  8
H2_5A
 62
     7
100
AcDbBlockReference
  2
AI9-BLK14
 10
109.4077921549479
 20
170.4733154296875
 30
0.0
  0
INSERT
  5
82
330
A
100
AcDbEntity
  8
H2_5A
 62
     7
100
AcDbBlockReference
  2
AI9-BLK13
 10
105.8801866319444
 20
169.7677598741319
 30
0.0
  0
INSERT
  5
7C
330
A
100
AcDbEntity
  8
H2_5A
 62
     7
100
AcDbBlockReference
  2
AI9-BLK12
 10
109.4068447536892
 20
163.8881015353732
 30
0.0
  0
INSERT
  5
76
330
A
100
AcDbEntity
  8
H2_5A
 62
     7
100
AcDbBlockReference
  2
AI9-BLK11
 10
106.1151421440972
 20
163.7484029134114
 30
0.0
  0
INSERT
  5
70
330
A
100
AcDbEntity
  8
H2_5A
 62
     7
100
AcDbBlockReference
  2
AI9-BLK10
 10
107.8779113769531
 20
159.2798556857639
 30
0.0
  0
INSERT
  5
6A
330
A
100
AcDbEntity
  8
H2_5A
 62
     7
100
AcDbBlockReference
  2
AI9-BLK9
 10
116.6016682942708
 20
140.7181979709201
 30
0.0
  0
INSERT
  5
64
330
A
100
AcDbEntity
  8
H2_5A
 62
     7
100
AcDbBlockReference
  2
AI9-BLK8
 10
116.6016682942708
 20
133.9904432508681
 30
0.0
  0
INSERT
  5
5E
330
A
100
AcDbEntity
  8
H2_5A
 62
     7
100
AcDbBlockReference
  2
AI9-BLK7
 10
122.6723571777344
 20
131.9911682128906
 30
0.0
  0
INSERT
  5
58
330
A
100
AcDbEntity
  8
H2_5A
 62
     7
100
AcDbBlockReference
  2
AI9-BLK6
 10
121.0262905544705
 20
137.9883043077257
 30
0.0
  0
INSERT
  5
52
330
A
100
AcDbEntity
  8
H2_5A
 62
     7
100
AcDbBlockReference
  2
AI9-BLK5
 10
119.1496609157986
 20
144.1033487955729
 30
0.0
  0
LINE
  5
50
330
A
100
AcDbEntity
  8
H2_5A
 62
     7
100
AcDbLine
 10
118.9319308810764
 20
146.523011610243
 30
0.0
 11
120.6544786241319
 21
146.0997816297743
 31
0.0
  0
LINE
  5
4F
330
A
100
AcDbEntity
  8
H2_5A
 62
     7
100
AcDbLine
 10
116.5865098741319
 20
147.0997205946181
 30
0.0
 11
118.2866644965278
 21
146.6816582573785
 31
0.0
  0
LINE
  5
4E
330
A
100
AcDbEntity
  8
H2_5A
 62
     7
100
AcDbLine
 10
114.7840359157986
 20
147.5425876193576
 30
0.0
 11
115.8268663194444
 21
147.286272515191
 31
0.0
  0
LINE
  5
4D
330
A
100
AcDbEntity
  8
H2_5A
 62
     7
100
AcDbLine
 10
109.3924614800347
 20
157.4334567599826
 30
0.0
 11
110.3064453125
 21
157.8906209309896
 31
0.0
  0
LINE
  5
4C
330
A
100
AcDbEntity
  8
H2_5A
 62
     7
100
AcDbLine
 10
107.7591417100694
 20
156.6169691297743
 30
0.0
 11
108.7740668402778
 21
157.1242594401041
 31
0.0
  0
LINE
  5
4B
330
A
100
AcDbEntity
  8
H2_5A
 62
     7
100
AcDbLine
 10
106.3263264973958
 20
155.9005615234375
 30
0.0
 11
107.1813991970486
 21
156.3282701280382
 31
0.0
  0
INSERT
  5
46
330
A
100
AcDbEntity
  8
H2_5A
 62
     7
100
AcDbBlockReference
  2
AI9-BLK4
 10
112.9461636013455
 20
155.4007642957899
 30
0.0
  0
INSERT
  5
40
330
A
100
AcDbEntity
  8
H2_5A
 62
     7
100
AcDbBlockReference
  2
AI9-BLK3
 10
112.9487474229601
 20
151.342441813151
 30
0.0
  0
LINE
  5
3E
330
A
100
AcDbEntity
  8
H2_5A
 62
     7
100
AcDbLine
 10
112.9715711805555
 20
150.1508694118924
 30
0.0
 11
112.9715711805555
 21
148.9354397243924
 31
0.0
  0
LINE
  5
3D
330
A
100
AcDbEntity
  8
H2_5A
 62
     7
100
AcDbLine
 10
112.9715711805555
 20
154.3085828993056
 30
0.0
 11
112.9715711805555
 21
152.8657769097222
 31
0.0
  0
LINE
  5
3C
330
A
100
AcDbEntity
  8
H2_5A
 62
     7
100
AcDbLine
 10
112.9715711805555
 20
157.6916666666667
 30
0.0
 11
112.9715711805555
 21
156.7461602105035
 31
0.0
  0
INSERT
  5
30
330
A
100
AcDbEntity
  8
H2_5A
 62
     7
100
AcDbBlockReference
  2
AI9-BLK2
 10
117.4064425998264
 20
147.8834798177083
 30
0.0
  0
INSERT
  5
23
330
A
100
AcDbEntity
  8
H2_5A
 62
     7
100
AcDbBlockReference
  2
AI9-BLK1
 10
108.7636454264323
 20
156.1871073404948
 30
0.0
  0
ENDSEC
  0
SECTION
  2
OBJECTS
  0
DICTIONARY
  5
19
330
0
100
AcDbDictionary
281
     1
  3
ACAD_COLOR
350
175
  3
ACAD_GROUP
350
1A
  3
ACAD_LAYOUT
350
142
  3
ACAD_MATERIAL
350
177
  3
ACAD_MLINESTYLE
350
1B
  3
ACAD_PLOTSETTINGS
350
143
  3
ACAD_PLOTSTYLENAME
350
140
  3
ACDBHEADERROUNDTRIPXREC
350
174
  0
DICTIONARY
  5
175
102
{ACAD_REACTORS
330
19
102
}
330
19
100
AcDbDictionary
281
     1
  0
DICTIONARY
  5
1A
102
{ACAD_REACTORS
330
19
102
}
330
19
100
AcDbDictionary
281
     1
  0
DICTIONARY
  5
142
102
{ACAD_REACTORS
330
19
102
}
330
19
100
AcDbDictionary
281
     1
  3
Layout1
350
145
  3
Model
350
144
  0
DICTIONARY
  5
177
102
{ACAD_REACTORS
330
19
102
}
330
19
100
AcDbDictionary
281
     1
  0
DICTIONARY
  5
1B
102
{ACAD_REACTORS
330
19
102
}
330
19
100
AcDbDictionary
281
     1
  3
STANDARD
350
1C
  0
DICTIONARY
  5
143
102
{ACAD_REACTORS
330
19
102
}
330
19
100
AcDbDictionary
281
     1
  0
ACDBDICTIONARYWDFLT
  5
140
102
{ACAD_REACTORS
330
19
102
}
330
19
100
AcDbDictionary
281
     1
  3
Normal
350
141
100
AcDbDictionaryWithDefault
340
141
  0
DICTIONARY
  5
174
102
{ACAD_REACTORS
330
19
102
}
330
19
100
AcDbDictionary
281
     1
  3
COLORDICT
350
176
  3
MATERIALDICT
350
178
  0
LAYOUT
  5
145
102
{ACAD_REACTORS
330
142
102
}
102
{ACAD_XDICTIONARY
360
179
102
}
330
142
100
AcDbPlotSettings
  1

  2
Support Center HP LaserJet 4
  4

  6

 40
0.0
 41
0.0
 42
0.0
 43
0.0
 44
0.0
 45
0.0
 46
0.0
 47
0.0
 48
0.0
 49
0.0
140
0.0
141
0.0
142
1.0
143
1.0
 70
   688
 72
     0
 73
     0
 74
     5
  7

 75
    16
147
1.0
148
0.0
149
0.0
100
AcDbLayout
  1
Layout1
 70
     0
 71
     1
 10
0.0
 20
0.0
 11
12.0
 21
9.0
 12
0.0
 22
0.0
 32
0.0
 14
1.000000000000000E+20
 24
1.000000000000000E+20
 34
1.000000000000000E+20
 15
-1.000000000000000E+20
 25
-1.000000000000000E+20
 35
-1.000000000000000E+20
146
0.0
 13
0.0
 23
0.0
 33
0.0
 16
1.0
 26
0.0
 36
0.0
 17
0.0
 27
1.0
 37
0.0
 76
     0
330
B
  0
LAYOUT
  5
144
102
{ACAD_REACTORS
330
142
102
}
102
{ACAD_XDICTIONARY
360
17B
102
}
330
142
100
AcDbPlotSettings
  1

  2
Support Center HP LaserJet 4
  4

  6

 40
0.0
 41
0.0
 42
0.0
 43
0.0
 44
0.0
 45
0.0
 46
0.0
 47
0.0
 48
0.0
 49
0.0
140
0.0
141
0.0
142
1.0
143
1.0
 70
  1712
 72
     0
 73
     0
 74
     0
  7

 75
     0
147
1.0
148
0.0
149
0.0
100
AcDbLayout
  1
Model
 70
     1
 71
     0
 10
0.0
 20
0.0
 11
12.0
 21
9.0
 12
0.0
 22
0.0
 32
0.0
 14
0.0
 24
0.0
 34
0.0
 15
0.0
 25
0.0
 35
0.0
146
0.0
 13
0.0
 23
0.0
 33
0.0
 16
1.0
 26
0.0
 36
0.0
 17
0.0
 27
1.0
 37
0.0
 76
     0
330
A
  0
MLINESTYLE
  5
1C
102
{ACAD_REACTORS
330
1B
102
}
330
1B
100
AcDbMlineStyle
  2
STANDARD
 70
     0
  3

 62
     0
 51
90.0000000000002
 52
90.0000000000002
 71
     2
 49
0.5
 62
   256
  6
BYLAYER
 49
-0.5
 62
   256
  6
BYLAYER
  0
ACDBPLACEHOLDER
  5
141
102
{ACAD_REACTORS
330
140
102
}
330
140
  0
XRECORD
  5
176
102
{ACAD_REACTORS
330
174
102
}
330
174
100
AcDbXrecord
340
175
  0
XRECORD
  5
178
102
{ACAD_REACTORS
330
174
102
}
330
174
100
AcDbXrecord
340
177
  0
DICTIONARY
  5
179
330
145
100
AcDbDictionary
280
     1
281
     1
  3
ACAD_XREC_ROUNDTRIP
360
17A
  0
DICTIONARY
  5
17B
330
144
100
AcDbDictionary
280
     1
281
     1
  3
ACAD_XREC_ROUNDTRIP
360
17C
  0
XRECORD
  5
17A
102
{ACAD_REACTORS
330
179
102
}
330
179
100
AcDbXrecord
102
SHADEPLOT
 70
 31552
102
SHADEPLOTRESLEVEL
 70
 30752
102
SHADEPLOTCUSTOMDPI
 70
 31608
  0
XRECORD
  5
17C
102
{ACAD_REACTORS
330
17B
102
}
330
17B
100
AcDbXrecord
102
SHADEPLOT
 70
     0
102
SHADEPLOTRESLEVEL
 70
     0
102
SHADEPLOTCUSTOMDPI
 70
     0
  0
ENDSEC
  0
EOF
