  0
SECTION
  2
HEADER
  9
$ACADVER
  1
AC1015
  9
$ACADMAINTVER
 70
     6
  9
$DWGCODEPAGE
  3
ANSI_1252
  9
$INSBASE
 10
0.0
 20
0.0
 30
0.0
  9
$EXTMIN
 10
61.40862270179431
 20
105.1257532952092
 30
-0.0015258207003583
  9
$EXTMAX
 10
153.2855243281506
 20
196.3221654925014
 30
0.0000000349246037
  9
$LIMMIN
 10
61.38333333333333
 20
105.107623969184
  9
$LIMMAX
 10
153.4583333333333
 20
196.5006673177083
  9
$ORTHOMODE
 70
     0
  9
$REGENMODE
 70
     1
  9
$FILLMODE
 70
     1
  9
$QTEXTMODE
 70
     0
  9
$MIRRTEXT
 70
     1
  9
$LTSCALE
 40
1.0
  9
$ATTMODE
 70
     1
  9
$TEXTSIZE
 40
0.2
  9
$TRACEWID
 40
0.05
  9
$TEXTSTYLE
  7
STANDARD
  9
$CLAYER
  8
0
  9
$CELTYPE
  6
CONTINUOUS
  9
$CECOLOR
 62
   256
  9
$CELTSCALE
 40
1.0
  9
$DISPSILH
 70
     0
  9
$DIMSCALE
 40
1.0
  9
$DIMASZ
 40
0.18
  9
$DIMEXO
 40
0.0625
  9
$DIMDLI
 40
0.38
  9
$DIMRND
 40
0.0
  9
$DIMDLE
 40
0.0
  9
$DIMEXE
 40
0.18
  9
$DIMTP
 40
0.0
  9
$DIMTM
 40
0.0
  9
$DIMTXT
 40
0.18
  9
$DIMCEN
 40
0.09
  9
$DIMTSZ
 40
0.0
  9
$DIMTOL
 70
     0
  9
$DIMLIM
 70
     0
  9
$DIMTIH
 70
     1
  9
$DIMTOH
 70
     1
  9
$DIMSE1
 70
     0
  9
$DIMSE2
 70
     0
  9
$DIMTAD
 70
     0
  9
$DIMZIN
 70
     0
  9
$DIMBLK
  1

  9
$DIMASO
 70
     1
  9
$DIMSHO
 70
     1
  9
$DIMPOST
  1

  9
$DIMAPOST
  1

  9
$DIMALT
 70
     0
  9
$DIMALTD
 70
     2
  9
$DIMALTF
 40
25.4
  9
$DIMLFAC
 40
1.0
  9
$DIMTOFL
 70
     0
  9
$DIMTVP
 40
0.0
  9
$DIMTIX
 70
     0
  9
$DIMSOXD
 70
     0
  9
$DIMSAH
 70
     0
  9
$DIMBLK1
  1

  9
$DIMBLK2
  1

  9
$DIMSTYLE
  2
STANDARD
  9
$DIMCLRD
 70
     0
  9
$DIMCLRE
 70
     0
  9
$DIMCLRT
 70
     0
  9
$DIMTFAC
 40
1.0
  9
$DIMGAP
 40
0.09
  9
$DIMJUST
 70
     0
  9
$DIMSD1
 70
     0
  9
$DIMSD2
 70
     0
  9
$DIMTOLJ
 70
     1
  9
$DIMTZIN
 70
     0
  9
$DIMALTZ
 70
     0
  9
$DIMALTTZ
 70
     0
  9
$DIMUPT
 70
     0
  9
$DIMDEC
 70
     4
  9
$DIMTDEC
 70
     4
  9
$DIMALTU
 70
     2
  9
$DIMALTTD
 70
     2
  9
$DIMTXSTY
  7
STANDARD
  9
$DIMAUNIT
 70
     0
  9
$DIMADEC
 70
     0
  9
$DIMALTRND
 40
0.0
  9
$DIMAZIN
 70
     0
  9
$DIMDSEP
 70
    46
  9
$DIMATFIT
 70
     3
  9
$DIMFRAC
 70
     0
  9
$DIMLDRBLK
  1

  9
$DIMLUNIT
 70
     2
  9
$DIMLWD
 70
    -2
  9
$DIMLWE
 70
    -2
  9
$DIMTMOVE
 70
     0
  9
$LUNITS
 70
     2
  9
$LUPREC
 70
     4
  9
$SKETCHINC
 40
0.1
  9
$FILLETRAD
 40
0.0
  9
$AUNITS
 70
     0
  9
$AUPREC
 70
     0
  9
$MENU
  1
acad
  9
$ELEVATION
 40
0.0
  9
$PELEVATION
 40
0.0
  9
$THICKNESS
 40
0.0
  9
$LIMCHECK
 70
     0
  9
$CHAMFERA
 40
0.0
  9
$CHAMFERB
 40
0.0
  9
$CHAMFERC
 40
0.0
  9
$CHAMFERD
 40
0.0
  9
$SKPOLY
 70
     0
  9
$TDCREATE
 40
2444972.0
  9
$TDUCREATE
 40
2444972.333333334
  9
$TDUPDATE
 40
2453721.953481852
  9
$TDUUPDATE
 40
2453722.286815185
  9
$TDINDWG
 40
0.0005927315
  9
$TDUSRTIMER
 40
0.0005927315
  9
$USRTIMER
 70
     1
  9
$ANGBASE
 50
0.0
  9
$ANGDIR
 70
     0
  9
$PDMODE
 70
     0
  9
$PDSIZE
 40
0.0
  9
$PLINEWID
 40
0.0
  9
$SPLFRAME
 70
     0
  9
$SPLINETYPE
 70
     6
  9
$SPLINESEGS
 70
     8
  9
$HANDSEED
  5
263
  9
$SURFTAB1
 70
     6
  9
$SURFTAB2
 70
     6
  9
$SURFTYPE
 70
     6
  9
$SURFU
 70
     6
  9
$SURFV
 70
     6
  9
$UCSBASE
  2

  9
$UCSNAME
  2

  9
$UCSORG
 10
0.0
 20
0.0
 30
0.0
  9
$UCSXDIR
 10
1.0
 20
0.0
 30
0.0
  9
$UCSYDIR
 10
0.0
 20
1.0
 30
0.0
  9
$UCSORTHOREF
  2

  9
$UCSORTHOVIEW
 70
     0
  9
$UCSORGTOP
 10
0.0
 20
0.0
 30
0.0
  9
$UCSORGBOTTOM
 10
0.0
 20
0.0
 30
0.0
  9
$UCSORGLEFT
 10
0.0
 20
0.0
 30
0.0
  9
$UCSORGRIGHT
 10
0.0
 20
0.0
 30
0.0
  9
$UCSORGFRONT
 10
0.0
 20
0.0
 30
0.0
  9
$UCSORGBACK
 10
0.0
 20
0.0
 30
0.0
  9
$PUCSBASE
  2

  9
$PUCSNAME
  2

  9
$PUCSORG
 10
0.0
 20
0.0
 30
0.0
  9
$PUCSXDIR
 10
1.0
 20
0.0
 30
0.0
  9
$PUCSYDIR
 10
0.0
 20
1.0
 30
0.0
  9
$PUCSORTHOREF
  2

  9
$PUCSORTHOVIEW
 70
     0
  9
$PUCSORGTOP
 10
0.0
 20
0.0
 30
0.0
  9
$PUCSORGBOTTOM
 10
0.0
 20
0.0
 30
0.0
  9
$PUCSORGLEFT
 10
0.0
 20
0.0
 30
0.0
  9
$PUCSORGRIGHT
 10
0.0
 20
0.0
 30
0.0
  9
$PUCSORGFRONT
 10
0.0
 20
0.0
 30
0.0
  9
$PUCSORGBACK
 10
0.0
 20
0.0
 30
0.0
  9
$USERI1
 70
     0
  9
$USERI2
 70
     0
  9
$USERI3
 70
     0
  9
$USERI4
 70
     0
  9
$USERI5
 70
     0
  9
$USERR1
 40
0.0
  9
$USERR2
 40
0.0
  9
$USERR3
 40
0.0
  9
$USERR4
 40
0.0
  9
$USERR5
 40
0.0
  9
$WORLDVIEW
 70
     1
  9
$SHADEDGE
 70
     3
  9
$SHADEDIF
 70
    70
  9
$TILEMODE
 70
     1
  9
$MAXACTVP
 70
    16
  9
$PINSBASE
 10
0.0
 20
0.0
 30
0.0
  9
$PLIMCHECK
 70
     0
  9
$PEXTMIN
 10
1.000000000000000E+20
 20
1.000000000000000E+20
 30
1.000000000000000E+20
  9
$PEXTMAX
 10
-1.000000000000000E+20
 20
-1.000000000000000E+20
 30
-1.000000000000000E+20
  9
$PLIMMIN
 10
0.0
 20
0.0
  9
$PLIMMAX
 10
12.0
 20
9.0
  9
$UNITMODE
 70
     0
  9
$VISRETAIN
 70
     0
  9
$PLINEGEN
 70
     1
  9
$PSLTSCALE
 70
     0
  9
$TREEDEPTH
 70
  3020
  9
$CMLSTYLE
  2
STANDARD
  9
$CMLJUST
 70
     0
  9
$CMLSCALE
 40
1.0
  9
$PROXYGRAPHICS
 70
     1
  9
$MEASUREMENT
 70
     0
  9
$CELWEIGHT
370
    -1
  9
$ENDCAPS
280
     0
  9
$JOINSTYLE
280
     0
  9
$LWDISPLAY
290
     0
  9
$INSUNITS
 70
     0
  9
$HYPERLINKBASE
  1

  9
$STYLESHEET
  1

  9
$XEDIT
290
     1
  9
$CEPSNTYPE
380
     0
  9
$PSTYLEMODE
290
     1
  9
$FINGERPRINTGUID
  2
{0821C4B1-360C-4B13-941B-C869CE4D03CF}
  9
$VERSIONGUID
  2
{7BCFF7C8-26FB-4157-A016-91B3B4B253BD}
  9
$EXTNAMES
290
     1
  9
$PSVPSCALE
 40
0.0
  9
$OLESTARTUP
290
     0
  0
ENDSEC
  0
SECTION
  2
CLASSES
  0
CLASS
  1
LWPOLYLINE
  2
AcDbPolyline
  3
AutoCAD 2000
 90
        0
280
     0
281
     1
  0
CLASS
  1
IMAGE
  2
AcDbRasterImage
  3
ISM
 90
      127
280
     0
281
     1
  0
CLASS
  1
OLE2FRAME
  2
AcDbOle2Frame
  3
AutoCAD 2000
 90
        0
280
     0
281
     1
  0
CLASS
  1
HATCH
  2
AcDbHatch
  3
AutoCAD 2000
 90
        0
280
     0
281
     1
  0
CLASS
  1
DICTIONARYVAR
  2
AcDbDictionaryVar
  3
AutoCAD 2000
 90
        0
280
     0
281
     0
  0
CLASS
  1
RASTERVARIABLES
  2
AcDbRasterVariables
  3
ISM
 90
        0
280
     0
281
     0
  0
CLASS
  1
IMAGEDEF
  2
AcDbRasterImageDef
  3
ISM
 90
        0
280
     0
281
     0
  0
CLASS
  1
IMAGEDEF_REACTOR
  2
AcDbRasterImageDefReactor
  3
ISM
 90
        1
280
     0
281
     0
  0
CLASS
  1
IDBUFFER
  2
AcDbIdBuffer
  3
AutoCAD 2000
 90
        0
280
     0
281
     0
  0
CLASS
  1
SPATIAL_FILTER
  2
AcDbSpatialFilter
  3
AutoCAD 2000
 90
        0
280
     0
281
     0
  0
CLASS
  1
XRECORD
  2
AcDbXrecord
  3
AutoCAD 2000
 90
        0
280
     0
281
     0
  0
CLASS
  1
SORTENTSTABLE
  2
AcDbSortentsTable
  3
AutoCAD 2000
 90
        0
280
     0
281
     0
  0
CLASS
  1
LAYER_INDEX
  2
AcDbLayerIndex
  3
AutoCAD 2000
 90
        0
280
     0
281
     0
  0
CLASS
  1
SPATIAL_INDEX
  2
AcDbSpatialIndex
  3
AutoCAD 2000
 90
        0
280
     0
281
     0
  0
CLASS
  1
OBJECT_PTR
  2
CAseDLPNTableRecord
  3
ASE-LPNTableRecord
 90
   -65535
280
     1
281
     0
  0
CLASS
  1
LAYOUT
  2
AcDbLayout
  3
ObjectDBX Classes
 90
        0
280
     0
281
     0
  0
CLASS
  1
PLOTSETTINGS
  2
AcDbPlotSettings
  3
AutoCAD 2000
 90
        0
280
     0
281
     0
  0
CLASS
  1
ACDBDICTIONARYWDFLT
  2
AcDbDictionaryWithDefault
  3
AutoCAD 2000
 90
        0
280
     0
281
     0
  0
CLASS
  1
ACDBPLACEHOLDER
  2
AcDbPlaceHolder
  3
ObjectDBX Classes
 90
        0
280
     0
281
     0
  0
CLASS
  1
VBAPROJECT
  2
AcDbVbaProject
  3
ObjectDBX Classes
 90
        0
280
     0
281
     0
  0
CLASS
  1
WIPEOUT
  2
AcDbWipeout
  3
WipeOut|AutoCAD Express Tool|expresstools@autodesk.com
 90
      127
280
     0
281
     1
  0
CLASS
  1
WIPEOUTVARIABLES
  2
AcDbWipeoutVariables
  3
WipeOut|AutoCAD Express Tool|expresstools@autodesk.com
 90
        0
280
     0
281
     0
  0
CLASS
  1
RTEXT
  2
RText
  3
RText|AutoCAD Express Tool|expresstools@autodesk.com
 90
        0
280
     0
281
     1
  0
CLASS
  1
ARCALIGNEDTEXT
  2
AcDbArcAlignedText
  3
ATEXT|AutoCAD Express Tool|expresstools@autodesk.com
 90
        0
280
     0
281
     1
  0
ENDSEC
  0
SECTION
  2
TABLES
  0
TABLE
  2
VPORT
  5
7
330
0
100
AcDbSymbolTable
 70
     3
  0
VPORT
  5
259
330
7
100
AcDbSymbolTableRecord
100
AcDbViewportTableRecord
  2
*Active
 70
     0
 10
0.0
 20
0.0
 11
1.0
 21
1.0
 12
107.4208333333333
 22
150.8041456434462
 13
0.0
 23
0.0
 14
1.0
 24
1.0
 15
0.0
 25
0.0
 16
0.0
 26
0.0
 36
1.0
 17
0.0
 27
0.0
 37
0.0
 40
92.875092700122
 41
1.715447154471545
 42
50.0
 43
0.0
 44
0.0
 50
0.0
 51
0.0
 71
     0
 72
   100
 73
     1
 74
     1
 75
     0
 76
     0
 77
     0
 78
     0
281
     0
 65
     1
110
0.0
120
0.0
130
0.0
111
1.0
121
0.0
131
0.0
112
0.0
122
1.0
132
0.0
 79
     0
146
0.0
  0
ENDTAB
  0
TABLE
  2
LTYPE
  5
4
330
0
100
AcDbSymbolTable
 70
     1
  0
LTYPE
  5
11
330
4
100
AcDbSymbolTableRecord
100
AcDbLinetypeTableRecord
  2
BYBLOCK
 70
     0
  3

 72
    65
 73
     0
 40
0.0
  0
LTYPE
  5
12
330
4
100
AcDbSymbolTableRecord
100
AcDbLinetypeTableRecord
  2
BYLAYER
 70
     0
  3

 72
    65
 73
     0
 40
0.0
  0
LTYPE
  5
13
330
4
100
AcDbSymbolTableRecord
100
AcDbLinetypeTableRecord
  2
CONTINUOUS
 70
     0
  3
Solid line
 72
    65
 73
     0
 40
0.0
  0
ENDTAB
  0
TABLE
  2
LAYER
  5
2
330
0
100
AcDbSymbolTable
 70
     3
  0
LAYER
  5
14
330
2
100
AcDbSymbolTableRecord
100
AcDbLayerTableRecord
  2
0
 70
     0
 62
     7
  6
CONTINUOUS
370
    -3
390
249
  0
LAYER
  5
21
330
2
100
AcDbSymbolTableRecord
100
AcDbLayerTableRecord
  2
H2_5T
 70
     0
 62
     3
  6
CONTINUOUS
370
    -3
390
249
  0
LAYER
  5
113
330
2
100
AcDbSymbolTableRecord
100
AcDbLayerTableRecord
  2
WOOD
 70
     0
 62
     5
  6
CONTINUOUS
370
    -3
390
249
  0
ENDTAB
  0
TABLE
  2
STYLE
  5
3
330
0
100
AcDbSymbolTable
 70
     5
  0
STYLE
  5
17
330
3
100
AcDbSymbolTableRecord
100
AcDbTextStyleTableRecord
  2
STANDARD
 70
     0
 40
0.0
 41
1.0
 50
0.0
 71
     0
 42
0.2
  3
txt
  4

  0
ENDTAB
  0
TABLE
  2
VIEW
  5
5
330
0
100
AcDbSymbolTable
 70
     0
  0
ENDTAB
  0
TABLE
  2
UCS
  5
6
330
0
100
AcDbSymbolTable
 70
     0
  0
ENDTAB
  0
TABLE
  2
APPID
  5
8
330
0
100
AcDbSymbolTable
 70
     2
  0
APPID
  5
16
330
8
100
AcDbSymbolTableRecord
100
AcDbRegAppTableRecord
  2
ACAD
 70
     0
  0
APPID
  5
256
330
8
100
AcDbSymbolTableRecord
100
AcDbRegAppTableRecord
  2
DCO15
 70
     0
  0
ENDTAB
  0
TABLE
  2
DIMSTYLE
  5
9
330
0
100
AcDbSymbolTable
 70
     1
100
AcDbDimStyleTable
  0
DIMSTYLE
105
18
330
9
100
AcDbSymbolTableRecord
100
AcDbDimStyleTableRecord
  2
STANDARD
 70
     0
  3

  4

289
     0
340
17
  0
ENDTAB
  0
TABLE
  2
BLOCK_RECORD
  5
1
330
0
100
AcDbSymbolTable
 70
    32
  0
BLOCK_RECORD
  5
A
330
1
100
AcDbSymbolTableRecord
100
AcDbBlockTableRecord
  2
*MODEL_SPACE
340
24C
  0
BLOCK_RECORD
  5
B
330
1
100
AcDbSymbolTableRecord
100
AcDbBlockTableRecord
  2
*PAPER_SPACE
340
24D
  0
BLOCK_RECORD
  5
22
330
1
100
AcDbSymbolTableRecord
100
AcDbBlockTableRecord
  2
AI9-BLK1
340
0
102
{BLKREFS
331
23
102
}
  0
BLOCK_RECORD
  5
25
330
1
100
AcDbSymbolTableRecord
100
AcDbBlockTableRecord
  2
AI9-BLK2
340
0
102
{BLKREFS
331
26
102
}
  0
BLOCK_RECORD
  5
28
330
1
100
AcDbSymbolTableRecord
100
AcDbBlockTableRecord
  2
AI9-BLK3
340
0
102
{BLKREFS
331
29
102
}
  0
BLOCK_RECORD
  5
2D
330
1
100
AcDbSymbolTableRecord
100
AcDbBlockTableRecord
  2
AI9-BLK4
340
0
102
{BLKREFS
331
2E
102
}
  0
BLOCK_RECORD
  5
4A
330
1
100
AcDbSymbolTableRecord
100
AcDbBlockTableRecord
  2
AI9-BLK5
340
0
102
{BLKREFS
331
4B
102
}
  0
BLOCK_RECORD
  5
4D
330
1
100
AcDbSymbolTableRecord
100
AcDbBlockTableRecord
  2
AI9-BLK6
340
0
102
{BLKREFS
331
4E
102
}
  0
BLOCK_RECORD
  5
50
330
1
100
AcDbSymbolTableRecord
100
AcDbBlockTableRecord
  2
AI9-BLK7
340
0
102
{BLKREFS
331
51
102
}
  0
BLOCK_RECORD
  5
55
330
1
100
AcDbSymbolTableRecord
100
AcDbBlockTableRecord
  2
AI9-BLK8
340
0
102
{BLKREFS
331
56
102
}
  0
BLOCK_RECORD
  5
72
330
1
100
AcDbSymbolTableRecord
100
AcDbBlockTableRecord
  2
AI9-BLK9
340
0
102
{BLKREFS
331
73
102
}
  0
BLOCK_RECORD
  5
78
330
1
100
AcDbSymbolTableRecord
100
AcDbBlockTableRecord
  2
AI9-BLK10
340
0
102
{BLKREFS
331
79
102
}
  0
BLOCK_RECORD
  5
7E
330
1
100
AcDbSymbolTableRecord
100
AcDbBlockTableRecord
  2
AI9-BLK11
340
0
102
{BLKREFS
331
7F
102
}
  0
BLOCK_RECORD
  5
84
330
1
100
AcDbSymbolTableRecord
100
AcDbBlockTableRecord
  2
AI9-BLK12
340
0
102
{BLKREFS
331
85
102
}
  0
BLOCK_RECORD
  5
8A
330
1
100
AcDbSymbolTableRecord
100
AcDbBlockTableRecord
  2
AI9-BLK13
340
0
102
{BLKREFS
331
8B
102
}
  0
BLOCK_RECORD
  5
90
330
1
100
AcDbSymbolTableRecord
100
AcDbBlockTableRecord
  2
AI9-BLK14
340
0
102
{BLKREFS
331
91
102
}
  0
BLOCK_RECORD
  5
96
330
1
100
AcDbSymbolTableRecord
100
AcDbBlockTableRecord
  2
AI9-BLK15
340
0
102
{BLKREFS
331
97
102
}
  0
BLOCK_RECORD
  5
9C
330
1
100
AcDbSymbolTableRecord
100
AcDbBlockTableRecord
  2
AI9-BLK16
340
0
102
{BLKREFS
331
9D
102
}
  0
BLOCK_RECORD
  5
A2
330
1
100
AcDbSymbolTableRecord
100
AcDbBlockTableRecord
  2
AI9-BLK17
340
0
102
{BLKREFS
331
A3
102
}
  0
BLOCK_RECORD
  5
A8
330
1
100
AcDbSymbolTableRecord
100
AcDbBlockTableRecord
  2
AI9-BLK18
340
0
102
{BLKREFS
331
A9
102
}
  0
BLOCK_RECORD
  5
AE
330
1
100
AcDbSymbolTableRecord
100
AcDbBlockTableRecord
  2
AI9-BLK19
340
0
102
{BLKREFS
331
AF
102
}
  0
BLOCK_RECORD
  5
B1
330
1
100
AcDbSymbolTableRecord
100
AcDbBlockTableRecord
  2
AI9-BLK20
340
0
102
{BLKREFS
331
B2
102
}
  0
BLOCK_RECORD
  5
B6
330
1
100
AcDbSymbolTableRecord
100
AcDbBlockTableRecord
  2
AI9-BLK21
340
0
102
{BLKREFS
331
B7
102
}
  0
BLOCK_RECORD
  5
BC
330
1
100
AcDbSymbolTableRecord
100
AcDbBlockTableRecord
  2
AI9-BLK22
340
0
102
{BLKREFS
331
BD
102
}
  0
BLOCK_RECORD
  5
C1
330
1
100
AcDbSymbolTableRecord
100
AcDbBlockTableRecord
  2
AI9-BLK23
340
0
102
{BLKREFS
331
C2
102
}
  0
BLOCK_RECORD
  5
C6
330
1
100
AcDbSymbolTableRecord
100
AcDbBlockTableRecord
  2
AI9-BLK24
340
0
102
{BLKREFS
331
C7
102
}
  0
BLOCK_RECORD
  5
CC
330
1
100
AcDbSymbolTableRecord
100
AcDbBlockTableRecord
  2
AI9-BLK25
340
0
102
{BLKREFS
331
CD
102
}
  0
BLOCK_RECORD
  5
D3
330
1
100
AcDbSymbolTableRecord
100
AcDbBlockTableRecord
  2
AI9-BLK26
340
0
102
{BLKREFS
331
D4
102
}
  0
BLOCK_RECORD
  5
D6
330
1
100
AcDbSymbolTableRecord
100
AcDbBlockTableRecord
  2
AI9-BLK27
340
0
102
{BLKREFS
331
D7
102
}
  0
BLOCK_RECORD
  5
DB
330
1
100
AcDbSymbolTableRecord
100
AcDbBlockTableRecord
  2
AI9-BLK28
340
0
102
{BLKREFS
331
DC
102
}
  0
BLOCK_RECORD
  5
E1
330
1
100
AcDbSymbolTableRecord
100
AcDbBlockTableRecord
  2
AI9-BLK29
340
0
102
{BLKREFS
331
E2
102
}
  0
BLOCK_RECORD
  5
E6
330
1
100
AcDbSymbolTableRecord
100
AcDbBlockTableRecord
  2
AI9-BLK30
340
0
102
{BLKREFS
331
E7
102
}
  0
BLOCK_RECORD
  5
EC
330
1
100
AcDbSymbolTableRecord
100
AcDbBlockTableRecord
  2
AI9-BLK31
340
0
102
{BLKREFS
331
ED
102
}
  0
BLOCK_RECORD
  5
F6
330
1
100
AcDbSymbolTableRecord
100
AcDbBlockTableRecord
  2
AI9-BLK32
340
0
102
{BLKREFS
331
F7
102
}
  0
ENDTAB
  0
ENDSEC
  0
SECTION
  2
BLOCKS
  0
BLOCK
  5
D
330
A
100
AcDbEntity
  8
0
100
AcDbBlockBegin
  2
*MODEL_SPACE
 70
     0
 10
0.0
 20
0.0
 30
0.0
  3
*MODEL_SPACE
  1

  4

  0
ENDBLK
  5
E
330
A
100
AcDbEntity
  8
0
100
AcDbBlockEnd
  0
BLOCK
  5
F
330
B
100
AcDbEntity
 67
     1
  8
0
100
AcDbBlockBegin
  2
*PAPER_SPACE
 70
     0
 10
0.0
 20
0.0
 30
0.0
  3
*PAPER_SPACE
  1

  4

  0
ENDBLK
  5
10
330
B
100
AcDbEntity
 67
     1
  8
0
100
AcDbBlockEnd
  0
BLOCK
  5
24
330
22
100
AcDbEntity
  8
0
 62
     7
100
AcDbBlockBegin
  2
AI9-BLK1
 70
     0
 10
0.0
 20
0.0
 30
0.0
  3
AI9-BLK1
  1

  4

  0
LINE
  5
48
330
22
100
AcDbEntity
  8
H2_5T
 62
     7
100
AcDbLine
 10
-4.890226915147569
 20
3.081724039713541
 30
0.0
 11
5.016317409939235
 21
-5.859849039713541
 31
0.0
  0
LWPOLYLINE
  5
43
330
22
100
AcDbEntity
  8
H2_5T
 62
     7
100
AcDbPolyline
 90
        3
 70
     1
 43
0.0
 10
-3.821041531032986
 20
3.92163831922743
 10
-4.114219156901041
 20
0.0316087510850694
 10
-7.028769938151041
 20
4.855948215060764
  0
LWPOLYLINE
  5
3E
330
22
100
AcDbEntity
  8
H2_5T
 62
     7
100
AcDbPolyline
 90
        3
 70
     1
 43
0.0
 10
3.82086927625868
 20
-6.605023193359375
 10
4.114046902126736
 20
-2.714821370442708
 10
7.028769938151041
 20
-7.539160834418402
  0
INSERT
  5
26
330
22
100
AcDbEntity
  8
H2_5T
 62
     7
100
AcDbBlockReference
  2
AI9-BLK2
 10
0.3461459689670139
 20
3.212465413411458
 30
0.0
  0
ENDBLK
  5
49
330
22
100
AcDbEntity
  8
0
100
AcDbBlockEnd
  0
BLOCK
  5
27
330
25
100
AcDbEntity
  8
0
 62
     7
100
AcDbBlockBegin
  2
AI9-BLK2
 70
     0
 10
0.0
 20
0.0
 30
0.0
  3
AI9-BLK2
  1

  4

  0
INSERT
  5
2E
330
25
100
AcDbEntity
  8
H2_5T
 62
     7
100
AcDbBlockReference
  2
AI9-BLK4
 10
-0.7903910319010415
 20
1.619625515407986
 30
0.0
  0
INSERT
  5
29
330
25
100
AcDbEntity
  8
H2_5T
 62
     7
100
AcDbBlockReference
  2
AI9-BLK3
 10
0.9160508897569444
 20
-2.017275661892361
 30
0.0
  0
ENDBLK
  5
3D
330
25
100
AcDbEntity
  8
0
100
AcDbBlockEnd
  0
BLOCK
  5
2A
330
28
100
AcDbEntity
  8
0
 62
     7
100
AcDbBlockBegin
  2
AI9-BLK3
 70
     0
 10
0.0
 20
0.0
 30
0.0
  3
AI9-BLK3
  1

  4

  0
SPLINE
  5
2B
330
28
100
AcDbEntity
  8
H2_5T
 62
     7
100
AcDbSpline
210
0.0
220
0.0
230
1.0
 70
    11
 71
     3
 72
    56
 73
    52
 74
     0
 42
0.0000000001
 43
0.0000000001
 40
0.0
 40
0.0
 40
0.0
 40
0.0
 40
1.0
 40
1.0
 40
1.0
 40
2.0
 40
2.0
 40
2.0
 40
3.0
 40
3.0
 40
3.0
 40
4.0
 40
4.0
 40
4.0
 40
5.0
 40
5.0
 40
5.0
 40
6.0
 40
6.0
 40
6.0
 40
7.0
 40
7.0
 40
7.0
 40
8.0
 40
8.0
 40
8.0
 40
9.0
 40
9.0
 40
9.0
 40
10.0
 40
10.0
 40
10.0
 40
11.0
 40
11.0
 40
11.0
 40
12.0
 40
12.0
 40
12.0
 40
13.0
 40
13.0
 40
13.0
 40
14.0
 40
14.0
 40
14.0
 40
15.0
 40
15.0
 40
15.0
 40
16.0
 40
16.0
 40
16.0
 40
17.0
 40
17.0
 40
17.0
 40
17.0
 10
-0.3017903645833333
 20
-0.5885945638020833
 30
0.0
 10
-0.4688774956597222
 20
-0.6521565755208333
 30
0.0
 10
-0.55810546875
 20
-0.7634331597222221
 30
0.0
 10
-0.60771484375
 20
-1.003211805555555
 30
0.0
 10
-0.60771484375
 20
-1.003211805555555
 30
0.0
 10
0.6087483723958332
 20
-1.917540147569444
 30
0.0
 10
0.6087483723958332
 20
-1.917540147569444
 30
0.0
 10
0.6087483723958332
 20
-1.917540147569444
 30
0.0
 10
0.5407077365451388
 20
-2.309419759114583
 30
0.0
 10
0.5407077365451388
 20
-2.309419759114583
 30
0.0
 10
0.5407077365451388
 20
-2.309419759114583
 30
0.0
 10
-1.006829155815972
 20
-1.147389051649306
 30
0.0
 10
-1.006829155815972
 20
-1.147389051649306
 30
0.0
 10
-0.9541191948784722
 20
-0.8674750434027777
 30
0.0
 10
-0.8769490559895833
 20
-0.59996337890625
 30
0.0
 10
-0.7439683702256944
 20
-0.3868842230902778
 30
0.0
 10
-0.6779947916666667
 20
-0.2823255750868055
 30
0.0
 10
-0.5527655707465278
 20
-0.2113566080729167
 30
0.0
 10
-0.4495849609374999
 20
-0.1648478190104167
 30
0.0
 10
-0.4495849609374999
 20
-0.1648478190104167
 30
0.0
 10
0.2254814995659722
 20
0.1445217556423611
 30
0.0
 10
0.2254814995659722
 20
0.1445217556423611
 30
0.0
 10
0.4993665907118055
 20
0.2697509765625
 30
0.0
 10
0.6032362196180555
 20
0.3694864908854166
 30
0.0
 10
0.6779947916666667
 20
0.7980563693576388
 30
0.0
 10
0.7470689561631944
 20
1.195792643229167
 30
0.0
 10
0.6984931098090277
 20
1.5626953125
 30
0.0
 10
0.3718980577256944
 20
1.808675130208333
 30
0.0
 10
-0.0237711588541667
 20
2.104608832465277
 30
0.0
 10
-0.15037841796875
 20
1.603175184461805
 30
0.0
 10
-0.2148017035590278
 20
1.184596082899305
 30
0.0
 10
-0.2148017035590278
 20
1.184596082899305
 30
0.0
 10
-0.5333007812499999
 20
1.423685709635417
 30
0.0
 10
-0.5333007812499999
 20
1.423685709635417
 30
0.0
 10
-0.5333007812499999
 20
1.423685709635417
 30
0.0
 10
-0.49144287109375
 20
1.663981119791667
 30
0.0
 10
-0.49144287109375
 20
1.663981119791667
 30
0.0
 10
-0.4413167317708333
 20
1.95181884765625
 30
0.0
 10
-0.3398586697048611
 20
2.1828125
 30
0.0
 10
-0.1701877170138889
 20
2.309419759114583
 30
0.0
 10
-0.0601169162326389
 20
2.369364420572917
 30
0.0
 10
0.1333251953125
 20
2.431203884548611
 30
0.0
 10
0.4554416232638889
 20
2.188841417100695
 30
0.0
 10
0.9472290039062499
 20
1.819354926215278
 30
0.0
 10
1.119483778211805
 20
1.187696668836805
 30
0.0
 10
1.006829155815972
 20
0.5391574435763888
 30
0.0
 10
0.9064046223958333
 20
-0.0354844835069444
 30
0.0
 10
0.6883300781249999
 20
-0.1912027994791667
 30
0.0
 10
0.3290066189236111
 20
-0.3355523003472222
 30
0.0
 10
0.3290066189236111
 20
-0.3355523003472222
 30
0.0
 10
-0.3017903645833333
 20
-0.5885945638020833
 30
0.0
 10
-0.3017903645833333
 20
-0.5885945638020833
 30
0.0
  0
ENDBLK
  5
2C
330
28
100
AcDbEntity
  8
0
100
AcDbBlockEnd
  0
BLOCK
  5
2F
330
2D
100
AcDbEntity
  8
0
 62
     7
100
AcDbBlockBegin
  2
AI9-BLK4
 70
     0
 10
0.0
 20
0.0
 30
0.0
  3
AI9-BLK4
  1

  4

  0
LWPOLYLINE
  5
30
330
2D
100
AcDbEntity
  8
H2_5T
 62
     7
100
AcDbPolyline
 90
       10
 70
     1
 43
0.0
 10
-1.132489013671875
 20
-2.302787950303819
 10
-0.9240607367621527
 20
2.707069905598958
 10
1.132489013671875
 20
0.9919291178385415
 10
1.111129421657986
 20
0.4911844889322916
 10
-0.4600063747829861
 20
1.801182047526042
 10
-0.528219265407986
 20
0.1587327745225694
 10
0.9319844563802082
 20
-1.059280734592014
 10
0.9107971191406249
 20
-1.560369873046875
 10
-0.5492343478732639
 20
-0.3423563639322916
 10
-0.6477640787760416
 20
-2.707069905598958
  0
ENDBLK
  5
3C
330
2D
100
AcDbEntity
  8
0
100
AcDbBlockEnd
  0
BLOCK
  5
4C
330
4A
100
AcDbEntity
  8
0
 62
     7
100
AcDbBlockBegin
  2
AI9-BLK5
 70
     0
 10
0.0
 20
0.0
 30
0.0
  3
AI9-BLK5
  1

  4

  0
LINE
  5
70
330
4A
100
AcDbEntity
  8
H2_5T
 62
     7
100
AcDbLine
 10
-8.025694444444444
 20
0.1960259331597222
 30
0.0
 11
8.202083333333333
 21
3.686424424913194
 31
0.0
  0
LWPOLYLINE
  5
6B
330
4A
100
AcDbEntity
  8
H2_5T
 62
     7
100
AcDbPolyline
 90
        3
 70
     1
 43
0.0
 10
-6.693992784288194
 20
1.896352810329861
 10
-6.693992784288194
 20
-1.067118326822917
 10
-11.03309054904514
 20
-0.4488959418402778
  0
LWPOLYLINE
  5
66
330
4A
100
AcDbEntity
  8
H2_5T
 62
     7
100
AcDbPolyline
 90
        3
 70
     1
 43
0.0
 10
6.693992784288194
 20
1.933904351128472
 10
6.693992784288194
 20
4.89737548828125
 10
11.03309054904514
 20
4.279153103298611
  0
INSERT
  5
4E
330
4A
100
AcDbEntity
  8
H2_5T
 62
     7
100
AcDbBlockReference
  2
AI9-BLK6
 10
-0.41702880859375
 20
-2.235780843098958
 30
0.0
  0
ENDBLK
  5
71
330
4A
100
AcDbEntity
  8
0
100
AcDbBlockEnd
  0
BLOCK
  5
4F
330
4D
100
AcDbEntity
  8
0
 62
     7
100
AcDbBlockBegin
  2
AI9-BLK6
 70
     0
 10
0.0
 20
0.0
 30
0.0
  3
AI9-BLK6
  1

  4

  0
INSERT
  5
56
330
4D
100
AcDbEntity
  8
H2_5T
 62
     7
100
AcDbBlockReference
  2
AI9-BLK8
 10
-0.7686869303385416
 20
0.155804443359375
 30
0.0
  0
INSERT
  5
51
330
4D
100
AcDbEntity
  8
H2_5T
 62
     7
100
AcDbBlockReference
  2
AI9-BLK7
 10
1.294580756293403
 20
-0.9118306477864583
 30
0.0
  0
ENDBLK
  5
65
330
4D
100
AcDbEntity
  8
0
100
AcDbBlockEnd
  0
BLOCK
  5
52
330
50
100
AcDbEntity
  8
0
 62
     7
100
AcDbBlockBegin
  2
AI9-BLK7
 70
     0
 10
0.0
 20
0.0
 30
0.0
  3
AI9-BLK7
  1

  4

  0
SPLINE
  5
53
330
50
100
AcDbEntity
  8
H2_5T
 62
     7
100
AcDbSpline
210
0.0
220
0.0
230
1.0
 70
    11
 71
     3
 72
    26
 73
    22
 74
     0
 42
0.0000000001
 43
0.0000000001
 40
0.0
 40
0.0
 40
0.0
 40
0.0
 40
1.0
 40
1.0
 40
1.0
 40
2.0
 40
2.0
 40
2.0
 40
3.0
 40
3.0
 40
3.0
 40
4.0
 40
4.0
 40
4.0
 40
5.0
 40
5.0
 40
5.0
 40
6.0
 40
6.0
 40
6.0
 40
7.0
 40
7.0
 40
7.0
 40
7.0
 10
0.1719963921440972
 20
0.7400065104166667
 30
0.0
 10
0.1719963921440972
 20
0.7400065104166667
 30
0.0
 10
-0.5554355197482639
 20
0.5856662326388888
 30
0.0
 10
-0.5554355197482639
 20
0.5856662326388888
 30
0.0
 10
-0.5554355197482639
 20
0.5856662326388888
 30
0.0
 10
-0.5537129720052083
 20
0.8819444444444444
 30
0.0
 10
-0.5537129720052083
 20
0.8819444444444444
 30
0.0
 10
-0.0667487250434028
 20
0.9939100477430555
 30
0.0
 10
0.2021409776475694
 20
1.142221408420139
 30
0.0
 10
0.2600185818142361
 20
1.687063259548611
 30
0.0
 10
0.2600185818142361
 20
1.687063259548611
 30
0.0
 10
0.5554355197482639
 20
1.749763997395833
 30
0.0
 10
0.5554355197482639
 20
1.749763997395833
 30
0.0
 10
0.5554355197482639
 20
1.749763997395833
 30
0.0
 10
0.534075927734375
 20
-1.668976508246528
 30
0.0
 10
0.534075927734375
 20
-1.668976508246528
 30
0.0
 10
0.534075927734375
 20
-1.668976508246528
 30
0.0
 10
0.1564934624565972
 20
-1.749763997395833
 30
0.0
 10
0.1564934624565972
 20
-1.749763997395833
 30
0.0
 10
0.1564934624565972
 20
-1.749763997395833
 30
0.0
 10
0.1719963921440972
 20
0.7400065104166667
 30
0.0
 10
0.1719963921440972
 20
0.7400065104166667
 30
0.0
  0
ENDBLK
  5
54
330
50
100
AcDbEntity
  8
0
100
AcDbBlockEnd
  0
BLOCK
  5
57
330
55
100
AcDbEntity
  8
0
 62
     7
100
AcDbBlockBegin
  2
AI9-BLK8
 70
     0
 10
0.0
 20
0.0
 30
0.0
  3
AI9-BLK8
  1

  4

  0
LWPOLYLINE
  5
58
330
55
100
AcDbEntity
  8
H2_5T
 62
     7
100
AcDbPolyline
 90
       10
 70
     1
 43
0.0
 10
-1.081329345703125
 20
-2.505790201822916
 10
-1.052907307942708
 20
2.053104654947917
 10
1.081329345703125
 20
2.505790201822916
 10
1.078917778862847
 20
2.049831814236111
 10
-0.5526794433593749
 20
1.703599717881944
 10
-0.561981201171875
 20
0.2087727864583333
 10
0.9540330674913193
 20
0.5308892144097221
 10
0.9511047363281249
 20
0.0749308268229167
 10
-0.565081787109375
 20
-0.2473578559027778
 10
-0.5783454047309027
 20
-2.399336751302083
  0
ENDBLK
  5
64
330
55
100
AcDbEntity
  8
0
100
AcDbBlockEnd
  0
BLOCK
  5
74
330
72
100
AcDbEntity
  8
0
 62
     7
100
AcDbBlockBegin
  2
AI9-BLK9
 70
     0
 10
0.0
 20
0.0
 30
0.0
  3
AI9-BLK9
  1

  4

  0
ELLIPSE
  5
76
330
72
100
AcDbEntity
  8
H2_5T
 62
     7
100
AcDbEllipse
 10
0.182159423828125
 20
-0.0631313747829861
 30
0.0
 11
-0.3854200575086805
 21
-0.8750542534722221
 31
0.0
210
0.0
220
0.0
230
1.0
 40
0.8000824340815951
 41
0.0
 42
6.283185307179586
  0
SPLINE
  5
75
330
72
100
AcDbEntity
  8
H2_5T
 62
     7
100
AcDbSpline
210
0.0
220
0.0
230
1.0
 70
    11
 71
     3
 72
    23
 73
    19
 74
     0
 42
0.0000000001
 43
0.0000000001
 40
0.0
 40
0.0
 40
0.0
 40
0.0
 40
1.0
 40
1.0
 40
1.0
 40
2.0
 40
2.0
 40
2.0
 40
3.0
 40
3.0
 40
3.0
 40
4.0
 40
4.0
 40
4.0
 40
5.0
 40
5.0
 40
5.0
 40
6.0
 40
6.0
 40
6.0
 40
6.0
 10
-0.8822889539930555
 20
0.4174594455295139
 30
0.0
 10
-0.6693820529513889
 20
0.9008063422309027
 30
0.0
 10
-0.1836235894097222
 20
1.154709879557292
 30
0.0
 10
0.20308837890625
 20
0.9845221625434026
 30
0.0
 10
0.2723347981770833
 20
0.9542053222656249
 30
0.0
 10
0.5078070746527778
 20
0.8377610948350693
 30
0.0
 10
0.5674072265625
 20
0.811578369140625
 30
0.0
 10
0.9539469401041666
 20
0.6417351616753472
 30
0.0
 10
1.095023600260417
 20
0.1115349663628472
 30
0.0
 10
0.8822889539930555
 20
-0.3714674207899305
 30
0.0
 10
0.6692097981770833
 20
-0.8551588270399305
 30
0.0
 10
0.1834513346354167
 20
-1.108373345269097
 30
0.0
 10
-0.2032606336805555
 20
-0.9381856282552082
 30
0.0
 10
-0.2725070529513889
 20
-0.9082132975260416
 30
0.0
 10
-0.5081515842013888
 20
-0.791769070095486
 30
0.0
 10
-0.5675794813368055
 20
-0.7655863444010416
 30
0.0
 10
-0.9541191948784722
 20
-0.5953986273871528
 30
0.0
 10
-1.095195855034722
 20
-0.065887451171875
 30
0.0
 10
-0.8822889539930555
 20
0.4174594455295139
 30
0.0
  0
ENDBLK
  5
77
330
72
100
AcDbEntity
  8
0
100
AcDbBlockEnd
  0
BLOCK
  5
7A
330
78
100
AcDbEntity
  8
0
 62
     7
100
AcDbBlockBegin
  2
AI9-BLK10
 70
     0
 10
0.0
 20
0.0
 30
0.0
  3
AI9-BLK10
  1

  4

  0
ELLIPSE
  5
7C
330
78
100
AcDbEntity
  8
H2_5T
 62
     7
100
AcDbEllipse
 10
0.1822455512152778
 20
-0.0861273871527778
 30
0.0
 11
-0.3854200575086805
 21
-0.8752265082465277
 31
0.0
210
0.0
220
0.0
230
1.0
 40
0.7998779674389159
 41
0.0
 42
6.283185307179586
  0
SPLINE
  5
7B
330
78
100
AcDbEntity
  8
H2_5T
 62
     7
100
AcDbSpline
210
0.0
220
0.0
230
1.0
 70
    11
 71
     3
 72
    23
 73
    19
 74
     0
 42
0.0000000001
 43
0.0000000001
 40
0.0
 40
0.0
 40
0.0
 40
0.0
 40
1.0
 40
1.0
 40
1.0
 40
2.0
 40
2.0
 40
2.0
 40
3.0
 40
3.0
 40
3.0
 40
4.0
 40
4.0
 40
4.0
 40
5.0
 40
5.0
 40
5.0
 40
6.0
 40
6.0
 40
6.0
 40
6.0
 10
-0.8822028266059027
 20
0.3942911783854166
 30
0.0
 10
-0.669295925564236
 20
0.8779825846354166
 30
0.0
 10
-0.1835374620225694
 20
1.131541612413194
 30
0.0
 10
0.2031745062934028
 20
0.9613538953993055
 30
0.0
 10
0.2724209255642361
 20
0.9310370551215277
 30
0.0
 10
0.5078932020399305
 20
0.8145928276909722
 30
0.0
 10
0.5674933539496527
 20
0.7884101019965277
 30
0.0
 10
0.9540330674913193
 20
0.618911404079861
 30
0.0
 10
1.095109727647569
 20
0.08836669921875
 30
0.0
 10
0.8823750813802083
 20
-0.3942911783854166
 30
0.0
 10
0.669295925564236
 20
-0.8779825846354166
 30
0.0
 10
0.1835374620225694
 20
-1.131541612413194
 30
0.0
 10
-0.2031745062934028
 20
-0.9613538953993055
 30
0.0
 10
-0.2724209255642361
 20
-0.9310370551215277
 30
0.0
 10
-0.5080654568142361
 20
-0.8145928276909722
 30
0.0
 10
-0.5674933539496527
 20
-0.7884101019965277
 30
0.0
 10
-0.9540330674913193
 20
-0.6182223849826388
 30
0.0
 10
-1.095109727647569
 20
-0.0887112087673611
 30
0.0
 10
-0.8822028266059027
 20
0.3942911783854166
 30
0.0
  0
ENDBLK
  5
7D
330
78
100
AcDbEntity
  8
0
100
AcDbBlockEnd
  0
BLOCK
  5
80
330
7E
100
AcDbEntity
  8
0
 62
     7
100
AcDbBlockBegin
  2
AI9-BLK11
 70
     0
 10
0.0
 20
0.0
 30
0.0
  3
AI9-BLK11
  1

  4

  0
ELLIPSE
  5
82
330
7E
100
AcDbEntity
  8
H2_5T
 62
     7
100
AcDbEllipse
 10
0.182159423828125
 20
-0.0879360622829861
 30
0.0
 11
-0.3854200575086805
 21
-0.8750542534722221
 31
0.0
210
0.0
220
0.0
230
1.0
 40
0.8000824340815951
 41
0.0
 42
6.283185307179586
  0
SPLINE
  5
81
330
7E
100
AcDbEntity
  8
H2_5T
 62
     7
100
AcDbSpline
210
0.0
220
0.0
230
1.0
 70
    11
 71
     3
 72
    23
 73
    19
 74
     0
 42
0.0000000001
 43
0.0000000001
 40
0.0
 40
0.0
 40
0.0
 40
0.0
 40
1.0
 40
1.0
 40
1.0
 40
2.0
 40
2.0
 40
2.0
 40
3.0
 40
3.0
 40
3.0
 40
4.0
 40
4.0
 40
4.0
 40
5.0
 40
5.0
 40
5.0
 40
6.0
 40
6.0
 40
6.0
 40
6.0
 10
-0.8822889539930555
 20
0.3926547580295138
 30
0.0
 10
-0.6693820529513889
 20
0.8760016547309028
 30
0.0
 10
-0.1836235894097222
 20
1.129905192057292
 30
0.0
 10
0.20308837890625
 20
0.9597174750434027
 30
0.0
 10
0.2723347981770833
 20
0.929400634765625
 30
0.0
 10
0.5078070746527778
 20
0.8129564073350694
 30
0.0
 10
0.5674072265625
 20
0.7867736816406249
 30
0.0
 10
0.9539469401041666
 20
0.6169304741753472
 30
0.0
 10
1.095023600260417
 20
0.0867302788628472
 30
0.0
 10
0.8822889539930555
 20
-0.3962721082899305
 30
0.0
 10
0.6692097981770833
 20
-0.8799635145399305
 30
0.0
 10
0.1834513346354167
 20
-1.133178032769097
 30
0.0
 10
-0.2032606336805555
 20
-0.9629903157552082
 30
0.0
 10
-0.2725070529513889
 20
-0.9330179850260416
 30
0.0
 10
-0.5081515842013888
 20
-0.816573757595486
 30
0.0
 10
-0.5675794813368055
 20
-0.7903910319010415
 30
0.0
 10
-0.9541191948784722
 20
-0.6202033148871528
 30
0.0
 10
-1.095195855034722
 20
-0.090692138671875
 30
0.0
 10
-0.8822889539930555
 20
0.3926547580295138
 30
0.0
  0
ENDBLK
  5
83
330
7E
100
AcDbEntity
  8
0
100
AcDbBlockEnd
  0
BLOCK
  5
86
330
84
100
AcDbEntity
  8
0
 62
     7
100
AcDbBlockBegin
  2
AI9-BLK12
 70
     0
 10
0.0
 20
0.0
 30
0.0
  3
AI9-BLK12
  1

  4

  0
ELLIPSE
  5
88
330
84
100
AcDbEntity
  8
H2_5T
 62
     7
100
AcDbEllipse
 10
0.1822455512152778
 20
-0.0862135145399306
 30
0.0
 11
-0.3854200575086805
 21
-0.8750542534722221
 31
0.0
210
0.0
220
0.0
230
1.0
 40
0.8000824340815951
 41
0.0
 42
6.283185307179586
  0
SPLINE
  5
87
330
84
100
AcDbEntity
  8
H2_5T
 62
     7
100
AcDbSpline
210
0.0
220
0.0
230
1.0
 70
    11
 71
     3
 72
    23
 73
    19
 74
     0
 42
0.0000000001
 43
0.0000000001
 40
0.0
 40
0.0
 40
0.0
 40
0.0
 40
1.0
 40
1.0
 40
1.0
 40
2.0
 40
2.0
 40
2.0
 40
3.0
 40
3.0
 40
3.0
 40
4.0
 40
4.0
 40
4.0
 40
5.0
 40
5.0
 40
5.0
 40
6.0
 40
6.0
 40
6.0
 40
6.0
 10
-0.8822028266059027
 20
0.3943773057725694
 30
0.0
 10
-0.669295925564236
 20
0.8777242024739582
 30
0.0
 10
-0.1835374620225694
 20
1.131627739800347
 30
0.0
 10
0.2031745062934028
 20
0.9614400227864582
 30
0.0
 10
0.2724209255642361
 20
0.9311231825086804
 30
0.0
 10
0.5078932020399305
 20
0.8146789550781249
 30
0.0
 10
0.5674933539496527
 20
0.7884962293836805
 30
0.0
 10
0.9540330674913193
 20
0.6186530219184028
 30
0.0
 10
1.095109727647569
 20
0.0884528266059028
 30
0.0
 10
0.8823750813802083
 20
-0.394549560546875
 30
0.0
 10
0.669295925564236
 20
-0.8782409667968749
 30
0.0
 10
0.1835374620225694
 20
-1.131455485026042
 30
0.0
 10
-0.2031745062934028
 20
-0.9612677680121528
 30
0.0
 10
-0.2724209255642361
 20
-0.931295437282986
 30
0.0
 10
-0.5080654568142361
 20
-0.8148512098524305
 30
0.0
 10
-0.5674933539496527
 20
-0.7886684841579861
 30
0.0
 10
-0.9540330674913193
 20
-0.6184807671440972
 30
0.0
 10
-1.095109727647569
 20
-0.0889695909288194
 30
0.0
 10
-0.8822028266059027
 20
0.3943773057725694
 30
0.0
  0
ENDBLK
  5
89
330
84
100
AcDbEntity
  8
0
100
AcDbBlockEnd
  0
BLOCK
  5
8C
330
8A
100
AcDbEntity
  8
0
 62
     7
100
AcDbBlockBegin
  2
AI9-BLK13
 70
     0
 10
0.0
 20
0.0
 30
0.0
  3
AI9-BLK13
  1

  4

  0
ELLIPSE
  5
8E
330
8A
100
AcDbEntity
  8
H2_5T
 62
     7
100
AcDbEllipse
 10
0.182159423828125
 20
-0.0840603298611111
 30
0.0
 11
-0.3854200575086805
 21
-0.8750542534722221
 31
0.0
210
0.0
220
0.0
230
1.0
 40
0.8000824340815951
 41
0.0
 42
6.283185307179586
  0
SPLINE
  5
8D
330
8A
100
AcDbEntity
  8
H2_5T
 62
     7
100
AcDbSpline
210
0.0
220
0.0
230
1.0
 70
    11
 71
     3
 72
    23
 73
    19
 74
     0
 42
0.0000000001
 43
0.0000000001
 40
0.0
 40
0.0
 40
0.0
 40
0.0
 40
1.0
 40
1.0
 40
1.0
 40
2.0
 40
2.0
 40
2.0
 40
3.0
 40
3.0
 40
3.0
 40
4.0
 40
4.0
 40
4.0
 40
5.0
 40
5.0
 40
5.0
 40
6.0
 40
6.0
 40
6.0
 40
6.0
 10
-0.8822889539930555
 20
0.3965304904513888
 30
0.0
 10
-0.6693820529513889
 20
0.8798773871527778
 30
0.0
 10
-0.1836235894097222
 20
1.133780924479167
 30
0.0
 10
0.20308837890625
 20
0.9635932074652777
 30
0.0
 10
0.2723347981770833
 20
0.9332763671875
 30
0.0
 10
0.5078070746527778
 20
0.8168321397569444
 30
0.0
 10
0.5674072265625
 20
0.7906494140624999
 30
0.0
 10
0.9539469401041666
 20
0.6208062065972222
 30
0.0
 10
1.095023600260417
 20
0.0906060112847222
 30
0.0
 10
0.8822889539930555
 20
-0.3923963758680555
 30
0.0
 10
0.6692097981770833
 20
-0.8760877821180555
 30
0.0
 10
0.1834513346354167
 20
-1.129302300347222
 30
0.0
 10
-0.2032606336805555
 20
-0.9591145833333332
 30
0.0
 10
-0.2725070529513889
 20
-0.9291422526041666
 30
0.0
 10
-0.5081515842013888
 20
-0.812698025173611
 30
0.0
 10
-0.5675794813368055
 20
-0.7865152994791665
 30
0.0
 10
-0.9541191948784722
 20
-0.6163275824652778
 30
0.0
 10
-1.095195855034722
 20
-0.08681640625
 30
0.0
 10
-0.8822889539930555
 20
0.3965304904513888
 30
0.0
  0
ENDBLK
  5
8F
330
8A
100
AcDbEntity
  8
0
100
AcDbBlockEnd
  0
BLOCK
  5
92
330
90
100
AcDbEntity
  8
0
 62
     7
100
AcDbBlockBegin
  2
AI9-BLK14
 70
     0
 10
0.0
 20
0.0
 30
0.0
  3
AI9-BLK14
  1

  4

  0
ELLIPSE
  5
94
330
90
100
AcDbEntity
  8
H2_5T
 62
     7
100
AcDbEllipse
 10
-0.1924085828993055
 20
-0.0638203938802083
 30
0.0
 11
0.2768134223090278
 21
-0.9150173611111109
 31
0.0
210
0.0
220
0.0
230
1.0
 40
0.8002623264486538
 41
0.0
 42
6.283185307179586
  0
SPLINE
  5
93
330
90
100
AcDbEntity
  8
H2_5T
 62
     7
100
AcDbSpline
210
0.0
220
0.0
230
1.0
 70
    11
 71
     3
 72
    23
 73
    19
 74
     0
 42
0.0000000001
 43
0.0000000001
 40
0.0
 40
0.0
 40
0.0
 40
0.0
 40
1.0
 40
1.0
 40
1.0
 40
2.0
 40
2.0
 40
2.0
 40
3.0
 40
3.0
 40
3.0
 40
4.0
 40
4.0
 40
4.0
 40
5.0
 40
5.0
 40
5.0
 40
6.0
 40
6.0
 40
6.0
 40
6.0
 10
0.9222520616319444
 20
0.2851677788628472
 30
0.0
 10
0.7692898220486111
 20
0.7905632866753471
 30
0.0
 10
0.3176378038194444
 20
1.101138644748264
 30
0.0
 10
-0.0864718967013889
 20
0.9788377549913193
 30
0.0
 10
-0.1588189019097222
 20
0.9569613986545138
 30
0.0
 10
-0.4070380316840278
 20
0.8701449924045138
 30
0.0
 10
-0.4692220052083333
 20
0.8513692220052083
 30
0.0
 10
-0.8735039605034721
 20
0.7292405870225693
 30
0.0
 10
-1.07745361328125
 20
0.2202277289496528
 30
0.0
 10
-0.9246636284722222
 20
-0.2853400336371528
 30
0.0
 10
-0.7715291341145832
 20
-0.7909077962239582
 30
0.0
 10
-0.3198771158854166
 20
-1.101138644748264
 30
0.0
 10
0.0844048394097222
 20
-0.9788377549913193
 30
0.0
 10
0.1567518446180556
 20
-0.9569613986545138
 30
0.0
 10
0.4047987196180555
 20
-0.8701449924045138
 30
0.0
 10
0.4668104383680555
 20
-0.8513692220052083
 30
0.0
 10
0.8712646484375
 20
-0.7290683322482638
 30
0.0
 10
1.075214301215278
 20
-0.2202277289496528
 30
0.0
 10
0.9222520616319444
 20
0.2851677788628472
 30
0.0
  0
ENDBLK
  5
95
330
90
100
AcDbEntity
  8
0
100
AcDbBlockEnd
  0
BLOCK
  5
98
330
96
100
AcDbEntity
  8
0
 62
     7
100
AcDbBlockBegin
  2
AI9-BLK15
 70
     0
 10
0.0
 20
0.0
 30
0.0
  3
AI9-BLK15
  1

  4

  0
ELLIPSE
  5
9A
330
96
100
AcDbEntity
  8
H2_5T
 62
     7
100
AcDbEllipse
 10
-0.1921502007378472
 20
-0.0638203938802083
 30
0.0
 11
0.2768134223090278
 21
-0.9150173611111109
 31
0.0
210
0.0
220
0.0
230
1.0
 40
0.8002623264486538
 41
0.0
 42
6.283185307179586
  0
SPLINE
  5
99
330
96
100
AcDbEntity
  8
H2_5T
 62
     7
100
AcDbSpline
210
0.0
220
0.0
230
1.0
 70
    11
 71
     3
 72
    23
 73
    19
 74
     0
 42
0.0000000001
 43
0.0000000001
 40
0.0
 40
0.0
 40
0.0
 40
0.0
 40
1.0
 40
1.0
 40
1.0
 40
2.0
 40
2.0
 40
2.0
 40
3.0
 40
3.0
 40
3.0
 40
4.0
 40
4.0
 40
4.0
 40
5.0
 40
5.0
 40
5.0
 40
6.0
 40
6.0
 40
6.0
 40
6.0
 10
0.9225104437934028
 20
0.2851677788628472
 30
0.0
 10
0.7695482042100694
 20
0.7905632866753471
 30
0.0
 10
0.3178961859809028
 20
1.101138644748264
 30
0.0
 10
-0.0862135145399306
 20
0.9788377549913193
 30
0.0
 10
-0.1585605197482639
 20
0.9569613986545138
 30
0.0
 10
-0.4067796495225694
 20
0.8701449924045138
 30
0.0
 10
-0.4689636230468749
 20
0.8513692220052083
 30
0.0
 10
-0.8732455783420138
 20
0.7292405870225693
 30
0.0
 10
-1.077195231119792
 20
0.2202277289496528
 30
0.0
 10
-0.9244052463107638
 20
-0.2853400336371528
 30
0.0
 10
-0.7712707519531249
 20
-0.7909077962239582
 30
0.0
 10
-0.3196187337239583
 20
-1.101138644748264
 30
0.0
 10
0.0846632215711805
 20
-0.9788377549913193
 30
0.0
 10
0.1570102267795139
 20
-0.9569613986545138
 30
0.0
 10
0.4050571017795139
 20
-0.8701449924045138
 30
0.0
 10
0.4670688205295139
 20
-0.8513692220052083
 30
0.0
 10
0.8715230305989583
 20
-0.7290683322482638
 30
0.0
 10
1.075472683376736
 20
-0.2202277289496528
 30
0.0
 10
0.9225104437934028
 20
0.2851677788628472
 30
0.0
  0
ENDBLK
  5
9B
330
96
100
AcDbEntity
  8
0
100
AcDbBlockEnd
  0
BLOCK
  5
9E
330
9C
100
AcDbEntity
  8
0
 62
     7
100
AcDbBlockBegin
  2
AI9-BLK16
 70
     0
 10
0.0
 20
0.0
 30
0.0
  3
AI9-BLK16
  1

  4

  0
ELLIPSE
  5
A0
330
9C
100
AcDbEntity
  8
H2_5T
 62
     7
100
AcDbEllipse
 10
-0.1912889268663194
 20
-0.0638203938802083
 30
0.0
 11
0.2768134223090278
 21
-0.9150173611111109
 31
0.0
210
0.0
220
0.0
230
1.0
 40
0.8002623264486538
 41
0.0
 42
6.283185307179586
  0
SPLINE
  5
9F
330
9C
100
AcDbEntity
  8
H2_5T
 62
     7
100
AcDbSpline
210
0.0
220
0.0
230
1.0
 70
    11
 71
     3
 72
    23
 73
    19
 74
     0
 42
0.0000000001
 43
0.0000000001
 40
0.0
 40
0.0
 40
0.0
 40
0.0
 40
1.0
 40
1.0
 40
1.0
 40
2.0
 40
2.0
 40
2.0
 40
3.0
 40
3.0
 40
3.0
 40
4.0
 40
4.0
 40
4.0
 40
5.0
 40
5.0
 40
5.0
 40
6.0
 40
6.0
 40
6.0
 40
6.0
 10
0.9233717176649304
 20
0.2851677788628472
 30
0.0
 10
0.7704094780815971
 20
0.7905632866753471
 30
0.0
 10
0.3187574598524305
 20
1.101138644748264
 30
0.0
 10
-0.0853522406684028
 20
0.9788377549913193
 30
0.0
 10
-0.1576992458767361
 20
0.9569613986545138
 30
0.0
 10
-0.4059183756510416
 20
0.8701449924045138
 30
0.0
 10
-0.4681023491753472
 20
0.8513692220052083
 30
0.0
 10
-0.872384304470486
 20
0.7292405870225693
 30
0.0
 10
-1.076333957248264
 20
0.2202277289496528
 30
0.0
 10
-0.923543972439236
 20
-0.2853400336371528
 30
0.0
 10
-0.7704094780815971
 20
-0.7909077962239582
 30
0.0
 10
-0.3187574598524305
 20
-1.101138644748264
 30
0.0
 10
0.0855244954427083
 20
-0.9788377549913193
 30
0.0
 10
0.1578715006510417
 20
-0.9569613986545138
 30
0.0
 10
0.4059183756510416
 20
-0.8701449924045138
 30
0.0
 10
0.4679300944010416
 20
-0.8513692220052083
 30
0.0
 10
0.872384304470486
 20
-0.7290683322482638
 30
0.0
 10
1.076333957248264
 20
-0.2202277289496528
 30
0.0
 10
0.9233717176649304
 20
0.2851677788628472
 30
0.0
  0
ENDBLK
  5
A1
330
9C
100
AcDbEntity
  8
0
100
AcDbBlockEnd
  0
BLOCK
  5
A4
330
A2
100
AcDbEntity
  8
0
 62
     7
100
AcDbBlockBegin
  2
AI9-BLK17
 70
     0
 10
0.0
 20
0.0
 30
0.0
  3
AI9-BLK17
  1

  4

  0
ELLIPSE
  5
A6
330
A2
100
AcDbEntity
  8
H2_5T
 62
     7
100
AcDbEllipse
 10
-0.1924947102864583
 20
-0.0749308268229167
 30
0.0
 11
0.2768995496961805
 21
-0.915017361111111
 31
0.0
210
0.0
220
0.0
230
1.0
 40
0.800155215101403
 41
0.0
 42
6.283185307179586
  0
SPLINE
  5
A5
330
A2
100
AcDbEntity
  8
H2_5T
 62
     7
100
AcDbSpline
210
0.0
220
0.0
230
1.0
 70
    11
 71
     3
 72
    23
 73
    19
 74
     0
 42
0.0000000001
 43
0.0000000001
 40
0.0
 40
0.0
 40
0.0
 40
0.0
 40
1.0
 40
1.0
 40
1.0
 40
2.0
 40
2.0
 40
2.0
 40
3.0
 40
3.0
 40
3.0
 40
4.0
 40
4.0
 40
4.0
 40
5.0
 40
5.0
 40
5.0
 40
6.0
 40
6.0
 40
6.0
 40
6.0
 10
0.9222520616319444
 20
0.2740573459201389
 30
0.0
 10
0.7692898220486111
 20
0.7794528537326388
 30
0.0
 10
0.3176378038194444
 20
1.090028211805556
 30
0.0
 10
-0.0866441514756944
 20
0.967727322048611
 30
0.0
 10
-0.1589911566840278
 20
0.9458509657118055
 30
0.0
 10
-0.4070380316840278
 20
0.8590345594618055
 30
0.0
 10
-0.4692220052083333
 20
0.8402587890625
 30
0.0
 10
-0.8735039605034721
 20
0.718130154079861
 30
0.0
 10
-1.07745361328125
 20
0.2091172960069444
 30
0.0
 10
-0.9246636284722222
 20
-0.2964504665798611
 30
0.0
 10
-0.7715291341145832
 20
-0.8020182291666665
 30
0.0
 10
-0.3198771158854166
 20
-1.112249077690972
 30
0.0
 10
0.0844048394097222
 20
-0.9899481879340277
 30
0.0
 10
0.1567518446180556
 20
-0.9680718315972221
 30
0.0
 10
0.4047987196180555
 20
-0.8812554253472221
 30
0.0
 10
0.4669826931423611
 20
-0.8624796549479166
 30
0.0
 10
0.8712646484375
 20
-0.7401787651909721
 30
0.0
 10
1.075214301215278
 20
-0.2313381618923611
 30
0.0
 10
0.9222520616319444
 20
0.2740573459201389
 30
0.0
  0
ENDBLK
  5
A7
330
A2
100
AcDbEntity
  8
0
100
AcDbBlockEnd
  0
BLOCK
  5
AA
330
A8
100
AcDbEntity
  8
0
 62
     7
100
AcDbBlockBegin
  2
AI9-BLK18
 70
     0
 10
0.0
 20
0.0
 30
0.0
  3
AI9-BLK18
  1

  4

  0
ELLIPSE
  5
AC
330
A8
100
AcDbEntity
  8
H2_5T
 62
     7
100
AcDbEllipse
 10
-0.1925808376736111
 20
-0.0748446994357639
 30
0.0
 11
0.2768995496961805
 21
-0.915017361111111
 31
0.0
210
0.0
220
0.0
230
1.0
 40
0.800155215101403
 41
0.0
 42
6.283185307179586
  0
SPLINE
  5
AB
330
A8
100
AcDbEntity
  8
H2_5T
 62
     7
100
AcDbSpline
210
0.0
220
0.0
230
1.0
 70
    11
 71
     3
 72
    23
 73
    19
 74
     0
 42
0.0000000001
 43
0.0000000001
 40
0.0
 40
0.0
 40
0.0
 40
0.0
 40
1.0
 40
1.0
 40
1.0
 40
2.0
 40
2.0
 40
2.0
 40
3.0
 40
3.0
 40
3.0
 40
4.0
 40
4.0
 40
4.0
 40
5.0
 40
5.0
 40
5.0
 40
6.0
 40
6.0
 40
6.0
 40
6.0
 10
0.9221659342447915
 20
0.2741434733072917
 30
0.0
 10
0.7692036946614582
 20
0.7795389811197916
 30
0.0
 10
0.3175516764322917
 20
1.090114339192708
 30
0.0
 10
-0.0867302788628472
 20
0.9678134494357638
 30
0.0
 10
-0.1590772840711806
 20
0.9459370930989582
 30
0.0
 10
-0.4071241590711805
 20
0.8591206868489583
 30
0.0
 10
-0.4693081325954861
 20
0.8403449164496527
 30
0.0
 10
-0.8735900878906249
 20
0.7182162814670138
 30
0.0
 10
-1.077539740668403
 20
0.2092034233940972
 30
0.0
 10
-0.9247497558593749
 20
-0.2963643391927083
 30
0.0
 10
-0.7716152615017361
 20
-0.8019321017795138
 30
0.0
 10
-0.3199632432725694
 20
-1.112162950303819
 30
0.0
 10
0.0843187120225694
 20
-0.9898620605468749
 30
0.0
 10
0.1566657172309028
 20
-0.9679857042100694
 30
0.0
 10
0.4047125922309027
 20
-0.8811692979600694
 30
0.0
 10
0.4668965657552083
 20
-0.8623935275607638
 30
0.0
 10
0.8711785210503471
 20
-0.7400926378038194
 30
0.0
 10
1.075128173828125
 20
-0.2312520345052083
 30
0.0
 10
0.9221659342447915
 20
0.2741434733072917
 30
0.0
  0
ENDBLK
  5
AD
330
A8
100
AcDbEntity
  8
0
100
AcDbBlockEnd
  0
BLOCK
  5
B0
330
AE
100
AcDbEntity
  8
0
 62
     7
100
AcDbBlockBegin
  2
AI9-BLK19
 70
     0
 10
0.0
 20
0.0
 30
0.0
  3
AI9-BLK19
  1

  4

  0
INSERT
  5
CD
330
AE
100
AcDbEntity
  8
H2_5T
 62
     7
100
AcDbBlockReference
  2
AI9-BLK25
 10
-1.118622504340278
 20
-0.0830268012152778
 30
0.0
  0
INSERT
  5
C7
330
AE
100
AcDbEntity
  8
H2_5T
 62
     7
100
AcDbBlockReference
  2
AI9-BLK24
 10
-0.4894619411892361
 20
-0.1026638454861111
 30
0.0
  0
INSERT
  5
C2
330
AE
100
AcDbEntity
  8
H2_5T
 62
     7
100
AcDbBlockReference
  2
AI9-BLK23
 10
-0.0505567762586806
 20
0.0851799858940972
 30
0.0
  0
INSERT
  5
BD
330
AE
100
AcDbEntity
  8
H2_5T
 62
     7
100
AcDbBlockReference
  2
AI9-BLK22
 10
0.2895602756076389
 20
0.1016303168402778
 30
0.0
  0
INSERT
  5
B7
330
AE
100
AcDbEntity
  8
H2_5T
 62
     7
100
AcDbBlockReference
  2
AI9-BLK21
 10
0.739059109157986
 20
0.0619255913628472
 30
0.0
  0
INSERT
  5
B2
330
AE
100
AcDbEntity
  8
H2_5T
 62
     7
100
AcDbBlockReference
  2
AI9-BLK20
 10
1.265641954210069
 20
0.1335835774739583
 30
0.0
  0
ENDBLK
  5
D2
330
AE
100
AcDbEntity
  8
0
100
AcDbBlockEnd
  0
BLOCK
  5
B3
330
B1
100
AcDbEntity
  8
0
 62
     7
100
AcDbBlockBegin
  2
AI9-BLK20
 70
     0
 10
0.0
 20
0.0
 30
0.0
  3
AI9-BLK20
  1

  4

  0
SPLINE
  5
B4
330
B1
100
AcDbEntity
  8
H2_5T
 62
     7
100
AcDbSpline
210
0.0
220
0.0
230
1.0
 70
    11
 71
     3
 72
    32
 73
    28
 74
     0
 42
0.0000000001
 43
0.0000000001
 40
0.0
 40
0.0
 40
0.0
 40
0.0
 40
1.0
 40
1.0
 40
1.0
 40
2.0
 40
2.0
 40
2.0
 40
3.0
 40
3.0
 40
3.0
 40
4.0
 40
4.0
 40
4.0
 40
5.0
 40
5.0
 40
5.0
 40
6.0
 40
6.0
 40
6.0
 40
7.0
 40
7.0
 40
7.0
 40
8.0
 40
8.0
 40
8.0
 40
9.0
 40
9.0
 40
9.0
 40
9.0
 10
-0.055035400390625
 20
0.3323655870225694
 30
0.0
 10
-0.055035400390625
 20
0.3323655870225694
 30
0.0
 10
-0.1487419976128472
 20
0.320135498046875
 30
0.0
 10
-0.1487419976128472
 20
0.320135498046875
 30
0.0
 10
-0.1487419976128472
 20
0.320135498046875
 30
0.0
 10
-0.1487419976128472
 20
-0.3662997775607639
 30
0.0
 10
-0.1487419976128472
 20
-0.3662997775607639
 30
0.0
 10
-0.1487419976128472
 20
-0.3662997775607639
 30
0.0
 10
-0.0512457953559028
 20
-0.3535529242621527
 30
0.0
 10
-0.0512457953559028
 20
-0.3535529242621527
 30
0.0
 10
-0.0512457953559028
 20
-0.3535529242621527
 30
0.0
 10
-0.0512457953559028
 20
0.0626146104600694
 30
0.0
 10
-0.0512457953559028
 20
0.0626146104600694
 30
0.0
 10
-0.0512457953559028
 20
0.1873270670572917
 30
0.0
 10
0.0228237575954861
 20
0.2758660210503472
 30
0.0
 10
0.1487419976128472
 20
0.2700093587239583
 30
0.0
 10
0.1487419976128472
 20
0.2700093587239583
 30
0.0
 10
0.1487419976128472
 20
0.3662997775607639
 30
0.0
 10
0.1487419976128472
 20
0.3662997775607639
 30
0.0
 10
0.0462504069010417
 20
0.3618211534288194
 30
0.0
 10
-0.0117994520399306
 20
0.3158291286892361
 30
0.0
 10
-0.0524515787760417
 20
0.2203999837239583
 30
0.0
 10
-0.0524515787760417
 20
0.2203999837239583
 30
0.0
 10
-0.055035400390625
 20
0.2200554741753472
 30
0.0
 10
-0.055035400390625
 20
0.2200554741753472
 30
0.0
 10
-0.055035400390625
 20
0.2200554741753472
 30
0.0
 10
-0.055035400390625
 20
0.3323655870225694
 30
0.0
 10
-0.055035400390625
 20
0.3323655870225694
 30
0.0
  0
ENDBLK
  5
B5
330
B1
100
AcDbEntity
  8
0
100
AcDbBlockEnd
  0
BLOCK
  5
B8
330
B6
100
AcDbEntity
  8
0
 62
     7
100
AcDbBlockBegin
  2
AI9-BLK21
 70
     0
 10
0.0
 20
0.0
 30
0.0
  3
AI9-BLK21
  1

  4

  0
SPLINE
  5
BA
330
B6
100
AcDbEntity
  8
H2_5T
 62
     7
100
AcDbSpline
210
0.0
220
0.0
230
1.0
 70
    11
 71
     3
 72
    29
 73
    25
 74
     0
 42
0.0000000001
 43
0.0000000001
 40
0.0
 40
0.0
 40
0.0
 40
0.0
 40
1.0
 40
1.0
 40
1.0
 40
2.0
 40
2.0
 40
2.0
 40
3.0
 40
3.0
 40
3.0
 40
4.0
 40
4.0
 40
4.0
 40
5.0
 40
5.0
 40
5.0
 40
6.0
 40
6.0
 40
6.0
 40
7.0
 40
7.0
 40
7.0
 40
8.0
 40
8.0
 40
8.0
 40
8.0
 10
0.1210089789496528
 20
-0.0994771321614583
 30
0.0
 10
0.1272101508246528
 20
-0.1766472710503472
 30
0.0
 10
0.1011996799045139
 20
-0.2662197536892361
 30
0.0
 10
0.0073208279079861
 20
-0.2784498426649305
 30
0.0
 10
-0.1296217176649306
 20
-0.2961920844184027
 30
0.0
 10
-0.1136020236545139
 20
-0.1163581000434028
 30
0.0
 10
-0.1161858452690972
 20
-0.024029541015625
 30
0.0
 10
-0.1161858452690972
 20
-0.024029541015625
 30
0.0
 10
0.2172993977864583
 20
0.0192064073350694
 30
0.0
 10
0.2172993977864583
 20
0.0192064073350694
 30
0.0
 10
0.2123040093315972
 20
0.179058837890625
 30
0.0
 10
0.2247063530815972
 20
0.3905877007378472
 30
0.0
 10
0.0024976942274306
 20
0.3616488986545138
 30
0.0
 10
-0.179058837890625
 20
0.3380499945746527
 30
0.0
 10
-0.2172993977864583
 20
0.117047119140625
 30
0.0
 10
-0.2172993977864583
 20
-0.0273023817274306
 30
0.0
 10
-0.2172993977864583
 20
-0.3039435492621527
 30
0.0
 10
-0.124798583984375
 20
-0.3785298665364583
 30
0.0
 10
0.0049092610677083
 20
-0.3616488986545138
 30
0.0
 10
0.1494310167100694
 20
-0.3428731282552083
 30
0.0
 10
0.2185051812065972
 20
-0.2214335123697916
 30
0.0
 10
0.2123040093315972
 20
-0.087591552734375
 30
0.0
 10
0.2123040093315972
 20
-0.087591552734375
 30
0.0
 10
0.1210089789496528
 20
-0.0994771321614583
 30
0.0
 10
0.1210089789496528
 20
-0.0994771321614583
 30
0.0
  0
SPLINE
  5
B9
330
B6
100
AcDbEntity
  8
H2_5T
 62
     7
100
AcDbSpline
210
0.0
220
0.0
230
1.0
 70
    11
 71
     3
 72
    14
 73
    10
 74
     0
 42
0.0000000001
 43
0.0000000001
 40
0.0
 40
0.0
 40
0.0
 40
0.0
 40
1.0
 40
1.0
 40
1.0
 40
2.0
 40
2.0
 40
2.0
 40
3.0
 40
3.0
 40
3.0
 40
3.0
 10
-0.1161858452690972
 20
0.0560689290364583
 30
0.0
 10
-0.112396240234375
 20
0.1382344563802083
 30
0.0
 10
-0.1099846733940972
 20
0.264324951171875
 30
0.0
 10
0.0037034776475694
 20
0.2791388617621528
 30
0.0
 10
0.1172193739149306
 20
0.2939527723524305
 30
0.0
 10
0.112396240234375
 20
0.1659674750434028
 30
0.0
 10
0.1160135904947917
 20
0.0862135145399306
 30
0.0
 10
0.1160135904947917
 20
0.0862135145399306
 30
0.0
 10
-0.1161858452690972
 20
0.0560689290364583
 30
0.0
 10
-0.1161858452690972
 20
0.0560689290364583
 30
0.0
  0
ENDBLK
  5
BB
330
B6
100
AcDbEntity
  8
0
100
AcDbBlockEnd
  0
BLOCK
  5
BE
330
BC
100
AcDbEntity
  8
0
 62
     7
100
AcDbBlockBegin
  2
AI9-BLK22
 70
     0
 10
0.0
 20
0.0
 30
0.0
  3
AI9-BLK22
  1

  4

  0
SPLINE
  5
BF
330
BC
100
AcDbEntity
  8
H2_5T
 62
     7
100
AcDbSpline
210
0.0
220
0.0
230
1.0
 70
    11
 71
     3
 72
    53
 73
    49
 74
     0
 42
0.0000000001
 43
0.0000000001
 40
0.0
 40
0.0
 40
0.0
 40
0.0
 40
1.0
 40
1.0
 40
1.0
 40
2.0
 40
2.0
 40
2.0
 40
3.0
 40
3.0
 40
3.0
 40
4.0
 40
4.0
 40
4.0
 40
5.0
 40
5.0
 40
5.0
 40
6.0
 40
6.0
 40
6.0
 40
7.0
 40
7.0
 40
7.0
 40
8.0
 40
8.0
 40
8.0
 40
9.0
 40
9.0
 40
9.0
 40
10.0
 40
10.0
 40
10.0
 40
11.0
 40
11.0
 40
11.0
 40
12.0
 40
12.0
 40
12.0
 40
13.0
 40
13.0
 40
13.0
 40
14.0
 40
14.0
 40
14.0
 40
15.0
 40
15.0
 40
15.0
 40
16.0
 40
16.0
 40
16.0
 40
16.0
 10
0.0382405598958333
 20
0.24959716796875
 30
0.0
 10
0.0382405598958333
 20
0.24959716796875
 30
0.0
 10
0.1531344943576389
 20
0.2645833333333333
 30
0.0
 10
0.1531344943576389
 20
0.2645833333333333
 30
0.0
 10
0.1531344943576389
 20
0.2645833333333333
 30
0.0
 10
0.1531344943576389
 20
0.1819010416666667
 30
0.0
 10
0.1531344943576389
 20
0.1819010416666667
 30
0.0
 10
0.1531344943576389
 20
0.1819010416666667
 30
0.0
 10
0.0394463433159722
 20
0.1670871310763889
 30
0.0
 10
0.0394463433159722
 20
0.1670871310763889
 30
0.0
 10
0.0394463433159722
 20
0.1670871310763889
 30
0.0
 10
0.0394463433159722
 20
-0.3009290907118055
 30
0.0
 10
0.0394463433159722
 20
-0.3009290907118055
 30
0.0
 10
0.0394463433159722
 20
-0.3243557400173611
 30
0.0
 10
0.0308336046006944
 20
-0.35501708984375
 30
0.0
 10
0.08526611328125
 20
-0.3479546440972222
 30
0.0
 10
0.08526611328125
 20
-0.3479546440972222
 30
0.0
 10
0.1507229275173611
 20
-0.33951416015625
 30
0.0
 10
0.1507229275173611
 20
-0.33951416015625
 30
0.0
 10
0.1507229275173611
 20
-0.33951416015625
 30
0.0
 10
0.1507229275173611
 20
-0.4221964518229167
 30
0.0
 10
0.1507229275173611
 20
-0.4221964518229167
 30
0.0
 10
0.1507229275173611
 20
-0.4221964518229167
 30
0.0
 10
0.0432359483506944
 20
-0.4361490885416666
 30
0.0
 10
0.0432359483506944
 20
-0.4361490885416666
 30
0.0
 10
-0.0148139105902778
 20
-0.44493408203125
 30
0.0
 10
-0.0580498589409722
 20
-0.4407999674479166
 30
0.0
 10
-0.0580498589409722
 20
-0.3371025933159722
 30
0.0
 10
-0.0580498589409722
 20
-0.3371025933159722
 30
0.0
 10
-0.0580498589409722
 20
0.1545125325520833
 30
0.0
 10
-0.0580498589409722
 20
0.1545125325520833
 30
0.0
 10
-0.0580498589409722
 20
0.1545125325520833
 30
0.0
 10
-0.1531344943576389
 20
0.1421101888020833
 30
0.0
 10
-0.1531344943576389
 20
0.1421101888020833
 30
0.0
 10
-0.1531344943576389
 20
0.1421101888020833
 30
0.0
 10
-0.1531344943576389
 20
0.22479248046875
 30
0.0
 10
-0.1531344943576389
 20
0.22479248046875
 30
0.0
 10
-0.1531344943576389
 20
0.22479248046875
 30
0.0
 10
-0.0580498589409722
 20
0.23719482421875
 30
0.0
 10
-0.0580498589409722
 20
0.23719482421875
 30
0.0
 10
-0.0580498589409722
 20
0.23719482421875
 30
0.0
 10
-0.0580498589409722
 20
0.4235744900173611
 30
0.0
 10
-0.0580498589409722
 20
0.4235744900173611
 30
0.0
 10
-0.0580498589409722
 20
0.4235744900173611
 30
0.0
 10
0.0382405598958333
 20
0.4361490885416666
 30
0.0
 10
0.0382405598958333
 20
0.4361490885416666
 30
0.0
 10
0.0382405598958333
 20
0.4361490885416666
 30
0.0
 10
0.0382405598958333
 20
0.24959716796875
 30
0.0
 10
0.0382405598958333
 20
0.24959716796875
 30
0.0
  0
ENDBLK
  5
C0
330
BC
100
AcDbEntity
  8
0
100
AcDbBlockEnd
  0
BLOCK
  5
C3
330
C1
100
AcDbEntity
  8
0
 62
     7
100
AcDbBlockBegin
  2
AI9-BLK23
 70
     0
 10
0.0
 20
0.0
 30
0.0
  3
AI9-BLK23
  1

  4

  0
SPLINE
  5
C4
330
C1
100
AcDbEntity
  8
H2_5T
 62
     7
100
AcDbSpline
210
0.0
220
0.0
230
1.0
 70
    11
 71
     3
 72
    50
 73
    46
 74
     0
 42
0.0000000001
 43
0.0000000001
 40
0.0
 40
0.0
 40
0.0
 40
0.0
 40
1.0
 40
1.0
 40
1.0
 40
2.0
 40
2.0
 40
2.0
 40
3.0
 40
3.0
 40
3.0
 40
4.0
 40
4.0
 40
4.0
 40
5.0
 40
5.0
 40
5.0
 40
6.0
 40
6.0
 40
6.0
 40
7.0
 40
7.0
 40
7.0
 40
8.0
 40
8.0
 40
8.0
 40
9.0
 40
9.0
 40
9.0
 40
10.0
 40
10.0
 40
10.0
 40
11.0
 40
11.0
 40
11.0
 40
12.0
 40
12.0
 40
12.0
 40
13.0
 40
13.0
 40
13.0
 40
14.0
 40
14.0
 40
14.0
 40
15.0
 40
15.0
 40
15.0
 40
15.0
 10
-0.0524515787760417
 20
0.1273824055989583
 30
0.0
 10
-0.0524515787760417
 20
0.1273824055989583
 30
0.0
 10
-0.1525316026475694
 20
0.1144632975260417
 30
0.0
 10
-0.1525316026475694
 20
0.1144632975260417
 30
0.0
 10
-0.1525316026475694
 20
0.1144632975260417
 30
0.0
 10
-0.1525316026475694
 20
0.1971455891927083
 30
0.0
 10
-0.1525316026475694
 20
0.1971455891927083
 30
0.0
 10
-0.1525316026475694
 20
0.1971455891927083
 30
0.0
 10
-0.0536573621961806
 20
0.2098924424913194
 30
0.0
 10
-0.0536573621961806
 20
0.2098924424913194
 30
0.0
 10
-0.0536573621961806
 20
0.2098924424913194
 30
0.0
 10
-0.0536573621961806
 20
0.2679423014322916
 30
0.0
 10
-0.0536573621961806
 20
0.2679423014322916
 30
0.0
 10
-0.0536573621961806
 20
0.3087666829427083
 30
0.0
 10
-0.0536573621961806
 20
0.3656107584635416
 30
0.0
 10
-0.0290249294704861
 20
0.4033345540364583
 30
0.0
 10
0.0030144585503472
 20
0.4531161838107639
 30
0.0
 10
0.0610643174913194
 20
0.4730977376302083
 30
0.0
 10
0.1525316026475694
 20
0.4763705783420139
 30
0.0
 10
0.1525316026475694
 20
0.4763705783420139
 30
0.0
 10
0.1525316026475694
 20
0.3936882866753472
 30
0.0
 10
0.1525316026475694
 20
0.3936882866753472
 30
0.0
 10
0.0734666612413194
 20
0.3907599555121528
 30
0.0
 10
0.0450446234809028
 20
0.3797356499565972
 30
0.0
 10
0.0450446234809028
 20
0.2956753200954861
 30
0.0
 10
0.0450446234809028
 20
0.2956753200954861
 30
0.0
 10
0.0450446234809028
 20
0.2228115505642361
 30
0.0
 10
0.0450446234809028
 20
0.2228115505642361
 30
0.0
 10
0.0450446234809028
 20
0.2228115505642361
 30
0.0
 10
0.1525316026475694
 20
0.2367641872829861
 30
0.0
 10
0.1525316026475694
 20
0.2367641872829861
 30
0.0
 10
0.1525316026475694
 20
0.2367641872829861
 30
0.0
 10
0.1525316026475694
 20
0.1540818956163194
 30
0.0
 10
0.1525316026475694
 20
0.1540818956163194
 30
0.0
 10
0.1525316026475694
 20
0.1540818956163194
 30
0.0
 10
0.0450446234809028
 20
0.1401292588975694
 30
0.0
 10
0.0450446234809028
 20
0.1401292588975694
 30
0.0
 10
0.0450446234809028
 20
0.1401292588975694
 30
0.0
 10
0.0450446234809028
 20
-0.4636237250434027
 30
0.0
 10
0.0450446234809028
 20
-0.4636237250434027
 30
0.0
 10
0.0450446234809028
 20
-0.4636237250434027
 30
0.0
 10
-0.0524515787760417
 20
-0.4763705783420139
 30
0.0
 10
-0.0524515787760417
 20
-0.4763705783420139
 30
0.0
 10
-0.0524515787760417
 20
-0.4763705783420139
 30
0.0
 10
-0.0524515787760417
 20
0.1273824055989583
 30
0.0
 10
-0.0524515787760417
 20
0.1273824055989583
 30
0.0
  0
ENDBLK
  5
C5
330
C1
100
AcDbEntity
  8
0
100
AcDbBlockEnd
  0
BLOCK
  5
C8
330
C6
100
AcDbEntity
  8
0
 62
     7
100
AcDbBlockBegin
  2
AI9-BLK24
 70
     0
 10
0.0
 20
0.0
 30
0.0
  3
AI9-BLK24
  1

  4

  0
SPLINE
  5
CA
330
C6
100
AcDbEntity
  8
H2_5T
 62
     7
100
AcDbSpline
210
0.0
220
0.0
230
1.0
 70
    11
 71
     3
 72
    56
 73
    52
 74
     0
 42
0.0000000001
 43
0.0000000001
 40
0.0
 40
0.0
 40
0.0
 40
0.0
 40
1.0
 40
1.0
 40
1.0
 40
2.0
 40
2.0
 40
2.0
 40
3.0
 40
3.0
 40
3.0
 40
4.0
 40
4.0
 40
4.0
 40
5.0
 40
5.0
 40
5.0
 40
6.0
 40
6.0
 40
6.0
 40
7.0
 40
7.0
 40
7.0
 40
8.0
 40
8.0
 40
8.0
 40
9.0
 40
9.0
 40
9.0
 40
10.0
 40
10.0
 40
10.0
 40
11.0
 40
11.0
 40
11.0
 40
12.0
 40
12.0
 40
12.0
 40
13.0
 40
13.0
 40
13.0
 40
14.0
 40
14.0
 40
14.0
 40
15.0
 40
15.0
 40
15.0
 40
16.0
 40
16.0
 40
16.0
 40
17.0
 40
17.0
 40
17.0
 40
17.0
 10
0.2383144802517361
 20
-0.3078192816840277
 30
0.0
 10
0.2309075249565972
 20
-0.3098863389756944
 30
0.0
 10
0.2235005696614583
 20
-0.3121256510416666
 30
0.0
 10
0.2160936143663194
 20
-0.3155707465277777
 30
0.0
 10
0.1332390679253472
 20
-0.3300401475694444
 30
0.0
 10
0.1024054633246528
 20
-0.3265950520833333
 30
0.0
 10
0.0925869411892361
 20
-0.23409423828125
 30
0.0
 10
0.0925869411892361
 20
-0.23409423828125
 30
0.0
 10
0.0900031195746528
 20
-0.2342664930555555
 30
0.0
 10
0.0900031195746528
 20
-0.2342664930555555
 30
0.0
 10
0.0665764702690972
 20
-0.2980007595486111
 30
0.0
 10
0.0037034776475694
 20
-0.3569118923611111
 30
0.0
 10
-0.0617533365885417
 20
-0.3653523763020833
 30
0.0
 10
-0.1988681369357639
 20
-0.3830946180555555
 30
0.0
 10
-0.2383144802517361
 20
-0.31160888671875
 30
0.0
 10
-0.2383144802517361
 20
-0.1868964301215278
 30
0.0
 10
-0.2383144802517361
 20
-0.1610582139756944
 30
0.0
 10
-0.2346971299913194
 20
-0.0616672092013889
 30
0.0
 10
-0.1396124945746528
 20
-0.0074069552951389
 30
0.0
 10
-0.0839742024739583
 20
0.0244601779513889
 30
0.0
 10
0.0543463812934028
 20
0.0943956163194444
 30
0.0
 10
0.0665764702690972
 20
0.1057644314236111
 30
0.0
 10
0.087591552734375
 20
0.1247124565972222
 30
0.0
 10
0.0851799858940972
 20
0.1514119466145833
 30
0.0
 10
0.0851799858940972
 20
0.1872409396701389
 30
0.0
 10
0.0851799858940972
 20
0.26510009765625
 30
0.0
 10
0.0555521647135417
 20
0.2909383138020833
 30
0.0
 10
-0.0235127766927083
 20
0.28060302734375
 30
0.0
 10
-0.112396240234375
 20
0.2690619574652778
 30
0.0
 10
-0.124798583984375
 20
0.2265150282118055
 30
0.0
 10
-0.1235928005642361
 20
0.1464165581597222
 30
0.0
 10
-0.1235928005642361
 20
0.1464165581597222
 30
0.0
 10
-0.2112704806857639
 20
0.1350477430555555
 30
0.0
 10
-0.2112704806857639
 20
0.1350477430555555
 30
0.0
 10
-0.2160936143663194
 20
0.2766411675347222
 30
0.0
 10
-0.1458136664496528
 20
0.3474378797743055
 30
0.0
 10
-0.0074930826822917
 20
0.3653523763020833
 30
0.0
 10
0.1962843153211805
 20
0.3918796115451388
 30
0.0
 10
0.179058837890625
 20
0.2192803276909722
 30
0.0
 10
0.179058837890625
 20
0.2032606336805555
 30
0.0
 10
0.179058837890625
 20
0.2032606336805555
 30
0.0
 10
0.179058837890625
 20
-0.19068603515625
 30
0.0
 10
0.179058837890625
 20
-0.19068603515625
 30
0.0
 10
0.179058837890625
 20
-0.2079115125868055
 30
0.0
 10
0.1764750162760417
 20
-0.2330607096354166
 30
0.0
 10
0.1962843153211805
 20
-0.24029541015625
 30
0.0
 10
0.2098924424913194
 20
-0.2423624674479167
 30
0.0
 10
0.2247063530815972
 20
-0.2390896267361111
 30
0.0
 10
0.2383144802517361
 20
-0.2361612955729167
 30
0.0
 10
0.2383144802517361
 20
-0.2361612955729167
 30
0.0
 10
0.2383144802517361
 20
-0.3078192816840277
 30
0.0
 10
0.2383144802517361
 20
-0.3078192816840277
 30
0.0
  0
SPLINE
  5
C9
330
C6
100
AcDbEntity
  8
H2_5T
 62
     7
100
AcDbSpline
210
0.0
220
0.0
230
1.0
 70
    11
 71
     3
 72
    20
 73
    16
 74
     0
 42
0.0000000001
 43
0.0000000001
 40
0.0
 40
0.0
 40
0.0
 40
0.0
 40
1.0
 40
1.0
 40
1.0
 40
2.0
 40
2.0
 40
2.0
 40
3.0
 40
3.0
 40
3.0
 40
4.0
 40
4.0
 40
4.0
 40
5.0
 40
5.0
 40
5.0
 40
5.0
 10
0.0777730305989583
 20
0.0416856553819444
 30
0.0
 10
0.0295416937934028
 20
0.0072347005208333
 30
0.0
 10
-0.0247185601128472
 20
-0.0208428276909722
 30
0.0
 10
-0.0765672471788194
 20
-0.0523654513888889
 30
0.0
 10
-0.1222147623697917
 20
-0.0794094509548611
 30
0.0
 10
-0.1370286729600694
 20
-0.13177490234375
 30
0.0
 10
-0.1370286729600694
 20
-0.1788004557291666
 30
0.0
 10
-0.1370286729600694
 20
-0.2478746202256944
 30
0.0
 10
-0.1198031955295139
 20
-0.2900770399305555
 30
0.0
 10
-0.0407382541232639
 20
-0.2797417534722222
 30
0.0
 10
-0.0037034776475694
 20
-0.2749186197916667
 30
0.0
 10
0.0777730305989583
 20
-0.2359890407986111
 30
0.0
 10
0.0777730305989583
 20
-0.1248847113715278
 30
0.0
 10
0.0777730305989583
 20
-0.1248847113715278
 30
0.0
 10
0.0777730305989583
 20
0.0416856553819444
 30
0.0
 10
0.0777730305989583
 20
0.0416856553819444
 30
0.0
  0
ENDBLK
  5
CB
330
C6
100
AcDbEntity
  8
0
100
AcDbBlockEnd
  0
BLOCK
  5
CE
330
CC
100
AcDbEntity
  8
0
 62
     7
100
AcDbBlockBegin
  2
AI9-BLK25
 70
     0
 10
0.0
 20
0.0
 30
0.0
  3
AI9-BLK25
  1

  4

  0
SPLINE
  5
D0
330
CC
100
AcDbEntity
  8
H2_5T
 62
     7
100
AcDbSpline
210
0.0
220
0.0
230
1.0
 70
    11
 71
     3
 72
    50
 73
    46
 74
     0
 42
0.0000000001
 43
0.0000000001
 40
0.0
 40
0.0
 40
0.0
 40
0.0
 40
1.0
 40
1.0
 40
1.0
 40
2.0
 40
2.0
 40
2.0
 40
3.0
 40
3.0
 40
3.0
 40
4.0
 40
4.0
 40
4.0
 40
5.0
 40
5.0
 40
5.0
 40
6.0
 40
6.0
 40
6.0
 40
7.0
 40
7.0
 40
7.0
 40
8.0
 40
8.0
 40
8.0
 40
9.0
 40
9.0
 40
9.0
 40
10.0
 40
10.0
 40
10.0
 40
11.0
 40
11.0
 40
11.0
 40
12.0
 40
12.0
 40
12.0
 40
13.0
 40
13.0
 40
13.0
 40
14.0
 40
14.0
 40
14.0
 40
15.0
 40
15.0
 40
15.0
 40
15.0
 10
-0.1932698567708333
 20
-0.4652601453993055
 30
0.0
 10
-0.1932698567708333
 20
-0.4652601453993055
 30
0.0
 10
-0.2957614474826389
 20
-0.4785237630208333
 30
0.0
 10
-0.2957614474826389
 20
-0.4785237630208333
 30
0.0
 10
-0.2957614474826389
 20
-0.4785237630208333
 30
0.0
 10
-0.2957614474826389
 20
0.4475179036458333
 30
0.0
 10
-0.2957614474826389
 20
0.4475179036458333
 30
0.0
 10
-0.2957614474826389
 20
0.4475179036458333
 30
0.0
 10
-0.05736083984375
 20
0.4785237630208333
 30
0.0
 10
-0.05736083984375
 20
0.4785237630208333
 30
0.0
 10
0.13642578125
 20
0.5036729600694444
 30
0.0
 10
0.2599324544270833
 20
0.4690497504340278
 30
0.0
 10
0.2537312825520833
 20
0.2545925564236111
 30
0.0
 10
0.2501139322916666
 20
0.1455552842881944
 30
0.0
 10
0.1834513346354167
 20
0.0590833875868056
 30
0.0
 10
0.07596435546875
 20
0.0303168402777778
 30
0.0
 10
0.07596435546875
 20
0.0303168402777778
 30
0.0
 10
0.07596435546875
 20
0.0277330186631944
 30
0.0
 10
0.07596435546875
 20
0.0277330186631944
 30
0.0
 10
0.1956814236111111
 20
0.0323838975694444
 30
0.0
 10
0.2253092447916666
 20
-0.0020670572916667
 30
0.0
 10
0.2401231553819444
 20
-0.1236789279513889
 30
0.0
 10
0.2439127604166667
 20
-0.1924085828993055
 30
0.0
 10
0.2501139322916666
 20
-0.2594156901041667
 30
0.0
 10
0.2599324544270833
 20
-0.3272840711805555
 30
0.0
 10
0.2637220594618056
 20
-0.3441650390625
 30
0.0
 10
0.2711290147569444
 20
-0.3837836371527778
 30
0.0
 10
0.2957614474826389
 20
-0.3806830512152777
 30
0.0
 10
0.2957614474826389
 20
-0.3806830512152777
 30
0.0
 10
0.2957614474826389
 20
-0.4016981336805555
 30
0.0
 10
0.2957614474826389
 20
-0.4016981336805555
 30
0.0
 10
0.2957614474826389
 20
-0.4016981336805555
 30
0.0
 10
0.1760443793402778
 20
-0.4172010633680555
 30
0.0
 10
0.1760443793402778
 20
-0.4172010633680555
 30
0.0
 10
0.1538235134548611
 20
-0.3608737521701388
 30
0.0
 10
0.1438327365451389
 20
-0.2471856011284722
 30
0.0
 10
0.1438327365451389
 20
-0.1855183919270833
 30
0.0
 10
0.1438327365451389
 20
-0.0928453233506944
 30
0.0
 10
0.1067979600694444
 20
-0.0187757703993056
 30
0.0
 10
-0.0141248914930556
 20
-0.0346232096354167
 30
0.0
 10
-0.0141248914930556
 20
-0.0346232096354167
 30
0.0
 10
-0.1932698567708333
 20
-0.0578776041666667
 30
0.0
 10
-0.1932698567708333
 20
-0.0578776041666667
 30
0.0
 10
-0.1932698567708333
 20
-0.0578776041666667
 30
0.0
 10
-0.1932698567708333
 20
-0.4652601453993055
 30
0.0
 10
-0.1932698567708333
 20
-0.4652601453993055
 30
0.0
  0
SPLINE
  5
CF
330
CC
100
AcDbEntity
  8
H2_5T
 62
     7
100
AcDbSpline
210
0.0
220
0.0
230
1.0
 70
    11
 71
     3
 72
    20
 73
    16
 74
     0
 42
0.0000000001
 43
0.0000000001
 40
0.0
 40
0.0
 40
0.0
 40
0.0
 40
1.0
 40
1.0
 40
1.0
 40
2.0
 40
2.0
 40
2.0
 40
3.0
 40
3.0
 40
3.0
 40
4.0
 40
4.0
 40
4.0
 40
5.0
 40
5.0
 40
5.0
 40
5.0
 10
-0.1932698567708333
 20
0.0347954644097222
 30
0.0
 10
-0.1932698567708333
 20
0.0347954644097222
 30
0.0
 10
-0.0315226236979167
 20
0.055810546875
 30
0.0
 10
-0.0315226236979167
 20
0.055810546875
 30
0.0
 10
0.0167087131076389
 20
0.0633897569444444
 30
0.0
 10
0.1500339084201389
 20
0.0880221896701389
 30
0.0
 10
0.1476223415798611
 20
0.2494249131944444
 30
0.0
 10
0.1450385199652778
 20
0.4084160698784722
 30
0.0
 10
0.0203260633680556
 20
0.3958414713541666
 30
0.0
 10
-0.0487481011284722
 20
0.3868842230902778
 30
0.0
 10
-0.0487481011284722
 20
0.3868842230902778
 30
0.0
 10
-0.1932698567708333
 20
0.3681084526909722
 30
0.0
 10
-0.1932698567708333
 20
0.3681084526909722
 30
0.0
 10
-0.1932698567708333
 20
0.3681084526909722
 30
0.0
 10
-0.1932698567708333
 20
0.0347954644097222
 30
0.0
 10
-0.1932698567708333
 20
0.0347954644097222
 30
0.0
  0
ENDBLK
  5
D1
330
CC
100
AcDbEntity
  8
0
100
AcDbBlockEnd
  0
BLOCK
  5
D5
330
D3
100
AcDbEntity
  8
0
 62
     7
100
AcDbBlockBegin
  2
AI9-BLK26
 70
     0
 10
0.0
 20
0.0
 30
0.0
  3
AI9-BLK26
  1

  4

  0
INSERT
  5
F7
330
D3
100
AcDbEntity
  8
H2_5T
 62
     7
100
AcDbBlockReference
  2
AI9-BLK32
 10
-1.141532389322917
 20
-0.0812181260850694
 30
0.0
  0
INSERT
  5
ED
330
D3
100
AcDbEntity
  8
H2_5T
 62
     7
100
AcDbBlockReference
  2
AI9-BLK31
 10
-0.684798855251736
 20
0.0130913628472222
 30
0.0
  0
INSERT
  5
E7
330
D3
100
AcDbEntity
  8
H2_5T
 62
     7
100
AcDbBlockReference
  2
AI9-BLK30
 10
-0.2663920084635417
 20
-0.0468532986111111
 30
0.0
  0
INSERT
  5
E2
330
D3
100
AcDbEntity
  8
H2_5T
 62
     7
100
AcDbBlockReference
  2
AI9-BLK29
 10
0.1752692328559028
 20
0.1273824055989583
 30
0.0
  0
INSERT
  5
DC
330
D3
100
AcDbEntity
  8
H2_5T
 62
     7
100
AcDbBlockReference
  2
AI9-BLK28
 10
0.6306247287326389
 20
0.0993910047743055
 30
0.0
  0
INSERT
  5
D7
330
D3
100
AcDbEntity
  8
H2_5T
 62
     7
100
AcDbBlockReference
  2
AI9-BLK27
 10
1.18907470703125
 20
0.183709716796875
 30
0.0
  0
ENDBLK
  5
FC
330
D3
100
AcDbEntity
  8
0
100
AcDbBlockEnd
  0
BLOCK
  5
D8
330
D6
100
AcDbEntity
  8
0
 62
     7
100
AcDbBlockBegin
  2
AI9-BLK27
 70
     0
 10
0.0
 20
0.0
 30
0.0
  3
AI9-BLK27
  1

  4

  0
SPLINE
  5
D9
330
D6
100
AcDbEntity
  8
H2_5T
 62
     7
100
AcDbSpline
210
0.0
220
0.0
230
1.0
 70
    11
 71
     3
 72
    50
 73
    46
 74
     0
 42
0.0000000001
 43
0.0000000001
 40
0.0
 40
0.0
 40
0.0
 40
0.0
 40
1.0
 40
1.0
 40
1.0
 40
2.0
 40
2.0
 40
2.0
 40
3.0
 40
3.0
 40
3.0
 40
4.0
 40
4.0
 40
4.0
 40
5.0
 40
5.0
 40
5.0
 40
6.0
 40
6.0
 40
6.0
 40
7.0
 40
7.0
 40
7.0
 40
8.0
 40
8.0
 40
8.0
 40
9.0
 40
9.0
 40
9.0
 40
10.0
 40
10.0
 40
10.0
 40
11.0
 40
11.0
 40
11.0
 40
12.0
 40
12.0
 40
12.0
 40
13.0
 40
13.0
 40
13.0
 40
14.0
 40
14.0
 40
14.0
 40
15.0
 40
15.0
 40
15.0
 40
15.0
 10
0.1020609537760417
 20
0.1774224175347222
 30
0.0
 10
0.1058505588107639
 20
0.2595879448784722
 30
0.0
 10
0.0758782280815972
 20
0.2931776258680555
 30
0.0
 10
-0.0081821017795139
 20
0.2800862630208333
 30
0.0
 10
-0.0781175401475694
 20
0.2692342122395833
 30
0.0
 10
-0.1180806477864583
 20
0.2308213975694444
 30
0.0
 10
-0.1180806477864583
 20
0.1593356662326389
 30
0.0
 10
-0.1180806477864583
 20
0.0702799479166667
 30
0.0
 10
-0.0443556043836806
 20
0.0706244574652778
 30
0.0
 10
0.0233405219184028
 20
0.0528822157118055
 30
0.0
 10
0.123248291015625
 20
0.0239434136284722
 30
0.0
 10
0.2233283148871528
 20
0.0149861653645833
 30
0.0
 10
0.2233283148871528
 20
-0.1135158962673611
 30
0.0
 10
0.2233283148871528
 20
-0.2444295247395833
 30
0.0
 10
0.1308275010850694
 20
-0.3403754340277778
 30
0.0
 10
-0.0117994520399306
 20
-0.3613905164930555
 30
0.0
 10
-0.0729498969184028
 20
-0.3722425672743056
 30
0.0
 10
-0.148052978515625
 20
-0.3629408094618055
 30
0.0
 10
-0.1843987358940972
 20
-0.3167765299479167
 30
0.0
 10
-0.2257398817274305
 20
-0.2687174479166666
 30
0.0
 10
-0.2233283148871528
 20
-0.2227254231770833
 30
0.0
 10
-0.2233283148871528
 20
-0.1758721245659722
 30
0.0
 10
-0.2233283148871528
 20
-0.1758721245659722
 30
0.0
 10
-0.129449462890625
 20
-0.16123046875
 30
0.0
 10
-0.129449462890625
 20
-0.16123046875
 30
0.0
 10
-0.1330668131510417
 20
-0.2456353081597222
 30
0.0
 10
-0.1044725206163194
 20
-0.29300537109375
 30
0.0
 10
-0.0117994520399306
 20
-0.2785359700520833
 30
0.0
 10
0.0682990180121528
 20
-0.2659613715277778
 30
0.0
 10
0.1208367241753472
 20
-0.2258260091145833
 30
0.0
 10
0.1208367241753472
 20
-0.1417656792534722
 30
0.0
 10
0.1208367241753472
 20
-0.0442694769965278
 30
0.0
 10
0.0207567003038194
 20
-0.0513319227430556
 30
0.0
 10
-0.0505567762586806
 20
-0.0327284071180556
 30
0.0
 10
-0.1582160101996528
 20
-0.0101630316840278
 30
0.0
 10
-0.2207444932725694
 20
0.0160196940104167
 30
0.0
 10
-0.2207444932725694
 20
0.1359090169270833
 30
0.0
 10
-0.2207444932725694
 20
0.2544203016493055
 30
0.0
 10
-0.1368564181857639
 20
0.3427870008680555
 30
0.0
 10
-0.0167948404947917
 20
0.3613905164930555
 30
0.0
 10
0.1208367241753472
 20
0.38292236328125
 30
0.0
 10
0.200762939453125
 20
0.3338297526041666
 30
0.0
 10
0.1983513726128472
 20
0.1925808376736111
 30
0.0
 10
0.1983513726128472
 20
0.1925808376736111
 30
0.0
 10
0.1020609537760417
 20
0.1774224175347222
 30
0.0
 10
0.1020609537760417
 20
0.1774224175347222
 30
0.0
  0
ENDBLK
  5
DA
330
D6
100
AcDbEntity
  8
0
100
AcDbBlockEnd
  0
BLOCK
  5
DD
330
DB
100
AcDbEntity
  8
0
 62
     7
100
AcDbBlockBegin
  2
AI9-BLK28
 70
     0
 10
0.0
 20
0.0
 30
0.0
  3
AI9-BLK28
  1

  4

  0
SPLINE
  5
DF
330
DB
100
AcDbEntity
  8
H2_5T
 62
     7
100
AcDbSpline
210
0.0
220
0.0
230
1.0
 70
    11
 71
     3
 72
    29
 73
    25
 74
     0
 42
0.0000000001
 43
0.0000000001
 40
0.0
 40
0.0
 40
0.0
 40
0.0
 40
1.0
 40
1.0
 40
1.0
 40
2.0
 40
2.0
 40
2.0
 40
3.0
 40
3.0
 40
3.0
 40
4.0
 40
4.0
 40
4.0
 40
5.0
 40
5.0
 40
5.0
 40
6.0
 40
6.0
 40
6.0
 40
7.0
 40
7.0
 40
7.0
 40
8.0
 40
8.0
 40
8.0
 40
8.0
 10
0.2150600857204861
 20
-0.0819071451822917
 30
0.0
 10
0.2214335123697916
 20
-0.2154045952690972
 30
0.0
 10
0.1513258192274306
 20
-0.338739013671875
 30
0.0
 10
0.0049092610677083
 20
-0.3616488986545138
 30
0.0
 10
-0.126348876953125
 20
-0.382147216796875
 30
0.0
 10
-0.2202277289496528
 20
-0.3103169759114583
 30
0.0
 10
-0.2202277289496528
 20
-0.0336758083767361
 30
0.0
 10
-0.2202277289496528
 20
0.110845947265625
 30
0.0
 10
-0.1814704047309028
 20
0.3328823513454861
 30
0.0
 10
0.0024976942274306
 20
0.3616488986545138
 30
0.0
 10
0.2276346842447916
 20
0.3967888726128472
 30
0.0
 10
0.2150600857204861
 20
0.1847432454427083
 30
0.0
 10
0.2202277289496528
 20
0.0252353244357639
 30
0.0
 10
0.2202277289496528
 20
0.0252353244357639
 30
0.0
 10
-0.1175638834635417
 20
-0.0274746365017361
 30
0.0
 10
-0.1175638834635417
 20
-0.0274746365017361
 30
0.0
 10
-0.1151523166232639
 20
-0.1198031955295139
 30
0.0
 10
-0.1313442654079861
 20
-0.3001539442274305
 30
0.0
 10
0.0074930826822917
 20
-0.2784498426649305
 30
0.0
 10
0.1025777180989583
 20
-0.2636359320746528
 30
0.0
 10
0.1289326985677083
 20
-0.1732021755642361
 30
0.0
 10
0.1225592719184028
 20
-0.0963765462239583
 30
0.0
 10
0.1225592719184028
 20
-0.0963765462239583
 30
0.0
 10
0.2150600857204861
 20
-0.0819071451822917
 30
0.0
 10
0.2150600857204861
 20
-0.0819071451822917
 30
0.0
  0
SPLINE
  5
DE
330
DB
100
AcDbEntity
  8
H2_5T
 62
     7
100
AcDbSpline
210
0.0
220
0.0
230
1.0
 70
    11
 71
     3
 72
    14
 73
    10
 74
     0
 42
0.0000000001
 43
0.0000000001
 40
0.0
 40
0.0
 40
0.0
 40
0.0
 40
1.0
 40
1.0
 40
1.0
 40
2.0
 40
2.0
 40
2.0
 40
3.0
 40
3.0
 40
3.0
 40
3.0
 10
0.1175638834635417
 20
0.0893141004774305
 30
0.0
 10
0.1137742784288194
 20
0.1690680609809028
 30
0.0
 10
0.1187696668836805
 20
0.2970533582899305
 30
0.0
 10
0.0037034776475694
 20
0.2791388617621528
 30
0.0
 10
-0.1113627115885417
 20
0.2610521104600694
 30
0.0
 10
-0.113946533203125
 20
0.1347893608940972
 30
0.0
 10
-0.1175638834635417
 20
0.0526238335503472
 30
0.0
 10
-0.1175638834635417
 20
0.0526238335503472
 30
0.0
 10
0.1175638834635417
 20
0.0893141004774305
 30
0.0
 10
0.1175638834635417
 20
0.0893141004774305
 30
0.0
  0
ENDBLK
  5
E0
330
DB
100
AcDbEntity
  8
0
100
AcDbBlockEnd
  0
BLOCK
  5
E3
330
E1
100
AcDbEntity
  8
0
 62
     7
100
AcDbBlockBegin
  2
AI9-BLK29
 70
     0
 10
0.0
 20
0.0
 30
0.0
  3
AI9-BLK29
  1

  4

  0
SPLINE
  5
E4
330
E1
100
AcDbEntity
  8
H2_5T
 62
     7
100
AcDbSpline
210
0.0
220
0.0
230
1.0
 70
    11
 71
     3
 72
    53
 73
    49
 74
     0
 42
0.0000000001
 43
0.0000000001
 40
0.0
 40
0.0
 40
0.0
 40
0.0
 40
1.0
 40
1.0
 40
1.0
 40
2.0
 40
2.0
 40
2.0
 40
3.0
 40
3.0
 40
3.0
 40
4.0
 40
4.0
 40
4.0
 40
5.0
 40
5.0
 40
5.0
 40
6.0
 40
6.0
 40
6.0
 40
7.0
 40
7.0
 40
7.0
 40
8.0
 40
8.0
 40
8.0
 40
9.0
 40
9.0
 40
9.0
 40
10.0
 40
10.0
 40
10.0
 40
11.0
 40
11.0
 40
11.0
 40
12.0
 40
12.0
 40
12.0
 40
13.0
 40
13.0
 40
13.0
 40
14.0
 40
14.0
 40
14.0
 40
15.0
 40
15.0
 40
15.0
 40
16.0
 40
16.0
 40
16.0
 40
16.0
 10
0.03875732421875
 20
0.24959716796875
 30
0.0
 10
0.03875732421875
 20
0.24959716796875
 30
0.0
 10
0.155029296875
 20
0.2676839192708333
 30
0.0
 10
0.155029296875
 20
0.2676839192708333
 30
0.0
 10
0.155029296875
 20
0.2676839192708333
 30
0.0
 10
0.155029296875
 20
0.1850016276041667
 30
0.0
 10
0.155029296875
 20
0.1850016276041667
 30
0.0
 10
0.155029296875
 20
0.1850016276041667
 30
0.0
 10
0.0399631076388889
 20
0.1670871310763889
 30
0.0
 10
0.0399631076388889
 20
0.1670871310763889
 30
0.0
 10
0.0399631076388889
 20
0.1670871310763889
 30
0.0
 10
0.0399631076388889
 20
-0.3009290907118055
 30
0.0
 10
0.0399631076388889
 20
-0.3009290907118055
 30
0.0
 10
0.0399631076388889
 20
-0.3243557400173611
 30
0.0
 10
0.0313503689236111
 20
-0.3553615993923611
 30
0.0
 10
0.0862996419270833
 20
-0.3467488606770833
 30
0.0
 10
0.0862996419270833
 20
-0.3467488606770833
 30
0.0
 10
0.1526177300347222
 20
-0.33641357421875
 30
0.0
 10
0.1526177300347222
 20
-0.33641357421875
 30
0.0
 10
0.1526177300347222
 20
-0.33641357421875
 30
0.0
 10
0.1526177300347222
 20
-0.4190958658854166
 30
0.0
 10
0.1526177300347222
 20
-0.4190958658854166
 30
0.0
 10
0.1526177300347222
 20
-0.4190958658854166
 30
0.0
 10
0.0437527126736111
 20
-0.4361490885416666
 30
0.0
 10
0.0437527126736111
 20
-0.4361490885416666
 30
0.0
 10
-0.0151584201388889
 20
-0.4464843749999999
 30
0.0
 10
-0.0587388780381944
 20
-0.4435560438368055
 30
0.0
 10
-0.0587388780381944
 20
-0.3398586697048611
 30
0.0
 10
-0.0587388780381944
 20
-0.3398586697048611
 30
0.0
 10
-0.0587388780381944
 20
0.1515842013888889
 30
0.0
 10
-0.0587388780381944
 20
0.1515842013888889
 30
0.0
 10
-0.0587388780381944
 20
0.1515842013888889
 30
0.0
 10
-0.155029296875
 20
0.1365980360243055
 30
0.0
 10
-0.155029296875
 20
0.1365980360243055
 30
0.0
 10
-0.155029296875
 20
0.1365980360243055
 30
0.0
 10
-0.155029296875
 20
0.2192803276909722
 30
0.0
 10
-0.155029296875
 20
0.2192803276909722
 30
0.0
 10
-0.155029296875
 20
0.2192803276909722
 30
0.0
 10
-0.0587388780381944
 20
0.2342664930555555
 30
0.0
 10
-0.0587388780381944
 20
0.2342664930555555
 30
0.0
 10
-0.0587388780381944
 20
0.2342664930555555
 30
0.0
 10
-0.0587388780381944
 20
0.4208184136284722
 30
0.0
 10
-0.0587388780381944
 20
0.4208184136284722
 30
0.0
 10
-0.0587388780381944
 20
0.4208184136284722
 30
0.0
 10
0.03875732421875
 20
0.4361490885416666
 30
0.0
 10
0.03875732421875
 20
0.4361490885416666
 30
0.0
 10
0.03875732421875
 20
0.4361490885416666
 30
0.0
 10
0.03875732421875
 20
0.24959716796875
 30
0.0
 10
0.03875732421875
 20
0.24959716796875
 30
0.0
  0
ENDBLK
  5
E5
330
E1
100
AcDbEntity
  8
0
100
AcDbBlockEnd
  0
BLOCK
  5
E8
330
E6
100
AcDbEntity
  8
0
 62
     7
100
AcDbBlockBegin
  2
AI9-BLK30
 70
     0
 10
0.0
 20
0.0
 30
0.0
  3
AI9-BLK30
  1

  4

  0
SPLINE
  5
EA
330
E6
100
AcDbEntity
  8
H2_5T
 62
     7
100
AcDbSpline
210
0.0
220
0.0
230
1.0
 70
    11
 71
     3
 72
    56
 73
    52
 74
     0
 42
0.0000000001
 43
0.0000000001
 40
0.0
 40
0.0
 40
0.0
 40
0.0
 40
1.0
 40
1.0
 40
1.0
 40
2.0
 40
2.0
 40
2.0
 40
3.0
 40
3.0
 40
3.0
 40
4.0
 40
4.0
 40
4.0
 40
5.0
 40
5.0
 40
5.0
 40
6.0
 40
6.0
 40
6.0
 40
7.0
 40
7.0
 40
7.0
 40
8.0
 40
8.0
 40
8.0
 40
9.0
 40
9.0
 40
9.0
 40
10.0
 40
10.0
 40
10.0
 40
11.0
 40
11.0
 40
11.0
 40
12.0
 40
12.0
 40
12.0
 40
13.0
 40
13.0
 40
13.0
 40
14.0
 40
14.0
 40
14.0
 40
15.0
 40
15.0
 40
15.0
 40
16.0
 40
16.0
 40
16.0
 40
17.0
 40
17.0
 40
17.0
 40
17.0
 10
0.2415011935763889
 20
-0.299981689453125
 30
0.0
 10
0.23409423828125
 20
-0.3023932562934028
 30
0.0
 10
0.2265150282118055
 20
-0.3048048231336805
 30
0.0
 10
0.2189358181423611
 20
-0.3084221733940972
 30
0.0
 10
0.1350477430555555
 20
-0.3253031412760417
 30
0.0
 10
0.10386962890625
 20
-0.3227193196614583
 30
0.0
 10
0.0938788519965278
 20
-0.2303907606336805
 30
0.0
 10
0.0938788519965278
 20
-0.2303907606336805
 30
0.0
 10
0.0912950303819444
 20
-0.2307352701822917
 30
0.0
 10
0.0912950303819444
 20
-0.2307352701822917
 30
0.0
 10
0.0675238715277778
 20
-0.2951585557725694
 30
0.0
 10
0.0037896050347222
 20
-0.355792236328125
 30
0.0
 10
-0.0625284830729167
 20
-0.3661275227864583
 30
0.0
 10
-0.2013658311631944
 20
-0.3878316243489583
 30
0.0
 10
-0.2415011935763889
 20
-0.3173794216579861
 30
0.0
 10
-0.2415011935763889
 20
-0.1926669650607639
 30
0.0
 10
-0.2415011935763889
 20
-0.1668287489149306
 30
0.0
 10
-0.2377115885416667
 20
-0.067437744140625
 30
0.0
 10
-0.1414211697048611
 20
-0.0102491590711806
 30
0.0
 10
-0.0850938585069444
 20
0.0231682671440972
 30
0.0
 10
0.0551215277777778
 20
0.096893310546875
 30
0.0
 10
0.0675238715277778
 20
0.1086066351996528
 30
0.0
 10
0.0888834635416667
 20
0.1282436794704861
 30
0.0
 10
0.0862996419270833
 20
0.1547709147135417
 30
0.0
 10
0.0862996419270833
 20
0.1905999077690972
 30
0.0
 10
0.0862996419270833
 20
0.2684590657552083
 30
0.0
 10
0.0563273111979167
 20
0.2934360080295139
 30
0.0
 10
-0.0237711588541667
 20
0.2808614095052083
 30
0.0
 10
-0.1138604058159722
 20
0.2669087727864583
 30
0.0
 10
-0.1264350043402778
 20
0.224017333984375
 30
0.0
 10
-0.1252292209201389
 20
0.1440911187065972
 30
0.0
 10
-0.1252292209201389
 20
0.1440911187065972
 30
0.0
 10
-0.2139404296875
 20
0.1301384819878472
 30
0.0
 10
-0.2139404296875
 20
0.1301384819878472
 30
0.0
 10
-0.2189358181423611
 20
0.2715596516927083
 30
0.0
 10
-0.1476223415798611
 20
0.3442511664496528
 30
0.0
 10
-0.0075792100694444
 20
0.3661275227864583
 30
0.0
 10
0.1989542643229167
 20
0.3983391655815972
 30
0.0
 10
0.1815565321180555
 20
0.2253953721788194
 30
0.0
 10
0.1815565321180555
 20
0.2093756781684028
 30
0.0
 10
0.1815565321180555
 20
0.2093756781684028
 30
0.0
 10
0.1815565321180555
 20
-0.1845709906684028
 30
0.0
 10
0.1815565321180555
 20
-0.1845709906684028
 30
0.0
 10
0.1815565321180555
 20
-0.2017964680989583
 30
0.0
 10
0.1788004557291666
 20
-0.227117919921875
 30
0.0
 10
0.1989542643229167
 20
-0.2338358561197917
 30
0.0
 10
0.2127346462673611
 20
-0.2353861490885416
 30
0.0
 10
0.2277208116319444
 20
-0.231768798828125
 30
0.0
 10
0.2415011935763889
 20
-0.2283237033420139
 30
0.0
 10
0.2415011935763889
 20
-0.2283237033420139
 30
0.0
 10
0.2415011935763889
 20
-0.299981689453125
 30
0.0
 10
0.2415011935763889
 20
-0.299981689453125
 30
0.0
  0
SPLINE
  5
E9
330
E6
100
AcDbEntity
  8
H2_5T
 62
     7
100
AcDbSpline
210
0.0
220
0.0
230
1.0
 70
    11
 71
     3
 72
    20
 73
    16
 74
     0
 42
0.0000000001
 43
0.0000000001
 40
0.0
 40
0.0
 40
0.0
 40
0.0
 40
1.0
 40
1.0
 40
1.0
 40
2.0
 40
2.0
 40
2.0
 40
3.0
 40
3.0
 40
3.0
 40
4.0
 40
4.0
 40
4.0
 40
5.0
 40
5.0
 40
5.0
 40
5.0
 10
0.0788926866319444
 20
0.0450446234809028
 30
0.0
 10
0.0299723307291667
 20
0.0090433756510417
 30
0.0
 10
-0.0249769422743056
 20
-0.0205844455295139
 30
0.0
 10
-0.0775146484375
 20
-0.053485107421875
 30
0.0
 10
-0.1238511827256944
 20
-0.0817348904079861
 30
0.0
 10
-0.1388373480902778
 20
-0.1346171061197917
 30
0.0
 10
-0.1388373480902778
 20
-0.1816426595052083
 30
0.0
 10
-0.1388373480902778
 20
-0.2507168240017361
 30
0.0
 10
-0.1212673611111111
 20
-0.2924024793836805
 30
0.0
 10
-0.0411688910590278
 20
-0.279827880859375
 30
0.0
 10
-0.0037896050347222
 20
-0.2739712185329861
 30
0.0
 10
0.0788926866319444
 20
-0.2328023274739583
 30
0.0
 10
0.0788926866319444
 20
-0.1215257432725694
 30
0.0
 10
0.0788926866319444
 20
-0.1215257432725694
 30
0.0
 10
0.0788926866319444
 20
0.0450446234809028
 30
0.0
 10
0.0788926866319444
 20
0.0450446234809028
 30
0.0
  0
ENDBLK
  5
EB
330
E6
100
AcDbEntity
  8
0
100
AcDbBlockEnd
  0
BLOCK
  5
EE
330
EC
100
AcDbEntity
  8
0
 62
     7
100
AcDbBlockBegin
  2
AI9-BLK31
 70
     0
 10
0.0
 20
0.0
 30
0.0
  3
AI9-BLK31
  1

  4

  0
LWPOLYLINE
  5
EF
330
EC
100
AcDbEntity
  8
H2_5T
 62
     7
100
AcDbPolyline
 90
        4
 70
     1
 43
0.0
 10
-0.0494371202256944
 20
-0.4706861707899305
 10
-0.0494371202256944
 20
0.4553554958767361
 10
0.0494371202256944
 20
0.4706861707899305
 10
0.0494371202256944
 20
-0.4553554958767361
  0
ENDBLK
  5
F5
330
EC
100
AcDbEntity
  8
0
100
AcDbBlockEnd
  0
BLOCK
  5
F8
330
F6
100
AcDbEntity
  8
0
 62
     7
100
AcDbBlockBegin
  2
AI9-BLK32
 70
     0
 10
0.0
 20
0.0
 30
0.0
  3
AI9-BLK32
  1

  4

  0
SPLINE
  5
FA
330
F6
100
AcDbEntity
  8
H2_5T
 62
     7
100
AcDbSpline
210
0.0
220
0.0
230
1.0
 70
    11
 71
     3
 72
    32
 73
    28
 74
     0
 42
0.0000000001
 43
0.0000000001
 40
0.0
 40
0.0
 40
0.0
 40
0.0
 40
1.0
 40
1.0
 40
1.0
 40
2.0
 40
2.0
 40
2.0
 40
3.0
 40
3.0
 40
3.0
 40
4.0
 40
4.0
 40
4.0
 40
5.0
 40
5.0
 40
5.0
 40
6.0
 40
6.0
 40
6.0
 40
7.0
 40
7.0
 40
7.0
 40
8.0
 40
8.0
 40
8.0
 40
9.0
 40
9.0
 40
9.0
 40
9.0
 10
-0.2708706325954861
 20
-0.4823133680555555
 30
0.0
 10
-0.2708706325954861
 20
-0.4823133680555555
 30
0.0
 10
-0.2708706325954861
 20
0.4437282986111111
 30
0.0
 10
-0.2708706325954861
 20
0.4437282986111111
 30
0.0
 10
-0.2708706325954861
 20
0.4437282986111111
 30
0.0
 10
-0.0242017957899306
 20
0.4823133680555555
 30
0.0
 10
-0.0242017957899306
 20
0.4823133680555555
 30
0.0
 10
0.0481452094184028
 20
0.4935099283854166
 30
0.0
 10
0.1396124945746528
 20
0.4991943359375
 30
0.0
 10
0.194561767578125
 20
0.4559583875868055
 30
0.0
 10
0.2508890787760417
 20
0.4128946940104166
 30
0.0
 10
0.2708706325954861
 20
0.3443372938368055
 30
0.0
 10
0.2708706325954861
 20
0.2702677408854167
 30
0.0
 10
0.2708706325954861
 20
0.1677761501736111
 30
0.0
 10
0.2396925184461805
 20
0.0628729926215278
 30
0.0
 10
0.1382344563802083
 20
0.0013780381944444
 30
0.0
 10
0.0732944064670139
 20
-0.0360012478298611
 30
0.0
 10
-0.0331590440538194
 20
-0.0525377061631944
 30
0.0
 10
-0.1043002658420139
 20
-0.0637342664930556
 30
0.0
 10
-0.1043002658420139
 20
-0.0637342664930556
 30
0.0
 10
-0.1670010036892361
 20
-0.0735527886284722
 30
0.0
 10
-0.1670010036892361
 20
-0.0735527886284722
 30
0.0
 10
-0.1670010036892361
 20
-0.0735527886284722
 30
0.0
 10
-0.1670010036892361
 20
-0.4661214192708333
 30
0.0
 10
-0.1670010036892361
 20
-0.4661214192708333
 30
0.0
 10
-0.1670010036892361
 20
-0.4661214192708333
 30
0.0
 10
-0.2708706325954861
 20
-0.4823133680555555
 30
0.0
 10
-0.2708706325954861
 20
-0.4823133680555555
 30
0.0
  0
SPLINE
  5
F9
330
F6
100
AcDbEntity
  8
H2_5T
 62
     7
100
AcDbSpline
210
0.0
220
0.0
230
1.0
 70
    11
 71
     3
 72
    20
 73
    16
 74
     0
 42
0.0000000001
 43
0.0000000001
 40
0.0
 40
0.0
 40
0.0
 40
0.0
 40
1.0
 40
1.0
 40
1.0
 40
2.0
 40
2.0
 40
2.0
 40
3.0
 40
3.0
 40
3.0
 40
4.0
 40
4.0
 40
4.0
 40
5.0
 40
5.0
 40
5.0
 40
5.0
 10
-0.1670010036892361
 20
0.0191202799479167
 30
0.0
 10
-0.1670010036892361
 20
0.0191202799479167
 30
0.0
 10
-0.0657151963975694
 20
0.0349677191840278
 30
0.0
 10
-0.0657151963975694
 20
0.0349677191840278
 30
0.0
 10
0.0769117567274305
 20
0.0583943684895833
 30
0.0
 10
0.1645894368489583
 20
0.0919840494791667
 30
0.0
 10
0.1633836534288194
 20
0.2511474609375
 30
0.0
 10
0.1633836534288194
 20
0.4004923502604166
 30
0.0
 10
0.0670932345920139
 20
0.4063490125868055
 30
0.0
 10
-0.0593417697482639
 20
0.3841281467013888
 30
0.0
 10
-0.0593417697482639
 20
0.3841281467013888
 30
0.0
 10
-0.1670010036892361
 20
0.3672471788194444
 30
0.0
 10
-0.1670010036892361
 20
0.3672471788194444
 30
0.0
 10
-0.1670010036892361
 20
0.3672471788194444
 30
0.0
 10
-0.1670010036892361
 20
0.0191202799479167
 30
0.0
 10
-0.1670010036892361
 20
0.0191202799479167
 30
0.0
  0
ENDBLK
  5
FB
330
F6
100
AcDbEntity
  8
0
100
AcDbBlockEnd
  0
ENDSEC
  0
SECTION
  2
ENTITIES
  0
LWPOLYLINE
  5
225
330
A
100
AcDbEntity
  8
WOOD
 62
     7
100
AcDbPolyline
 90
       30
 70
     1
 43
0.0
 10
147.4611111111111
 20
154.8694444444444
 10
145.6972222222222
 20
154.8694444444444
 10
145.6972222222222
 20
155.9277777777778
 10
141.4638888888889
 20
155.7710259331597
 10
141.4638888888889
 20
164.9236111111111
 10
98.77777777777777
 20
196.3208333333333
 10
89.95833333333333
 20
195.7916666666667
 10
83.36958821614583
 20
182.5401068793403
 10
81.42224799262152
 20
182.6529337565104
 10
83.19940049913194
 20
177.7522854275173
 10
80.96852891710068
 20
177.7102552625868
 10
74.25972222222221
 20
164.2180555555555
 10
87.36831054687499
 20
150.7060465494791
 10
66.85138888888888
 20
147.8138888888889
 10
66.85138888888888
 20
138.9944444444444
 10
61.55972222222222
 20
138.1125
 10
61.55972222222222
 20
129.8222222222222
 10
66.54563666449653
 20
127.1732883029514
 10
67.20416666666667
 20
127.1998155381944
 10
67.17798394097221
 20
125.4193901909722
 10
70.32886827256944
 20
125.1317247178819
 10
76.72916666666666
 20
121.7083333333333
 10
109.049329969618
 20
128.358056640625
 10
131.2333333333333
 20
105.3041666666667
 10
141.4638888888889
 20
107.95
 10
141.4638888888889
 20
135.0270724826389
 10
150.4597222222222
 20
136.8777777777778
 10
150.4597222222222
 20
144.5941026475694
 10
153.2819444444444
 20
145.1680555555556
 10
153.2819444444444
 20
153.1055555555556
  0
LWPOLYLINE
  5
205
330
A
100
AcDbEntity
  8
WOOD
 62
     7
100
AcDbPolyline
 90
       30
 70
     1
 43
0.0
 10
147.4611111111111
 20
154.8694444444444
 10
145.6972222222222
 20
154.8694444444444
 10
145.6972222222222
 20
155.9277777777778
 10
141.4638888888889
 20
155.7710259331597
 10
141.4638888888889
 20
164.9236111111111
 10
98.77777777777777
 20
196.3208333333333
 10
89.95833333333333
 20
195.7916666666667
 10
83.36958821614583
 20
182.5401068793403
 10
81.42224799262152
 20
182.6529337565104
 10
83.19940049913194
 20
177.7522854275173
 10
80.96852891710068
 20
177.7102552625868
 10
74.25972222222221
 20
164.2180555555555
 10
87.36831054687499
 20
150.7060465494791
 10
66.85138888888888
 20
147.8138888888889
 10
66.85138888888888
 20
138.9944444444444
 10
61.55972222222222
 20
138.1125
 10
61.55972222222222
 20
129.8222222222222
 10
66.54563666449653
 20
127.1732883029514
 10
67.20416666666667
 20
127.1998155381944
 10
67.17798394097221
 20
125.4193901909722
 10
70.32886827256944
 20
125.1317247178819
 10
76.72916666666666
 20
121.7083333333333
 10
109.049329969618
 20
128.358056640625
 10
131.2333333333333
 20
105.3041666666667
 10
141.4638888888889
 20
107.95
 10
141.4638888888889
 20
135.0270724826389
 10
150.4597222222222
 20
136.8777777777778
 10
150.4597222222222
 20
144.5941026475694
 10
153.2819444444444
 20
145.1680555555556
 10
153.2819444444444
 20
153.1055555555556
  0
LINE
  5
204
330
A
100
AcDbEntity
  8
WOOD
 62
     7
100
AcDbLine
 10
147.4611111111111
 20
154.8694444444444
 30
0.0
 11
144.1066216362847
 21
154.8110500759549
 31
0.0
  0
LWPOLYLINE
  5
1FF
330
A
100
AcDbEntity
  8
WOOD
 62
     7
100
AcDbPolyline
 90
        3
 70
     0
 43
0.0
 10
67.17798394097221
 20
125.4534966362847
 10
67.20416666666667
 20
133.6703938802083
 10
69.19784342447916
 20
135.3137044270833
  0
LINE
  5
1FE
330
A
100
AcDbEntity
  8
WOOD
 62
     7
100
AcDbLine
 10
102.39375
 20
135.3784722222222
 30
0.0
 11
109.0965277777778
 21
128.3229166666667
 31
0.0
  0
LINE
  5
1FD
330
A
100
AcDbEntity
  8
WOOD
 62
     7
100
AcDbLine
 10
141.4638888888889
 20
131.0569444444444
 30
0.0
 11
141.4638888888889
 21
164.9236111111111
 31
0.0
  0
LWPOLYLINE
  5
1F8
330
A
100
AcDbEntity
  8
WOOD
 62
     7
100
AcDbPolyline
 90
        3
 70
     0
 43
0.0
 10
89.95833333333333
 20
195.7916666666667
 10
131.2333333333333
 20
163.6888888888889
 10
141.4638888888889
 20
164.9236111111111
  0
LINE
  5
1F7
330
A
100
AcDbEntity
  8
WOOD
 62
     7
100
AcDbLine
 10
131.2333333333333
 20
163.6888888888889
 30
0.0
 11
131.2333333333333
 21
105.1277777777778
 31
0.0
  0
LWPOLYLINE
  5
1F1
330
A
100
AcDbEntity
  8
WOOD
 62
     7
100
AcDbPolyline
 90
        4
 70
     0
 43
0.0
 10
132.9972222222222
 20
164.0416666666667
 10
131.5861111111111
 20
144.6388888888889
 10
135.1138888888889
 20
116.2402777777778
 10
134.2319444444444
 20
106.1861111111111
  0
LWPOLYLINE
  5
1EC
330
A
100
AcDbEntity
  8
WOOD
 62
     7
100
AcDbPolyline
 90
        3
 70
     0
 43
0.0
 10
131.2333333333333
 20
140.2291666666667
 10
133.7027777777778
 20
117.6513888888889
 10
131.9388888888889
 20
105.4805555555555
  0
LWPOLYLINE
  5
1E7
330
A
100
AcDbEntity
  8
WOOD
 62
     7
100
AcDbPolyline
 90
        3
 70
     0
 43
0.0
 10
131.2333333333333
 20
130.5277777777778
 10
132.2916666666667
 20
120.2972222222222
 10
131.0569444444444
 20
112.8888888888889
  0
LWPOLYLINE
  5
1E1
330
A
100
AcDbEntity
  8
WOOD
 62
     7
100
AcDbPolyline
 90
        4
 70
     0
 43
0.0
 10
135.1138888888889
 20
164.2180555555555
 10
132.9972222222222
 20
143.9333333333333
 10
136.8777777777778
 20
110.9486111111111
 10
136.3486111111111
 20
106.7152777777778
  0
LWPOLYLINE
  5
1DB
330
A
100
AcDbEntity
  8
WOOD
 62
     7
100
AcDbPolyline
 90
        4
 70
     0
 43
0.0
 10
136.7013888888889
 20
164.2180555555555
 10
134.2319444444444
 20
143.0513888888889
 10
138.4652777777778
 20
109.1847222222222
 10
138.1125
 20
107.2444444444444
  0
LWPOLYLINE
  5
1D5
330
A
100
AcDbEntity
  8
WOOD
 62
     7
100
AcDbPolyline
 90
        4
 70
     0
 43
0.0
 10
138.2888888888889
 20
164.5708333333333
 10
135.4666666666666
 20
141.2875
 10
139.8763888888889
 20
108.8319444444444
 10
139.7
 20
107.5972222222222
  0
LWPOLYLINE
  5
1D0
330
A
100
AcDbEntity
  8
WOOD
 62
     7
100
AcDbPolyline
 90
        3
 70
     0
 43
0.0
 10
140.0527777777778
 20
164.7472222222222
 10
136.8777777777778
 20
139.5236111111111
 10
140.9347222222222
 20
107.95
  0
LWPOLYLINE
  5
1CB
330
A
100
AcDbEntity
  8
WOOD
 62
     7
100
AcDbPolyline
 90
        3
 70
     0
 43
0.0
 10
141.3464111328125
 20
160.6313666449653
 10
138.4652777777778
 20
135.2902777777778
 10
141.2875
 20
113.4180555555555
  0
LWPOLYLINE
  5
1C6
330
A
100
AcDbEntity
  8
WOOD
 62
     7
100
AcDbPolyline
 90
        3
 70
     0
 43
0.0
 10
141.4638888888889
 20
147.4611111111111
 10
139.5236111111111
 20
131.5861111111111
 10
141.4638888888889
 20
119.2388888888889
  0
LWPOLYLINE
  5
1C1
330
A
100
AcDbEntity
  8
WOOD
 62
     7
100
AcDbPolyline
 90
        3
 70
     0
 43
0.0
 10
141.4638888888889
 20
136.525
 10
140.5819444444445
 20
129.9986111111111
 10
141.4638888888889
 20
124.8833333333333
  0
LINE
  5
1C0
330
A
100
AcDbEntity
  8
WOOD
 62
     7
100
AcDbLine
 10
141.4060112847222
 20
151.0422878689236
 30
0.0
 11
153.1055555555556
 21
152.9291666666667
 31
0.0
  0
LWPOLYLINE
  5
1B7
330
A
100
AcDbEntity
  8
WOOD
 62
     7
100
AcDbPolyline
 90
        7
 70
     0
 43
0.0
 10
66.85138888888888
 20
147.8138888888889
 10
72.19955512152777
 20
145.5750935872396
 10
75.87667778862847
 20
145.5502888997396
 10
73.26012776692707
 20
143.5218166775173
 10
76.7737806532118
 20
143.660309516059
 10
82.02083333333333
 20
141.4638888888889
 10
94.18692091863262
 20
143.4262473133786
  0
LWPOLYLINE
  5
1AF
330
A
100
AcDbEntity
  8
WOOD
 62
     7
100
AcDbPolyline
 90
        6
 70
     0
 43
0.0
 10
66.85138888888888
 20
138.9944444444444
 10
72.20541178385416
 20
136.4109673394097
 10
73.10475396050346
 20
136.4075222439236
 10
73.08373887803819
 20
134.4672444661458
 10
76.70677354600694
 20
134.2395236545139
 10
81.96209445529513
 20
131.7035888671875
  0
LWPOLYLINE
  5
1AA
330
A
100
AcDbEntity
  8
WOOD
 62
     7
100
AcDbPolyline
 90
        3
 70
     0
 43
0.0
 10
73.08373887803819
 20
134.4672444661458
 10
73.10475396050346
 20
143.5218166775173
 10
75.61209445529514
 20
145.4620944552951
  0
LINE
  5
1A9
330
A
100
AcDbEntity
  8
WOOD
 62
     7
100
AcDbLine
 10
141.5248670789931
 20
142.9196139865451
 30
0.0
 11
153.2819444444444
 21
145.1680555555556
 31
0.0
  0
LWPOLYLINE
  5
1A0
330
A
100
AcDbEntity
  8
WOOD
 62
     7
100
AcDbPolyline
 90
        7
 70
     0
 43
0.0
 10
61.55972222222222
 20
138.1125
 10
66.56889105902778
 20
135.6082600911458
 10
69.5060072157118
 20
135.3822618272569
 10
67.38055555555555
 20
133.7027777777778
 10
70.38209499782985
 20
133.7017442491319
 10
76.72916666666666
 20
130.5277777777778
 10
93.50833197699652
 20
133.736922544377
  0
LWPOLYLINE
  5
19B
330
A
100
AcDbEntity
  8
WOOD
 62
     7
100
AcDbPolyline
 90
        3
 70
     0
 43
0.0
 10
102.39375
 20
135.3784722222222
 10
102.39375
 20
144.8152777777778
 10
102.2853008694034
 20
144.8577955859144
  0
LINE
  5
19A
330
A
100
AcDbEntity
  8
WOOD
 62
     7
100
AcDbLine
 10
82.02083333333333
 20
141.4638888888889
 30
0.0
 11
82.02083333333333
 21
131.5861111111111
 31
0.0
  0
LINE
  5
199
330
A
100
AcDbEntity
  8
WOOD
 62
     7
100
AcDbLine
 10
76.72916666666666
 20
130.5277777777778
 30
0.0
 11
76.72916666666666
 21
121.7083333333333
 31
0.0
  0
LINE
  5
198
330
A
100
AcDbEntity
  8
WOOD
 62
     7
100
AcDbLine
 10
70.38209499782985
 20
133.7017442491319
 30
0.0
 11
70.38209499782985
 21
125.1317247178819
 31
0.0
  0
LINE
  5
197
330
A
100
AcDbEntity
  8
WOOD
 62
     7
100
AcDbLine
 10
66.56889105902778
 20
135.6082600911458
 30
0.0
 11
66.56889105902778
 21
127.1312581380208
 31
0.0
  0
LINE
  5
196
330
A
100
AcDbEntity
  8
WOOD
 62
     7
100
AcDbLine
 10
72.19955512152777
 20
145.5750935872396
 30
0.0
 11
72.19955512152777
 21
136.4109673394097
 31
0.0
  0
LINE
  5
195
330
A
100
AcDbEntity
  8
WOOD
 62
     7
100
AcDbLine
 10
76.7737806532118
 20
143.660309516059
 30
0.0
 11
76.7737806532118
 21
134.2395236545139
 31
0.0
  0
LWPOLYLINE
  5
190
330
A
100
AcDbEntity
  8
WOOD
 62
     7
100
AcDbPolyline
 90
        3
 70
     0
 43
0.0
 10
66.85138888888888
 20
146.6379055447048
 10
72.14305555555555
 20
145.1680555555556
 10
75.14166666666667
 20
144.9916666666667
  0
LWPOLYLINE
  5
18B
330
A
100
AcDbEntity
  8
WOOD
 62
     7
100
AcDbPolyline
 90
        3
 70
     0
 43
0.0
 10
66.96903889973957
 20
145.4031833224826
 10
72.14305555555555
 20
143.9920722113715
 10
74.14224446614583
 20
144.2861111111111
  0
LWPOLYLINE
  5
186
330
A
100
AcDbEntity
  8
WOOD
 62
     7
100
AcDbPolyline
 90
        3
 70
     0
 43
0.0
 10
66.96903889973957
 20
143.9920722113715
 10
72.20196668836805
 20
142.5222222222222
 10
73.08391113281249
 20
142.5809611002604
  0
LWPOLYLINE
  5
181
330
A
100
AcDbEntity
  8
WOOD
 62
     7
100
AcDbPolyline
 90
        3
 70
     0
 43
0.0
 10
66.91030002170139
 20
142.875
 10
72.14305555555555
 20
141.1698499891493
 10
73.08391113281249
 20
141.3462388780382
  0
LWPOLYLINE
  5
17C
330
A
100
AcDbEntity
  8
WOOD
 62
     7
100
AcDbPolyline
 90
        3
 70
     0
 43
0.0
 10
66.91030002170139
 20
141.3462388780382
 10
72.20196668836805
 20
139.6410888671875
 10
73.08391113281249
 20
139.7
  0
LWPOLYLINE
  5
177
330
A
100
AcDbEntity
  8
WOOD
 62
     7
100
AcDbPolyline
 90
        3
 70
     0
 43
0.0
 10
66.96903889973957
 20
140.111516655816
 10
72.14305555555555
 20
138.4652777777778
 10
73.08391113281249
 20
138.4652777777778
  0
LWPOLYLINE
  5
172
330
A
100
AcDbEntity
  8
WOOD
 62
     7
100
AcDbPolyline
 90
        3
 70
     0
 43
0.0
 10
67.61585557725694
 20
138.7002332899305
 10
72.20196668836805
 20
137.3480333116319
 10
73.08391113281249
 20
137.4655110677083
  0
LWPOLYLINE
  5
16D
330
A
100
AcDbEntity
  8
WOOD
 62
     7
100
AcDbPolyline
 90
        3
 70
     0
 43
0.0
 10
73.14265001085069
 20
142.8160888671875
 10
76.67042778862846
 20
142.9924777560764
 10
78.90474446614583
 20
142.7573499891493
  0
LWPOLYLINE
  5
168
330
A
100
AcDbEntity
  8
WOOD
 62
     7
100
AcDbPolyline
 90
        3
 70
     0
 43
0.0
 10
73.14265001085069
 20
141.6402777777778
 10
76.72916666666666
 20
141.5813666449653
 10
82.02083333333333
 20
140.6994222005208
  0
LWPOLYLINE
  5
163
330
A
100
AcDbEntity
  8
WOOD
 62
     7
100
AcDbPolyline
 90
        3
 70
     0
 43
0.0
 10
73.20138888888889
 20
140.3466444227431
 10
76.72916666666666
 20
140.3466444227431
 10
82.02083333333333
 20
139.2883110894097
  0
LWPOLYLINE
  5
15E
330
A
100
AcDbEntity
  8
WOOD
 62
     7
100
AcDbPolyline
 90
        3
 70
     0
 43
0.0
 10
73.08391113281249
 20
139.2293999565972
 10
76.78807779947915
 20
139.2883110894097
 10
82.02083333333333
 20
138.1710666232639
  0
LWPOLYLINE
  5
159
330
A
100
AcDbEntity
  8
WOOD
 62
     7
100
AcDbPolyline
 90
        3
 70
     0
 43
0.0
 10
73.08391113281249
 20
137.7008110894097
 10
76.72916666666666
 20
137.994677734375
 10
81.96209445529513
 20
136.8188666449653
  0
LWPOLYLINE
  5
154
330
A
100
AcDbEntity
  8
WOOD
 62
     7
100
AcDbPolyline
 90
        3
 70
     0
 43
0.0
 10
73.14265001085069
 20
136.5835666232639
 10
76.72916666666666
 20
136.6424777560764
 10
82.02083333333333
 20
135.6430555555556
  0
LWPOLYLINE
  5
14F
330
A
100
AcDbEntity
  8
WOOD
 62
     7
100
AcDbPolyline
 90
        3
 70
     0
 43
0.0
 10
73.14265001085069
 20
135.4077555338542
 10
76.78807779947915
 20
135.4666666666666
 10
82.02083333333333
 20
134.3494222005208
  0
LWPOLYLINE
  5
14A
330
A
100
AcDbEntity
  8
WOOD
 62
     7
100
AcDbPolyline
 90
        3
 70
     0
 43
0.0
 10
74.31863335503472
 20
134.4083333333333
 10
76.78807779947915
 20
134.5847222222222
 10
81.96209445529513
 20
132.7619222005208
  0
LWPOLYLINE
  5
145
330
A
100
AcDbEntity
  8
WOOD
 62
     7
100
AcDbPolyline
 90
        3
 70
     0
 43
0.0
 10
61.50098334418402
 20
137.8182888454861
 10
66.5575222439236
 20
134.7611111111111
 10
68.3214111328125
 20
134.6432888454861
  0
SPLINE
  5
144
330
A
100
AcDbEntity
  8
WOOD
 62
     7
100
AcDbSpline
210
0.0
220
0.0
230
1.0
 70
     8
 71
     3
 72
    11
 73
     7
 74
     0
 42
0.0000000001
 43
0.0000000001
 40
0.0
 40
0.0
 40
0.0
 40
0.0
 40
1.0
 40
1.0
 40
1.0
 40
2.0
 40
2.0
 40
2.0
 40
2.0
 10
61.61863335503472
 20
136.7013888888889
 30
0.0
 10
61.61863335503472
 20
136.525
 30
0.0
 10
66.6162611219618
 20
133.1736111111111
 30
0.0
 10
66.6162611219618
 20
133.1736111111111
 30
0.0
 10
66.6162611219618
 20
133.1736111111111
 30
0.0
 10
67.20416666666667
 20
133.1736111111111
 30
0.0
 10
67.20416666666667
 20
133.1736111111111
 30
0.0
  0
LWPOLYLINE
  5
13F
330
A
100
AcDbEntity
  8
WOOD
 62
     7
100
AcDbPolyline
 90
        3
 70
     0
 43
0.0
 10
61.50098334418402
 20
135.2902777777778
 10
66.5575222439236
 20
131.8799777560764
 10
67.14542778862847
 20
131.9974555121528
  0
LWPOLYLINE
  5
13A
330
A
100
AcDbEntity
  8
WOOD
 62
     7
100
AcDbPolyline
 90
        3
 70
     0
 43
0.0
 10
61.61863335503472
 20
133.7613444010417
 10
66.6162611219618
 20
130.2335666232639
 10
67.26307779947916
 20
130.175
  0
LWPOLYLINE
  5
135
330
A
100
AcDbEntity
  8
WOOD
 62
     7
100
AcDbPolyline
 90
        3
 70
     0
 43
0.0
 10
61.67737223307291
 20
132.3502332899305
 10
66.4986111111111
 20
128.5875
 10
67.20416666666667
 20
128.5875
  0
LINE
  5
134
330
A
100
AcDbEntity
  8
WOOD
 62
     7
100
AcDbLine
 10
61.50098334418402
 20
130.8805555555555
 30
0.0
 11
66.02835557725693
 21
127.5291666666667
 31
0.0
  0
LWPOLYLINE
  5
12F
330
A
100
AcDbEntity
  8
WOOD
 62
     7
100
AcDbPolyline
 90
        3
 70
     0
 43
0.0
 10
67.26307779947916
 20
132.9972222222222
 10
70.37916666666666
 20
133.0557888454861
 10
76.72916666666666
 20
127.7641221788194
  0
LINE
  5
12E
330
A
100
AcDbEntity
  8
WOOD
 62
     7
100
AcDbLine
 10
72.49583333333332
 20
132.6444444444445
 30
0.0
 11
76.67042778862846
 21
129.1166666666667
 31
0.0
  0
LWPOLYLINE
  5
129
330
A
100
AcDbEntity
  8
WOOD
 62
     7
100
AcDbPolyline
 90
        3
 70
     0
 43
0.0
 10
67.20416666666667
 20
132.1152777777778
 10
70.37916666666666
 20
131.9974555121528
 10
76.78807779947915
 20
126.2944444444444
  0
LWPOLYLINE
  5
124
330
A
100
AcDbEntity
  8
WOOD
 62
     7
100
AcDbPolyline
 90
        3
 70
     0
 43
0.0
 10
67.26307779947916
 20
130.9980333116319
 10
70.43807779947916
 20
130.7627332899305
 10
76.72916666666666
 20
124.9418999565972
  0
LWPOLYLINE
  5
11F
330
A
100
AcDbEntity
  8
WOOD
 62
     7
100
AcDbPolyline
 90
        3
 70
     0
 43
0.0
 10
67.20416666666667
 20
129.5280110677083
 10
70.32042778862846
 20
129.1752332899305
 10
76.72916666666666
 20
123.7660888671875
  0
LWPOLYLINE
  5
11A
330
A
100
AcDbEntity
  8
WOOD
 62
     7
100
AcDbPolyline
 90
        3
 70
     0
 43
0.0
 10
67.14542778862847
 20
127.7641221788194
 10
70.43807779947916
 20
127.4113444010417
 10
76.72916666666666
 20
122.3549777560764
  0
LWPOLYLINE
  5
115
330
A
100
AcDbEntity
  8
WOOD
 62
     7
100
AcDbPolyline
 90
        3
 70
     0
 43
0.0
 10
67.14542778862847
 20
126.1766221788194
 10
70.37916666666666
 20
126.1180555555555
 10
73.90694444444443
 20
123.2369222005208
  0
LINE
  5
114
330
A
100
AcDbEntity
  8
WOOD
 62
     7
100
AcDbLine
 10
145.6972222222222
 20
155.9277777777778
 30
0.0
 11
144.0528781467014
 21
154.7573065863715
 31
0.0
  0
SPLINE
  5
112
330
A
100
AcDbEntity
  8
H2_5T
 62
     7
100
AcDbSpline
210
0.0
220
0.0
230
1.0
 70
    11
 71
     3
 72
    68
 73
    64
 74
     0
 42
0.0000000001
 43
0.0000000001
 40
0.0
 40
0.0
 40
0.0
 40
0.0
 40
1.0
 40
1.0
 40
1.0
 40
2.0
 40
2.0
 40
2.0
 40
3.0
 40
3.0
 40
3.0
 40
4.0
 40
4.0
 40
4.0
 40
5.0
 40
5.0
 40
5.0
 40
6.0
 40
6.0
 40
6.0
 40
7.0
 40
7.0
 40
7.0
 40
8.0
 40
8.0
 40
8.0
 40
9.0
 40
9.0
 40
9.0
 40
10.0
 40
10.0
 40
10.0
 40
11.0
 40
11.0
 40
11.0
 40
12.0
 40
12.0
 40
12.0
 40
13.0
 40
13.0
 40
13.0
 40
14.0
 40
14.0
 40
14.0
 40
15.0
 40
15.0
 40
15.0
 40
16.0
 40
16.0
 40
16.0
 40
17.0
 40
17.0
 40
17.0
 40
18.0
 40
18.0
 40
18.0
 40
19.0
 40
19.0
 40
19.0
 40
20.0
 40
20.0
 40
20.0
 40
21.0
 40
21.0
 40
21.0
 40
21.0
 10
109.7304253472222
 20
167.3648057725694
 30
0.0
 10
109.7304253472222
 20
167.3648057725694
 30
0.0
 10
105.1393188476562
 20
168.4047078450521
 30
0.0
 10
105.1393188476562
 20
168.4047078450521
 30
0.0
 10
105.1393188476562
 20
168.4047078450521
 30
0.0
 10
104.4046522352431
 20
168.0987833658854
 30
0.0
 10
104.4046522352431
 20
168.0987833658854
 30
0.0
 10
104.4046522352431
 20
168.0987833658854
 30
0.0
 10
103.4865342881944
 20
166.9968695746528
 30
0.0
 10
103.4865342881944
 20
166.9968695746528
 30
0.0
 10
103.4865342881944
 20
166.9968695746528
 30
0.0
 10
103.4865342881944
 20
162.4669135199653
 30
0.0
 10
103.4865342881944
 20
162.4669135199653
 30
0.0
 10
103.4865342881944
 20
162.4669135199653
 30
0.0
 10
103.4252115885417
 20
161.854547797309
 30
0.0
 10
103.2415879991319
 20
161.7322469075521
 30
0.0
 10
103.2415879991319
 20
161.7322469075521
 30
0.0
 10
102.9968139648437
 20
161.4261501736111
 30
0.0
 10
102.9968139648437
 20
161.4261501736111
 30
0.0
 10
102.9968139648437
 20
161.4261501736111
 30
0.0
 10
102.6907172309028
 20
161.1813761393229
 30
0.0
 10
102.507093641493
 20
160.8752794053819
 30
0.0
 10
102.507093641493
 20
160.8752794053819
 30
0.0
 10
93.69195556640624
 20
142.3882080078125
 30
0.0
 10
93.69195556640624
 20
142.3882080078125
 30
0.0
 10
93.69195556640624
 20
142.3882080078125
 30
0.0
 10
93.4861111111111
 20
141.8607638888889
 30
0.0
 10
93.50833197699652
 20
141.0415201822917
 30
0.0
 10
93.50833197699652
 20
141.0415201822917
 30
0.0
 10
93.50833197699652
 20
128.4314371744792
 30
0.0
 10
93.50833197699652
 20
128.4314371744792
 30
0.0
 10
93.50833197699652
 20
128.4314371744792
 30
0.0
 10
94.54909532335068
 20
126.8398030598958
 30
0.0
 10
94.54909532335068
 20
126.8398030598958
 30
0.0
 10
94.54909532335068
 20
126.8398030598958
 30
0.0
 10
95.16128879123264
 20
126.6561794704861
 30
0.0
 10
95.16128879123264
 20
126.6561794704861
 30
0.0
 10
95.16128879123264
 20
126.6561794704861
 30
0.0
 10
100.3835367838542
 20
127.6862630208333
 30
0.0
 10
100.3835367838542
 20
127.6862630208333
 30
0.0
 10
100.3835367838542
 20
127.6862630208333
 30
0.0
 10
101.3629774305556
 20
129.4615207248264
 30
0.0
 10
101.3629774305556
 20
129.4615207248264
 30
0.0
 10
101.3629774305556
 20
129.4615207248264
 30
0.0
 10
101.3629774305556
 20
143.5411092122396
 30
0.0
 10
101.3629774305556
 20
143.5411092122396
 30
0.0
 10
101.3629774305556
 20
143.5411092122396
 30
0.0
 10
101.3791693793403
 20
144.1262586805555
 30
0.0
 10
101.8904215494792
 20
144.7257052951389
 30
0.0
 10
101.8904215494792
 20
144.7257052951389
 30
0.0
 10
102.6309448242187
 20
144.9020941840278
 30
0.0
 10
102.8321384006076
 20
145.2550442165799
 30
0.0
 10
102.9837226019965
 20
145.5210055881076
 30
0.0
 10
110.33125
 20
160.1170138888889
 30
0.0
 10
110.33125
 20
160.1170138888889
 30
0.0
 10
110.33125
 20
160.1170138888889
 30
0.0
 10
110.5517361111111
 20
160.4697916666667
 30
0.0
 10
110.6485432942708
 20
160.9982693142361
 30
0.0
 10
110.6485432942708
 20
160.9982693142361
 30
0.0
 10
110.6485432942708
 20
165.3446017795139
 30
0.0
 10
110.6485432942708
 20
165.3446017795139
 30
0.0
 10
110.6485432942708
 20
165.3446017795139
 30
0.0
 10
109.7304253472222
 20
167.3648057725694
 30
0.0
 10
109.7304253472222
 20
167.3648057725694
 30
0.0
  0
SPLINE
  5
110
330
A
100
AcDbEntity
  8
H2_5T
 62
     7
100
AcDbSpline
210
0.0
220
0.0
230
1.0
 70
     8
 71
     3
 72
    20
 73
    16
 74
     0
 42
0.0000000001
 43
0.0000000001
 40
0.0
 40
0.0
 40
0.0
 40
0.0
 40
1.0
 40
1.0
 40
1.0
 40
2.0
 40
2.0
 40
2.0
 40
3.0
 40
3.0
 40
3.0
 40
4.0
 40
4.0
 40
4.0
 40
5.0
 40
5.0
 40
5.0
 40
5.0
 10
102.9968139648437
 20
161.4261501736111
 30
0.0
 10
102.9968139648437
 20
161.4261501736111
 30
0.0
 10
103.0993055555556
 20
160.8225694444444
 30
0.0
 10
102.790625
 20
160.1611111111111
 30
0.0
 10
102.790625
 20
160.1611111111111
 30
0.0
 10
94.32395833333332
 20
142.3017361111111
 30
0.0
 10
94.32395833333332
 20
142.3017361111111
 30
0.0
 10
94.32395833333332
 20
142.3017361111111
 30
0.0
 10
94.10347222222221
 20
141.8166666666667
 30
0.0
 10
94.10347222222221
 20
141.1552083333333
 30
0.0
 10
94.10347222222221
 20
141.1552083333333
 30
0.0
 10
94.10347222222221
 20
128.1024305555555
 30
0.0
 10
94.10347222222221
 20
128.1024305555555
 30
0.0
 10
94.10347222222221
 20
128.1024305555555
 30
0.0
 10
94.98541666666665
 20
126.6913194444444
 30
0.0
 10
94.98541666666665
 20
126.6913194444444
 30
0.0
  0
LINE
  5
10F
330
A
100
AcDbEntity
  8
H2_5T
 62
     7
100
AcDbLine
 10
93.50833197699652
 20
128.4314371744792
 30
0.0
 11
94.10347222222221
 21
128.1024305555555
 31
0.0
  0
SPLINE
  5
10E
330
A
100
AcDbEntity
  8
H2_5T
 62
     7
100
AcDbSpline
210
0.0
220
0.0
230
1.0
 70
     8
 71
     3
 72
    23
 73
    19
 74
     0
 42
0.0000000001
 43
0.0000000001
 40
0.0
 40
0.0
 40
0.0
 40
0.0
 40
1.0
 40
1.0
 40
1.0
 40
2.0
 40
2.0
 40
2.0
 40
3.0
 40
3.0
 40
3.0
 40
4.0
 40
4.0
 40
4.0
 40
5.0
 40
5.0
 40
5.0
 40
6.0
 40
6.0
 40
6.0
 40
6.0
 10
104.5986111111111
 20
168.1868055555555
 30
0.0
 10
104.5986111111111
 20
168.1868055555555
 30
0.0
 10
109.0965277777778
 20
167.1725694444444
 30
0.0
 10
109.0965277777778
 20
167.1725694444444
 30
0.0
 10
109.0965277777778
 20
167.1725694444444
 30
0.0
 10
110.0666666666667
 20
165.2322916666666
 30
0.0
 10
110.0666666666667
 20
165.2322916666666
 30
0.0
 10
110.0666666666667
 20
165.2322916666666
 30
0.0
 10
110.0666666666667
 20
161.13125
 30
0.0
 10
110.0666666666667
 20
161.13125
 30
0.0
 10
110.0666666666667
 20
161.13125
 30
0.0
 10
110.0666666666667
 20
160.6902777777778
 30
0.0
 10
109.8461805555556
 20
160.3375
 30
0.0
 10
109.8461805555556
 20
160.3375
 30
0.0
 10
102.5082994249132
 20
145.7919623480903
 30
0.0
 10
102.5082994249132
 20
145.7919623480903
 30
0.0
 10
102.5082994249132
 20
145.7919623480903
 30
0.0
 10
102.3760077582465
 20
145.4832817925347
 30
0.0
 10
102.4201049804687
 20
144.954115125868
 30
0.0
  0
LINE
  5
10D
330
A
100
AcDbEntity
  8
H2_5T
 62
     7
100
AcDbLine
 10
109.0965277777778
 20
167.1725694444444
 30
0.0
 11
109.7579861111111
 21
167.2607638888889
 31
0.0
  0
LINE
  5
10C
330
A
100
AcDbEntity
  8
H2_5T
 62
     7
100
AcDbLine
 10
110.0032769097222
 20
165.1825100368924
 30
0.0
 11
110.6840277777778
 21
165.3204861111111
 31
0.0
  0
LINE
  5
10B
330
A
100
AcDbEntity
  8
H2_5T
 62
     7
100
AcDbLine
 10
102.5406833224826
 20
147.5618801540799
 30
0.0
 11
102.5406833224826
 21
146.9906833224826
 31
0.0
  0
LINE
  5
10A
330
A
100
AcDbEntity
  8
H2_5T
 62
     7
100
AcDbLine
 10
102.5406833224826
 20
157.1433797200521
 30
0.0
 11
102.5406833224826
 21
148.1699395073785
 31
0.0
  0
LINE
  5
109
330
A
100
AcDbEntity
  8
H2_5T
 62
     7
100
AcDbLine
 10
102.5406833224826
 20
158.2795722113715
 30
0.0
 11
102.5406833224826
 21
157.7013129340278
 31
0.0
  0
LINE
  5
107
330
A
100
AcDbEntity
  8
H2_5T
 62
     7
100
AcDbLine
 10
97.50274793836805
 20
145.7366685655382
 30
0.0
 11
97.50274793836805
 21
141.5794718424479
 31
0.0
  0
LWPOLYLINE
  5
102
330
A
100
AcDbEntity
  8
H2_5T
 62
     7
100
AcDbPolyline
 90
        3
 70
     1
 43
0.0
 10
97.09726019965277
 20
145.1790798611111
 10
97.90840793185762
 20
145.2805379231771
 10
97.45210503472221
 20
146.5478162977431
  0
LWPOLYLINE
  5
FD
330
A
100
AcDbEntity
  8
H2_5T
 62
     7
100
AcDbPolyline
 90
        3
 70
     1
 43
0.0
 10
97.1479031032986
 20
141.9344889322917
 10
97.90840793185762
 20
142.0357747395833
 10
97.45210503472221
 20
140.7176812065972
  0
INSERT
  5
D4
330
A
100
AcDbEntity
  8
H2_5T
 62
     7
100
AcDbBlockReference
  2
AI9-BLK26
 10
99.53199530707464
 20
142.0346550835504
 30
0.0
  0
INSERT
  5
AF
330
A
100
AcDbEntity
  8
H2_5T
 62
     7
100
AcDbBlockReference
  2
AI9-BLK19
 10
99.8266370985243
 20
145.8465671115451
 30
0.0
  0
INSERT
  5
A9
330
A
100
AcDbEntity
  8
H2_5T
 62
     7
100
AcDbBlockReference
  2
AI9-BLK18
 10
105.0115919325087
 20
166.0857279459635
 30
0.0
  0
INSERT
  5
A3
330
A
100
AcDbEntity
  8
H2_5T
 62
     7
100
AcDbBlockReference
  2
AI9-BLK17
 10
105.0115058051215
 20
160.8201578776042
 30
0.0
  0
INSERT
  5
9D
330
A
100
AcDbEntity
  8
H2_5T
 62
     7
100
AcDbBlockReference
  2
AI9-BLK16
 10
108.4894158257378
 20
161.5612840440538
 30
0.0
  0
INSERT
  5
97
330
A
100
AcDbEntity
  8
H2_5T
 62
     7
100
AcDbBlockReference
  2
AI9-BLK15
 10
106.7038228352865
 20
163.9120449490017
 30
0.0
  0
INSERT
  5
91
330
A
100
AcDbEntity
  8
H2_5T
 62
     7
100
AcDbBlockReference
  2
AI9-BLK14
 10
106.7040812174479
 20
157.6588521321615
 30
0.0
  0
INSERT
  5
8B
330
A
100
AcDbEntity
  8
H2_5T
 62
     7
100
AcDbBlockReference
  2
AI9-BLK13
 10
95.99190131293402
 20
132.4022542317708
 30
0.0
  0
INSERT
  5
85
330
A
100
AcDbEntity
  8
H2_5T
 62
     7
100
AcDbBlockReference
  2
AI9-BLK12
 10
96.28550957573783
 20
139.8799201117622
 30
0.0
  0
INSERT
  5
7F
330
A
100
AcDbEntity
  8
H2_5T
 62
     7
100
AcDbBlockReference
  2
AI9-BLK11
 10
99.9882120768229
 20
129.3499857584635
 30
0.0
  0
INSERT
  5
79
330
A
100
AcDbEntity
  8
H2_5T
 62
     7
100
AcDbBlockReference
  2
AI9-BLK10
 10
99.65894707573784
 20
137.5762708875868
 30
0.0
  0
INSERT
  5
73
330
A
100
AcDbEntity
  8
H2_5T
 62
     7
100
AcDbBlockReference
  2
AI9-BLK9
 10
98.01348334418402
 20
130.876852077908
 30
0.0
  0
INSERT
  5
4B
330
A
100
AcDbEntity
  8
H2_5T
 62
     7
100
AcDbBlockReference
  2
AI9-BLK5
 10
91.54721137152777
 20
119.8683078342014
 30
0.0
  0
INSERT
  5
23
330
A
100
AcDbEntity
  8
H2_5T
 62
     7
100
AcDbBlockReference
  2
AI9-BLK1
 10
113.7716084798177
 20
141.9285461425781
 30
0.0
  0
LWPOLYLINE
  5
251
330
A
100
AcDbEntity
  8
WOOD
 62
     7
100
AcDbPolyline
 90
        2
 70
     0
 43
0.0
 10
96.03749620645716
 20
147.307266213046
 10
87.36831054687499
 20
150.7060465494791
  0
LWPOLYLINE
  5
252
330
A
100
AcDbEntity
  8
WOOD
 62
     7
100
AcDbPolyline
 90
        2
 70
     0
 43
0.0
 10
101.8363371077599
 20
144.6600783371911
 10
102.4033962673611
 20
144.7515435112847
  0
LWPOLYLINE
  5
253
330
A
100
AcDbEntity
  8
WOOD
 62
     7
100
AcDbPolyline
 90
        2
 70
     0
 43
0.0
 10
101.3629774305556
 20
135.2391840624314
 10
102.3596435546875
 20
135.4298041449653
  0
ENDSEC
  0
SECTION
  2
OBJECTS
  0
DICTIONARY
  5
19
330
0
100
AcDbDictionary
281
     1
  3
ACAD_COLOR
350
25B
  3
ACAD_GROUP
350
1A
  3
ACAD_LAYOUT
350
24A
  3
ACAD_MATERIAL
350
25D
  3
ACAD_MLINESTYLE
350
1B
  3
ACAD_PLOTSETTINGS
350
24B
  3
ACAD_PLOTSTYLENAME
350
248
  3
ACDBHEADERROUNDTRIPXREC
350
25A
  3
ASE_INDEX_DICTIONARY
350
255
  0
DICTIONARY
  5
25B
102
{ACAD_REACTORS
330
19
102
}
330
19
100
AcDbDictionary
281
     1
  0
DICTIONARY
  5
1A
102
{ACAD_REACTORS
330
19
102
}
330
19
100
AcDbDictionary
281
     1
  0
DICTIONARY
  5
24A
102
{ACAD_REACTORS
330
19
102
}
330
19
100
AcDbDictionary
281
     1
  3
Layout1
350
24D
  3
Model
350
24C
  0
DICTIONARY
  5
25D
102
{ACAD_REACTORS
330
19
102
}
330
19
100
AcDbDictionary
281
     1
  0
DICTIONARY
  5
1B
102
{ACAD_REACTORS
330
19
102
}
330
19
100
AcDbDictionary
281
     1
  3
STANDARD
350
1C
  0
DICTIONARY
  5
24B
102
{ACAD_REACTORS
330
19
102
}
330
19
100
AcDbDictionary
281
     1
  0
ACDBDICTIONARYWDFLT
  5
248
102
{ACAD_REACTORS
330
19
102
}
330
19
100
AcDbDictionary
281
     1
  3
Normal
350
249
100
AcDbDictionaryWithDefault
340
249
  0
DICTIONARY
  5
25A
102
{ACAD_REACTORS
330
19
102
}
330
19
100
AcDbDictionary
281
     1
  3
COLORDICT
350
25C
  3
MATERIALDICT
350
25E
  0
DICTIONARY
  5
255
102
{ACAD_REACTORS
330
19
102
}
330
19
100
AcDbDictionary
281
     1
  3
ASEBlockHierarchyIndexRecord
350
257
1001
DCO15
1040
1548150476.832
  0
LAYOUT
  5
24D
102
{ACAD_REACTORS
330
24A
102
}
102
{ACAD_XDICTIONARY
360
25F
102
}
330
24A
100
AcDbPlotSettings
  1

  2
HP LaserJet 2100 Series PS
  4

  6

 40
0.0
 41
0.0
 42
0.0
 43
0.0
 44
0.0
 45
0.0
 46
0.0
 47
0.0
 48
0.0
 49
0.0
140
0.0
141
0.0
142
1.0
143
1.0
 70
   688
 72
     0
 73
     0
 74
     5
  7
monochrome.ctb
 75
    16
147
1.0
148
0.0
149
0.0
100
AcDbLayout
  1
Layout1
 70
     0
 71
     1
 10
0.0
 20
0.0
 11
12.0
 21
9.0
 12
0.0
 22
0.0
 32
0.0
 14
1.000000000000000E+20
 24
1.000000000000000E+20
 34
1.000000000000000E+20
 15
-1.000000000000000E+20
 25
-1.000000000000000E+20
 35
-1.000000000000000E+20
146
0.0
 13
0.0
 23
0.0
 33
0.0
 16
1.0
 26
0.0
 36
0.0
 17
0.0
 27
1.0
 37
0.0
 76
     0
330
B
  0
LAYOUT
  5
24C
102
{ACAD_REACTORS
330
24A
102
}
102
{ACAD_XDICTIONARY
360
261
102
}
330
24A
100
AcDbPlotSettings
  1

  2
HP LaserJet 2100 Series PS
  4

  6

 40
0.0
 41
0.0
 42
0.0
 43
0.0
 44
0.0
 45
0.0
 46
0.0
 47
0.0
 48
0.0
 49
0.0
140
0.0
141
0.0
142
1.0
143
1.0
 70
  1712
 72
     0
 73
     0
 74
     0
  7
monochrome.ctb
 75
     0
147
1.0
148
0.0
149
0.0
100
AcDbLayout
  1
Model
 70
     1
 71
     0
 10
0.0
 20
0.0
 11
12.0
 21
9.0
 12
0.0
 22
0.0
 32
0.0
 14
0.0
 24
0.0
 34
0.0
 15
0.0
 25
0.0
 35
0.0
146
0.0
 13
0.0
 23
0.0
 33
0.0
 16
1.0
 26
0.0
 36
0.0
 17
0.0
 27
1.0
 37
0.0
 76
     0
330
A
  0
MLINESTYLE
  5
1C
102
{ACAD_REACTORS
330
1B
102
}
330
1B
100
AcDbMlineStyle
  2
STANDARD
 70
     0
  3

 62
     0
 51
90.0000000000002
 52
90.0000000000002
 71
     2
 49
0.5
 62
   256
  6
BYLAYER
 49
-0.5
 62
   256
  6
BYLAYER
  0
ACDBPLACEHOLDER
  5
249
102
{ACAD_REACTORS
330
248
102
}
330
248
  0
XRECORD
  5
25C
102
{ACAD_REACTORS
330
25A
102
}
330
25A
100
AcDbXrecord
340
25B
  0
XRECORD
  5
25E
102
{ACAD_REACTORS
330
25A
102
}
330
25A
100
AcDbXrecord
340
25D
  0
XRECORD
  5
257
102
{ACAD_REACTORS
330
255
102
}
330
255
100
AcDbXrecord
280
     1
330
23
330
4B
330
73
330
79
330
7F
330
85
330
8B
330
91
330
97
330
9D
330
A3
330
A9
330
AF
330
D4
330
26
330
29
330
2E
330
4E
330
51
330
56
330
B2
330
B7
330
BD
330
C2
330
C7
330
CD
330
D7
330
DC
330
E2
330
E7
330
ED
330
F7
  0
DICTIONARY
  5
25F
330
24D
100
AcDbDictionary
280
     1
281
     1
  3
ACAD_XREC_ROUNDTRIP
360
260
  0
DICTIONARY
  5
261
330
24C
100
AcDbDictionary
280
     1
281
     1
  3
ACAD_XREC_ROUNDTRIP
360
262
  0
XRECORD
  5
260
102
{ACAD_REACTORS
330
25F
102
}
330
25F
100
AcDbXrecord
102
SHADEPLOT
 70
 31552
102
SHADEPLOTRESLEVEL
 70
 30752
102
SHADEPLOTCUSTOMDPI
 70
 31608
  0
XRECORD
  5
262
102
{ACAD_REACTORS
330
261
102
}
330
261
100
AcDbXrecord
102
SHADEPLOT
 70
     0
102
SHADEPLOTRESLEVEL
 70
     0
102
SHADEPLOTCUSTOMDPI
 70
     0
  0
ENDSEC
  0
EOF
