  0
SECTION
  2
HEADER
  9
$ACADVER
  1
AC1015
  9
$ACADMAINTVER
 70
     6
  9
$DWGCODEPAGE
  3
ANSI_1252
  9
$INSBASE
 10
0.0
 20
0.0
 30
0.0
  9
$EXTMIN
 10
62.79152764439778
 20
97.14006898914086
 30
-0.0015258207003583
  9
$EXTMAX
 10
145.083755923213
 20
200.1464059125291
 30
0.0000000349246037
  9
$LIMMIN
 10
62.61788330078124
 20
97.2533230251736
  9
$LIMMAX
 10
145.0812391493055
 20
200.3398817274305
  9
$ORTHOMODE
 70
     0
  9
$REGENMODE
 70
     1
  9
$FILLMODE
 70
     1
  9
$QTEXTMODE
 70
     0
  9
$MIRRTEXT
 70
     1
  9
$LTSCALE
 40
1.0
  9
$ATTMODE
 70
     1
  9
$TEXTSIZE
 40
0.2
  9
$TRACEWID
 40
0.05
  9
$TEXTSTYLE
  7
STANDARD
  9
$CLAYER
  8
0
  9
$CELTYPE
  6
CONTINUOUS
  9
$CECOLOR
 62
   256
  9
$CELTSCALE
 40
1.0
  9
$DISPSILH
 70
     0
  9
$DIMSCALE
 40
1.0
  9
$DIMASZ
 40
0.18
  9
$DIMEXO
 40
0.0625
  9
$DIMDLI
 40
0.38
  9
$DIMRND
 40
0.0
  9
$DIMDLE
 40
0.0
  9
$DIMEXE
 40
0.18
  9
$DIMTP
 40
0.0
  9
$DIMTM
 40
0.0
  9
$DIMTXT
 40
0.18
  9
$DIMCEN
 40
0.09
  9
$DIMTSZ
 40
0.0
  9
$DIMTOL
 70
     0
  9
$DIMLIM
 70
     0
  9
$DIMTIH
 70
     1
  9
$DIMTOH
 70
     1
  9
$DIMSE1
 70
     0
  9
$DIMSE2
 70
     0
  9
$DIMTAD
 70
     0
  9
$DIMZIN
 70
     0
  9
$DIMBLK
  1

  9
$DIMASO
 70
     1
  9
$DIMSHO
 70
     1
  9
$DIMPOST
  1

  9
$DIMAPOST
  1

  9
$DIMALT
 70
     0
  9
$DIMALTD
 70
     2
  9
$DIMALTF
 40
25.4
  9
$DIMLFAC
 40
1.0
  9
$DIMTOFL
 70
     0
  9
$DIMTVP
 40
0.0
  9
$DIMTIX
 70
     0
  9
$DIMSOXD
 70
     0
  9
$DIMSAH
 70
     0
  9
$DIMBLK1
  1

  9
$DIMBLK2
  1

  9
$DIMSTYLE
  2
STANDARD
  9
$DIMCLRD
 70
     0
  9
$DIMCLRE
 70
     0
  9
$DIMCLRT
 70
     0
  9
$DIMTFAC
 40
1.0
  9
$DIMGAP
 40
0.09
  9
$DIMJUST
 70
     0
  9
$DIMSD1
 70
     0
  9
$DIMSD2
 70
     0
  9
$DIMTOLJ
 70
     1
  9
$DIMTZIN
 70
     0
  9
$DIMALTZ
 70
     0
  9
$DIMALTTZ
 70
     0
  9
$DIMUPT
 70
     0
  9
$DIMDEC
 70
     4
  9
$DIMTDEC
 70
     4
  9
$DIMALTU
 70
     2
  9
$DIMALTTD
 70
     2
  9
$DIMTXSTY
  7
STANDARD
  9
$DIMAUNIT
 70
     0
  9
$DIMADEC
 70
     0
  9
$DIMALTRND
 40
0.0
  9
$DIMAZIN
 70
     0
  9
$DIMDSEP
 70
    46
  9
$DIMATFIT
 70
     3
  9
$DIMFRAC
 70
     0
  9
$DIMLDRBLK
  1

  9
$DIMLUNIT
 70
     2
  9
$DIMLWD
 70
    -2
  9
$DIMLWE
 70
    -2
  9
$DIMTMOVE
 70
     0
  9
$LUNITS
 70
     2
  9
$LUPREC
 70
     4
  9
$SKETCHINC
 40
0.1
  9
$FILLETRAD
 40
0.0
  9
$AUNITS
 70
     0
  9
$AUPREC
 70
     0
  9
$MENU
  1
acad
  9
$ELEVATION
 40
0.0
  9
$PELEVATION
 40
0.0
  9
$THICKNESS
 40
0.0
  9
$LIMCHECK
 70
     0
  9
$CHAMFERA
 40
0.0
  9
$CHAMFERB
 40
0.0
  9
$CHAMFERC
 40
0.0
  9
$CHAMFERD
 40
0.0
  9
$SKPOLY
 70
     0
  9
$TDCREATE
 40
2444972.0
  9
$TDUCREATE
 40
2444972.333333334
  9
$TDUPDATE
 40
2453721.95471044
  9
$TDUUPDATE
 40
2453722.288043773
  9
$TDINDWG
 40
0.0011108218
  9
$TDUSRTIMER
 40
0.0011108218
  9
$USRTIMER
 70
     1
  9
$ANGBASE
 50
0.0
  9
$ANGDIR
 70
     0
  9
$PDMODE
 70
     0
  9
$PDSIZE
 40
0.0
  9
$PLINEWID
 40
0.0
  9
$SPLFRAME
 70
     0
  9
$SPLINETYPE
 70
     6
  9
$SPLINESEGS
 70
     8
  9
$HANDSEED
  5
5E3
  9
$SURFTAB1
 70
     6
  9
$SURFTAB2
 70
     6
  9
$SURFTYPE
 70
     6
  9
$SURFU
 70
     6
  9
$SURFV
 70
     6
  9
$UCSBASE
  2

  9
$UCSNAME
  2

  9
$UCSORG
 10
0.0
 20
0.0
 30
0.0
  9
$UCSXDIR
 10
1.0
 20
0.0
 30
0.0
  9
$UCSYDIR
 10
0.0
 20
1.0
 30
0.0
  9
$UCSORTHOREF
  2

  9
$UCSORTHOVIEW
 70
     0
  9
$UCSORGTOP
 10
0.0
 20
0.0
 30
0.0
  9
$UCSORGBOTTOM
 10
0.0
 20
0.0
 30
0.0
  9
$UCSORGLEFT
 10
0.0
 20
0.0
 30
0.0
  9
$UCSORGRIGHT
 10
0.0
 20
0.0
 30
0.0
  9
$UCSORGFRONT
 10
0.0
 20
0.0
 30
0.0
  9
$UCSORGBACK
 10
0.0
 20
0.0
 30
0.0
  9
$PUCSBASE
  2

  9
$PUCSNAME
  2

  9
$PUCSORG
 10
0.0
 20
0.0
 30
0.0
  9
$PUCSXDIR
 10
1.0
 20
0.0
 30
0.0
  9
$PUCSYDIR
 10
0.0
 20
1.0
 30
0.0
  9
$PUCSORTHOREF
  2

  9
$PUCSORTHOVIEW
 70
     0
  9
$PUCSORGTOP
 10
0.0
 20
0.0
 30
0.0
  9
$PUCSORGBOTTOM
 10
0.0
 20
0.0
 30
0.0
  9
$PUCSORGLEFT
 10
0.0
 20
0.0
 30
0.0
  9
$PUCSORGRIGHT
 10
0.0
 20
0.0
 30
0.0
  9
$PUCSORGFRONT
 10
0.0
 20
0.0
 30
0.0
  9
$PUCSORGBACK
 10
0.0
 20
0.0
 30
0.0
  9
$USERI1
 70
     0
  9
$USERI2
 70
     0
  9
$USERI3
 70
     0
  9
$USERI4
 70
     0
  9
$USERI5
 70
     0
  9
$USERR1
 40
0.0
  9
$USERR2
 40
0.0
  9
$USERR3
 40
0.0
  9
$USERR4
 40
0.0
  9
$USERR5
 40
0.0
  9
$WORLDVIEW
 70
     1
  9
$SHADEDGE
 70
     3
  9
$SHADEDIF
 70
    70
  9
$TILEMODE
 70
     1
  9
$MAXACTVP
 70
    16
  9
$PINSBASE
 10
0.0
 20
0.0
 30
0.0
  9
$PLIMCHECK
 70
     0
  9
$PEXTMIN
 10
1.000000000000000E+20
 20
1.000000000000000E+20
 30
1.000000000000000E+20
  9
$PEXTMAX
 10
-1.000000000000000E+20
 20
-1.000000000000000E+20
 30
-1.000000000000000E+20
  9
$PLIMMIN
 10
0.0
 20
0.0
  9
$PLIMMAX
 10
12.0
 20
9.0
  9
$UNITMODE
 70
     0
  9
$VISRETAIN
 70
     0
  9
$PLINEGEN
 70
     1
  9
$PSLTSCALE
 70
     0
  9
$TREEDEPTH
 70
  3020
  9
$CMLSTYLE
  2
STANDARD
  9
$CMLJUST
 70
     0
  9
$CMLSCALE
 40
1.0
  9
$PROXYGRAPHICS
 70
     1
  9
$MEASUREMENT
 70
     0
  9
$CELWEIGHT
370
    -1
  9
$ENDCAPS
280
     0
  9
$JOINSTYLE
280
     0
  9
$LWDISPLAY
290
     0
  9
$INSUNITS
 70
     0
  9
$HYPERLINKBASE
  1

  9
$STYLESHEET
  1

  9
$XEDIT
290
     1
  9
$CEPSNTYPE
380
     0
  9
$PSTYLEMODE
290
     1
  9
$FINGERPRINTGUID
  2
{26479801-1966-4B6E-A22F-2137715AD450}
  9
$VERSIONGUID
  2
{AE920485-ED97-4EF3-94FD-FB976B87FF1A}
  9
$EXTNAMES
290
     1
  9
$PSVPSCALE
 40
0.0
  9
$OLESTARTUP
290
     0
  0
ENDSEC
  0
SECTION
  2
CLASSES
  0
CLASS
  1
LWPOLYLINE
  2
AcDbPolyline
  3
AutoCAD 2000
 90
        0
280
     0
281
     1
  0
CLASS
  1
IMAGE
  2
AcDbRasterImage
  3
ISM
 90
      127
280
     0
281
     1
  0
CLASS
  1
OLE2FRAME
  2
AcDbOle2Frame
  3
AutoCAD 2000
 90
        0
280
     0
281
     1
  0
CLASS
  1
HATCH
  2
AcDbHatch
  3
AutoCAD 2000
 90
        0
280
     0
281
     1
  0
CLASS
  1
DICTIONARYVAR
  2
AcDbDictionaryVar
  3
AutoCAD 2000
 90
        0
280
     0
281
     0
  0
CLASS
  1
RASTERVARIABLES
  2
AcDbRasterVariables
  3
ISM
 90
        0
280
     0
281
     0
  0
CLASS
  1
IMAGEDEF
  2
AcDbRasterImageDef
  3
ISM
 90
        0
280
     0
281
     0
  0
CLASS
  1
IMAGEDEF_REACTOR
  2
AcDbRasterImageDefReactor
  3
ISM
 90
        1
280
     0
281
     0
  0
CLASS
  1
IDBUFFER
  2
AcDbIdBuffer
  3
AutoCAD 2000
 90
        0
280
     0
281
     0
  0
CLASS
  1
SPATIAL_FILTER
  2
AcDbSpatialFilter
  3
AutoCAD 2000
 90
        0
280
     0
281
     0
  0
CLASS
  1
XRECORD
  2
AcDbXrecord
  3
AutoCAD 2000
 90
        0
280
     0
281
     0
  0
CLASS
  1
SORTENTSTABLE
  2
AcDbSortentsTable
  3
AutoCAD 2000
 90
        0
280
     0
281
     0
  0
CLASS
  1
LAYER_INDEX
  2
AcDbLayerIndex
  3
AutoCAD 2000
 90
        0
280
     0
281
     0
  0
CLASS
  1
SPATIAL_INDEX
  2
AcDbSpatialIndex
  3
AutoCAD 2000
 90
        0
280
     0
281
     0
  0
CLASS
  1
OBJECT_PTR
  2
CAseDLPNTableRecord
  3
ASE-LPNTableRecord
 90
   -65535
280
     1
281
     0
  0
CLASS
  1
LAYOUT
  2
AcDbLayout
  3
ObjectDBX Classes
 90
        0
280
     0
281
     0
  0
CLASS
  1
PLOTSETTINGS
  2
AcDbPlotSettings
  3
AutoCAD 2000
 90
        0
280
     0
281
     0
  0
CLASS
  1
ACDBDICTIONARYWDFLT
  2
AcDbDictionaryWithDefault
  3
AutoCAD 2000
 90
        0
280
     0
281
     0
  0
CLASS
  1
ACDBPLACEHOLDER
  2
AcDbPlaceHolder
  3
ObjectDBX Classes
 90
        0
280
     0
281
     0
  0
CLASS
  1
VBAPROJECT
  2
AcDbVbaProject
  3
ObjectDBX Classes
 90
        0
280
     0
281
     0
  0
CLASS
  1
WIPEOUT
  2
AcDbWipeout
  3
WipeOut|AutoCAD Express Tool|expresstools@autodesk.com
 90
      127
280
     0
281
     1
  0
CLASS
  1
WIPEOUTVARIABLES
  2
AcDbWipeoutVariables
  3
WipeOut|AutoCAD Express Tool|expresstools@autodesk.com
 90
        0
280
     0
281
     0
  0
CLASS
  1
RTEXT
  2
RText
  3
RText|AutoCAD Express Tool|expresstools@autodesk.com
 90
        0
280
     0
281
     1
  0
CLASS
  1
ARCALIGNEDTEXT
  2
AcDbArcAlignedText
  3
ATEXT|AutoCAD Express Tool|expresstools@autodesk.com
 90
        0
280
     0
281
     1
  0
ENDSEC
  0
SECTION
  2
TABLES
  0
TABLE
  2
VPORT
  5
7
330
0
100
AcDbSymbolTable
 70
     5
  0
VPORT
  5
5D9
330
7
100
AcDbSymbolTableRecord
100
AcDbViewportTableRecord
  2
*Active
 70
     0
 10
0.0
 20
0.0
 11
1.0
 21
1.0
 12
103.8508196119971
 22
148.7399753582857
 13
0.0
 23
0.0
 14
1.0
 24
1.0
 15
0.0
 25
0.0
 16
0.0
 26
0.0
 36
1.0
 17
0.0
 27
0.0
 37
0.0
 40
104.8916129471141
 41
1.761643835616438
 42
50.0
 43
0.0
 44
0.0
 50
0.0
 51
0.0
 71
     0
 72
   100
 73
     1
 74
     1
 75
     0
 76
     0
 77
     0
 78
     0
281
     0
 65
     1
110
0.0
120
0.0
130
0.0
111
1.0
121
0.0
131
0.0
112
0.0
122
1.0
132
0.0
 79
     0
146
0.0
  0
ENDTAB
  0
TABLE
  2
LTYPE
  5
4
330
0
100
AcDbSymbolTable
 70
     1
  0
LTYPE
  5
11
330
4
100
AcDbSymbolTableRecord
100
AcDbLinetypeTableRecord
  2
BYBLOCK
 70
     0
  3

 72
    65
 73
     0
 40
0.0
  0
LTYPE
  5
12
330
4
100
AcDbSymbolTableRecord
100
AcDbLinetypeTableRecord
  2
BYLAYER
 70
     0
  3

 72
    65
 73
     0
 40
0.0
  0
LTYPE
  5
13
330
4
100
AcDbSymbolTableRecord
100
AcDbLinetypeTableRecord
  2
CONTINUOUS
 70
     0
  3
Solid line
 72
    65
 73
     0
 40
0.0
  0
ENDTAB
  0
TABLE
  2
LAYER
  5
2
330
0
100
AcDbSymbolTable
 70
     3
  0
LAYER
  5
14
330
2
100
AcDbSymbolTableRecord
100
AcDbLayerTableRecord
  2
0
 70
     0
 62
     7
  6
CONTINUOUS
370
    -3
390
5B9
  0
LAYER
  5
21
330
2
100
AcDbSymbolTableRecord
100
AcDbLayerTableRecord
  2
H2_5T_TIE_PLATES
 70
     0
 62
     3
  6
CONTINUOUS
370
    -3
390
5B9
  0
LAYER
  5
4A2
330
2
100
AcDbSymbolTableRecord
100
AcDbLayerTableRecord
  2
WOOD
 70
     0
 62
     5
  6
CONTINUOUS
370
    -3
390
5B9
  0
ENDTAB
  0
TABLE
  2
STYLE
  5
3
330
0
100
AcDbSymbolTable
 70
     5
  0
STYLE
  5
17
330
3
100
AcDbSymbolTableRecord
100
AcDbTextStyleTableRecord
  2
STANDARD
 70
     0
 40
0.0
 41
1.0
 50
0.0
 71
     0
 42
0.2
  3
txt
  4

  0
ENDTAB
  0
TABLE
  2
VIEW
  5
5
330
0
100
AcDbSymbolTable
 70
     0
  0
ENDTAB
  0
TABLE
  2
UCS
  5
6
330
0
100
AcDbSymbolTable
 70
     0
  0
ENDTAB
  0
TABLE
  2
APPID
  5
8
330
0
100
AcDbSymbolTable
 70
     2
  0
APPID
  5
16
330
8
100
AcDbSymbolTableRecord
100
AcDbRegAppTableRecord
  2
ACAD
 70
     0
  0
APPID
  5
5C6
330
8
100
AcDbSymbolTableRecord
100
AcDbRegAppTableRecord
  2
DCO15
 70
     0
  0
ENDTAB
  0
TABLE
  2
DIMSTYLE
  5
9
330
0
100
AcDbSymbolTable
 70
     1
100
AcDbDimStyleTable
  0
DIMSTYLE
105
18
330
9
100
AcDbSymbolTableRecord
100
AcDbDimStyleTableRecord
  2
STANDARD
 70
     0
  3

  4

289
     0
340
17
  0
ENDTAB
  0
TABLE
  2
BLOCK_RECORD
  5
1
330
0
100
AcDbSymbolTable
 70
   121
  0
BLOCK_RECORD
  5
A
330
1
100
AcDbSymbolTableRecord
100
AcDbBlockTableRecord
  2
*MODEL_SPACE
340
5BC
  0
BLOCK_RECORD
  5
B
330
1
100
AcDbSymbolTableRecord
100
AcDbBlockTableRecord
  2
*PAPER_SPACE
340
5BD
  0
BLOCK_RECORD
  5
22
330
1
100
AcDbSymbolTableRecord
100
AcDbBlockTableRecord
  2
AI9-BLK1
340
0
102
{BLKREFS
331
23
102
}
  0
BLOCK_RECORD
  5
25
330
1
100
AcDbSymbolTableRecord
100
AcDbBlockTableRecord
  2
AI9-BLK2
340
0
102
{BLKREFS
331
26
102
}
  0
BLOCK_RECORD
  5
2A
330
1
100
AcDbSymbolTableRecord
100
AcDbBlockTableRecord
  2
AI9-BLK3
340
0
102
{BLKREFS
331
2B
102
}
  0
BLOCK_RECORD
  5
3B
330
1
100
AcDbSymbolTableRecord
100
AcDbBlockTableRecord
  2
AI9-BLK4
340
0
102
{BLKREFS
331
3C
102
}
  0
BLOCK_RECORD
  5
3E
330
1
100
AcDbSymbolTableRecord
100
AcDbBlockTableRecord
  2
AI9-BLK5
340
0
102
{BLKREFS
331
3F
102
}
  0
BLOCK_RECORD
  5
43
330
1
100
AcDbSymbolTableRecord
100
AcDbBlockTableRecord
  2
AI9-BLK6
340
0
102
{BLKREFS
331
44
102
}
  0
BLOCK_RECORD
  5
54
330
1
100
AcDbSymbolTableRecord
100
AcDbBlockTableRecord
  2
AI9-BLK7
340
0
102
{BLKREFS
331
55
102
}
  0
BLOCK_RECORD
  5
57
330
1
100
AcDbSymbolTableRecord
100
AcDbBlockTableRecord
  2
AI9-BLK8
340
0
102
{BLKREFS
331
58
102
}
  0
BLOCK_RECORD
  5
67
330
1
100
AcDbSymbolTableRecord
100
AcDbBlockTableRecord
  2
AI9-BLK9
340
0
102
{BLKREFS
331
68
102
}
  0
BLOCK_RECORD
  5
6C
330
1
100
AcDbSymbolTableRecord
100
AcDbBlockTableRecord
  2
AI9-BLK10
340
0
102
{BLKREFS
331
6D
102
}
  0
BLOCK_RECORD
  5
76
330
1
100
AcDbSymbolTableRecord
100
AcDbBlockTableRecord
  2
AI9-BLK11
340
0
102
{BLKREFS
331
77
102
}
  0
BLOCK_RECORD
  5
7B
330
1
100
AcDbSymbolTableRecord
100
AcDbBlockTableRecord
  2
AI9-BLK12
340
0
102
{BLKREFS
331
7C
102
}
  0
BLOCK_RECORD
  5
A5
330
1
100
AcDbSymbolTableRecord
100
AcDbBlockTableRecord
  2
AI9-BLK13
340
0
102
{BLKREFS
331
A6
102
}
  0
BLOCK_RECORD
  5
AD
330
1
100
AcDbSymbolTableRecord
100
AcDbBlockTableRecord
  2
AI9-BLK14
340
0
102
{BLKREFS
331
AE
102
}
  0
BLOCK_RECORD
  5
B5
330
1
100
AcDbSymbolTableRecord
100
AcDbBlockTableRecord
  2
AI9-BLK15
340
0
102
{BLKREFS
331
B6
102
}
  0
BLOCK_RECORD
  5
BD
330
1
100
AcDbSymbolTableRecord
100
AcDbBlockTableRecord
  2
AI9-BLK16
340
0
102
{BLKREFS
331
BE
102
}
  0
BLOCK_RECORD
  5
C5
330
1
100
AcDbSymbolTableRecord
100
AcDbBlockTableRecord
  2
AI9-BLK17
340
0
102
{BLKREFS
331
C6
102
}
  0
BLOCK_RECORD
  5
CD
330
1
100
AcDbSymbolTableRecord
100
AcDbBlockTableRecord
  2
AI9-BLK18
340
0
102
{BLKREFS
331
CE
102
}
  0
BLOCK_RECORD
  5
D5
330
1
100
AcDbSymbolTableRecord
100
AcDbBlockTableRecord
  2
AI9-BLK19
340
0
102
{BLKREFS
331
D6
102
}
  0
BLOCK_RECORD
  5
DD
330
1
100
AcDbSymbolTableRecord
100
AcDbBlockTableRecord
  2
AI9-BLK20
340
0
102
{BLKREFS
331
DE
102
}
  0
BLOCK_RECORD
  5
E5
330
1
100
AcDbSymbolTableRecord
100
AcDbBlockTableRecord
  2
AI9-BLK21
340
0
102
{BLKREFS
331
E6
102
}
  0
BLOCK_RECORD
  5
ED
330
1
100
AcDbSymbolTableRecord
100
AcDbBlockTableRecord
  2
AI9-BLK22
340
0
102
{BLKREFS
331
EE
102
}
  0
BLOCK_RECORD
  5
F5
330
1
100
AcDbSymbolTableRecord
100
AcDbBlockTableRecord
  2
AI9-BLK23
340
0
102
{BLKREFS
331
F6
102
}
  0
BLOCK_RECORD
  5
102
330
1
100
AcDbSymbolTableRecord
100
AcDbBlockTableRecord
  2
AI9-BLK25
340
0
  0
BLOCK_RECORD
  5
105
330
1
100
AcDbSymbolTableRecord
100
AcDbBlockTableRecord
  2
AI9-BLK26
340
0
102
{BLKREFS
331
106
102
}
  0
BLOCK_RECORD
  5
108
330
1
100
AcDbSymbolTableRecord
100
AcDbBlockTableRecord
  2
AI9-BLK27
340
0
102
{BLKREFS
331
109
102
}
  0
BLOCK_RECORD
  5
113
330
1
100
AcDbSymbolTableRecord
100
AcDbBlockTableRecord
  2
AI9-BLK28
340
0
102
{BLKREFS
331
114
102
}
  0
BLOCK_RECORD
  5
11E
330
1
100
AcDbSymbolTableRecord
100
AcDbBlockTableRecord
  2
AI9-BLK29
340
0
102
{BLKREFS
331
11F
102
}
  0
BLOCK_RECORD
  5
129
330
1
100
AcDbSymbolTableRecord
100
AcDbBlockTableRecord
  2
AI9-BLK30
340
0
102
{BLKREFS
331
12A
102
}
  0
BLOCK_RECORD
  5
135
330
1
100
AcDbSymbolTableRecord
100
AcDbBlockTableRecord
  2
AI9-BLK31
340
0
102
{BLKREFS
331
136
102
}
  0
BLOCK_RECORD
  5
138
330
1
100
AcDbSymbolTableRecord
100
AcDbBlockTableRecord
  2
AI9-BLK32
340
0
102
{BLKREFS
331
139
102
}
  0
BLOCK_RECORD
  5
143
330
1
100
AcDbSymbolTableRecord
100
AcDbBlockTableRecord
  2
AI9-BLK33
340
0
102
{BLKREFS
331
144
102
}
  0
BLOCK_RECORD
  5
14E
330
1
100
AcDbSymbolTableRecord
100
AcDbBlockTableRecord
  2
AI9-BLK34
340
0
102
{BLKREFS
331
14F
102
}
  0
BLOCK_RECORD
  5
15A
330
1
100
AcDbSymbolTableRecord
100
AcDbBlockTableRecord
  2
AI9-BLK35
340
0
102
{BLKREFS
331
15B
102
}
  0
BLOCK_RECORD
  5
15D
330
1
100
AcDbSymbolTableRecord
100
AcDbBlockTableRecord
  2
AI9-BLK36
340
0
102
{BLKREFS
331
15E
102
}
  0
BLOCK_RECORD
  5
168
330
1
100
AcDbSymbolTableRecord
100
AcDbBlockTableRecord
  2
AI9-BLK37
340
0
102
{BLKREFS
331
169
102
}
  0
BLOCK_RECORD
  5
173
330
1
100
AcDbSymbolTableRecord
100
AcDbBlockTableRecord
  2
AI9-BLK38
340
0
102
{BLKREFS
331
174
102
}
  0
BLOCK_RECORD
  5
17E
330
1
100
AcDbSymbolTableRecord
100
AcDbBlockTableRecord
  2
AI9-BLK39
340
0
102
{BLKREFS
331
17F
102
}
  0
BLOCK_RECORD
  5
18A
330
1
100
AcDbSymbolTableRecord
100
AcDbBlockTableRecord
  2
AI9-BLK40
340
0
102
{BLKREFS
331
18B
102
}
  0
BLOCK_RECORD
  5
18D
330
1
100
AcDbSymbolTableRecord
100
AcDbBlockTableRecord
  2
AI9-BLK41
340
0
102
{BLKREFS
331
18E
102
}
  0
BLOCK_RECORD
  5
198
330
1
100
AcDbSymbolTableRecord
100
AcDbBlockTableRecord
  2
AI9-BLK42
340
0
102
{BLKREFS
331
199
102
}
  0
BLOCK_RECORD
  5
1A3
330
1
100
AcDbSymbolTableRecord
100
AcDbBlockTableRecord
  2
AI9-BLK43
340
0
102
{BLKREFS
331
1A4
102
}
  0
BLOCK_RECORD
  5
1AF
330
1
100
AcDbSymbolTableRecord
100
AcDbBlockTableRecord
  2
AI9-BLK44
340
0
102
{BLKREFS
331
1B0
102
}
  0
BLOCK_RECORD
  5
1B2
330
1
100
AcDbSymbolTableRecord
100
AcDbBlockTableRecord
  2
AI9-BLK45
340
0
102
{BLKREFS
331
1B3
102
}
  0
BLOCK_RECORD
  5
1BD
330
1
100
AcDbSymbolTableRecord
100
AcDbBlockTableRecord
  2
AI9-BLK46
340
0
102
{BLKREFS
331
1BE
102
}
  0
BLOCK_RECORD
  5
1C8
330
1
100
AcDbSymbolTableRecord
100
AcDbBlockTableRecord
  2
AI9-BLK47
340
0
102
{BLKREFS
331
1C9
102
}
  0
BLOCK_RECORD
  5
1D3
330
1
100
AcDbSymbolTableRecord
100
AcDbBlockTableRecord
  2
AI9-BLK48
340
0
102
{BLKREFS
331
1D4
102
}
  0
BLOCK_RECORD
  5
1E6
330
1
100
AcDbSymbolTableRecord
100
AcDbBlockTableRecord
  2
AI9-BLK49
340
0
  0
BLOCK_RECORD
  5
1E9
330
1
100
AcDbSymbolTableRecord
100
AcDbBlockTableRecord
  2
AI9-BLK50
340
0
102
{BLKREFS
331
1EA
102
}
  0
BLOCK_RECORD
  5
1EC
330
1
100
AcDbSymbolTableRecord
100
AcDbBlockTableRecord
  2
AI9-BLK51
340
0
102
{BLKREFS
331
1ED
102
}
  0
BLOCK_RECORD
  5
1F7
330
1
100
AcDbSymbolTableRecord
100
AcDbBlockTableRecord
  2
AI9-BLK52
340
0
102
{BLKREFS
331
1F8
102
}
  0
BLOCK_RECORD
  5
202
330
1
100
AcDbSymbolTableRecord
100
AcDbBlockTableRecord
  2
AI9-BLK53
340
0
102
{BLKREFS
331
203
102
}
  0
BLOCK_RECORD
  5
20D
330
1
100
AcDbSymbolTableRecord
100
AcDbBlockTableRecord
  2
AI9-BLK54
340
0
102
{BLKREFS
331
20E
102
}
  0
BLOCK_RECORD
  5
219
330
1
100
AcDbSymbolTableRecord
100
AcDbBlockTableRecord
  2
AI9-BLK55
340
0
102
{BLKREFS
331
21A
102
}
  0
BLOCK_RECORD
  5
21C
330
1
100
AcDbSymbolTableRecord
100
AcDbBlockTableRecord
  2
AI9-BLK56
340
0
102
{BLKREFS
331
21D
102
}
  0
BLOCK_RECORD
  5
227
330
1
100
AcDbSymbolTableRecord
100
AcDbBlockTableRecord
  2
AI9-BLK57
340
0
102
{BLKREFS
331
228
102
}
  0
BLOCK_RECORD
  5
232
330
1
100
AcDbSymbolTableRecord
100
AcDbBlockTableRecord
  2
AI9-BLK58
340
0
102
{BLKREFS
331
233
102
}
  0
BLOCK_RECORD
  5
23E
330
1
100
AcDbSymbolTableRecord
100
AcDbBlockTableRecord
  2
AI9-BLK59
340
0
102
{BLKREFS
331
23F
102
}
  0
BLOCK_RECORD
  5
241
330
1
100
AcDbSymbolTableRecord
100
AcDbBlockTableRecord
  2
AI9-BLK60
340
0
102
{BLKREFS
331
242
102
}
  0
BLOCK_RECORD
  5
24C
330
1
100
AcDbSymbolTableRecord
100
AcDbBlockTableRecord
  2
AI9-BLK61
340
0
102
{BLKREFS
331
24D
102
}
  0
BLOCK_RECORD
  5
257
330
1
100
AcDbSymbolTableRecord
100
AcDbBlockTableRecord
  2
AI9-BLK62
340
0
102
{BLKREFS
331
258
102
}
  0
BLOCK_RECORD
  5
262
330
1
100
AcDbSymbolTableRecord
100
AcDbBlockTableRecord
  2
AI9-BLK63
340
0
102
{BLKREFS
331
263
102
}
  0
BLOCK_RECORD
  5
26E
330
1
100
AcDbSymbolTableRecord
100
AcDbBlockTableRecord
  2
AI9-BLK64
340
0
102
{BLKREFS
331
26F
102
}
  0
BLOCK_RECORD
  5
271
330
1
100
AcDbSymbolTableRecord
100
AcDbBlockTableRecord
  2
AI9-BLK65
340
0
102
{BLKREFS
331
272
102
}
  0
BLOCK_RECORD
  5
27C
330
1
100
AcDbSymbolTableRecord
100
AcDbBlockTableRecord
  2
AI9-BLK66
340
0
102
{BLKREFS
331
27D
102
}
  0
BLOCK_RECORD
  5
287
330
1
100
AcDbSymbolTableRecord
100
AcDbBlockTableRecord
  2
AI9-BLK67
340
0
102
{BLKREFS
331
288
102
}
  0
BLOCK_RECORD
  5
293
330
1
100
AcDbSymbolTableRecord
100
AcDbBlockTableRecord
  2
AI9-BLK68
340
0
102
{BLKREFS
331
294
102
}
  0
BLOCK_RECORD
  5
296
330
1
100
AcDbSymbolTableRecord
100
AcDbBlockTableRecord
  2
AI9-BLK69
340
0
102
{BLKREFS
331
297
102
}
  0
BLOCK_RECORD
  5
2A1
330
1
100
AcDbSymbolTableRecord
100
AcDbBlockTableRecord
  2
AI9-BLK70
340
0
102
{BLKREFS
331
2A2
102
}
  0
BLOCK_RECORD
  5
2AC
330
1
100
AcDbSymbolTableRecord
100
AcDbBlockTableRecord
  2
AI9-BLK71
340
0
102
{BLKREFS
331
2AD
102
}
  0
BLOCK_RECORD
  5
2B7
330
1
100
AcDbSymbolTableRecord
100
AcDbBlockTableRecord
  2
AI9-BLK72
340
0
102
{BLKREFS
331
2B8
102
}
  0
BLOCK_RECORD
  5
2D8
330
1
100
AcDbSymbolTableRecord
100
AcDbBlockTableRecord
  2
AI9-BLK74
340
0
  0
BLOCK_RECORD
  5
2DB
330
1
100
AcDbSymbolTableRecord
100
AcDbBlockTableRecord
  2
AI9-BLK75
340
0
102
{BLKREFS
331
2DC
331
5D2
102
}
  0
BLOCK_RECORD
  5
2DE
330
1
100
AcDbSymbolTableRecord
100
AcDbBlockTableRecord
  2
AI9-BLK76
340
0
102
{BLKREFS
331
2DF
102
}
  0
BLOCK_RECORD
  5
2E9
330
1
100
AcDbSymbolTableRecord
100
AcDbBlockTableRecord
  2
AI9-BLK77
340
0
102
{BLKREFS
331
2EA
102
}
  0
BLOCK_RECORD
  5
2F4
330
1
100
AcDbSymbolTableRecord
100
AcDbBlockTableRecord
  2
AI9-BLK78
340
0
102
{BLKREFS
331
2F5
102
}
  0
BLOCK_RECORD
  5
2FF
330
1
100
AcDbSymbolTableRecord
100
AcDbBlockTableRecord
  2
AI9-BLK79
340
0
102
{BLKREFS
331
300
102
}
  0
BLOCK_RECORD
  5
30B
330
1
100
AcDbSymbolTableRecord
100
AcDbBlockTableRecord
  2
AI9-BLK80
340
0
102
{BLKREFS
331
30C
331
5D1
102
}
  0
BLOCK_RECORD
  5
30E
330
1
100
AcDbSymbolTableRecord
100
AcDbBlockTableRecord
  2
AI9-BLK81
340
0
102
{BLKREFS
331
30F
102
}
  0
BLOCK_RECORD
  5
319
330
1
100
AcDbSymbolTableRecord
100
AcDbBlockTableRecord
  2
AI9-BLK82
340
0
102
{BLKREFS
331
31A
102
}
  0
BLOCK_RECORD
  5
324
330
1
100
AcDbSymbolTableRecord
100
AcDbBlockTableRecord
  2
AI9-BLK83
340
0
102
{BLKREFS
331
325
102
}
  0
BLOCK_RECORD
  5
330
330
1
100
AcDbSymbolTableRecord
100
AcDbBlockTableRecord
  2
AI9-BLK84
340
0
102
{BLKREFS
331
331
331
5D0
102
}
  0
BLOCK_RECORD
  5
333
330
1
100
AcDbSymbolTableRecord
100
AcDbBlockTableRecord
  2
AI9-BLK85
340
0
102
{BLKREFS
331
334
102
}
  0
BLOCK_RECORD
  5
33E
330
1
100
AcDbSymbolTableRecord
100
AcDbBlockTableRecord
  2
AI9-BLK86
340
0
102
{BLKREFS
331
33F
102
}
  0
BLOCK_RECORD
  5
349
330
1
100
AcDbSymbolTableRecord
100
AcDbBlockTableRecord
  2
AI9-BLK87
340
0
102
{BLKREFS
331
34A
102
}
  0
BLOCK_RECORD
  5
354
330
1
100
AcDbSymbolTableRecord
100
AcDbBlockTableRecord
  2
AI9-BLK88
340
0
102
{BLKREFS
331
355
102
}
  0
BLOCK_RECORD
  5
360
330
1
100
AcDbSymbolTableRecord
100
AcDbBlockTableRecord
  2
AI9-BLK89
340
0
102
{BLKREFS
331
361
331
5CF
102
}
  0
BLOCK_RECORD
  5
363
330
1
100
AcDbSymbolTableRecord
100
AcDbBlockTableRecord
  2
AI9-BLK90
340
0
102
{BLKREFS
331
364
102
}
  0
BLOCK_RECORD
  5
36E
330
1
100
AcDbSymbolTableRecord
100
AcDbBlockTableRecord
  2
AI9-BLK91
340
0
102
{BLKREFS
331
36F
102
}
  0
BLOCK_RECORD
  5
379
330
1
100
AcDbSymbolTableRecord
100
AcDbBlockTableRecord
  2
AI9-BLK92
340
0
102
{BLKREFS
331
37A
102
}
  0
BLOCK_RECORD
  5
385
330
1
100
AcDbSymbolTableRecord
100
AcDbBlockTableRecord
  2
AI9-BLK93
340
0
102
{BLKREFS
331
386
331
5CE
102
}
  0
BLOCK_RECORD
  5
388
330
1
100
AcDbSymbolTableRecord
100
AcDbBlockTableRecord
  2
AI9-BLK94
340
0
102
{BLKREFS
331
389
102
}
  0
BLOCK_RECORD
  5
393
330
1
100
AcDbSymbolTableRecord
100
AcDbBlockTableRecord
  2
AI9-BLK95
340
0
102
{BLKREFS
331
394
102
}
  0
BLOCK_RECORD
  5
39E
330
1
100
AcDbSymbolTableRecord
100
AcDbBlockTableRecord
  2
AI9-BLK96
340
0
102
{BLKREFS
331
39F
102
}
  0
BLOCK_RECORD
  5
3A9
330
1
100
AcDbSymbolTableRecord
100
AcDbBlockTableRecord
  2
AI9-BLK97
340
0
102
{BLKREFS
331
3AA
102
}
  0
BLOCK_RECORD
  5
3BC
330
1
100
AcDbSymbolTableRecord
100
AcDbBlockTableRecord
  2
AI9-BLK98
340
0
102
{BLKREFS
331
5C1
102
}
  0
BLOCK_RECORD
  5
3BF
330
1
100
AcDbSymbolTableRecord
100
AcDbBlockTableRecord
  2
AI9-BLK99
340
0
102
{BLKREFS
331
3C0
102
}
  0
BLOCK_RECORD
  5
3C2
330
1
100
AcDbSymbolTableRecord
100
AcDbBlockTableRecord
  2
AI9-BLK100
340
0
102
{BLKREFS
331
3C3
102
}
  0
BLOCK_RECORD
  5
3CD
330
1
100
AcDbSymbolTableRecord
100
AcDbBlockTableRecord
  2
AI9-BLK101
340
0
102
{BLKREFS
331
3CE
102
}
  0
BLOCK_RECORD
  5
3D8
330
1
100
AcDbSymbolTableRecord
100
AcDbBlockTableRecord
  2
AI9-BLK102
340
0
102
{BLKREFS
331
3D9
102
}
  0
BLOCK_RECORD
  5
3E3
330
1
100
AcDbSymbolTableRecord
100
AcDbBlockTableRecord
  2
AI9-BLK103
340
0
102
{BLKREFS
331
3E4
102
}
  0
BLOCK_RECORD
  5
3EF
330
1
100
AcDbSymbolTableRecord
100
AcDbBlockTableRecord
  2
AI9-BLK104
340
0
102
{BLKREFS
331
3F0
102
}
  0
BLOCK_RECORD
  5
3F2
330
1
100
AcDbSymbolTableRecord
100
AcDbBlockTableRecord
  2
AI9-BLK105
340
0
102
{BLKREFS
331
3F3
102
}
  0
BLOCK_RECORD
  5
3FD
330
1
100
AcDbSymbolTableRecord
100
AcDbBlockTableRecord
  2
AI9-BLK106
340
0
102
{BLKREFS
331
3FE
102
}
  0
BLOCK_RECORD
  5
408
330
1
100
AcDbSymbolTableRecord
100
AcDbBlockTableRecord
  2
AI9-BLK107
340
0
102
{BLKREFS
331
409
102
}
  0
BLOCK_RECORD
  5
414
330
1
100
AcDbSymbolTableRecord
100
AcDbBlockTableRecord
  2
AI9-BLK108
340
0
102
{BLKREFS
331
415
102
}
  0
BLOCK_RECORD
  5
417
330
1
100
AcDbSymbolTableRecord
100
AcDbBlockTableRecord
  2
AI9-BLK109
340
0
102
{BLKREFS
331
418
102
}
  0
BLOCK_RECORD
  5
422
330
1
100
AcDbSymbolTableRecord
100
AcDbBlockTableRecord
  2
AI9-BLK110
340
0
102
{BLKREFS
331
423
102
}
  0
BLOCK_RECORD
  5
42D
330
1
100
AcDbSymbolTableRecord
100
AcDbBlockTableRecord
  2
AI9-BLK111
340
0
102
{BLKREFS
331
42E
102
}
  0
BLOCK_RECORD
  5
438
330
1
100
AcDbSymbolTableRecord
100
AcDbBlockTableRecord
  2
AI9-BLK112
340
0
102
{BLKREFS
331
439
102
}
  0
BLOCK_RECORD
  5
444
330
1
100
AcDbSymbolTableRecord
100
AcDbBlockTableRecord
  2
AI9-BLK113
340
0
102
{BLKREFS
331
445
102
}
  0
BLOCK_RECORD
  5
447
330
1
100
AcDbSymbolTableRecord
100
AcDbBlockTableRecord
  2
AI9-BLK114
340
0
102
{BLKREFS
331
448
102
}
  0
BLOCK_RECORD
  5
452
330
1
100
AcDbSymbolTableRecord
100
AcDbBlockTableRecord
  2
AI9-BLK115
340
0
102
{BLKREFS
331
453
102
}
  0
BLOCK_RECORD
  5
45D
330
1
100
AcDbSymbolTableRecord
100
AcDbBlockTableRecord
  2
AI9-BLK116
340
0
102
{BLKREFS
331
45E
102
}
  0
BLOCK_RECORD
  5
469
330
1
100
AcDbSymbolTableRecord
100
AcDbBlockTableRecord
  2
AI9-BLK117
340
0
102
{BLKREFS
331
46A
102
}
  0
BLOCK_RECORD
  5
46C
330
1
100
AcDbSymbolTableRecord
100
AcDbBlockTableRecord
  2
AI9-BLK118
340
0
102
{BLKREFS
331
46D
102
}
  0
BLOCK_RECORD
  5
477
330
1
100
AcDbSymbolTableRecord
100
AcDbBlockTableRecord
  2
AI9-BLK119
340
0
102
{BLKREFS
331
478
102
}
  0
BLOCK_RECORD
  5
482
330
1
100
AcDbSymbolTableRecord
100
AcDbBlockTableRecord
  2
AI9-BLK120
340
0
102
{BLKREFS
331
483
102
}
  0
BLOCK_RECORD
  5
48D
330
1
100
AcDbSymbolTableRecord
100
AcDbBlockTableRecord
  2
AI9-BLK121
340
0
102
{BLKREFS
331
48E
102
}
  0
ENDTAB
  0
ENDSEC
  0
SECTION
  2
BLOCKS
  0
BLOCK
  5
D
330
A
100
AcDbEntity
  8
0
100
AcDbBlockBegin
  2
*MODEL_SPACE
 70
     0
 10
0.0
 20
0.0
 30
0.0
  3
*MODEL_SPACE
  1

  4

  0
ENDBLK
  5
E
330
A
100
AcDbEntity
  8
0
100
AcDbBlockEnd
  0
BLOCK
  5
F
330
B
100
AcDbEntity
 67
     1
  8
0
100
AcDbBlockBegin
  2
*PAPER_SPACE
 70
     0
 10
0.0
 20
0.0
 30
0.0
  3
*PAPER_SPACE
  1

  4

  0
ENDBLK
  5
10
330
B
100
AcDbEntity
 67
     1
  8
0
100
AcDbBlockEnd
  0
BLOCK
  5
24
330
22
100
AcDbEntity
  8
0
 62
     7
100
AcDbBlockBegin
  2
AI9-BLK1
 70
     0
 10
0.0
 20
0.0
 30
0.0
  3
AI9-BLK1
  1

  4

  0
INSERT
  5
2B
330
22
100
AcDbEntity
  8
H2_5T_TIE_PLATES
 62
     7
100
AcDbBlockReference
  2
AI9-BLK3
 10
-1.004331461588542
 20
0.193011474609375
 30
0.0
  0
INSERT
  5
26
330
22
100
AcDbEntity
  8
H2_5T_TIE_PLATES
 62
     7
100
AcDbBlockReference
  2
AI9-BLK2
 10
1.139120822482639
 20
-0.8405171712239583
 30
0.0
  0
ENDBLK
  5
3A
330
22
100
AcDbEntity
  8
0
100
AcDbBlockEnd
  0
BLOCK
  5
27
330
25
100
AcDbEntity
  8
0
 62
     7
100
AcDbBlockBegin
  2
AI9-BLK2
 70
     0
 10
0.0
 20
0.0
 30
0.0
  3
AI9-BLK2
  1

  4

  0
SPLINE
  5
28
330
25
100
AcDbEntity
  8
H2_5T_TIE_PLATES
 62
     7
100
AcDbSpline
210
0.0
220
0.0
230
1.0
 70
    11
 71
     3
 72
    56
 73
    52
 74
     0
 42
0.0000000001
 43
0.0000000001
 40
0.0
 40
0.0
 40
0.0
 40
0.0
 40
1.0
 40
1.0
 40
1.0
 40
2.0
 40
2.0
 40
2.0
 40
3.0
 40
3.0
 40
3.0
 40
4.0
 40
4.0
 40
4.0
 40
5.0
 40
5.0
 40
5.0
 40
6.0
 40
6.0
 40
6.0
 40
7.0
 40
7.0
 40
7.0
 40
8.0
 40
8.0
 40
8.0
 40
9.0
 40
9.0
 40
9.0
 40
10.0
 40
10.0
 40
10.0
 40
11.0
 40
11.0
 40
11.0
 40
12.0
 40
12.0
 40
12.0
 40
13.0
 40
13.0
 40
13.0
 40
14.0
 40
14.0
 40
14.0
 40
15.0
 40
15.0
 40
15.0
 40
16.0
 40
16.0
 40
16.0
 40
17.0
 40
17.0
 40
17.0
 40
17.0
 10
-0.2599324544270833
 20
-0.7501695421006944
 30
0.0
 10
-0.4054877387152778
 20
-0.9176011827256944
 30
0.0
 10
-0.4695665147569444
 20
-1.057644314236111
 30
0.0
 10
-0.4743896484375
 20
-1.253325737847222
 30
0.0
 10
-0.4743896484375
 20
-1.253325737847222
 30
0.0
 10
0.8288899739583333
 20
-0.9403388129340277
 30
0.0
 10
0.8288899739583333
 20
-0.9403388129340277
 30
0.0
 10
0.8288899739583333
 20
-0.9403388129340277
 30
0.0
 10
0.8337131076388888
 20
-1.2495361328125
 30
0.0
 10
0.8337131076388888
 20
-1.2495361328125
 30
0.0
 10
0.8337131076388888
 20
-1.2495361328125
 30
0.0
 10
-0.8237223307291666
 20
-1.64796142578125
 30
0.0
 10
-0.8237223307291666
 20
-1.64796142578125
 30
0.0
 10
-0.8233778211805555
 20
-1.424030219184028
 30
0.0
 10
-0.7978841145833333
 20
-1.189935980902778
 30
0.0
 10
-0.7105509440104166
 20
-0.9496405707465278
 30
0.0
 10
-0.6669704861111111
 20
-0.8313015407986111
 30
0.0
 10
-0.5617228190104167
 20
-0.6902248806423611
 30
0.0
 10
-0.4731838650173611
 20
-0.5820488823784722
 30
0.0
 10
-0.4731838650173611
 20
-0.5820488823784722
 30
0.0
 10
0.1064534505208333
 20
0.1290188259548611
 30
0.0
 10
0.1064534505208333
 20
0.1290188259548611
 30
0.0
 10
0.3415812174479166
 20
0.4173733181423611
 30
0.0
 10
0.4216796875
 20
0.5612060546875
 30
0.0
 10
0.4163397894965277
 20
0.8993421766493055
 30
0.0
 10
0.4113444010416666
 20
1.213190375434028
 30
0.0
 10
0.3012736002604167
 20
1.41851806640625
 30
0.0
 10
-0.0485758463541667
 20
1.334629991319444
 30
0.0
 10
-0.4718058268229166
 20
1.232655164930556
 30
0.0
 10
-0.5026394314236111
 20
0.8070136176215277
 30
0.0
 10
-0.4897203233506944
 20
0.4830023871527777
 30
0.0
 10
-0.4897203233506944
 20
0.4830023871527777
 30
0.0
 10
-0.83095703125
 20
0.4008368598090277
 30
0.0
 10
-0.83095703125
 20
0.4008368598090277
 30
0.0
 10
-0.83095703125
 20
0.4008368598090277
 30
0.0
 10
-0.8337131076388888
 20
0.59066162109375
 30
0.0
 10
-0.8337131076388888
 20
0.59066162109375
 30
0.0
 10
-0.8371582031249999
 20
0.8178656684027778
 30
0.0
 10
-0.7825534396701388
 20
1.046275499131944
 30
0.0
 10
-0.6456108940972222
 20
1.256943088107639
 30
0.0
 10
-0.5527655707465278
 20
1.379243977864583
 30
0.0
 10
-0.3822333441840278
 20
1.565106879340278
 30
0.0
 10
-0.0368625217013889
 20
1.64796142578125
 30
0.0
 10
0.4897203233506944
 20
1.774396430121528
 30
0.0
 10
0.7625718858506944
 20
1.487936740451389
 30
0.0
 10
0.7706678602430555
 20
0.9761678059895832
 30
0.0
 10
0.7773857964409722
 20
0.5222764756944444
 30
0.0
 10
0.59996337890625
 20
0.25579833984375
 30
0.0
 10
0.2878377278645833
 20
-0.1092095269097222
 30
0.0
 10
0.2878377278645833
 20
-0.1092095269097222
 30
0.0
 10
-0.2599324544270833
 20
-0.7501695421006944
 30
0.0
 10
-0.2599324544270833
 20
-0.7501695421006944
 30
0.0
  0
ENDBLK
  5
29
330
25
100
AcDbEntity
  8
0
100
AcDbBlockEnd
  0
BLOCK
  5
2C
330
2A
100
AcDbEntity
  8
0
 62
     7
100
AcDbBlockBegin
  2
AI9-BLK3
 70
     0
 10
0.0
 20
0.0
 30
0.0
  3
AI9-BLK3
  1

  4

  0
LWPOLYLINE
  5
2D
330
2A
100
AcDbEntity
  8
H2_5T_TIE_PLATES
 62
     7
100
AcDbPolyline
 90
       10
 70
     1
 43
0.0
 10
-0.9044236924913194
 20
-2.295467122395833
 10
-0.9685024685329861
 20
1.831585015190972
 10
0.962301296657986
 20
2.295467122395833
 10
0.9685024685329861
 20
1.882744683159722
 10
-0.5066874186197916
 20
1.528072102864583
 10
-0.4856723361545138
 20
0.1748385959201389
 10
0.8853034125434027
 20
0.5041897243923611
 10
0.8915045844184028
 20
0.0912950303819444
 10
-0.4794711642795139
 20
-0.2380560980902778
 10
-0.4493265787760417
 20
-2.186085340711805
  0
ENDBLK
  5
39
330
2A
100
AcDbEntity
  8
0
100
AcDbBlockEnd
  0
BLOCK
  5
3D
330
3B
100
AcDbEntity
  8
0
 62
     7
100
AcDbBlockBegin
  2
AI9-BLK4
 70
     0
 10
0.0
 20
0.0
 30
0.0
  3
AI9-BLK4
  1

  4

  0
INSERT
  5
44
330
3B
100
AcDbEntity
  8
H2_5T_TIE_PLATES
 62
     7
100
AcDbBlockReference
  2
AI9-BLK6
 10
-0.6972011990017361
 20
0.5802402072482639
 30
0.0
  0
INSERT
  5
3F
330
3B
100
AcDbEntity
  8
H2_5T_TIE_PLATES
 62
     7
100
AcDbBlockReference
  2
AI9-BLK5
 10
1.174260796440972
 20
-1.104239230685764
 30
0.0
  0
ENDBLK
  5
53
330
3B
100
AcDbEntity
  8
0
100
AcDbBlockEnd
  0
BLOCK
  5
40
330
3E
100
AcDbEntity
  8
0
 62
     7
100
AcDbBlockBegin
  2
AI9-BLK5
 70
     0
 10
0.0
 20
0.0
 30
0.0
  3
AI9-BLK5
  1

  4

  0
SPLINE
  5
41
330
3E
100
AcDbEntity
  8
H2_5T_TIE_PLATES
 62
     7
100
AcDbSpline
210
0.0
220
0.0
230
1.0
 70
    11
 71
     3
 72
    26
 73
    22
 74
     0
 42
0.0000000001
 43
0.0000000001
 40
0.0
 40
0.0
 40
0.0
 40
0.0
 40
1.0
 40
1.0
 40
1.0
 40
2.0
 40
2.0
 40
2.0
 40
3.0
 40
3.0
 40
3.0
 40
4.0
 40
4.0
 40
4.0
 40
5.0
 40
5.0
 40
5.0
 40
6.0
 40
6.0
 40
6.0
 40
7.0
 40
7.0
 40
7.0
 40
7.0
 10
0.1560628255208333
 20
0.7233839246961805
 30
0.0
 10
0.1560628255208333
 20
0.7233839246961805
 30
0.0
 10
-0.50384521484375
 20
0.7793667263454861
 30
0.0
 10
-0.50384521484375
 20
0.7793667263454861
 30
0.0
 10
-0.50384521484375
 20
0.7793667263454861
 30
0.0
 10
-0.5022949218749999
 20
1.047567409939236
 30
0.0
 10
-0.5022949218749999
 20
1.047567409939236
 30
0.0
 10
-0.06046142578125
 20
1.01793958875868
 30
0.0
 10
0.1832790798611111
 20
1.080295817057292
 30
0.0
 10
0.2358167860243055
 20
1.55899183485243
 30
0.0
 10
0.2358167860243055
 20
1.55899183485243
 30
0.0
 10
0.50384521484375
 20
1.536254204644097
 30
0.0
 10
0.50384521484375
 20
1.536254204644097
 30
0.0
 10
0.50384521484375
 20
1.536254204644097
 30
0.0
 10
0.4843804253472222
 20
-1.55899183485243
 30
0.0
 10
0.4843804253472222
 20
-1.55899183485243
 30
0.0
 10
0.4843804253472222
 20
-1.55899183485243
 30
0.0
 10
0.1419379340277778
 20
-1.530397542317708
 30
0.0
 10
0.1419379340277778
 20
-1.530397542317708
 30
0.0
 10
0.1419379340277778
 20
-1.530397542317708
 30
0.0
 10
0.1560628255208333
 20
0.7233839246961805
 30
0.0
 10
0.1560628255208333
 20
0.7233839246961805
 30
0.0
  0
ENDBLK
  5
42
330
3E
100
AcDbEntity
  8
0
100
AcDbBlockEnd
  0
BLOCK
  5
45
330
43
100
AcDbEntity
  8
0
 62
     7
100
AcDbBlockBegin
  2
AI9-BLK6
 70
     0
 10
0.0
 20
0.0
 30
0.0
  3
AI9-BLK6
  1

  4

  0
LWPOLYLINE
  5
46
330
43
100
AcDbEntity
  8
H2_5T_TIE_PLATES
 62
     7
100
AcDbPolyline
 90
       10
 70
     1
 43
0.0
 10
-0.980904812282986
 20
-2.044061279296875
 10
-0.9548943413628471
 20
2.08299085828993
 10
0.980904812282986
 20
1.919521077473958
 10
0.9784932454427082
 20
1.506626383463542
 10
-0.5013475206163194
 20
1.631511094835069
 10
-0.5097880045572917
 20
0.2781053331163194
 10
0.8653218587239583
 20
0.1625223795572917
 10
0.8627380371093749
 20
-0.250372314453125
 10
-0.5125440809461805
 20
-0.1347893608940972
 10
-0.5246019151475694
 20
-2.08299085828993
  0
ENDBLK
  5
52
330
43
100
AcDbEntity
  8
0
100
AcDbBlockEnd
  0
BLOCK
  5
56
330
54
100
AcDbEntity
  8
0
 62
     7
100
AcDbBlockBegin
  2
AI9-BLK7
 70
     0
 10
0.0
 20
0.0
 30
0.0
  3
AI9-BLK7
  1

  4

  0
INSERT
  5
7C
330
54
100
AcDbEntity
  8
H2_5T_TIE_PLATES
 62
     7
100
AcDbBlockReference
  2
AI9-BLK12
 10
-2.511302354600694
 20
-0.5929009331597221
 30
0.0
  0
INSERT
  5
77
330
54
100
AcDbEntity
  8
H2_5T_TIE_PLATES
 62
     7
100
AcDbBlockReference
  2
AI9-BLK11
 10
-0.8214830186631944
 20
0.1574408637152778
 30
0.0
  0
INSERT
  5
6D
330
54
100
AcDbEntity
  8
H2_5T_TIE_PLATES
 62
     7
100
AcDbBlockReference
  2
AI9-BLK10
 10
0.3632853190104166
 20
-0.3186713324652777
 30
0.0
  0
INSERT
  5
68
330
54
100
AcDbEntity
  8
H2_5T_TIE_PLATES
 62
     7
100
AcDbBlockReference
  2
AI9-BLK9
 10
1.649683973524305
 20
-0.0738972981770833
 30
0.0
  0
INSERT
  5
58
330
54
100
AcDbEntity
  8
H2_5T_TIE_PLATES
 62
     7
100
AcDbBlockReference
  2
AI9-BLK8
 10
3.025827365451389
 20
1.664153374565972
 30
0.0
  0
ENDBLK
  5
80
330
54
100
AcDbEntity
  8
0
100
AcDbBlockEnd
  0
BLOCK
  5
59
330
57
100
AcDbEntity
  8
0
 62
     7
100
AcDbBlockBegin
  2
AI9-BLK8
 70
     0
 10
0.0
 20
0.0
 30
0.0
  3
AI9-BLK8
  1

  4

  0
LWPOLYLINE
  5
60
330
57
100
AcDbEntity
  8
H2_5T_TIE_PLATES
 62
     7
100
AcDbPolyline
 90
        4
 70
     1
 43
0.0
 10
-0.3407199435763889
 20
-0.5496649848090277
 10
-0.1229899088541667
 20
-0.5041897243923611
 10
-0.1229899088541667
 20
0.4525132921006944
 10
-0.3407199435763889
 20
0.4070380316840278
  0
LWPOLYLINE
  5
5A
330
57
100
AcDbEntity
  8
H2_5T_TIE_PLATES
 62
     7
100
AcDbPolyline
 90
        4
 70
     1
 43
0.0
 10
0.1233344184027778
 20
-0.4525132921006944
 10
0.3407199435763889
 20
-0.4070380316840278
 10
0.3407199435763889
 20
0.5496649848090277
 10
0.1233344184027778
 20
0.5041897243923611
  0
ENDBLK
  5
66
330
57
100
AcDbEntity
  8
0
100
AcDbBlockEnd
  0
BLOCK
  5
69
330
67
100
AcDbEntity
  8
0
 62
     7
100
AcDbBlockBegin
  2
AI9-BLK9
 70
     0
 10
0.0
 20
0.0
 30
0.0
  3
AI9-BLK9
  1

  4

  0
SPLINE
  5
6A
330
67
100
AcDbEntity
  8
H2_5T_TIE_PLATES
 62
     7
100
AcDbSpline
210
0.0
220
0.0
230
1.0
 70
    11
 71
     3
 72
    56
 73
    52
 74
     0
 42
0.0000000001
 43
0.0000000001
 40
0.0
 40
0.0
 40
0.0
 40
0.0
 40
1.0
 40
1.0
 40
1.0
 40
2.0
 40
2.0
 40
2.0
 40
3.0
 40
3.0
 40
3.0
 40
4.0
 40
4.0
 40
4.0
 40
5.0
 40
5.0
 40
5.0
 40
6.0
 40
6.0
 40
6.0
 40
7.0
 40
7.0
 40
7.0
 40
8.0
 40
8.0
 40
8.0
 40
9.0
 40
9.0
 40
9.0
 40
10.0
 40
10.0
 40
10.0
 40
11.0
 40
11.0
 40
11.0
 40
12.0
 40
12.0
 40
12.0
 40
13.0
 40
13.0
 40
13.0
 40
14.0
 40
14.0
 40
14.0
 40
15.0
 40
15.0
 40
15.0
 40
16.0
 40
16.0
 40
16.0
 40
17.0
 40
17.0
 40
17.0
 40
17.0
 10
-0.2058444552951389
 20
-0.6199449327256944
 30
0.0
 10
-0.3260782877604166
 20
-0.7536146375868055
 30
0.0
 10
-0.3798217773437499
 20
-0.8666137695312499
 30
0.0
 10
-0.3863674587673611
 20
-1.027155219184028
 30
0.0
 10
-0.3863674587673611
 20
-1.027155219184028
 30
0.0
 10
0.6740329318576388
 20
-0.804946560329861
 30
0.0
 10
0.6740329318576388
 20
-0.804946560329861
 30
0.0
 10
0.6740329318576388
 20
-0.804946560329861
 30
0.0
 10
0.6740329318576388
 20
-1.05885009765625
 30
0.0
 10
0.6740329318576388
 20
-1.05885009765625
 30
0.0
 10
0.6740329318576388
 20
-1.05885009765625
 30
0.0
 10
-0.6740329318576388
 20
-1.34100341796875
 30
0.0
 10
-0.6740329318576388
 20
-1.34100341796875
 30
0.0
 10
-0.6709323459201388
 20
-1.157379828559028
 30
0.0
 10
-0.6471611870659721
 20
-0.966177029079861
 30
0.0
 10
-0.5737806532118055
 20
-0.7711846245659721
 30
0.0
 10
-0.5369181315104166
 20
-0.6757554796006944
 30
0.0
 10
-0.4497572157118055
 20
-0.5627563476562499
 30
0.0
 10
-0.3763766818576388
 20
-0.4762844509548611
 30
0.0
 10
-0.3763766818576388
 20
-0.4762844509548611
 30
0.0
 10
0.1021470811631944
 20
0.0911227756076389
 30
0.0
 10
0.1021470811631944
 20
0.0911227756076389
 30
0.0
 10
0.29610595703125
 20
0.3215996636284722
 30
0.0
 10
0.3629408094618055
 20
0.4373548719618055
 30
0.0
 10
0.3629408094618055
 20
0.7150295681423611
 30
0.0
 10
0.3629408094618055
 20
0.9723782009548611
 30
0.0
 10
0.2761244032118055
 20
1.143599446614583
 30
0.0
 10
-0.0084404839409722
 20
1.083999294704861
 30
0.0
 10
-0.3529500325520833
 20
1.011996799045139
 30
0.0
 10
-0.3832668728298611
 20
0.6636976453993055
 30
0.0
 10
-0.3763766818576388
 20
0.3973917643229166
 30
0.0
 10
-0.3763766818576388
 20
0.3973917643229166
 30
0.0
 10
-0.6540513780381944
 20
0.33951416015625
 30
0.0
 10
-0.6540513780381944
 20
0.33951416015625
 30
0.0
 10
-0.6540513780381944
 20
0.33951416015625
 30
0.0
 10
-0.6540513780381944
 20
0.4952324761284722
 30
0.0
 10
-0.6540513780381944
 20
0.4952324761284722
 30
0.0
 10
-0.6540513780381944
 20
0.6816121419270833
 30
0.0
 10
-0.6071980794270833
 20
0.8673027886284721
 30
0.0
 10
-0.4935099283854166
 20
1.036801486545139
 30
0.0
 10
-0.4166842990451389
 20
1.134297688802083
 30
0.0
 10
-0.2761244032118055
 20
1.28209228515625
 30
0.0
 10
0.0049953884548611
 20
1.34100341796875
 30
0.0
 10
0.4332207573784722
 20
1.430575900607639
 30
0.0
 10
0.6506062825520833
 20
1.188041178385417
 30
0.0
 10
0.6506062825520833
 20
0.7680840386284722
 30
0.0
 10
0.6506062825520833
 20
0.3956692165798611
 30
0.0
 10
0.5031561957465277
 20
0.1820732964409722
 30
0.0
 10
0.2458075629340278
 20
-0.1090372721354167
 30
0.0
 10
0.2458075629340278
 20
-0.1090372721354167
 30
0.0
 10
-0.2058444552951389
 20
-0.6199449327256944
 30
0.0
 10
-0.2058444552951389
 20
-0.6199449327256944
 30
0.0
  0
ENDBLK
  5
6B
330
67
100
AcDbEntity
  8
0
100
AcDbBlockEnd
  0
BLOCK
  5
6E
330
6C
100
AcDbEntity
  8
0
 62
     7
100
AcDbBlockBegin
  2
AI9-BLK10
 70
     0
 10
0.0
 20
0.0
 30
0.0
  3
AI9-BLK10
  1

  4

  0
LWPOLYLINE
  5
6F
330
6C
100
AcDbEntity
  8
H2_5T_TIE_PLATES
 62
     7
100
AcDbPolyline
 90
        4
 70
     1
 43
0.0
 10
-0.5083238389756944
 20
-1.422135416666666
 10
0.3047186957465278
 20
1.379416232638889
 10
0.5083238389756944
 20
1.422135416666666
 10
-0.3043741861979166
 20
-1.379416232638889
  0
ENDBLK
  5
75
330
6C
100
AcDbEntity
  8
0
100
AcDbBlockEnd
  0
BLOCK
  5
78
330
76
100
AcDbEntity
  8
0
 62
     7
100
AcDbBlockBegin
  2
AI9-BLK11
 70
     0
 10
0.0
 20
0.0
 30
0.0
  3
AI9-BLK11
  1

  4

  0
SPLINE
  5
79
330
76
100
AcDbEntity
  8
H2_5T_TIE_PLATES
 62
     7
100
AcDbSpline
210
0.0
220
0.0
230
1.0
 70
    11
 71
     3
 72
    26
 73
    22
 74
     0
 42
0.0000000001
 43
0.0000000001
 40
0.0
 40
0.0
 40
0.0
 40
0.0
 40
1.0
 40
1.0
 40
1.0
 40
2.0
 40
2.0
 40
2.0
 40
3.0
 40
3.0
 40
3.0
 40
4.0
 40
4.0
 40
4.0
 40
5.0
 40
5.0
 40
5.0
 40
6.0
 40
6.0
 40
6.0
 40
7.0
 40
7.0
 40
7.0
 40
7.0
 10
0.1210951063368056
 20
0.5157307942708332
 30
0.0
 10
0.1210951063368056
 20
0.5157307942708332
 30
0.0
 10
-0.3808553059895833
 20
0.4109998914930555
 30
0.0
 10
-0.3808553059895833
 20
0.4109998914930555
 30
0.0
 10
-0.3808553059895833
 20
0.4109998914930555
 30
0.0
 10
-0.3808553059895833
 20
0.617361111111111
 30
0.0
 10
-0.3808553059895833
 20
0.617361111111111
 30
0.0
 10
-0.0453030056423611
 20
0.6934977213541667
 30
0.0
 10
0.1396986219618056
 20
0.7961615668402777
 30
0.0
 10
0.1772501627604167
 20
1.175466579861111
 30
0.0
 10
0.1772501627604167
 20
1.175466579861111
 30
0.0
 10
0.3808553059895833
 20
1.217841254340278
 30
0.0
 10
0.3808553059895833
 20
1.217841254340278
 30
0.0
 10
0.3808553059895833
 20
1.217841254340278
 30
0.0
 10
0.3808553059895833
 20
-1.163408745659722
 30
0.0
 10
0.3808553059895833
 20
-1.163408745659722
 30
0.0
 10
0.3808553059895833
 20
-1.163408745659722
 30
0.0
 10
0.1210951063368056
 20
-1.217841254340278
 30
0.0
 10
0.1210951063368056
 20
-1.217841254340278
 30
0.0
 10
0.1210951063368056
 20
-1.217841254340278
 30
0.0
 10
0.1210951063368056
 20
0.5157307942708332
 30
0.0
 10
0.1210951063368056
 20
0.5157307942708332
 30
0.0
  0
ENDBLK
  5
7A
330
76
100
AcDbEntity
  8
0
100
AcDbBlockEnd
  0
BLOCK
  5
7D
330
7B
100
AcDbEntity
  8
0
 62
     7
100
AcDbBlockBegin
  2
AI9-BLK12
 70
     0
 10
0.0
 20
0.0
 30
0.0
  3
AI9-BLK12
  1

  4

  0
SPLINE
  5
7E
330
7B
100
AcDbEntity
  8
H2_5T_TIE_PLATES
 62
     7
100
AcDbSpline
210
0.0
220
0.0
230
1.0
 70
    11
 71
     3
 72
    53
 73
    49
 74
     0
 42
0.0000000001
 43
0.0000000001
 40
0.0
 40
0.0
 40
0.0
 40
0.0
 40
1.0
 40
1.0
 40
1.0
 40
2.0
 40
2.0
 40
2.0
 40
3.0
 40
3.0
 40
3.0
 40
4.0
 40
4.0
 40
4.0
 40
5.0
 40
5.0
 40
5.0
 40
6.0
 40
6.0
 40
6.0
 40
7.0
 40
7.0
 40
7.0
 40
8.0
 40
8.0
 40
8.0
 40
9.0
 40
9.0
 40
9.0
 40
10.0
 40
10.0
 40
10.0
 40
11.0
 40
11.0
 40
11.0
 40
12.0
 40
12.0
 40
12.0
 40
13.0
 40
13.0
 40
13.0
 40
14.0
 40
14.0
 40
14.0
 40
15.0
 40
15.0
 40
15.0
 40
16.0
 40
16.0
 40
16.0
 40
16.0
 10
-0.22789306640625
 20
0.1953369140625
 30
0.0
 10
0.04805908203125
 20
0.2700954861111111
 30
0.0
 10
0.42012939453125
 20
0.2886990017361111
 30
0.0
 10
0.42012939453125
 20
0.8729871961805554
 30
0.0
 10
0.42012939453125
 20
1.182012261284722
 30
0.0
 10
0.3281453450520833
 20
1.374248589409722
 30
0.0
 10
-0.0187757703993056
 20
1.301557074652778
 30
0.0
 10
-0.4122056749131944
 20
1.219219292534722
 30
0.0
 10
-0.4662936740451388
 20
0.9115722656249999
 30
0.0
 10
-0.4662936740451388
 20
0.5856662326388888
 30
0.0
 10
-0.4662936740451388
 20
0.5856662326388888
 30
0.0
 10
-0.7966783311631944
 20
0.5167643229166666
 30
0.0
 10
-0.7966783311631944
 20
0.5167643229166666
 30
0.0
 10
-0.8132147894965277
 20
1.046275499131944
 30
0.0
 10
-0.5792928059895833
 20
1.502061631944444
 30
0.0
 10
-0.0105075412326389
 20
1.620917426215278
 30
0.0
 10
0.4576809353298611
 20
1.719102647569444
 30
0.0
 10
0.7715291341145832
 20
1.475534396701389
 30
0.0
 10
0.7715291341145832
 20
0.9970106336805554
 30
0.0
 10
0.7715291341145832
 20
0.6542236328125
 30
0.0
 10
0.6671427408854166
 20
0.3827501085069444
 30
0.0
 10
0.3326239691840278
 20
0.1939588758680556
 30
0.0
 10
0.3326239691840278
 20
0.1939588758680556
 30
0.0
 10
0.3326239691840278
 20
0.1856906467013889
 30
0.0
 10
0.3326239691840278
 20
0.1856906467013889
 30
0.0
 10
0.6960815429687499
 20
0.1812120225694444
 30
0.0
 10
0.8552449544270833
 20
-0.0775146484375
 30
0.0
 10
0.8552449544270833
 20
-0.4371826171875
 30
0.0
 10
0.8552449544270833
 20
-1.030083550347222
 30
0.0
 10
0.5958292643229166
 20
-1.490692816840278
 30
0.0
 10
-0.0273885091145833
 20
-1.620917426215278
 30
0.0
 10
-0.6543958875868055
 20
-1.752175564236111
 30
0.0
 10
-0.8679918077256944
 20
-1.378038194444444
 30
0.0
 10
-0.8552449544270833
 20
-0.7996066623263888
 30
0.0
 10
-0.8552449544270833
 20
-0.7996066623263888
 30
0.0
 10
-0.5121134440104166
 20
-0.7279486762152777
 30
0.0
 10
-0.5121134440104166
 20
-0.7279486762152777
 30
0.0
 10
-0.5413967556423611
 20
-1.072458224826389
 30
0.0
 10
-0.4456231011284722
 20
-1.391129557291666
 30
0.0
 10
0.0018948025173611
 20
-1.297422960069444
 30
0.0
 10
0.3450263129340278
 20
-1.225764973958333
 30
0.0
 10
0.5079793294270832
 20
-0.9501573350694443
 30
0.0
 10
0.5079793294270832
 20
-0.6242513020833332
 30
0.0
 10
0.5079793294270832
 20
-0.0695909288194444
 30
0.0
 10
0.2988620334201388
 20
-0.0075792100694444
 30
0.0
 10
-0.22789306640625
 20
-0.1219563802083333
 30
0.0
 10
-0.22789306640625
 20
-0.1219563802083333
 30
0.0
 10
-0.22789306640625
 20
0.1953369140625
 30
0.0
 10
-0.22789306640625
 20
0.1953369140625
 30
0.0
  0
ENDBLK
  5
7F
330
7B
100
AcDbEntity
  8
0
100
AcDbBlockEnd
  0
BLOCK
  5
A7
330
A5
100
AcDbEntity
  8
0
 62
     7
100
AcDbBlockBegin
  2
AI9-BLK13
 70
     0
 10
0.0
 20
0.0
 30
0.0
  3
AI9-BLK13
  1

  4

  0
ELLIPSE
  5
AB
330
A5
100
AcDbEntity
  8
H2_5T_TIE_PLATES
 62
     7
100
AcDbEllipse
 10
-0.0689019097222222
 20
0.0158474392361111
 30
0.0
 11
-0.1725131564670139
 21
-0.6387207031250001
 31
0.0
210
0.0
220
0.0
230
1.0
 40
0.8122049193454387
 41
0.0
 42
6.283185307179586
  0
SPLINE
  5
AA
330
A5
100
AcDbEntity
  8
H2_5T_TIE_PLATES
 62
     7
100
AcDbSpline
210
0.0
220
0.0
230
1.0
 70
    11
 71
     3
 72
    29
 73
    25
 74
     0
 42
0.0000000001
 43
0.0000000001
 40
0.0
 40
0.0
 40
0.0
 40
0.0
 40
1.0
 40
1.0
 40
1.0
 40
2.0
 40
2.0
 40
2.0
 40
3.0
 40
3.0
 40
3.0
 40
4.0
 40
4.0
 40
4.0
 40
5.0
 40
5.0
 40
5.0
 40
6.0
 40
6.0
 40
6.0
 40
7.0
 40
7.0
 40
7.0
 40
8.0
 40
8.0
 40
8.0
 40
8.0
 10
-0.5876471625434028
 20
0.1560628255208333
 30
0.0
 10
-0.4923902723524305
 20
0.5084960937499999
 30
0.0
 10
-0.1828484429253472
 20
0.73173828125
 30
0.0
 10
0.1037835015190972
 20
0.6545681423611111
 30
0.0
 10
0.1396124945746528
 20
0.6445773654513889
 30
0.0
 10
0.1732021755642361
 20
0.6307969835069444
 30
0.0
 10
0.2048970540364583
 20
0.6132269965277777
 30
0.0
 10
0.2079976399739583
 20
0.6125379774305555
 30
0.0
 10
0.211614990234375
 20
0.6125379774305555
 30
0.0
 10
0.2148878309461805
 20
0.6118489583333333
 30
0.0
 10
0.5013475206163194
 20
0.5339898003472222
 30
0.0
 10
0.656549072265625
 20
0.1853461371527778
 30
0.0
 10
0.5611199273003472
 20
-0.1670871310763889
 30
0.0
 10
0.4658630371093749
 20
-0.5195203993055555
 30
0.0
 10
0.1563212076822917
 20
-0.7427625868055555
 30
0.0
 10
-0.1303107367621528
 20
-0.6655924479166666
 30
0.0
 10
-0.1659674750434028
 20
-0.6556016710069443
 30
0.0
 10
-0.1999016655815972
 20
-0.6418212890624999
 30
0.0
 10
-0.2314242892795139
 20
-0.6242513020833332
 30
0.0
 10
-0.234869384765625
 20
-0.6232177734375
 30
0.0
 10
-0.2381422254774305
 20
-0.6235622829861111
 30
0.0
 10
-0.2414150661892361
 20
-0.6228732638888889
 30
0.0
 10
-0.5278747558593749
 20
-0.5450141059027778
 30
0.0
 10
-0.6829040527343749
 20
-0.1963704427083333
 30
0.0
 10
-0.5876471625434028
 20
0.1560628255208333
 30
0.0
  0
SPLINE
  5
A9
330
A5
100
AcDbEntity
  8
H2_5T_TIE_PLATES
 62
     7
100
AcDbSpline
210
0.0
220
0.0
230
1.0
 70
     8
 71
     3
 72
     8
 73
     4
 74
     0
 42
0.0000000001
 43
0.0000000001
 40
0.0
 40
0.0
 40
0.0
 40
0.0
 40
1.0
 40
1.0
 40
1.0
 40
1.0
 10
0.0920701768663194
 20
0.3073025173611111
 30
0.0
 10
0.0920701768663194
 20
0.3073025173611111
 30
0.0
 10
-0.1613165961371528
 20
0.2325439453125
 30
0.0
 10
-0.2431376139322916
 20
-0.1629530164930556
 30
0.0
  0
LINE
  5
A8
330
A5
100
AcDbEntity
  8
H2_5T_TIE_PLATES
 62
     7
100
AcDbLine
 10
0.0748446994357639
 20
-0.0413411458333333
 30
0.0
 11
-0.287579345703125
 21
0.2015380859375
 31
0.0
  0
ENDBLK
  5
AC
330
A5
100
AcDbEntity
  8
0
100
AcDbBlockEnd
  0
BLOCK
  5
AF
330
AD
100
AcDbEntity
  8
0
 62
     7
100
AcDbBlockBegin
  2
AI9-BLK14
 70
     0
 10
0.0
 20
0.0
 30
0.0
  3
AI9-BLK14
  1

  4

  0
ELLIPSE
  5
B3
330
AD
100
AcDbEntity
  8
H2_5T_TIE_PLATES
 62
     7
100
AcDbEllipse
 10
-0.0688157823350694
 20
0.0213595920138889
 30
0.0
 11
-0.1725131564670139
 21
-0.6387207031250001
 31
0.0
210
0.0
220
0.0
230
1.0
 40
0.8122049193454387
 41
0.0
 42
6.283185307179586
  0
SPLINE
  5
B2
330
AD
100
AcDbEntity
  8
H2_5T_TIE_PLATES
 62
     7
100
AcDbSpline
210
0.0
220
0.0
230
1.0
 70
    11
 71
     3
 72
    29
 73
    25
 74
     0
 42
0.0000000001
 43
0.0000000001
 40
0.0
 40
0.0
 40
0.0
 40
0.0
 40
1.0
 40
1.0
 40
1.0
 40
2.0
 40
2.0
 40
2.0
 40
3.0
 40
3.0
 40
3.0
 40
4.0
 40
4.0
 40
4.0
 40
5.0
 40
5.0
 40
5.0
 40
6.0
 40
6.0
 40
6.0
 40
7.0
 40
7.0
 40
7.0
 40
8.0
 40
8.0
 40
8.0
 40
8.0
 10
-0.5875610351562499
 20
0.1615749782986111
 30
0.0
 10
-0.4923041449652778
 20
0.5140082465277778
 30
0.0
 10
-0.1827623155381944
 20
0.7372504340277777
 30
0.0
 10
0.10386962890625
 20
0.6600802951388889
 30
0.0
 10
0.1396986219618056
 20
0.6500895182291666
 30
0.0
 10
0.1732883029513889
 20
0.6363091362847222
 30
0.0
 10
0.2049831814236111
 20
0.6187391493055555
 30
0.0
 10
0.2080837673611111
 20
0.6180501302083333
 30
0.0
 10
0.2117011176215278
 20
0.6180501302083333
 30
0.0
 10
0.2149739583333333
 20
0.617361111111111
 30
0.0
 10
0.5014336480034722
 20
0.5395019531249999
 30
0.0
 10
0.6564629448784721
 20
0.1908582899305555
 30
0.0
 10
0.5612060546875
 20
-0.1615749782986111
 30
0.0
 10
0.4659491644965277
 20
-0.5140082465277778
 30
0.0
 10
0.1564073350694444
 20
-0.7372504340277777
 30
0.0
 10
-0.130224609375
 20
-0.6600802951388889
 30
0.0
 10
-0.16588134765625
 20
-0.6500895182291666
 30
0.0
 10
-0.1998155381944444
 20
-0.6363091362847222
 30
0.0
 10
-0.2313381618923611
 20
-0.6187391493055555
 30
0.0
 10
-0.2347832573784722
 20
-0.6177056206597221
 30
0.0
 10
-0.2380560980902778
 20
-0.6180501302083333
 30
0.0
 10
-0.2413289388020833
 20
-0.617361111111111
 30
0.0
 10
-0.5277886284722222
 20
-0.5395019531249999
 30
0.0
 10
-0.6828179253472222
 20
-0.1908582899305555
 30
0.0
 10
-0.5875610351562499
 20
0.1615749782986111
 30
0.0
  0
SPLINE
  5
B1
330
AD
100
AcDbEntity
  8
H2_5T_TIE_PLATES
 62
     7
100
AcDbSpline
210
0.0
220
0.0
230
1.0
 70
     8
 71
     3
 72
     8
 73
     4
 74
     0
 42
0.0000000001
 43
0.0000000001
 40
0.0
 40
0.0
 40
0.0
 40
0.0
 40
1.0
 40
1.0
 40
1.0
 40
1.0
 10
0.0921563042534722
 20
0.3128146701388889
 30
0.0
 10
0.0921563042534722
 20
0.3128146701388889
 30
0.0
 10
-0.16123046875
 20
0.2380560980902778
 30
0.0
 10
-0.2430514865451389
 20
-0.1574408637152778
 30
0.0
  0
LINE
  5
B0
330
AD
100
AcDbEntity
  8
H2_5T_TIE_PLATES
 62
     7
100
AcDbLine
 10
0.0749308268229167
 20
-0.0358289930555556
 30
0.0
 11
-0.2874932183159722
 21
0.2070502387152778
 31
0.0
  0
ENDBLK
  5
B4
330
AD
100
AcDbEntity
  8
0
100
AcDbBlockEnd
  0
BLOCK
  5
B7
330
B5
100
AcDbEntity
  8
0
 62
     7
100
AcDbBlockBegin
  2
AI9-BLK15
 70
     0
 10
0.0
 20
0.0
 30
0.0
  3
AI9-BLK15
  1

  4

  0
ELLIPSE
  5
BB
330
B5
100
AcDbEntity
  8
H2_5T_TIE_PLATES
 62
     7
100
AcDbEllipse
 10
-0.0564995659722222
 20
0.0289388020833333
 30
0.0
 11
-0.1725131564670139
 21
-0.6387207031250001
 31
0.0
210
0.0
220
0.0
230
1.0
 40
0.8122049193454387
 41
0.0
 42
6.283185307179586
  0
SPLINE
  5
BA
330
B5
100
AcDbEntity
  8
H2_5T_TIE_PLATES
 62
     7
100
AcDbSpline
210
0.0
220
0.0
230
1.0
 70
    11
 71
     3
 72
    29
 73
    25
 74
     0
 42
0.0000000001
 43
0.0000000001
 40
0.0
 40
0.0
 40
0.0
 40
0.0
 40
1.0
 40
1.0
 40
1.0
 40
2.0
 40
2.0
 40
2.0
 40
3.0
 40
3.0
 40
3.0
 40
4.0
 40
4.0
 40
4.0
 40
5.0
 40
5.0
 40
5.0
 40
6.0
 40
6.0
 40
6.0
 40
7.0
 40
7.0
 40
7.0
 40
8.0
 40
8.0
 40
8.0
 40
8.0
 10
-0.5752448187934027
 20
0.1691541883680555
 30
0.0
 10
-0.4799879286024305
 20
0.5215874565972222
 30
0.0
 10
-0.1704460991753472
 20
0.7448296440972222
 30
0.0
 10
0.1161858452690972
 20
0.6676595052083333
 30
0.0
 10
0.1520148383246528
 20
0.657668728298611
 30
0.0
 10
0.1856045193142361
 20
0.6438883463541666
 30
0.0
 10
0.2172993977864583
 20
0.6263183593749999
 30
0.0
 10
0.2203999837239583
 20
0.6256293402777777
 30
0.0
 10
0.224017333984375
 20
0.6256293402777777
 30
0.0
 10
0.2272901746961805
 20
0.6249403211805555
 30
0.0
 10
0.5137498643663194
 20
0.5470811631944444
 30
0.0
 10
0.6687791612413194
 20
0.1984375
 30
0.0
 10
0.5735222710503471
 20
-0.1539957682291667
 30
0.0
 10
0.478265380859375
 20
-0.5064290364583333
 30
0.0
 10
0.1687235514322917
 20
-0.7296712239583333
 30
0.0
 10
-0.1179083930121528
 20
-0.6525010850694444
 30
0.0
 10
-0.1535651312934028
 20
-0.6425103081597222
 30
0.0
 10
-0.1874993218315972
 20
-0.6287299262152777
 30
0.0
 10
-0.2190219455295139
 20
-0.611159939236111
 30
0.0
 10
-0.222467041015625
 20
-0.6101264105902777
 30
0.0
 10
-0.2257398817274305
 20
-0.6104709201388888
 30
0.0
 10
-0.2290127224392361
 20
-0.6097819010416666
 30
0.0
 10
-0.515472412109375
 20
-0.5319227430555555
 30
0.0
 10
-0.6705017089843749
 20
-0.1832790798611111
 30
0.0
 10
-0.5752448187934027
 20
0.1691541883680555
 30
0.0
  0
SPLINE
  5
B9
330
B5
100
AcDbEntity
  8
H2_5T_TIE_PLATES
 62
     7
100
AcDbSpline
210
0.0
220
0.0
230
1.0
 70
     8
 71
     3
 72
     8
 73
     4
 74
     0
 42
0.0000000001
 43
0.0000000001
 40
0.0
 40
0.0
 40
0.0
 40
0.0
 40
1.0
 40
1.0
 40
1.0
 40
1.0
 10
0.1044725206163194
 20
0.3203938802083333
 30
0.0
 10
0.1044725206163194
 20
0.3203938802083333
 30
0.0
 10
-0.1489142523871528
 20
0.2456353081597222
 30
0.0
 10
-0.2307352701822917
 20
-0.1498616536458333
 30
0.0
  0
LINE
  5
B8
330
B5
100
AcDbEntity
  8
H2_5T_TIE_PLATES
 62
     7
100
AcDbLine
 10
0.0872470431857639
 20
-0.0282497829861111
 30
0.0
 11
-0.275177001953125
 21
0.2146294487847222
 31
0.0
  0
ENDBLK
  5
BC
330
B5
100
AcDbEntity
  8
0
100
AcDbBlockEnd
  0
BLOCK
  5
BF
330
BD
100
AcDbEntity
  8
0
 62
     7
100
AcDbBlockBegin
  2
AI9-BLK16
 70
     0
 10
0.0
 20
0.0
 30
0.0
  3
AI9-BLK16
  1

  4

  0
ELLIPSE
  5
C3
330
BD
100
AcDbEntity
  8
H2_5T_TIE_PLATES
 62
     7
100
AcDbEllipse
 10
-0.0689019097222222
 20
0.0213595920138889
 30
0.0
 11
-0.1722547743055556
 21
-0.638720703125
 31
0.0
210
0.0
220
0.0
230
1.0
 40
0.8124132609248087
 41
0.0
 42
6.283185307179586
  0
SPLINE
  5
C2
330
BD
100
AcDbEntity
  8
H2_5T_TIE_PLATES
 62
     7
100
AcDbSpline
210
0.0
220
0.0
230
1.0
 70
    11
 71
     3
 72
    29
 73
    25
 74
     0
 42
0.0000000001
 43
0.0000000001
 40
0.0
 40
0.0
 40
0.0
 40
0.0
 40
1.0
 40
1.0
 40
1.0
 40
2.0
 40
2.0
 40
2.0
 40
3.0
 40
3.0
 40
3.0
 40
4.0
 40
4.0
 40
4.0
 40
5.0
 40
5.0
 40
5.0
 40
6.0
 40
6.0
 40
6.0
 40
7.0
 40
7.0
 40
7.0
 40
8.0
 40
8.0
 40
8.0
 40
8.0
 10
-0.5877332899305555
 20
0.1615749782986111
 30
0.0
 10
-0.4923041449652778
 20
0.5140082465277778
 30
0.0
 10
-0.1825900607638889
 20
0.7372504340277777
 30
0.0
 10
0.1040418836805555
 20
0.6600802951388889
 30
0.0
 10
0.1398708767361111
 20
0.6500895182291666
 30
0.0
 10
0.1732883029513889
 20
0.6363091362847222
 30
0.0
 10
0.2049831814236111
 20
0.6187391493055555
 30
0.0
 10
0.2080837673611111
 20
0.6180501302083333
 30
0.0
 10
0.2115288628472222
 20
0.6180501302083333
 30
0.0
 10
0.2149739583333333
 20
0.617361111111111
 30
0.0
 10
0.5016059027777777
 20
0.5395019531249999
 30
0.0
 10
0.6566351996527777
 20
0.1908582899305555
 30
0.0
 10
0.5612060546875
 20
-0.1615749782986111
 30
0.0
 10
0.4657769097222222
 20
-0.5140082465277778
 30
0.0
 10
0.1564073350694444
 20
-0.7372504340277777
 30
0.0
 10
-0.130224609375
 20
-0.6600802951388889
 30
0.0
 10
-0.1660536024305555
 20
-0.6500895182291666
 30
0.0
 10
-0.1998155381944444
 20
-0.6363091362847222
 30
0.0
 10
-0.2315104166666666
 20
-0.6187391493055555
 30
0.0
 10
-0.2349555121527778
 20
-0.6177056206597221
 30
0.0
 10
-0.2380560980902778
 20
-0.6180501302083333
 30
0.0
 10
-0.2411566840277778
 20
-0.617361111111111
 30
0.0
 10
-0.5277886284722222
 20
-0.5395019531249999
 30
0.0
 10
-0.6828179253472222
 20
-0.1908582899305555
 30
0.0
 10
-0.5877332899305555
 20
0.1615749782986111
 30
0.0
  0
SPLINE
  5
C1
330
BD
100
AcDbEntity
  8
H2_5T_TIE_PLATES
 62
     7
100
AcDbSpline
210
0.0
220
0.0
230
1.0
 70
     8
 71
     3
 72
     8
 73
     4
 74
     0
 42
0.0000000001
 43
0.0000000001
 40
0.0
 40
0.0
 40
0.0
 40
0.0
 40
1.0
 40
1.0
 40
1.0
 40
1.0
 10
0.0923285590277778
 20
0.3128146701388889
 30
0.0
 10
0.0923285590277778
 20
0.3128146701388889
 30
0.0
 10
-0.16123046875
 20
0.2380560980902778
 30
0.0
 10
-0.2432237413194444
 20
-0.1574408637152778
 30
0.0
  0
LINE
  5
C0
330
BD
100
AcDbEntity
  8
H2_5T_TIE_PLATES
 62
     7
100
AcDbLine
 10
0.0751030815972222
 20
-0.0358289930555556
 30
0.0
 11
-0.2873209635416666
 21
0.2070502387152778
 31
0.0
  0
ENDBLK
  5
C4
330
BD
100
AcDbEntity
  8
0
100
AcDbBlockEnd
  0
BLOCK
  5
C7
330
C5
100
AcDbEntity
  8
0
 62
     7
100
AcDbBlockBegin
  2
AI9-BLK17
 70
     0
 10
0.0
 20
0.0
 30
0.0
  3
AI9-BLK17
  1

  4

  0
ELLIPSE
  5
CB
330
C5
100
AcDbEntity
  8
H2_5T_TIE_PLATES
 62
     7
100
AcDbEllipse
 10
-0.0548631456163194
 20
0.0192925347222222
 30
0.0
 11
-0.1725131564670139
 21
-0.6387207031250001
 31
0.0
210
0.0
220
0.0
230
1.0
 40
0.8122049193454387
 41
0.0
 42
6.283185307179586
  0
SPLINE
  5
CA
330
C5
100
AcDbEntity
  8
H2_5T_TIE_PLATES
 62
     7
100
AcDbSpline
210
0.0
220
0.0
230
1.0
 70
    11
 71
     3
 72
    29
 73
    25
 74
     0
 42
0.0000000001
 43
0.0000000001
 40
0.0
 40
0.0
 40
0.0
 40
0.0
 40
1.0
 40
1.0
 40
1.0
 40
2.0
 40
2.0
 40
2.0
 40
3.0
 40
3.0
 40
3.0
 40
4.0
 40
4.0
 40
4.0
 40
5.0
 40
5.0
 40
5.0
 40
6.0
 40
6.0
 40
6.0
 40
7.0
 40
7.0
 40
7.0
 40
8.0
 40
8.0
 40
8.0
 40
8.0
 10
-0.5736083984375
 20
0.1595079210069444
 30
0.0
 10
-0.4783515082465277
 20
0.5119411892361111
 30
0.0
 10
-0.1688096788194444
 20
0.735183376736111
 30
0.0
 10
0.117822265625
 20
0.6580132378472222
 30
0.0
 10
0.1536512586805555
 20
0.6480224609374999
 30
0.0
 10
0.1872409396701389
 20
0.6342420789930555
 30
0.0
 10
0.2189358181423611
 20
0.6166720920138888
 30
0.0
 10
0.2220364040798611
 20
0.6159830729166667
 30
0.0
 10
0.2256537543402778
 20
0.6159830729166667
 30
0.0
 10
0.2289265950520833
 20
0.6152940538194444
 30
0.0
 10
0.5153862847222221
 20
0.5374348958333333
 30
0.0
 10
0.6704155815972221
 20
0.1887912326388889
 30
0.0
 10
0.57515869140625
 20
-0.1636420355902778
 30
0.0
 10
0.4799018012152778
 20
-0.5160753038194444
 30
0.0
 10
0.1703599717881944
 20
-0.7393174913194444
 30
0.0
 10
-0.11627197265625
 20
-0.6621473524305555
 30
0.0
 10
-0.1519287109375
 20
-0.6521565755208333
 30
0.0
 10
-0.1858629014756944
 20
-0.6383761935763889
 30
0.0
 10
-0.2173855251736111
 20
-0.6208062065972222
 30
0.0
 10
-0.2208306206597222
 20
-0.6197726779513888
 30
0.0
 10
-0.2241034613715278
 20
-0.6201171874999999
 30
0.0
 10
-0.2273763020833333
 20
-0.6194281684027777
 30
0.0
 10
-0.5138359917534722
 20
-0.5415690104166666
 30
0.0
 10
-0.6688652886284722
 20
-0.1929253472222222
 30
0.0
 10
-0.5736083984375
 20
0.1595079210069444
 30
0.0
  0
SPLINE
  5
C9
330
C5
100
AcDbEntity
  8
H2_5T_TIE_PLATES
 62
     7
100
AcDbSpline
210
0.0
220
0.0
230
1.0
 70
     8
 71
     3
 72
     8
 73
     4
 74
     0
 42
0.0000000001
 43
0.0000000001
 40
0.0
 40
0.0
 40
0.0
 40
0.0
 40
1.0
 40
1.0
 40
1.0
 40
1.0
 10
0.1061089409722222
 20
0.3107476128472222
 30
0.0
 10
0.1061089409722222
 20
0.3107476128472222
 30
0.0
 10
-0.14727783203125
 20
0.2359890407986111
 30
0.0
 10
-0.2290988498263889
 20
-0.1595079210069444
 30
0.0
  0
LINE
  5
C8
330
C5
100
AcDbEntity
  8
H2_5T_TIE_PLATES
 62
     7
100
AcDbLine
 10
0.0888834635416667
 20
-0.0378960503472222
 30
0.0
 11
-0.2735405815972222
 21
0.2049831814236111
 31
0.0
  0
ENDBLK
  5
CC
330
C5
100
AcDbEntity
  8
0
100
AcDbBlockEnd
  0
BLOCK
  5
CF
330
CD
100
AcDbEntity
  8
0
 62
     7
100
AcDbBlockBegin
  2
AI9-BLK18
 70
     0
 10
0.0
 20
0.0
 30
0.0
  3
AI9-BLK18
  1

  4

  0
ELLIPSE
  5
D3
330
CD
100
AcDbEntity
  8
H2_5T_TIE_PLATES
 62
     7
100
AcDbEllipse
 10
0.0654568142361111
 20
0.0136081271701389
 30
0.0
 11
0.1409044053819445
 21
-0.6462999131944445
 31
0.0
210
0.0
220
0.0
230
1.0
 40
0.8123381261425462
 41
0.0
 42
6.283185307179586
  0
SPLINE
  5
D2
330
CD
100
AcDbEntity
  8
H2_5T_TIE_PLATES
 62
     7
100
AcDbSpline
210
0.0
220
0.0
230
1.0
 70
    11
 71
     3
 72
    29
 73
    25
 74
     0
 42
0.0000000001
 43
0.0000000001
 40
0.0
 40
0.0
 40
0.0
 40
0.0
 40
1.0
 40
1.0
 40
1.0
 40
2.0
 40
2.0
 40
2.0
 40
3.0
 40
3.0
 40
3.0
 40
4.0
 40
4.0
 40
4.0
 40
5.0
 40
5.0
 40
5.0
 40
6.0
 40
6.0
 40
6.0
 40
7.0
 40
7.0
 40
7.0
 40
8.0
 40
8.0
 40
8.0
 40
8.0
 10
0.5904893663194444
 20
0.1279852973090278
 30
0.0
 10
0.5128024631076389
 20
0.4848971896701388
 30
0.0
 10
0.2146294487847222
 20
0.7229532877604166
 30
0.0
 10
-0.0754475911458333
 20
0.6599080403645833
 30
0.0
 10
-0.1117933485243055
 20
0.6519843207465277
 30
0.0
 10
-0.1460720486111111
 20
0.6395819769965278
 30
0.0
 10
-0.1784559461805556
 20
0.6237345377604167
 30
0.0
 10
-0.1817287868923611
 20
0.6230455186631944
 30
0.0
 10
-0.1851738823784722
 20
0.6233900282118055
 30
0.0
 10
-0.1886189778645833
 20
0.6227010091145833
 30
0.0
 10
-0.4785237630208333
 20
0.5593112521701389
 30
0.0
 10
-0.6506062825520833
 20
0.21859130859375
 30
0.0
 10
-0.5727471245659722
 20
-0.13797607421875
 30
0.0
 10
-0.4950602213541666
 20
-0.4948879665798611
 30
0.0
 10
-0.19688720703125
 20
-0.7329440646701388
 30
0.0
 10
0.0931898328993055
 20
-0.6698988172743055
 30
0.0
 10
0.1293633355034722
 20
-0.66197509765625
 30
0.0
 10
0.1638142903645833
 20
-0.6495727539062499
 30
0.0
 10
0.1961981879340278
 20
-0.6337253146701388
 30
0.0
 10
0.1996432834201389
 20
-0.6330362955729166
 30
0.0
 10
0.2029161241319444
 20
-0.6333808051215277
 30
0.0
 10
0.2063612196180555
 20
-0.6326917860243055
 30
0.0
 10
0.4962660047743055
 20
-0.5693020290798611
 30
0.0
 10
0.6683485243055555
 20
-0.2285820855034722
 30
0.0
 10
0.5904893663194444
 20
0.1279852973090278
 30
0.0
  0
SPLINE
  5
D1
330
CD
100
AcDbEntity
  8
H2_5T_TIE_PLATES
 62
     7
100
AcDbSpline
210
0.0
220
0.0
230
1.0
 70
     8
 71
     3
 72
     8
 73
     4
 74
     0
 42
0.0000000001
 43
0.0000000001
 40
0.0
 40
0.0
 40
0.0
 40
0.0
 40
1.0
 40
1.0
 40
1.0
 40
1.0
 10
-0.0809597439236111
 20
0.3126424153645833
 30
0.0
 10
-0.0809597439236111
 20
0.3126424153645833
 30
0.0
 10
0.1684651692708333
 20
0.2254814995659722
 30
0.0
 10
0.2306491427951389
 20
-0.1734605577256944
 30
0.0
  0
LINE
  5
D0
330
CD
100
AcDbEntity
  8
H2_5T_TIE_PLATES
 62
     7
100
AcDbLine
 10
-0.0809597439236111
 20
-0.0363457573784722
 30
0.0
 11
0.29300537109375
 21
0.1882744683159722
 31
0.0
  0
ENDBLK
  5
D4
330
CD
100
AcDbEntity
  8
0
100
AcDbBlockEnd
  0
BLOCK
  5
D7
330
D5
100
AcDbEntity
  8
0
 62
     7
100
AcDbBlockBegin
  2
AI9-BLK19
 70
     0
 10
0.0
 20
0.0
 30
0.0
  3
AI9-BLK19
  1

  4

  0
ELLIPSE
  5
DB
330
D5
100
AcDbEntity
  8
H2_5T_TIE_PLATES
 62
     7
100
AcDbEllipse
 10
0.0477145724826389
 20
0.018603515625
 30
0.0
 11
0.1409044053819445
 21
-0.6462999131944445
 31
0.0
210
0.0
220
0.0
230
1.0
 40
0.8123381261425462
 41
0.0
 42
6.283185307179586
  0
SPLINE
  5
DA
330
D5
100
AcDbEntity
  8
H2_5T_TIE_PLATES
 62
     7
100
AcDbSpline
210
0.0
220
0.0
230
1.0
 70
    11
 71
     3
 72
    29
 73
    25
 74
     0
 42
0.0000000001
 43
0.0000000001
 40
0.0
 40
0.0
 40
0.0
 40
0.0
 40
1.0
 40
1.0
 40
1.0
 40
2.0
 40
2.0
 40
2.0
 40
3.0
 40
3.0
 40
3.0
 40
4.0
 40
4.0
 40
4.0
 40
5.0
 40
5.0
 40
5.0
 40
6.0
 40
6.0
 40
6.0
 40
7.0
 40
7.0
 40
7.0
 40
8.0
 40
8.0
 40
8.0
 40
8.0
 10
0.5727471245659722
 20
0.1329806857638889
 30
0.0
 10
0.4950602213541666
 20
0.489892578125
 30
0.0
 10
0.19688720703125
 20
0.7279486762152777
 30
0.0
 10
-0.0931898328993055
 20
0.6649034288194444
 30
0.0
 10
-0.1295355902777778
 20
0.6569797092013888
 30
0.0
 10
-0.1638142903645833
 20
0.6445773654513889
 30
0.0
 10
-0.1961981879340278
 20
0.6287299262152777
 30
0.0
 10
-0.1994710286458333
 20
0.6280409071180555
 30
0.0
 10
-0.2029161241319444
 20
0.6283854166666666
 30
0.0
 10
-0.2063612196180555
 20
0.6276963975694444
 30
0.0
 10
-0.4962660047743055
 20
0.5643066406249999
 30
0.0
 10
-0.6683485243055555
 20
0.2235866970486111
 30
0.0
 10
-0.5904893663194444
 20
-0.1329806857638889
 30
0.0
 10
-0.5128024631076389
 20
-0.489892578125
 30
0.0
 10
-0.2146294487847222
 20
-0.7279486762152777
 30
0.0
 10
0.0754475911458333
 20
-0.6649034288194444
 30
0.0
 10
0.11162109375
 20
-0.6569797092013888
 30
0.0
 10
0.1460720486111111
 20
-0.6445773654513889
 30
0.0
 10
0.1784559461805556
 20
-0.6287299262152777
 30
0.0
 10
0.1819010416666667
 20
-0.6280409071180555
 30
0.0
 10
0.1851738823784722
 20
-0.6283854166666666
 30
0.0
 10
0.1886189778645833
 20
-0.6276963975694444
 30
0.0
 10
0.4785237630208333
 20
-0.5643066406249999
 30
0.0
 10
0.6506062825520833
 20
-0.2235866970486111
 30
0.0
 10
0.5727471245659722
 20
0.1329806857638889
 30
0.0
  0
SPLINE
  5
D9
330
D5
100
AcDbEntity
  8
H2_5T_TIE_PLATES
 62
     7
100
AcDbSpline
210
0.0
220
0.0
230
1.0
 70
     8
 71
     3
 72
     8
 73
     4
 74
     0
 42
0.0000000001
 43
0.0000000001
 40
0.0
 40
0.0
 40
0.0
 40
0.0
 40
1.0
 40
1.0
 40
1.0
 40
1.0
 10
-0.0987019856770833
 20
0.3176378038194444
 30
0.0
 10
-0.0987019856770833
 20
0.3176378038194444
 30
0.0
 10
0.1507229275173611
 20
0.2304768880208333
 30
0.0
 10
0.2129069010416667
 20
-0.1684651692708333
 30
0.0
  0
LINE
  5
D8
330
D5
100
AcDbEntity
  8
H2_5T_TIE_PLATES
 62
     7
100
AcDbLine
 10
-0.0987019856770833
 20
-0.0313503689236111
 30
0.0
 11
0.2752631293402778
 21
0.1932698567708333
 31
0.0
  0
ENDBLK
  5
DC
330
D5
100
AcDbEntity
  8
0
100
AcDbBlockEnd
  0
BLOCK
  5
DF
330
DD
100
AcDbEntity
  8
0
 62
     7
100
AcDbBlockBegin
  2
AI9-BLK20
 70
     0
 10
0.0
 20
0.0
 30
0.0
  3
AI9-BLK20
  1

  4

  0
ELLIPSE
  5
E3
330
DD
100
AcDbEntity
  8
H2_5T_TIE_PLATES
 62
     7
100
AcDbEllipse
 10
0.0477145724826389
 20
0.018603515625
 30
0.0
 11
0.1409044053819445
 21
-0.6462999131944445
 31
0.0
210
0.0
220
0.0
230
1.0
 40
0.8123381261425462
 41
0.0
 42
6.283185307179586
  0
SPLINE
  5
E2
330
DD
100
AcDbEntity
  8
H2_5T_TIE_PLATES
 62
     7
100
AcDbSpline
210
0.0
220
0.0
230
1.0
 70
    11
 71
     3
 72
    29
 73
    25
 74
     0
 42
0.0000000001
 43
0.0000000001
 40
0.0
 40
0.0
 40
0.0
 40
0.0
 40
1.0
 40
1.0
 40
1.0
 40
2.0
 40
2.0
 40
2.0
 40
3.0
 40
3.0
 40
3.0
 40
4.0
 40
4.0
 40
4.0
 40
5.0
 40
5.0
 40
5.0
 40
6.0
 40
6.0
 40
6.0
 40
7.0
 40
7.0
 40
7.0
 40
8.0
 40
8.0
 40
8.0
 40
8.0
 10
0.5727471245659722
 20
0.1329806857638889
 30
0.0
 10
0.4950602213541666
 20
0.489892578125
 30
0.0
 10
0.19688720703125
 20
0.7279486762152777
 30
0.0
 10
-0.0931898328993055
 20
0.6649034288194444
 30
0.0
 10
-0.1295355902777778
 20
0.6569797092013888
 30
0.0
 10
-0.1638142903645833
 20
0.6445773654513889
 30
0.0
 10
-0.1961981879340278
 20
0.6287299262152777
 30
0.0
 10
-0.1994710286458333
 20
0.6280409071180555
 30
0.0
 10
-0.2029161241319444
 20
0.6283854166666666
 30
0.0
 10
-0.2063612196180555
 20
0.6276963975694444
 30
0.0
 10
-0.4962660047743055
 20
0.5643066406249999
 30
0.0
 10
-0.6683485243055555
 20
0.2235866970486111
 30
0.0
 10
-0.5904893663194444
 20
-0.1329806857638889
 30
0.0
 10
-0.5128024631076389
 20
-0.489892578125
 30
0.0
 10
-0.2146294487847222
 20
-0.7279486762152777
 30
0.0
 10
0.0754475911458333
 20
-0.6649034288194444
 30
0.0
 10
0.11162109375
 20
-0.6569797092013888
 30
0.0
 10
0.1460720486111111
 20
-0.6445773654513889
 30
0.0
 10
0.1784559461805556
 20
-0.6287299262152777
 30
0.0
 10
0.1819010416666667
 20
-0.6280409071180555
 30
0.0
 10
0.1851738823784722
 20
-0.6283854166666666
 30
0.0
 10
0.1886189778645833
 20
-0.6276963975694444
 30
0.0
 10
0.4785237630208333
 20
-0.5643066406249999
 30
0.0
 10
0.6506062825520833
 20
-0.2235866970486111
 30
0.0
 10
0.5727471245659722
 20
0.1329806857638889
 30
0.0
  0
SPLINE
  5
E1
330
DD
100
AcDbEntity
  8
H2_5T_TIE_PLATES
 62
     7
100
AcDbSpline
210
0.0
220
0.0
230
1.0
 70
     8
 71
     3
 72
     8
 73
     4
 74
     0
 42
0.0000000001
 43
0.0000000001
 40
0.0
 40
0.0
 40
0.0
 40
0.0
 40
1.0
 40
1.0
 40
1.0
 40
1.0
 10
-0.0987019856770833
 20
0.3176378038194444
 30
0.0
 10
-0.0987019856770833
 20
0.3176378038194444
 30
0.0
 10
0.1507229275173611
 20
0.2304768880208333
 30
0.0
 10
0.2129069010416667
 20
-0.1684651692708333
 30
0.0
  0
LINE
  5
E0
330
DD
100
AcDbEntity
  8
H2_5T_TIE_PLATES
 62
     7
100
AcDbLine
 10
-0.0987019856770833
 20
-0.0313503689236111
 30
0.0
 11
0.2752631293402778
 21
0.1932698567708333
 31
0.0
  0
ENDBLK
  5
E4
330
DD
100
AcDbEntity
  8
0
100
AcDbBlockEnd
  0
BLOCK
  5
E7
330
E5
100
AcDbEntity
  8
0
 62
     7
100
AcDbBlockBegin
  2
AI9-BLK21
 70
     0
 10
0.0
 20
0.0
 30
0.0
  3
AI9-BLK21
  1

  4

  0
ELLIPSE
  5
EB
330
E5
100
AcDbEntity
  8
H2_5T_TIE_PLATES
 62
     7
100
AcDbEllipse
 10
0.0654568142361111
 20
0.0136081271701389
 30
0.0
 11
0.1409044053819445
 21
-0.6462999131944445
 31
0.0
210
0.0
220
0.0
230
1.0
 40
0.8123381261425462
 41
0.0
 42
6.283185307179586
  0
SPLINE
  5
EA
330
E5
100
AcDbEntity
  8
H2_5T_TIE_PLATES
 62
     7
100
AcDbSpline
210
0.0
220
0.0
230
1.0
 70
    11
 71
     3
 72
    29
 73
    25
 74
     0
 42
0.0000000001
 43
0.0000000001
 40
0.0
 40
0.0
 40
0.0
 40
0.0
 40
1.0
 40
1.0
 40
1.0
 40
2.0
 40
2.0
 40
2.0
 40
3.0
 40
3.0
 40
3.0
 40
4.0
 40
4.0
 40
4.0
 40
5.0
 40
5.0
 40
5.0
 40
6.0
 40
6.0
 40
6.0
 40
7.0
 40
7.0
 40
7.0
 40
8.0
 40
8.0
 40
8.0
 40
8.0
 10
0.5904893663194444
 20
0.1279852973090278
 30
0.0
 10
0.5128024631076389
 20
0.4848971896701388
 30
0.0
 10
0.2146294487847222
 20
0.7229532877604166
 30
0.0
 10
-0.0754475911458333
 20
0.6599080403645833
 30
0.0
 10
-0.1117933485243055
 20
0.6519843207465277
 30
0.0
 10
-0.1460720486111111
 20
0.6395819769965278
 30
0.0
 10
-0.1784559461805556
 20
0.6237345377604167
 30
0.0
 10
-0.1817287868923611
 20
0.6230455186631944
 30
0.0
 10
-0.1851738823784722
 20
0.6233900282118055
 30
0.0
 10
-0.1886189778645833
 20
0.6227010091145833
 30
0.0
 10
-0.4785237630208333
 20
0.5593112521701389
 30
0.0
 10
-0.6506062825520833
 20
0.21859130859375
 30
0.0
 10
-0.5727471245659722
 20
-0.13797607421875
 30
0.0
 10
-0.4950602213541666
 20
-0.4948879665798611
 30
0.0
 10
-0.19688720703125
 20
-0.7329440646701388
 30
0.0
 10
0.0931898328993055
 20
-0.6698988172743055
 30
0.0
 10
0.1293633355034722
 20
-0.66197509765625
 30
0.0
 10
0.1638142903645833
 20
-0.6495727539062499
 30
0.0
 10
0.1961981879340278
 20
-0.6337253146701388
 30
0.0
 10
0.1996432834201389
 20
-0.6330362955729166
 30
0.0
 10
0.2029161241319444
 20
-0.6333808051215277
 30
0.0
 10
0.2063612196180555
 20
-0.6326917860243055
 30
0.0
 10
0.4962660047743055
 20
-0.5693020290798611
 30
0.0
 10
0.6683485243055555
 20
-0.2285820855034722
 30
0.0
 10
0.5904893663194444
 20
0.1279852973090278
 30
0.0
  0
SPLINE
  5
E9
330
E5
100
AcDbEntity
  8
H2_5T_TIE_PLATES
 62
     7
100
AcDbSpline
210
0.0
220
0.0
230
1.0
 70
     8
 71
     3
 72
     8
 73
     4
 74
     0
 42
0.0000000001
 43
0.0000000001
 40
0.0
 40
0.0
 40
0.0
 40
0.0
 40
1.0
 40
1.0
 40
1.0
 40
1.0
 10
-0.0809597439236111
 20
0.3126424153645833
 30
0.0
 10
-0.0809597439236111
 20
0.3126424153645833
 30
0.0
 10
0.1684651692708333
 20
0.2254814995659722
 30
0.0
 10
0.2306491427951389
 20
-0.1734605577256944
 30
0.0
  0
LINE
  5
E8
330
E5
100
AcDbEntity
  8
H2_5T_TIE_PLATES
 62
     7
100
AcDbLine
 10
-0.0809597439236111
 20
-0.0363457573784722
 30
0.0
 11
0.29300537109375
 21
0.1882744683159722
 31
0.0
  0
ENDBLK
  5
EC
330
E5
100
AcDbEntity
  8
0
100
AcDbBlockEnd
  0
BLOCK
  5
EF
330
ED
100
AcDbEntity
  8
0
 62
     7
100
AcDbBlockBegin
  2
AI9-BLK22
 70
     0
 10
0.0
 20
0.0
 30
0.0
  3
AI9-BLK22
  1

  4

  0
ELLIPSE
  5
F3
330
ED
100
AcDbEntity
  8
H2_5T_TIE_PLATES
 62
     7
100
AcDbEllipse
 10
0.056585693359375
 20
0.0136081271701389
 30
0.0
 11
0.1409044053819445
 21
-0.6462999131944445
 31
0.0
210
0.0
220
0.0
230
1.0
 40
0.8123381261425462
 41
0.0
 42
6.283185307179586
  0
SPLINE
  5
F2
330
ED
100
AcDbEntity
  8
H2_5T_TIE_PLATES
 62
     7
100
AcDbSpline
210
0.0
220
0.0
230
1.0
 70
    11
 71
     3
 72
    29
 73
    25
 74
     0
 42
0.0000000001
 43
0.0000000001
 40
0.0
 40
0.0
 40
0.0
 40
0.0
 40
1.0
 40
1.0
 40
1.0
 40
2.0
 40
2.0
 40
2.0
 40
3.0
 40
3.0
 40
3.0
 40
4.0
 40
4.0
 40
4.0
 40
5.0
 40
5.0
 40
5.0
 40
6.0
 40
6.0
 40
6.0
 40
7.0
 40
7.0
 40
7.0
 40
8.0
 40
8.0
 40
8.0
 40
8.0
 10
0.5816182454427082
 20
0.1279852973090278
 30
0.0
 10
0.5039313422309028
 20
0.4848971896701388
 30
0.0
 10
0.2057583279079861
 20
0.7229532877604166
 30
0.0
 10
-0.0843187120225694
 20
0.6599080403645833
 30
0.0
 10
-0.1206644694010417
 20
0.6519843207465277
 30
0.0
 10
-0.1549431694878472
 20
0.6395819769965278
 30
0.0
 10
-0.1873270670572917
 20
0.6237345377604167
 30
0.0
 10
-0.1905999077690972
 20
0.6230455186631944
 30
0.0
 10
-0.1940450032552083
 20
0.6233900282118055
 30
0.0
 10
-0.1974900987413194
 20
0.6227010091145833
 30
0.0
 10
-0.4873948838975694
 20
0.5593112521701389
 30
0.0
 10
-0.6594774034288193
 20
0.21859130859375
 30
0.0
 10
-0.5816182454427082
 20
-0.13797607421875
 30
0.0
 10
-0.5039313422309028
 20
-0.4948879665798611
 30
0.0
 10
-0.2057583279079861
 20
-0.7329440646701388
 30
0.0
 10
0.0843187120225694
 20
-0.6698988172743055
 30
0.0
 10
0.1204922146267361
 20
-0.66197509765625
 30
0.0
 10
0.1549431694878472
 20
-0.6495727539062499
 30
0.0
 10
0.1873270670572917
 20
-0.6337253146701388
 30
0.0
 10
0.1907721625434028
 20
-0.6330362955729166
 30
0.0
 10
0.1940450032552083
 20
-0.6333808051215277
 30
0.0
 10
0.1974900987413194
 20
-0.6326917860243055
 30
0.0
 10
0.4873948838975694
 20
-0.5693020290798611
 30
0.0
 10
0.6594774034288193
 20
-0.2285820855034722
 30
0.0
 10
0.5816182454427082
 20
0.1279852973090278
 30
0.0
  0
SPLINE
  5
F1
330
ED
100
AcDbEntity
  8
H2_5T_TIE_PLATES
 62
     7
100
AcDbSpline
210
0.0
220
0.0
230
1.0
 70
     8
 71
     3
 72
     8
 73
     4
 74
     0
 42
0.0000000001
 43
0.0000000001
 40
0.0
 40
0.0
 40
0.0
 40
0.0
 40
1.0
 40
1.0
 40
1.0
 40
1.0
 10
-0.0898308648003472
 20
0.3126424153645833
 30
0.0
 10
-0.0898308648003472
 20
0.3126424153645833
 30
0.0
 10
0.1595940483940972
 20
0.2254814995659722
 30
0.0
 10
0.2217780219184028
 20
-0.1734605577256944
 30
0.0
  0
LINE
  5
F0
330
ED
100
AcDbEntity
  8
H2_5T_TIE_PLATES
 62
     7
100
AcDbLine
 10
-0.0898308648003472
 20
-0.0363457573784722
 30
0.0
 11
0.2841342502170139
 21
0.1882744683159722
 31
0.0
  0
ENDBLK
  5
F4
330
ED
100
AcDbEntity
  8
0
100
AcDbBlockEnd
  0
BLOCK
  5
F7
330
F5
100
AcDbEntity
  8
0
 62
     7
100
AcDbBlockBegin
  2
AI9-BLK23
 70
     0
 10
0.0
 20
0.0
 30
0.0
  3
AI9-BLK23
  1

  4

  0
LINE
  5
FA
330
F5
100
AcDbEntity
  8
H2_5T_TIE_PLATES
 62
     7
100
AcDbLine
 10
0.0
 20
-2.778125
 30
0.0
 11
0.0
 21
-3.307291666666667
 31
0.0
  0
LINE
  5
F9
330
F5
100
AcDbEntity
  8
H2_5T_TIE_PLATES
 62
     7
100
AcDbLine
 10
0.0
 20
2.072569444444445
 30
0.0
 11
0.0
 21
-2.160763888888889
 31
0.0
  0
LINE
  5
F8
330
F5
100
AcDbEntity
  8
H2_5T_TIE_PLATES
 62
     7
100
AcDbLine
 10
0.0
 20
3.307291666666667
 30
0.0
 11
0.0
 21
2.689930555555555
 31
0.0
  0
ENDBLK
  5
FB
330
F5
100
AcDbEntity
  8
0
100
AcDbBlockEnd
  0
BLOCK
  5
104
330
102
100
AcDbEntity
  8
0
 62
     7
100
AcDbBlockBegin
  2
AI9-BLK25
 70
     0
 10
0.0
 20
0.0
 30
0.0
  3
AI9-BLK25
  1

  4

  0
LWPOLYLINE
  5
1DF
330
102
100
AcDbEntity
  8
H2_5T_TIE_PLATES
 62
     7
100
AcDbPolyline
 90
        4
 70
     1
 43
0.0
 10
3.690472412109375
 20
-7.027047390407986
 10
-3.690816921657986
 20
-8.833999972873263
 10
-3.690816921657986
 20
6.897339545355902
 10
3.636556667751736
 20
8.831071641710068
  0
INSERT
  5
1B0
330
102
100
AcDbEntity
  8
H2_5T_TIE_PLATES
 62
     7
100
AcDbBlockReference
  2
AI9-BLK44
 10
-2.584166124131944
 20
-0.5693020290798611
 30
0.0
  0
INSERT
  5
18B
330
102
100
AcDbEntity
  8
H2_5T_TIE_PLATES
 62
     7
100
AcDbBlockReference
  2
AI9-BLK40
 10
-1.267106119791667
 20
-0.4425225151909722
 30
0.0
  0
INSERT
  5
15B
330
102
100
AcDbEntity
  8
H2_5T_TIE_PLATES
 62
     7
100
AcDbBlockReference
  2
AI9-BLK35
 10
0.0540879991319444
 20
0.1016303168402778
 30
0.0
  0
INSERT
  5
136
330
102
100
AcDbEntity
  8
H2_5T_TIE_PLATES
 62
     7
100
AcDbBlockReference
  2
AI9-BLK31
 10
1.380019124348958
 20
0.2298739963107639
 30
0.0
  0
INSERT
  5
106
330
102
100
AcDbEntity
  8
H2_5T_TIE_PLATES
 62
     7
100
AcDbBlockReference
  2
AI9-BLK26
 10
2.709567599826389
 20
0.7766106499565971
 30
0.0
  0
ENDBLK
  5
1E5
330
102
100
AcDbEntity
  8
0
100
AcDbBlockEnd
  0
BLOCK
  5
107
330
105
100
AcDbEntity
  8
0
 62
     7
100
AcDbBlockBegin
  2
AI9-BLK26
 70
     0
 10
0.0
 20
0.0
 30
0.0
  3
AI9-BLK26
  1

  4

  0
INSERT
  5
12A
330
105
100
AcDbEntity
  8
H2_5T_TIE_PLATES
 62
     7
100
AcDbBlockReference
  2
AI9-BLK30
 10
-0.0177422417534722
 20
5.797578938802083
 30
0.0
  0
INSERT
  5
11F
330
105
100
AcDbEntity
  8
H2_5T_TIE_PLATES
 62
     7
100
AcDbBlockReference
  2
AI9-BLK29
 10
-0.0062872992621528
 20
1.949235026041666
 30
0.0
  0
INSERT
  5
114
330
105
100
AcDbEntity
  8
H2_5T_TIE_PLATES
 62
     7
100
AcDbBlockReference
  2
AI9-BLK28
 10
0.0049953884548611
 20
-1.912889268663194
 30
0.0
  0
INSERT
  5
109
330
105
100
AcDbEntity
  8
H2_5T_TIE_PLATES
 62
     7
100
AcDbBlockReference
  2
AI9-BLK27
 10
0.0163642035590278
 20
-5.789052327473958
 30
0.0
  0
ENDBLK
  5
134
330
105
100
AcDbEntity
  8
0
100
AcDbBlockEnd
  0
BLOCK
  5
10A
330
108
100
AcDbEntity
  8
0
 62
     7
100
AcDbBlockBegin
  2
AI9-BLK27
 70
     0
 10
0.0
 20
0.0
 30
0.0
  3
AI9-BLK27
  1

  4

  0
LWPOLYLINE
  5
10C
330
108
100
AcDbEntity
  8
H2_5T_TIE_PLATES
 62
     7
100
AcDbPolyline
 90
        4
 70
     1
 43
0.0
 10
0.220916748046875
 20
1.297164577907986
 10
-0.2278069390190972
 20
0.8255310058593749
 10
-0.2210890028211806
 20
-1.458567301432292
 10
0.2290127224392361
 20
-1.348324245876736
  0
LINE
  5
10B
330
108
100
AcDbEntity
  8
H2_5T_TIE_PLATES
 62
     7
100
AcDbLine
 10
-0.2272901746961805
 20
0.6233039008246527
 30
0.0
 11
-0.2293572319878472
 21
1.387770589192708
 31
0.0
  0
ENDBLK
  5
112
330
108
100
AcDbEntity
  8
0
100
AcDbBlockEnd
  0
BLOCK
  5
115
330
113
100
AcDbEntity
  8
0
 62
     7
100
AcDbBlockBegin
  2
AI9-BLK28
 70
     0
 10
0.0
 20
0.0
 30
0.0
  3
AI9-BLK28
  1

  4

  0
LWPOLYLINE
  5
117
330
113
100
AcDbEntity
  8
H2_5T_TIE_PLATES
 62
     7
100
AcDbPolyline
 90
        4
 70
     1
 43
0.0
 10
0.2205722384982639
 20
1.293288845486111
 10
-0.2272901746961805
 20
0.8209662543402777
 10
-0.220916748046875
 20
-1.454863823784722
 10
0.228668212890625
 20
-1.342898220486111
  0
LINE
  5
116
330
113
100
AcDbEntity
  8
H2_5T_TIE_PLATES
 62
     7
100
AcDbLine
 10
-0.2267734103732639
 20
0.6197726779513888
 30
0.0
 11
-0.2290127224392361
 21
1.381138780381944
 31
0.0
  0
ENDBLK
  5
11D
330
113
100
AcDbEntity
  8
0
100
AcDbBlockEnd
  0
BLOCK
  5
120
330
11E
100
AcDbEntity
  8
0
 62
     7
100
AcDbBlockBegin
  2
AI9-BLK29
 70
     0
 10
0.0
 20
0.0
 30
0.0
  3
AI9-BLK29
  1

  4

  0
LWPOLYLINE
  5
122
330
11E
100
AcDbEntity
  8
H2_5T_TIE_PLATES
 62
     7
100
AcDbPolyline
 90
        4
 70
     1
 43
0.0
 10
0.2201416015625
 20
1.290016004774305
 10
-0.2270317925347222
 20
0.81700439453125
 10
-0.2204861111111111
 20
-1.451246473524305
 10
0.2282375759548611
 20
-1.336869303385417
  0
LINE
  5
121
330
11E
100
AcDbEntity
  8
H2_5T_TIE_PLATES
 62
     7
100
AcDbLine
 10
-0.2285820855034722
 20
1.374765353732639
 30
0.0
 11
-0.2263427734375
 21
0.6161553276909721
 31
0.0
  0
ENDBLK
  5
128
330
11E
100
AcDbEntity
  8
0
100
AcDbBlockEnd
  0
BLOCK
  5
12B
330
129
100
AcDbEntity
  8
0
 62
     7
100
AcDbBlockBegin
  2
AI9-BLK30
 70
     0
 10
0.0
 20
0.0
 30
0.0
  3
AI9-BLK30
  1

  4

  0
LWPOLYLINE
  5
12D
330
129
100
AcDbEntity
  8
H2_5T_TIE_PLATES
 62
     7
100
AcDbPolyline
 90
        4
 70
     1
 43
0.0
 10
0.2198832194010416
 20
1.286226399739583
 10
-0.2264289008246528
 20
0.8125257703993055
 10
-0.2200554741753472
 20
-1.447629123263889
 10
0.2276346842447916
 20
-1.331357150607639
  0
LINE
  5
12C
330
129
100
AcDbEntity
  8
H2_5T_TIE_PLATES
 62
     7
100
AcDbLine
 10
-0.2259121365017361
 20
0.6123657226562499
 30
0.0
 11
-0.2279791937934028
 21
1.368564181857639
 31
0.0
  0
ENDBLK
  5
133
330
129
100
AcDbEntity
  8
0
100
AcDbBlockEnd
  0
BLOCK
  5
137
330
135
100
AcDbEntity
  8
0
 62
     7
100
AcDbBlockBegin
  2
AI9-BLK31
 70
     0
 10
0.0
 20
0.0
 30
0.0
  3
AI9-BLK31
  1

  4

  0
INSERT
  5
14F
330
135
100
AcDbEntity
  8
H2_5T_TIE_PLATES
 62
     7
100
AcDbBlockReference
  2
AI9-BLK34
 10
-0.0094740125868056
 20
3.860143364800347
 30
0.0
  0
INSERT
  5
144
330
135
100
AcDbEntity
  8
H2_5T_TIE_PLATES
 62
     7
100
AcDbBlockReference
  2
AI9-BLK33
 10
-0.0004306369357639
 20
0.0099046495225694
 30
0.0
  0
INSERT
  5
139
330
135
100
AcDbEntity
  8
H2_5T_TIE_PLATES
 62
     7
100
AcDbBlockReference
  2
AI9-BLK32
 10
0.0086988661024306
 20
-3.854545084635416
 30
0.0
  0
ENDBLK
  5
159
330
135
100
AcDbEntity
  8
0
100
AcDbBlockEnd
  0
BLOCK
  5
13A
330
138
100
AcDbEntity
  8
0
 62
     7
100
AcDbBlockBegin
  2
AI9-BLK32
 70
     0
 10
0.0
 20
0.0
 30
0.0
  3
AI9-BLK32
  1

  4

  0
LWPOLYLINE
  5
13C
330
138
100
AcDbEntity
  8
H2_5T_TIE_PLATES
 62
     7
100
AcDbPolyline
 90
        4
 70
     1
 43
0.0
 10
0.220916748046875
 20
1.293288845486111
 10
-0.2264289008246528
 20
0.8223442925347222
 10
-0.2212612575954861
 20
-1.454863823784722
 10
0.2272901746961805
 20
-1.343931749131944
  0
LINE
  5
13B
330
138
100
AcDbEntity
  8
H2_5T_TIE_PLATES
 62
     7
100
AcDbLine
 10
-0.2257398817274305
 20
0.6204616970486111
 30
0.0
 11
-0.2274624294704861
 21
1.382516818576389
 31
0.0
  0
ENDBLK
  5
142
330
138
100
AcDbEntity
  8
0
100
AcDbBlockEnd
  0
BLOCK
  5
145
330
143
100
AcDbEntity
  8
0
 62
     7
100
AcDbBlockBegin
  2
AI9-BLK33
 70
     0
 10
0.0
 20
0.0
 30
0.0
  3
AI9-BLK33
  1

  4

  0
LWPOLYLINE
  5
147
330
143
100
AcDbEntity
  8
H2_5T_TIE_PLATES
 62
     7
100
AcDbPolyline
 90
        4
 70
     1
 43
0.0
 10
0.2203999837239583
 20
1.289757622612847
 10
-0.2257398817274305
 20
0.818124050564236
 10
-0.2207444932725694
 20
-1.451504855685764
 10
0.2269456651475694
 20
-1.338505723741319
  0
LINE
  5
146
330
143
100
AcDbEntity
  8
H2_5T_TIE_PLATES
 62
     7
100
AcDbLine
 10
-0.227117919921875
 20
1.375885009765625
 30
0.0
 11
-0.2253953721788194
 21
0.6165859646267361
 31
0.0
  0
ENDBLK
  5
14D
330
143
100
AcDbEntity
  8
0
100
AcDbBlockEnd
  0
BLOCK
  5
150
330
14E
100
AcDbEntity
  8
0
 62
     7
100
AcDbBlockBegin
  2
AI9-BLK34
 70
     0
 10
0.0
 20
0.0
 30
0.0
  3
AI9-BLK34
  1

  4

  0
LWPOLYLINE
  5
152
330
14E
100
AcDbEntity
  8
H2_5T_TIE_PLATES
 62
     7
100
AcDbPolyline
 90
        4
 70
     1
 43
0.0
 10
0.2201416015625
 20
1.285968017578125
 10
-0.2253092447916666
 20
0.8134731716579861
 10
-0.2203138563368055
 20
-1.447715250651042
 10
0.2265150282118055
 20
-1.33264906141493
  0
LINE
  5
151
330
14E
100
AcDbEntity
  8
H2_5T_TIE_PLATES
 62
     7
100
AcDbLine
 10
-0.22479248046875
 20
0.6131408691406249
 30
0.0
 11
-0.2266872829861111
 21
1.369683837890625
 31
0.0
  0
ENDBLK
  5
158
330
14E
100
AcDbEntity
  8
0
100
AcDbBlockEnd
  0
BLOCK
  5
15C
330
15A
100
AcDbEntity
  8
0
 62
     7
100
AcDbBlockBegin
  2
AI9-BLK35
 70
     0
 10
0.0
 20
0.0
 30
0.0
  3
AI9-BLK35
  1

  4

  0
INSERT
  5
17F
330
15A
100
AcDbEntity
  8
H2_5T_TIE_PLATES
 62
     7
100
AcDbBlockReference
  2
AI9-BLK39
 10
-0.0105936686197917
 20
5.780870225694444
 30
0.0
  0
INSERT
  5
174
330
15A
100
AcDbEntity
  8
H2_5T_TIE_PLATES
 62
     7
100
AcDbBlockReference
  2
AI9-BLK38
 10
-0.003875732421875
 20
1.943292236328125
 30
0.0
  0
INSERT
  5
169
330
15A
100
AcDbEntity
  8
H2_5T_TIE_PLATES
 62
     7
100
AcDbBlockReference
  2
AI9-BLK37
 10
0.0026699490017361
 20
-1.907463243272569
 30
0.0
  0
INSERT
  5
15E
330
15A
100
AcDbEntity
  8
H2_5T_TIE_PLATES
 62
     7
100
AcDbBlockReference
  2
AI9-BLK36
 10
0.0093017578125
 20
-5.772257486979166
 30
0.0
  0
ENDBLK
  5
189
330
15A
100
AcDbEntity
  8
0
100
AcDbBlockEnd
  0
BLOCK
  5
15F
330
15D
100
AcDbEntity
  8
0
 62
     7
100
AcDbBlockBegin
  2
AI9-BLK36
 70
     0
 10
0.0
 20
0.0
 30
0.0
  3
AI9-BLK36
  1

  4

  0
LWPOLYLINE
  5
161
330
15D
100
AcDbEntity
  8
H2_5T_TIE_PLATES
 62
     7
100
AcDbPolyline
 90
        4
 70
     1
 43
0.0
 10
0.2210890028211806
 20
1.292513699001736
 10
-0.2250508626302083
 20
0.8226026746961805
 10
-0.2214335123697916
 20
-1.454949951171875
 10
0.2259121365017361
 20
-1.345395914713542
  0
LINE
  5
160
330
15D
100
AcDbEntity
  8
H2_5T_TIE_PLATES
 62
     7
100
AcDbLine
 10
-0.2247063530815972
 20
0.6207200792100694
 30
0.0
 11
-0.2260843912760417
 21
1.382775200737847
 31
0.0
  0
ENDBLK
  5
167
330
15D
100
AcDbEntity
  8
0
100
AcDbBlockEnd
  0
BLOCK
  5
16A
330
168
100
AcDbEntity
  8
0
 62
     7
100
AcDbBlockBegin
  2
AI9-BLK37
 70
     0
 10
0.0
 20
0.0
 30
0.0
  3
AI9-BLK37
  1

  4

  0
LWPOLYLINE
  5
16C
330
168
100
AcDbEntity
  8
H2_5T_TIE_PLATES
 62
     7
100
AcDbPolyline
 90
        4
 70
     1
 43
0.0
 10
0.2208306206597222
 20
1.288982476128472
 10
-0.2246202256944444
 20
0.8180379231770832
 10
-0.2210028754340278
 20
-1.451246473524305
 10
0.2254814995659722
 20
-1.339280870225694
  0
LINE
  5
16B
330
168
100
AcDbEntity
  8
H2_5T_TIE_PLATES
 62
     7
100
AcDbLine
 10
-0.2256537543402778
 20
1.376487901475694
 30
0.0
 11
-0.2244479709201389
 21
0.6171888563368055
 31
0.0
  0
ENDBLK
  5
172
330
168
100
AcDbEntity
  8
0
100
AcDbBlockEnd
  0
BLOCK
  5
175
330
173
100
AcDbEntity
  8
0
 62
     7
100
AcDbBlockBegin
  2
AI9-BLK38
 70
     0
 10
0.0
 20
0.0
 30
0.0
  3
AI9-BLK38
  1

  4

  0
LWPOLYLINE
  5
177
330
173
100
AcDbEntity
  8
H2_5T_TIE_PLATES
 62
     7
100
AcDbPolyline
 90
        4
 70
     1
 43
0.0
 10
0.2203138563368055
 20
1.285365125868055
 10
-0.2244479709201389
 20
0.8144205729166666
 10
-0.2208306206597222
 20
-1.447284613715278
 10
0.2251369900173611
 20
-1.333596462673611
  0
LINE
  5
176
330
173
100
AcDbEntity
  8
H2_5T_TIE_PLATES
 62
     7
100
AcDbLine
 10
-0.2253092447916666
 20
1.370803493923611
 30
0.0
 11
-0.2241034613715278
 21
0.6142605251736111
 31
0.0
  0
ENDBLK
  5
17D
330
173
100
AcDbEntity
  8
0
100
AcDbBlockEnd
  0
BLOCK
  5
180
330
17E
100
AcDbEntity
  8
0
 62
     7
100
AcDbBlockBegin
  2
AI9-BLK39
 70
     0
 10
0.0
 20
0.0
 30
0.0
  3
AI9-BLK39
  1

  4

  0
LWPOLYLINE
  5
182
330
17E
100
AcDbEntity
  8
H2_5T_TIE_PLATES
 62
     7
100
AcDbPolyline
 90
        4
 70
     1
 43
0.0
 10
0.2199693467881944
 20
1.281661648220486
 10
-0.2239312065972222
 20
0.8096835666232638
 10
-0.2201416015625
 20
-1.443925645616319
 10
0.2246202256944444
 20
-1.328514946831597
  0
LINE
  5
181
330
17E
100
AcDbEntity
  8
H2_5T_TIE_PLATES
 62
     7
100
AcDbLine
 10
-0.2235866970486111
 20
0.6102125379774305
 30
0.0
 11
-0.22479248046875
 21
1.364171685112847
 31
0.0
  0
ENDBLK
  5
188
330
17E
100
AcDbEntity
  8
0
100
AcDbBlockEnd
  0
BLOCK
  5
18C
330
18A
100
AcDbEntity
  8
0
 62
     7
100
AcDbBlockBegin
  2
AI9-BLK40
 70
     0
 10
0.0
 20
0.0
 30
0.0
  3
AI9-BLK40
  1

  4

  0
INSERT
  5
1A4
330
18A
100
AcDbEntity
  8
H2_5T_TIE_PLATES
 62
     7
100
AcDbBlockReference
  2
AI9-BLK43
 10
-0.00465087890625
 20
3.849032931857638
 30
0.0
  0
INSERT
  5
199
330
18A
100
AcDbEntity
  8
H2_5T_TIE_PLATES
 62
     7
100
AcDbBlockReference
  2
AI9-BLK42
 10
-0.0003445095486111
 20
0.010076904296875
 30
0.0
  0
INSERT
  5
18E
330
18A
100
AcDbEntity
  8
H2_5T_TIE_PLATES
 62
     7
100
AcDbBlockReference
  2
AI9-BLK41
 10
0.003875732421875
 20
-3.843606906467014
 30
0.0
  0
ENDBLK
  5
1AE
330
18A
100
AcDbEntity
  8
0
100
AcDbBlockEnd
  0
BLOCK
  5
18F
330
18D
100
AcDbEntity
  8
0
 62
     7
100
AcDbBlockBegin
  2
AI9-BLK41
 70
     0
 10
0.0
 20
0.0
 30
0.0
  3
AI9-BLK41
  1

  4

  0
LWPOLYLINE
  5
191
330
18D
100
AcDbEntity
  8
H2_5T_TIE_PLATES
 62
     7
100
AcDbPolyline
 90
        4
 70
     1
 43
0.0
 10
0.2210028754340278
 20
1.288810221354167
 10
-0.2237589518229166
 20
0.8199327256944444
 10
-0.2215196397569444
 20
-1.45107421875
 10
0.2241034613715278
 20
-1.340831163194444
  0
LINE
  5
190
330
18D
100
AcDbEntity
  8
H2_5T_TIE_PLATES
 62
     7
100
AcDbLine
 10
-0.2242757161458333
 20
1.378382703993055
 30
0.0
 11
-0.2235866970486111
 21
0.6187391493055555
 31
0.0
  0
ENDBLK
  5
197
330
18D
100
AcDbEntity
  8
0
100
AcDbBlockEnd
  0
BLOCK
  5
19A
330
198
100
AcDbEntity
  8
0
 62
     7
100
AcDbBlockBegin
  2
AI9-BLK42
 70
     0
 10
0.0
 20
0.0
 30
0.0
  3
AI9-BLK42
  1

  4

  0
LWPOLYLINE
  5
19C
330
198
100
AcDbEntity
  8
H2_5T_TIE_PLATES
 62
     7
100
AcDbPolyline
 90
        4
 70
     1
 43
0.0
 10
0.2205722384982639
 20
1.285020616319444
 10
-0.2233283148871528
 20
0.8151095920138888
 10
-0.2210890028211806
 20
-1.447629123263889
 10
0.2238450792100694
 20
-1.335663519965278
  0
LINE
  5
19B
330
198
100
AcDbEntity
  8
H2_5T_TIE_PLATES
 62
     7
100
AcDbLine
 10
-0.224017333984375
 20
1.371492513020833
 30
0.0
 11
-0.2231560601128472
 21
0.6146050347222222
 31
0.0
  0
ENDBLK
  5
1A2
330
198
100
AcDbEntity
  8
0
100
AcDbBlockEnd
  0
BLOCK
  5
1A5
330
1A3
100
AcDbEntity
  8
0
 62
     7
100
AcDbBlockBegin
  2
AI9-BLK43
 70
     0
 10
0.0
 20
0.0
 30
0.0
  3
AI9-BLK43
  1

  4

  0
LWPOLYLINE
  5
1A7
330
1A3
100
AcDbEntity
  8
H2_5T_TIE_PLATES
 62
     7
100
AcDbPolyline
 90
        4
 70
     1
 43
0.0
 10
0.2202277289496528
 20
1.28148939344618
 10
-0.2228115505642361
 20
0.8108893500434027
 10
-0.2205722384982639
 20
-1.443925645616319
 10
0.2233283148871528
 20
-1.329548475477431
  0
LINE
  5
1A6
330
1A3
100
AcDbEntity
  8
H2_5T_TIE_PLATES
 62
     7
100
AcDbLine
 10
-0.2226392957899305
 20
0.6114183213975694
 30
0.0
 11
-0.2235005696614583
 21
1.365377468532986
 31
0.0
  0
ENDBLK
  5
1AD
330
1A3
100
AcDbEntity
  8
0
100
AcDbBlockEnd
  0
BLOCK
  5
1B1
330
1AF
100
AcDbEntity
  8
0
 62
     7
100
AcDbBlockBegin
  2
AI9-BLK44
 70
     0
 10
0.0
 20
0.0
 30
0.0
  3
AI9-BLK44
  1

  4

  0
INSERT
  5
1D4
330
1AF
100
AcDbEntity
  8
H2_5T_TIE_PLATES
 62
     7
100
AcDbBlockReference
  2
AI9-BLK48
 10
-0.0035312228732639
 20
5.76433376736111
 30
0.0
  0
INSERT
  5
1C9
330
1AF
100
AcDbEntity
  8
H2_5T_TIE_PLATES
 62
     7
100
AcDbBlockReference
  2
AI9-BLK47
 10
-0.0016364203559028
 20
1.938124593098958
 30
0.0
  0
INSERT
  5
1BE
330
1AF
100
AcDbEntity
  8
H2_5T_TIE_PLATES
 62
     7
100
AcDbBlockReference
  2
AI9-BLK46
 10
0.0003445095486111
 20
-1.902123345269097
 30
0.0
  0
INSERT
  5
1B3
330
1AF
100
AcDbEntity
  8
H2_5T_TIE_PLATES
 62
     7
100
AcDbBlockReference
  2
AI9-BLK45
 10
0.0024115668402778
 20
-5.75563490125868
 30
0.0
  0
ENDBLK
  5
1DE
330
1AF
100
AcDbEntity
  8
0
100
AcDbBlockEnd
  0
BLOCK
  5
1B4
330
1B2
100
AcDbEntity
  8
0
 62
     7
100
AcDbBlockBegin
  2
AI9-BLK45
 70
     0
 10
0.0
 20
0.0
 30
0.0
  3
AI9-BLK45
  1

  4

  0
LWPOLYLINE
  5
1B6
330
1B2
100
AcDbEntity
  8
H2_5T_TIE_PLATES
 62
     7
100
AcDbPolyline
 90
        4
 70
     1
 43
0.0
 10
0.2212612575954861
 20
1.288121202256944
 10
-0.2226392957899305
 20
0.8199327256944444
 10
-0.2217780219184028
 20
-1.45107421875
 10
0.2228115505642361
 20
-1.342209201388889
  0
LINE
  5
1B5
330
1B2
100
AcDbEntity
  8
H2_5T_TIE_PLATES
 62
     7
100
AcDbLine
 10
-0.2228115505642361
 20
1.378382703993055
 30
0.0
 11
-0.2226392957899305
 21
0.6190836588541666
 31
0.0
  0
ENDBLK
  5
1BC
330
1B2
100
AcDbEntity
  8
0
100
AcDbBlockEnd
  0
BLOCK
  5
1BF
330
1BD
100
AcDbEntity
  8
0
 62
     7
100
AcDbBlockBegin
  2
AI9-BLK46
 70
     0
 10
0.0
 20
0.0
 30
0.0
  3
AI9-BLK46
  1

  4

  0
LWPOLYLINE
  5
1C1
330
1BD
100
AcDbEntity
  8
H2_5T_TIE_PLATES
 62
     7
100
AcDbPolyline
 90
        4
 70
     1
 43
0.0
 10
0.2207444932725694
 20
1.284503851996528
 10
-0.2221225314670139
 20
0.8156263563368055
 10
-0.2212612575954861
 20
-1.447456868489583
 10
0.222467041015625
 20
-1.336180284288194
  0
LINE
  5
1C0
330
1BD
100
AcDbEntity
  8
H2_5T_TIE_PLATES
 62
     7
100
AcDbLine
 10
-0.2221225314670139
 20
0.61546630859375
 30
0.0
 11
-0.222467041015625
 21
1.372698296440972
 31
0.0
  0
ENDBLK
  5
1C7
330
1BD
100
AcDbEntity
  8
0
100
AcDbBlockEnd
  0
BLOCK
  5
1CA
330
1C8
100
AcDbEntity
  8
0
 62
     7
100
AcDbBlockBegin
  2
AI9-BLK47
 70
     0
 10
0.0
 20
0.0
 30
0.0
  3
AI9-BLK47
  1

  4

  0
LWPOLYLINE
  5
1CC
330
1C8
100
AcDbEntity
  8
H2_5T_TIE_PLATES
 62
     7
100
AcDbPolyline
 90
        4
 70
     1
 43
0.0
 10
0.2204861111111111
 20
1.280714246961805
 10
-0.2218641493055555
 20
0.811147732204861
 10
-0.2208306206597222
 20
-1.443667263454861
 10
0.2220364040798611
 20
-1.331012641059028
  0
LINE
  5
1CB
330
1C8
100
AcDbEntity
  8
H2_5T_TIE_PLATES
 62
     7
100
AcDbLine
 10
-0.22169189453125
 20
0.6116767035590277
 30
0.0
 11
-0.2220364040798611
 21
1.366152615017361
 31
0.0
  0
ENDBLK
  5
1D2
330
1C8
100
AcDbEntity
  8
0
100
AcDbBlockEnd
  0
BLOCK
  5
1D5
330
1D3
100
AcDbEntity
  8
0
 62
     7
100
AcDbBlockBegin
  2
AI9-BLK48
 70
     0
 10
0.0
 20
0.0
 30
0.0
  3
AI9-BLK48
  1

  4

  0
LWPOLYLINE
  5
1D7
330
1D3
100
AcDbEntity
  8
H2_5T_TIE_PLATES
 62
     7
100
AcDbPolyline
 90
        4
 70
     1
 43
0.0
 10
0.2201416015625
 20
1.277183024088542
 10
-0.2215196397569444
 20
0.8069274902343749
 10
-0.2204861111111111
 20
-1.439963785807292
 10
0.22169189453125
 20
-1.325242106119792
  0
LINE
  5
1D6
330
1D3
100
AcDbEntity
  8
H2_5T_TIE_PLATES
 62
     7
100
AcDbLine
 10
-0.22169189453125
 20
1.359865315755208
 30
0.0
 11
-0.2213473849826389
 21
0.6079732259114583
 31
0.0
  0
ENDBLK
  5
1DD
330
1D3
100
AcDbEntity
  8
0
100
AcDbBlockEnd
  0
BLOCK
  5
1E8
330
1E6
100
AcDbEntity
  8
0
 62
     7
100
AcDbBlockBegin
  2
AI9-BLK49
 70
     0
 10
0.0
 20
0.0
 30
0.0
  3
AI9-BLK49
  1

  4

  0
LWPOLYLINE
  5
2C3
330
1E6
100
AcDbEntity
  8
H2_5T_TIE_PLATES
 62
     7
100
AcDbPolyline
 90
        4
 70
     1
 43
0.0
 10
3.669457329644097
 20
-6.982088894314235
 10
-3.714760335286458
 20
-9.430001491970485
 10
-3.714760335286458
 20
6.26878187391493
 10
3.714243570963542
 20
9.413465033637152
  0
INSERT
  5
294
330
1E6
100
AcDbEntity
  8
H2_5T_TIE_PLATES
 62
     7
100
AcDbBlockReference
  2
AI9-BLK68
 10
-2.631363932291666
 20
-1.043777804904514
 30
0.0
  0
INSERT
  5
26F
330
1E6
100
AcDbEntity
  8
H2_5T_TIE_PLATES
 62
     7
100
AcDbBlockReference
  2
AI9-BLK64
 10
-1.328256564670139
 20
-0.7861707899305555
 30
0.0
  0
INSERT
  5
23F
330
1E6
100
AcDbEntity
  8
H2_5T_TIE_PLATES
 62
     7
100
AcDbBlockReference
  2
AI9-BLK59
 10
-0.0047370062934028
 20
-0.0530544704861111
 30
0.0
  0
INSERT
  5
21A
330
1E6
100
AcDbEntity
  8
H2_5T_TIE_PLATES
 62
     7
100
AcDbBlockReference
  2
AI9-BLK55
 10
1.338247341579861
 20
0.2161797417534722
 30
0.0
  0
INSERT
  5
1EA
330
1E6
100
AcDbEntity
  8
H2_5T_TIE_PLATES
 62
     7
100
AcDbBlockReference
  2
AI9-BLK50
 10
2.703280300564236
 20
0.9686747233072915
 30
0.0
  0
ENDBLK
  5
2C9
330
1E6
100
AcDbEntity
  8
0
100
AcDbBlockEnd
  0
BLOCK
  5
1EB
330
1E9
100
AcDbEntity
  8
0
 62
     7
100
AcDbBlockBegin
  2
AI9-BLK50
 70
     0
 10
0.0
 20
0.0
 30
0.0
  3
AI9-BLK50
  1

  4

  0
INSERT
  5
20E
330
1E9
100
AcDbEntity
  8
H2_5T_TIE_PLATES
 62
     7
100
AcDbBlockReference
  2
AI9-BLK54
 10
0.0135219997829861
 20
5.942186821831597
 30
0.0
  0
INSERT
  5
203
330
1E9
100
AcDbEntity
  8
H2_5T_TIE_PLATES
 62
     7
100
AcDbBlockReference
  2
AI9-BLK53
 10
0.0040479871961806
 20
1.955177815755208
 30
0.0
  0
INSERT
  5
1F8
330
1E9
100
AcDbEntity
  8
H2_5T_TIE_PLATES
 62
     7
100
AcDbBlockReference
  2
AI9-BLK52
 10
-0.0053398980034722
 20
-2.020548502604167
 30
0.0
  0
INSERT
  5
1ED
330
1E9
100
AcDbEntity
  8
H2_5T_TIE_PLATES
 62
     7
100
AcDbBlockReference
  2
AI9-BLK51
 10
-0.0146416558159722
 20
-5.984389241536458
 30
0.0
  0
ENDBLK
  5
218
330
1E9
100
AcDbEntity
  8
0
100
AcDbBlockEnd
  0
BLOCK
  5
1EE
330
1EC
100
AcDbEntity
  8
0
 62
     7
100
AcDbBlockBegin
  2
AI9-BLK51
 70
     0
 10
0.0
 20
0.0
 30
0.0
  3
AI9-BLK51
  1

  4

  0
LWPOLYLINE
  5
1F0
330
1EC
100
AcDbEntity
  8
H2_5T_TIE_PLATES
 62
     7
100
AcDbPolyline
 90
        4
 70
     1
 43
0.0
 10
0.23409423828125
 20
1.342639838324653
 10
-0.2292711046006944
 20
0.813128662109375
 10
-0.2346110026041667
 20
-1.511621771918403
 10
0.2273763020833333
 20
-1.356420220269097
  0
LINE
  5
1EF
330
1EC
100
AcDbEntity
  8
H2_5T_TIE_PLATES
 62
     7
100
AcDbLine
 10
-0.2297878689236111
 20
0.6069396972656249
 30
0.0
 11
-0.22789306640625
 21
1.386564805772569
 31
0.0
  0
ENDBLK
  5
1F6
330
1EC
100
AcDbEntity
  8
0
100
AcDbBlockEnd
  0
BLOCK
  5
1F9
330
1F7
100
AcDbEntity
  8
0
 62
     7
100
AcDbBlockBegin
  2
AI9-BLK52
 70
     0
 10
0.0
 20
0.0
 30
0.0
  3
AI9-BLK52
  1

  4

  0
LWPOLYLINE
  5
1FB
330
1F7
100
AcDbEntity
  8
H2_5T_TIE_PLATES
 62
     7
100
AcDbPolyline
 90
        4
 70
     1
 43
0.0
 10
0.2344387478298611
 20
1.351166449652778
 10
-0.229443359375
 20
0.8099419487847221
 10
-0.2347832573784722
 20
-1.521698676215278
 10
0.22789306640625
 20
-1.355817328559028
  0
LINE
  5
1FA
330
1F7
100
AcDbEntity
  8
H2_5T_TIE_PLATES
 62
     7
100
AcDbLine
 10
-0.2299601236979167
 20
0.6030639648437499
 30
0.0
 11
-0.2282375759548611
 21
1.384928385416667
 31
0.0
  0
ENDBLK
  5
201
330
1F7
100
AcDbEntity
  8
0
100
AcDbBlockEnd
  0
BLOCK
  5
204
330
202
100
AcDbEntity
  8
0
 62
     7
100
AcDbBlockBegin
  2
AI9-BLK53
 70
     0
 10
0.0
 20
0.0
 30
0.0
  3
AI9-BLK53
  1

  4

  0
LWPOLYLINE
  5
206
330
202
100
AcDbEntity
  8
H2_5T_TIE_PLATES
 62
     7
100
AcDbPolyline
 90
        4
 70
     1
 43
0.0
 10
0.234869384765625
 20
1.359693060980903
 10
-0.2298739963107639
 20
0.8067552354600693
 10
-0.2352138943142361
 20
-1.531775580512153
 10
0.2281514485677083
 20
-1.355386691623264
  0
LINE
  5
205
330
202
100
AcDbEntity
  8
H2_5T_TIE_PLATES
 62
     7
100
AcDbLine
 10
-0.2284959581163194
 20
1.383291965060764
 30
0.0
 11
-0.2303907606336805
 21
0.5991882324218749
 31
0.0
  0
ENDBLK
  5
20C
330
202
100
AcDbEntity
  8
0
100
AcDbBlockEnd
  0
BLOCK
  5
20F
330
20D
100
AcDbEntity
  8
0
 62
     7
100
AcDbBlockBegin
  2
AI9-BLK54
 70
     0
 10
0.0
 20
0.0
 30
0.0
  3
AI9-BLK54
  1

  4

  0
LWPOLYLINE
  5
211
330
20D
100
AcDbEntity
  8
H2_5T_TIE_PLATES
 62
     7
100
AcDbPolyline
 90
        4
 70
     1
 43
0.0
 10
0.2352138943142361
 20
1.368305799696181
 10
-0.230218505859375
 20
0.8036546495225694
 10
-0.2355584038628472
 20
-1.541766357421875
 10
0.2284959581163194
 20
-1.354697672526042
  0
LINE
  5
210
330
20D
100
AcDbEntity
  8
H2_5T_TIE_PLATES
 62
     7
100
AcDbLine
 10
-0.2307352701822917
 20
0.5955708821614583
 30
0.0
 11
-0.2288404676649306
 21
1.381913926866319
 31
0.0
  0
ENDBLK
  5
217
330
20D
100
AcDbEntity
  8
0
100
AcDbBlockEnd
  0
BLOCK
  5
21B
330
219
100
AcDbEntity
  8
0
 62
     7
100
AcDbBlockBegin
  2
AI9-BLK55
 70
     0
 10
0.0
 20
0.0
 30
0.0
  3
AI9-BLK55
  1

  4

  0
INSERT
  5
233
330
219
100
AcDbEntity
  8
H2_5T_TIE_PLATES
 62
     7
100
AcDbBlockReference
  2
AI9-BLK58
 10
0.0070624457465278
 20
3.929562038845486
 30
0.0
  0
INSERT
  5
228
330
219
100
AcDbEntity
  8
H2_5T_TIE_PLATES
 62
     7
100
AcDbBlockReference
  2
AI9-BLK57
 10
-0.0003445095486111
 20
-0.019378662109375
 30
0.0
  0
INSERT
  5
21D
330
219
100
AcDbEntity
  8
H2_5T_TIE_PLATES
 62
     7
100
AcDbBlockReference
  2
AI9-BLK56
 10
-0.0076653374565972
 20
-3.957553439670138
 30
0.0
  0
ENDBLK
  5
23D
330
219
100
AcDbEntity
  8
0
100
AcDbBlockEnd
  0
BLOCK
  5
21E
330
21C
100
AcDbEntity
  8
0
 62
     7
100
AcDbBlockBegin
  2
AI9-BLK56
 70
     0
 10
0.0
 20
0.0
 30
0.0
  3
AI9-BLK56
  1

  4

  0
LWPOLYLINE
  5
220
330
21C
100
AcDbEntity
  8
H2_5T_TIE_PLATES
 62
     7
100
AcDbPolyline
 90
        4
 70
     1
 43
0.0
 10
0.2301323784722222
 20
1.334027099609375
 10
-0.2263427734375
 20
0.8048604329427083
 10
-0.2304768880208333
 20
-1.504903835720486
 10
0.22479248046875
 20
-1.347290717230903
  0
LINE
  5
21F
330
21C
100
AcDbEntity
  8
H2_5T_TIE_PLATES
 62
     7
100
AcDbLine
 10
-0.2266872829861111
 20
0.5998772515190972
 30
0.0
 11
-0.2253092447916666
 21
1.374334716796875
 31
0.0
  0
ENDBLK
  5
226
330
21C
100
AcDbEntity
  8
0
100
AcDbBlockEnd
  0
BLOCK
  5
229
330
227
100
AcDbEntity
  8
0
 62
     7
100
AcDbBlockBegin
  2
AI9-BLK57
 70
     0
 10
0.0
 20
0.0
 30
0.0
  3
AI9-BLK57
  1

  4

  0
LWPOLYLINE
  5
22B
330
227
100
AcDbEntity
  8
H2_5T_TIE_PLATES
 62
     7
100
AcDbPolyline
 90
        4
 70
     1
 43
0.0
 10
0.2303907606336805
 20
1.342381456163194
 10
-0.2266011555989583
 20
0.8013292100694444
 10
-0.2307352701822917
 20
-1.514980740017361
 10
0.2252231174045139
 20
-1.347032335069444
  0
LINE
  5
22A
330
227
100
AcDbEntity
  8
H2_5T_TIE_PLATES
 62
     7
100
AcDbLine
 10
-0.225567626953125
 20
1.372526041666667
 30
0.0
 11
-0.2269456651475694
 21
0.5960015190972222
 31
0.0
  0
ENDBLK
  5
231
330
227
100
AcDbEntity
  8
0
100
AcDbBlockEnd
  0
BLOCK
  5
234
330
232
100
AcDbEntity
  8
0
 62
     7
100
AcDbBlockBegin
  2
AI9-BLK58
 70
     0
 10
0.0
 20
0.0
 30
0.0
  3
AI9-BLK58
  1

  4

  0
LWPOLYLINE
  5
236
330
232
100
AcDbEntity
  8
H2_5T_TIE_PLATES
 62
     7
100
AcDbPolyline
 90
        4
 70
     1
 43
0.0
 10
0.2307352701822917
 20
1.350821940104167
 10
-0.2269456651475694
 20
0.7984008789062499
 10
-0.2310797797309028
 20
-1.524799262152778
 10
0.225567626953125
 20
-1.346171061197917
  0
LINE
  5
235
330
232
100
AcDbEntity
  8
H2_5T_TIE_PLATES
 62
     7
100
AcDbLine
 10
-0.2272901746961805
 20
0.5922119140625
 30
0.0
 11
-0.2259121365017361
 21
1.371148003472222
 31
0.0
  0
ENDBLK
  5
23C
330
232
100
AcDbEntity
  8
0
100
AcDbBlockEnd
  0
BLOCK
  5
240
330
23E
100
AcDbEntity
  8
0
 62
     7
100
AcDbBlockBegin
  2
AI9-BLK59
 70
     0
 10
0.0
 20
0.0
 30
0.0
  3
AI9-BLK59
  1

  4

  0
INSERT
  5
263
330
23E
100
AcDbEntity
  8
H2_5T_TIE_PLATES
 62
     7
100
AcDbBlockReference
  2
AI9-BLK63
 10
0.0074930826822917
 20
5.849513753255208
 30
0.0
  0
INSERT
  5
258
330
23E
100
AcDbEntity
  8
H2_5T_TIE_PLATES
 62
     7
100
AcDbBlockReference
  2
AI9-BLK62
 10
0.0021531846788194
 20
1.924947102864583
 30
0.0
  0
INSERT
  5
24D
330
23E
100
AcDbEntity
  8
H2_5T_TIE_PLATES
 62
     7
100
AcDbBlockReference
  2
AI9-BLK61
 10
-0.0031867133246528
 20
-1.988595241970486
 30
0.0
  0
INSERT
  5
242
330
23E
100
AcDbEntity
  8
H2_5T_TIE_PLATES
 62
     7
100
AcDbBlockReference
  2
AI9-BLK60
 10
-0.008526611328125
 20
-5.890768771701389
 30
0.0
  0
ENDBLK
  5
26D
330
23E
100
AcDbEntity
  8
0
100
AcDbBlockEnd
  0
BLOCK
  5
243
330
241
100
AcDbEntity
  8
0
 62
     7
100
AcDbBlockBegin
  2
AI9-BLK60
 70
     0
 10
0.0
 20
0.0
 30
0.0
  3
AI9-BLK60
  1

  4

  0
LWPOLYLINE
  5
245
330
241
100
AcDbEntity
  8
H2_5T_TIE_PLATES
 62
     7
100
AcDbPolyline
 90
        4
 70
     1
 43
0.0
 10
0.2257398817274305
 20
1.318007405598958
 10
-0.2231560601128472
 20
0.7991760253906249
 10
-0.2260843912760417
 20
-1.489573160807292
 10
0.2219502766927083
 20
-1.33885023328993
  0
LINE
  5
244
330
241
100
AcDbEntity
  8
H2_5T_TIE_PLATES
 62
     7
100
AcDbLine
 10
-0.2235005696614583
 20
0.5962599012586805
 30
0.0
 11
-0.222467041015625
 21
1.36365492078993
 31
0.0
  0
ENDBLK
  5
24B
330
241
100
AcDbEntity
  8
0
100
AcDbBlockEnd
  0
BLOCK
  5
24E
330
24C
100
AcDbEntity
  8
0
 62
     7
100
AcDbBlockBegin
  2
AI9-BLK61
 70
     0
 10
0.0
 20
0.0
 30
0.0
  3
AI9-BLK61
  1

  4

  0
LWPOLYLINE
  5
250
330
24C
100
AcDbEntity
  8
H2_5T_TIE_PLATES
 62
     7
100
AcDbPolyline
 90
        4
 70
     1
 43
0.0
 10
0.2260843912760417
 20
1.326189507378472
 10
-0.2235005696614583
 20
0.7959893120659721
 10
-0.2264289008246528
 20
-1.499305555555555
 10
0.2222947862413194
 20
-1.338419596354167
  0
LINE
  5
24F
330
24C
100
AcDbEntity
  8
H2_5T_TIE_PLATES
 62
     7
100
AcDbLine
 10
-0.2228115505642361
 20
1.362018500434028
 30
0.0
 11
-0.2238450792100694
 21
0.5923841688368055
 31
0.0
  0
ENDBLK
  5
256
330
24C
100
AcDbEntity
  8
0
100
AcDbBlockEnd
  0
BLOCK
  5
259
330
257
100
AcDbEntity
  8
0
 62
     7
100
AcDbBlockBegin
  2
AI9-BLK62
 70
     0
 10
0.0
 20
0.0
 30
0.0
  3
AI9-BLK62
  1

  4

  0
LWPOLYLINE
  5
25B
330
257
100
AcDbEntity
  8
H2_5T_TIE_PLATES
 62
     7
100
AcDbPolyline
 90
        4
 70
     1
 43
0.0
 10
0.2264289008246528
 20
1.334543863932292
 10
-0.2238450792100694
 20
0.7929748535156249
 10
-0.2267734103732639
 20
-1.509210205078125
 10
0.2226392957899305
 20
-1.337988959418403
  0
LINE
  5
25A
330
257
100
AcDbEntity
  8
H2_5T_TIE_PLATES
 62
     7
100
AcDbLine
 10
-0.2231560601128472
 20
1.360382080078125
 30
0.0
 11
-0.224017333984375
 21
0.5886806911892361
 31
0.0
  0
ENDBLK
  5
261
330
257
100
AcDbEntity
  8
0
100
AcDbBlockEnd
  0
BLOCK
  5
264
330
262
100
AcDbEntity
  8
0
 62
     7
100
AcDbBlockBegin
  2
AI9-BLK63
 70
     0
 10
0.0
 20
0.0
 30
0.0
  3
AI9-BLK63
  1

  4

  0
LWPOLYLINE
  5
266
330
262
100
AcDbEntity
  8
H2_5T_TIE_PLATES
 62
     7
100
AcDbPolyline
 90
        4
 70
     1
 43
0.0
 10
0.2267734103732639
 20
1.342725965711805
 10
-0.2241895887586805
 20
0.7897881401909721
 10
-0.227117919921875
 20
-1.518942599826389
 10
0.2229838053385417
 20
-1.337386067708333
  0
LINE
  5
265
330
262
100
AcDbEntity
  8
H2_5T_TIE_PLATES
 62
     7
100
AcDbLine
 10
-0.2243618435329861
 20
0.5849772135416667
 30
0.0
 11
-0.2233283148871528
 21
1.359090169270833
 31
0.0
  0
ENDBLK
  5
26C
330
262
100
AcDbEntity
  8
0
100
AcDbBlockEnd
  0
BLOCK
  5
270
330
26E
100
AcDbEntity
  8
0
 62
     7
100
AcDbBlockBegin
  2
AI9-BLK64
 70
     0
 10
0.0
 20
0.0
 30
0.0
  3
AI9-BLK64
  1

  4

  0
INSERT
  5
288
330
26E
100
AcDbEntity
  8
H2_5T_TIE_PLATES
 62
     7
100
AcDbBlockReference
  2
AI9-BLK67
 10
0.0031005859375
 20
3.868756103515625
 30
0.0
  0
INSERT
  5
27D
330
26E
100
AcDbEntity
  8
H2_5T_TIE_PLATES
 62
     7
100
AcDbBlockReference
  2
AI9-BLK66
 10
-0.0003445095486111
 20
-0.0190341525607639
 30
0.0
  0
INSERT
  5
272
330
26E
100
AcDbEntity
  8
H2_5T_TIE_PLATES
 62
     7
100
AcDbBlockReference
  2
AI9-BLK65
 10
-0.0037896050347222
 20
-3.896058485243055
 30
0.0
  0
ENDBLK
  5
292
330
26E
100
AcDbEntity
  8
0
100
AcDbBlockEnd
  0
BLOCK
  5
273
330
271
100
AcDbEntity
  8
0
 62
     7
100
AcDbBlockBegin
  2
AI9-BLK65
 70
     0
 10
0.0
 20
0.0
 30
0.0
  3
AI9-BLK65
  1

  4

  0
LWPOLYLINE
  5
275
330
271
100
AcDbEntity
  8
H2_5T_TIE_PLATES
 62
     7
100
AcDbPolyline
 90
        4
 70
     1
 43
0.0
 10
0.2219502766927083
 20
1.309566921657986
 10
-0.2203999837239583
 20
0.7907355414496528
 10
-0.2221225314670139
 20
-1.483199734157986
 10
0.219366455078125
 20
-1.330237494574653
  0
LINE
  5
274
330
271
100
AcDbEntity
  8
H2_5T_TIE_PLATES
 62
     7
100
AcDbLine
 10
-0.2198832194010416
 20
1.351597086588542
 30
0.0
 11
-0.2205722384982639
 21
0.5890252007378471
 31
0.0
  0
ENDBLK
  5
27B
330
271
100
AcDbEntity
  8
0
100
AcDbBlockEnd
  0
BLOCK
  5
27E
330
27C
100
AcDbEntity
  8
0
 62
     7
100
AcDbBlockBegin
  2
AI9-BLK66
 70
     0
 10
0.0
 20
0.0
 30
0.0
  3
AI9-BLK66
  1

  4

  0
LWPOLYLINE
  5
280
330
27C
100
AcDbEntity
  8
H2_5T_TIE_PLATES
 62
     7
100
AcDbPolyline
 90
        4
 70
     1
 43
0.0
 10
0.2222947862413194
 20
1.3177490234375
 10
-0.2207444932725694
 20
0.787893337673611
 10
-0.222467041015625
 20
-1.492759874131944
 10
0.2197109646267361
 20
-1.329806857638889
  0
LINE
  5
27F
330
27C
100
AcDbEntity
  8
H2_5T_TIE_PLATES
 62
     7
100
AcDbLine
 10
-0.2202277289496528
 20
1.349960666232639
 30
0.0
 11
-0.220916748046875
 21
0.5853217230902778
 31
0.0
  0
ENDBLK
  5
286
330
27C
100
AcDbEntity
  8
0
100
AcDbBlockEnd
  0
BLOCK
  5
289
330
287
100
AcDbEntity
  8
0
 62
     7
100
AcDbBlockBegin
  2
AI9-BLK67
 70
     0
 10
0.0
 20
0.0
 30
0.0
  3
AI9-BLK67
  1

  4

  0
LWPOLYLINE
  5
28B
330
287
100
AcDbEntity
  8
H2_5T_TIE_PLATES
 62
     7
100
AcDbPolyline
 90
        4
 70
     1
 43
0.0
 10
0.2226392957899305
 20
1.325844997829861
 10
-0.2210890028211806
 20
0.7846204969618055
 10
-0.2228115505642361
 20
-1.502406141493055
 10
0.2200554741753472
 20
-1.329117838541667
  0
LINE
  5
28A
330
287
100
AcDbEntity
  8
H2_5T_TIE_PLATES
 62
     7
100
AcDbLine
 10
-0.2212612575954861
 20
0.5818766276041666
 30
0.0
 11
-0.2205722384982639
 21
1.348582628038194
 31
0.0
  0
ENDBLK
  5
291
330
287
100
AcDbEntity
  8
0
100
AcDbBlockEnd
  0
BLOCK
  5
295
330
293
100
AcDbEntity
  8
0
 62
     7
100
AcDbBlockBegin
  2
AI9-BLK68
 70
     0
 10
0.0
 20
0.0
 30
0.0
  3
AI9-BLK68
  1

  4

  0
INSERT
  5
2B8
330
293
100
AcDbEntity
  8
H2_5T_TIE_PLATES
 62
     7
100
AcDbBlockReference
  2
AI9-BLK72
 10
0.0018948025173611
 20
5.759510633680555
 30
0.0
  0
INSERT
  5
2AD
330
293
100
AcDbEntity
  8
H2_5T_TIE_PLATES
 62
     7
100
AcDbBlockReference
  2
AI9-BLK71
 10
0.0003445095486111
 20
1.895405409071181
 30
0.0
  0
INSERT
  5
2A2
330
293
100
AcDbEntity
  8
H2_5T_TIE_PLATES
 62
     7
100
AcDbBlockReference
  2
AI9-BLK70
 10
-0.0012057834201389
 20
-1.957847764756944
 30
0.0
  0
INSERT
  5
297
330
293
100
AcDbEntity
  8
H2_5T_TIE_PLATES
 62
     7
100
AcDbBlockReference
  2
AI9-BLK69
 10
-0.0028422037760417
 20
-5.79999050564236
 30
0.0
  0
ENDBLK
  5
2C2
330
293
100
AcDbEntity
  8
0
100
AcDbBlockEnd
  0
BLOCK
  5
298
330
296
100
AcDbEntity
  8
0
 62
     7
100
AcDbBlockBegin
  2
AI9-BLK69
 70
     0
 10
0.0
 20
0.0
 30
0.0
  3
AI9-BLK69
  1

  4

  0
LWPOLYLINE
  5
29A
330
296
100
AcDbEntity
  8
H2_5T_TIE_PLATES
 62
     7
100
AcDbPolyline
 90
        4
 70
     1
 43
0.0
 10
0.2179022894965278
 20
1.293977864583333
 10
-0.2172132703993056
 20
0.7853095160590277
 10
-0.2180745442708333
 20
-1.468299696180555
 10
0.2166965060763889
 20
-1.322227647569444
  0
LINE
  5
299
330
296
100
AcDbEntity
  8
H2_5T_TIE_PLATES
 62
     7
100
AcDbLine
 10
-0.217041015625
 20
1.34100341796875
 30
0.0
 11
-0.2173855251736111
 21
0.5853217230902778
 31
0.0
  0
ENDBLK
  5
2A0
330
296
100
AcDbEntity
  8
0
100
AcDbBlockEnd
  0
BLOCK
  5
2A3
330
2A1
100
AcDbEntity
  8
0
 62
     7
100
AcDbBlockBegin
  2
AI9-BLK70
 70
     0
 10
0.0
 20
0.0
 30
0.0
  3
AI9-BLK70
  1

  4

  0
LWPOLYLINE
  5
2A5
330
2A1
100
AcDbEntity
  8
H2_5T_TIE_PLATES
 62
     7
100
AcDbPolyline
 90
        4
 70
     1
 43
0.0
 10
0.2181606716579861
 20
1.301901584201389
 10
-0.2176439073350694
 20
0.7823811848958333
 10
-0.2183329264322917
 20
-1.477773708767361
 10
0.2169548882378472
 20
-1.321710883246528
  0
LINE
  5
2A4
330
2A1
100
AcDbEntity
  8
H2_5T_TIE_PLATES
 62
     7
100
AcDbLine
 10
-0.217816162109375
 20
0.5818766276041666
 30
0.0
 11
-0.2174716525607639
 21
1.339625379774305
 31
0.0
  0
ENDBLK
  5
2AB
330
2A1
100
AcDbEntity
  8
0
100
AcDbBlockEnd
  0
BLOCK
  5
2AE
330
2AC
100
AcDbEntity
  8
0
 62
     7
100
AcDbBlockBegin
  2
AI9-BLK71
 70
     0
 10
0.0
 20
0.0
 30
0.0
  3
AI9-BLK71
  1

  4

  0
LWPOLYLINE
  5
2B0
330
2AC
100
AcDbEntity
  8
H2_5T_TIE_PLATES
 62
     7
100
AcDbPolyline
 90
        4
 70
     1
 43
0.0
 10
0.2185051812065972
 20
1.310083685980903
 10
-0.2179884168836805
 20
0.7795389811197916
 10
-0.2186774359809028
 20
-1.487333848741319
 10
0.2171271430121528
 20
-1.321280246310764
  0
LINE
  5
2AF
330
2AC
100
AcDbEntity
  8
H2_5T_TIE_PLATES
 62
     7
100
AcDbLine
 10
-0.2179884168836805
 20
0.5781731499565972
 30
0.0
 11
-0.217816162109375
 21
1.338161214192708
 31
0.0
  0
ENDBLK
  5
2B6
330
2AC
100
AcDbEntity
  8
0
100
AcDbBlockEnd
  0
BLOCK
  5
2B9
330
2B7
100
AcDbEntity
  8
0
 62
     7
100
AcDbBlockBegin
  2
AI9-BLK72
 70
     0
 10
0.0
 20
0.0
 30
0.0
  3
AI9-BLK72
  1

  4

  0
LWPOLYLINE
  5
2BB
330
2B7
100
AcDbEntity
  8
H2_5T_TIE_PLATES
 62
     7
100
AcDbPolyline
 90
        4
 70
     1
 43
0.0
 10
0.2188496907552083
 20
1.317921278211806
 10
-0.2183329264322917
 20
0.7761800130208333
 10
-0.2190219455295139
 20
-1.496721733940972
 10
0.2174716525607639
 20
-1.320677354600694
  0
LINE
  5
2BA
330
2B7
100
AcDbEntity
  8
H2_5T_TIE_PLATES
 62
     7
100
AcDbLine
 10
-0.2181606716579861
 20
1.336697048611111
 30
0.0
 11
-0.2183329264322917
 21
0.5746419270833333
 31
0.0
  0
ENDBLK
  5
2C1
330
2B7
100
AcDbEntity
  8
0
100
AcDbBlockEnd
  0
BLOCK
  5
2DA
330
2D8
100
AcDbEntity
  8
0
 62
     7
100
AcDbBlockBegin
  2
AI9-BLK74
 70
     0
 10
0.0
 20
0.0
 30
0.0
  3
AI9-BLK74
  1

  4

  0
LWPOLYLINE
  5
3B5
330
2D8
100
AcDbEntity
  8
H2_5T_TIE_PLATES
 62
     7
100
AcDbPolyline
 90
        4
 70
     1
 43
0.0
 10
3.69064466688368
 20
-7.025583224826388
 10
-3.69064466688368
 20
-8.832535807291666
 10
-3.69064466688368
 20
6.898803710937499
 10
3.636728922526042
 20
8.832535807291666
  0
INSERT
  5
386
330
2D8
100
AcDbEntity
  8
H2_5T_TIE_PLATES
 62
     7
100
AcDbBlockReference
  2
AI9-BLK93
 10
-2.583993869357639
 20
-0.6090928819444444
 30
0.0
  0
INSERT
  5
361
330
2D8
100
AcDbEntity
  8
H2_5T_TIE_PLATES
 62
     7
100
AcDbBlockReference
  2
AI9-BLK89
 10
-1.267019992404514
 20
-0.4811937120225694
 30
0.0
  0
INSERT
  5
331
330
2D8
100
AcDbEntity
  8
H2_5T_TIE_PLATES
 62
     7
100
AcDbBlockReference
  2
AI9-BLK84
 10
0.0541741265190972
 20
0.06201171875
 30
0.0
  0
INSERT
  5
30C
330
2D8
100
AcDbEntity
  8
H2_5T_TIE_PLATES
 62
     7
100
AcDbBlockReference
  2
AI9-BLK80
 10
1.380105251736111
 20
0.1915473090277778
 30
0.0
  0
INSERT
  5
2DC
330
2D8
100
AcDbEntity
  8
H2_5T_TIE_PLATES
 62
     7
100
AcDbBlockReference
  2
AI9-BLK75
 10
2.709567599826389
 20
0.7373365614149305
 30
0.0
  0
ENDBLK
  5
3BB
330
2D8
100
AcDbEntity
  8
0
100
AcDbBlockEnd
  0
BLOCK
  5
2DD
330
2DB
100
AcDbEntity
  8
0
 62
     7
100
AcDbBlockBegin
  2
AI9-BLK75
 70
     0
 10
0.0
 20
0.0
 30
0.0
  3
AI9-BLK75
  1

  4

  0
INSERT
  5
300
330
2DB
100
AcDbEntity
  8
H2_5T_TIE_PLATES
 62
     7
100
AcDbBlockReference
  2
AI9-BLK79
 10
-0.0177422417534722
 20
5.798784722222222
 30
0.0
  0
INSERT
  5
2F5
330
2DB
100
AcDbEntity
  8
H2_5T_TIE_PLATES
 62
     7
100
AcDbBlockReference
  2
AI9-BLK78
 10
-0.0062872992621528
 20
1.951732720269097
 30
0.0
  0
INSERT
  5
2EA
330
2DB
100
AcDbEntity
  8
H2_5T_TIE_PLATES
 62
     7
100
AcDbBlockReference
  2
AI9-BLK77
 10
0.0049953884548611
 20
-1.909013536241319
 30
0.0
  0
INSERT
  5
2DF
330
2DB
100
AcDbEntity
  8
H2_5T_TIE_PLATES
 62
     7
100
AcDbBlockReference
  2
AI9-BLK76
 10
0.0163642035590278
 20
-5.783712429470485
 30
0.0
  0
ENDBLK
  5
30A
330
2DB
100
AcDbEntity
  8
0
100
AcDbBlockEnd
  0
BLOCK
  5
2E0
330
2DE
100
AcDbEntity
  8
0
 62
     7
100
AcDbBlockBegin
  2
AI9-BLK76
 70
     0
 10
0.0
 20
0.0
 30
0.0
  3
AI9-BLK76
  1

  4

  0
LWPOLYLINE
  5
2E2
330
2DE
100
AcDbEntity
  8
H2_5T_TIE_PLATES
 62
     7
100
AcDbPolyline
 90
        4
 70
     1
 43
0.0
 10
0.2210890028211806
 20
1.332562934027778
 10
-0.2276346842447916
 20
0.8609293619791666
 10
-0.220916748046875
 20
-1.4231689453125
 10
0.2291849772135416
 20
-1.312925889756944
  0
LINE
  5
2E1
330
2DE
100
AcDbEntity
  8
H2_5T_TIE_PLATES
 62
     7
100
AcDbLine
 10
-0.227117919921875
 20
0.6587022569444444
 30
0.0
 11
-0.2291849772135416
 21
1.4231689453125
 31
0.0
  0
ENDBLK
  5
2E8
330
2DE
100
AcDbEntity
  8
0
100
AcDbBlockEnd
  0
BLOCK
  5
2EB
330
2E9
100
AcDbEntity
  8
0
 62
     7
100
AcDbBlockBegin
  2
AI9-BLK77
 70
     0
 10
0.0
 20
0.0
 30
0.0
  3
AI9-BLK77
  1

  4

  0
LWPOLYLINE
  5
2ED
330
2E9
100
AcDbEntity
  8
H2_5T_TIE_PLATES
 62
     7
100
AcDbPolyline
 90
        4
 70
     1
 43
0.0
 10
0.2207444932725694
 20
1.3301513671875
 10
-0.227117919921875
 20
0.8578287760416666
 10
-0.2207444932725694
 20
-1.418001302083333
 10
0.2288404676649306
 20
-1.306035698784722
  0
LINE
  5
2EC
330
2E9
100
AcDbEntity
  8
H2_5T_TIE_PLATES
 62
     7
100
AcDbLine
 10
-0.2266011555989583
 20
0.6566351996527777
 30
0.0
 11
-0.2288404676649306
 21
1.418001302083333
 31
0.0
  0
ENDBLK
  5
2F3
330
2E9
100
AcDbEntity
  8
0
100
AcDbBlockEnd
  0
BLOCK
  5
2F6
330
2F4
100
AcDbEntity
  8
0
 62
     7
100
AcDbBlockBegin
  2
AI9-BLK78
 70
     0
 10
0.0
 20
0.0
 30
0.0
  3
AI9-BLK78
  1

  4

  0
LWPOLYLINE
  5
2F8
330
2F4
100
AcDbEntity
  8
H2_5T_TIE_PLATES
 62
     7
100
AcDbPolyline
 90
        4
 70
     1
 43
0.0
 10
0.2203138563368055
 20
1.328256564670139
 10
-0.2268595377604167
 20
0.8552449544270833
 10
-0.2203138563368055
 20
-1.413005913628472
 10
0.2284098307291667
 20
-1.298628743489583
  0
LINE
  5
2F7
330
2F4
100
AcDbEntity
  8
H2_5T_TIE_PLATES
 62
     7
100
AcDbLine
 10
-0.2284098307291667
 20
1.413005913628472
 30
0.0
 11
-0.2261705186631944
 21
0.6543958875868055
 31
0.0
  0
ENDBLK
  5
2FE
330
2F4
100
AcDbEntity
  8
0
100
AcDbBlockEnd
  0
BLOCK
  5
301
330
2FF
100
AcDbEntity
  8
0
 62
     7
100
AcDbBlockBegin
  2
AI9-BLK79
 70
     0
 10
0.0
 20
0.0
 30
0.0
  3
AI9-BLK79
  1

  4

  0
LWPOLYLINE
  5
303
330
2FF
100
AcDbEntity
  8
H2_5T_TIE_PLATES
 62
     7
100
AcDbPolyline
 90
        4
 70
     1
 43
0.0
 10
0.2200554741753472
 20
1.325758870442708
 10
-0.2262566460503472
 20
0.8520582411024305
 10
-0.2198832194010416
 20
-1.408096652560764
 10
0.2278069390190972
 20
-1.291824679904514
  0
LINE
  5
302
330
2FF
100
AcDbEntity
  8
H2_5T_TIE_PLATES
 62
     7
100
AcDbLine
 10
-0.2257398817274305
 20
0.6518981933593749
 30
0.0
 11
-0.2278069390190972
 21
1.408096652560764
 31
0.0
  0
ENDBLK
  5
309
330
2FF
100
AcDbEntity
  8
0
100
AcDbBlockEnd
  0
BLOCK
  5
30D
330
30B
100
AcDbEntity
  8
0
 62
     7
100
AcDbBlockBegin
  2
AI9-BLK80
 70
     0
 10
0.0
 20
0.0
 30
0.0
  3
AI9-BLK80
  1

  4

  0
INSERT
  5
325
330
30B
100
AcDbEntity
  8
H2_5T_TIE_PLATES
 62
     7
100
AcDbBlockReference
  2
AI9-BLK83
 10
-0.0094740125868056
 20
3.860918511284722
 30
0.0
  0
INSERT
  5
31A
330
30B
100
AcDbEntity
  8
H2_5T_TIE_PLATES
 62
     7
100
AcDbBlockReference
  2
AI9-BLK82
 10
-0.0004306369357639
 20
0.0118855794270833
 30
0.0
  0
INSERT
  5
30F
330
30B
100
AcDbEntity
  8
H2_5T_TIE_PLATES
 62
     7
100
AcDbBlockReference
  2
AI9-BLK81
 10
0.0086988661024306
 20
-3.850927734375
 30
0.0
  0
ENDBLK
  5
32F
330
30B
100
AcDbEntity
  8
0
100
AcDbBlockEnd
  0
BLOCK
  5
310
330
30E
100
AcDbEntity
  8
0
 62
     7
100
AcDbBlockBegin
  2
AI9-BLK81
 70
     0
 10
0.0
 20
0.0
 30
0.0
  3
AI9-BLK81
  1

  4

  0
LWPOLYLINE
  5
312
330
30E
100
AcDbEntity
  8
H2_5T_TIE_PLATES
 62
     7
100
AcDbPolyline
 90
        4
 70
     1
 43
0.0
 10
0.2210028754340278
 20
1.329462348090278
 10
-0.2263427734375
 20
0.8585177951388888
 10
-0.2211751302083333
 20
-1.418690321180556
 10
0.2273763020833333
 20
-1.307758246527778
  0
LINE
  5
311
330
30E
100
AcDbEntity
  8
H2_5T_TIE_PLATES
 62
     7
100
AcDbLine
 10
-0.2256537543402778
 20
0.6566351996527777
 30
0.0
 11
-0.2273763020833333
 21
1.418690321180556
 31
0.0
  0
ENDBLK
  5
318
330
30E
100
AcDbEntity
  8
0
100
AcDbBlockEnd
  0
BLOCK
  5
31B
330
319
100
AcDbEntity
  8
0
 62
     7
100
AcDbBlockBegin
  2
AI9-BLK82
 70
     0
 10
0.0
 20
0.0
 30
0.0
  3
AI9-BLK82
  1

  4

  0
LWPOLYLINE
  5
31D
330
319
100
AcDbEntity
  8
H2_5T_TIE_PLATES
 62
     7
100
AcDbPolyline
 90
        4
 70
     1
 43
0.0
 10
0.2204861111111111
 20
1.327567545572917
 10
-0.2256537543402778
 20
0.8559339735243055
 10
-0.2206583658854167
 20
-1.413694932725694
 10
0.2270317925347222
 20
-1.30069580078125
  0
LINE
  5
31C
330
319
100
AcDbEntity
  8
H2_5T_TIE_PLATES
 62
     7
100
AcDbLine
 10
-0.2270317925347222
 20
1.413694932725694
 30
0.0
 11
-0.2253092447916666
 21
0.6543958875868055
 31
0.0
  0
ENDBLK
  5
323
330
319
100
AcDbEntity
  8
0
100
AcDbBlockEnd
  0
BLOCK
  5
326
330
324
100
AcDbEntity
  8
0
 62
     7
100
AcDbBlockBegin
  2
AI9-BLK83
 70
     0
 10
0.0
 20
0.0
 30
0.0
  3
AI9-BLK83
  1

  4

  0
LWPOLYLINE
  5
328
330
324
100
AcDbEntity
  8
H2_5T_TIE_PLATES
 62
     7
100
AcDbPolyline
 90
        4
 70
     1
 43
0.0
 10
0.2202277289496528
 20
1.324983723958333
 10
-0.2252231174045139
 20
0.8524888780381944
 10
-0.2202277289496528
 20
-1.408699544270833
 10
0.2266011555989583
 20
-1.293633355034722
  0
LINE
  5
327
330
324
100
AcDbEntity
  8
H2_5T_TIE_PLATES
 62
     7
100
AcDbLine
 10
-0.2247063530815972
 20
0.6521565755208333
 30
0.0
 11
-0.2266011555989583
 21
1.408699544270833
 31
0.0
  0
ENDBLK
  5
32E
330
324
100
AcDbEntity
  8
0
100
AcDbBlockEnd
  0
BLOCK
  5
332
330
330
100
AcDbEntity
  8
0
 62
     7
100
AcDbBlockBegin
  2
AI9-BLK84
 70
     0
 10
0.0
 20
0.0
 30
0.0
  3
AI9-BLK84
  1

  4

  0
INSERT
  5
355
330
330
100
AcDbEntity
  8
H2_5T_TIE_PLATES
 62
     7
100
AcDbBlockReference
  2
AI9-BLK88
 10
-0.0105936686197917
 20
5.782076009114583
 30
0.0
  0
INSERT
  5
34A
330
330
100
AcDbEntity
  8
H2_5T_TIE_PLATES
 62
     7
100
AcDbBlockReference
  2
AI9-BLK87
 10
-0.003875732421875
 20
1.946134440104167
 30
0.0
  0
INSERT
  5
33F
330
330
100
AcDbEntity
  8
H2_5T_TIE_PLATES
 62
     7
100
AcDbBlockReference
  2
AI9-BLK86
 10
0.0026699490017361
 20
-1.903759765625
 30
0.0
  0
INSERT
  5
334
330
330
100
AcDbEntity
  8
H2_5T_TIE_PLATES
 62
     7
100
AcDbBlockReference
  2
AI9-BLK85
 10
0.0093017578125
 20
-5.767262098524305
 30
0.0
  0
ENDBLK
  5
35F
330
330
100
AcDbEntity
  8
0
100
AcDbBlockEnd
  0
BLOCK
  5
335
330
333
100
AcDbEntity
  8
0
 62
     7
100
AcDbBlockBegin
  2
AI9-BLK85
 70
     0
 10
0.0
 20
0.0
 30
0.0
  3
AI9-BLK85
  1

  4

  0
LWPOLYLINE
  5
337
330
333
100
AcDbEntity
  8
H2_5T_TIE_PLATES
 62
     7
100
AcDbPolyline
 90
        4
 70
     1
 43
0.0
 10
0.2211751302083333
 20
1.32860107421875
 10
-0.2249647352430556
 20
0.8586900499131944
 10
-0.2213473849826389
 20
-1.418862575954861
 10
0.2259982638888889
 20
-1.309308539496528
  0
LINE
  5
336
330
333
100
AcDbEntity
  8
H2_5T_TIE_PLATES
 62
     7
100
AcDbLine
 10
-0.2246202256944444
 20
0.6568074544270833
 30
0.0
 11
-0.2259982638888889
 21
1.418862575954861
 31
0.0
  0
ENDBLK
  5
33D
330
333
100
AcDbEntity
  8
0
100
AcDbBlockEnd
  0
BLOCK
  5
340
330
33E
100
AcDbEntity
  8
0
 62
     7
100
AcDbBlockBegin
  2
AI9-BLK86
 70
     0
 10
0.0
 20
0.0
 30
0.0
  3
AI9-BLK86
  1

  4

  0
LWPOLYLINE
  5
342
330
33E
100
AcDbEntity
  8
H2_5T_TIE_PLATES
 62
     7
100
AcDbPolyline
 90
        4
 70
     1
 43
0.0
 10
0.220916748046875
 20
1.326361762152778
 10
-0.2245340983072917
 20
0.8554172092013889
 10
-0.220916748046875
 20
-1.4138671875
 10
0.225567626953125
 20
-1.301901584201389
  0
LINE
  5
341
330
33E
100
AcDbEntity
  8
H2_5T_TIE_PLATES
 62
     7
100
AcDbLine
 10
-0.225567626953125
 20
1.4138671875
 30
0.0
 11
-0.2243618435329861
 21
0.6545681423611111
 31
0.0
  0
ENDBLK
  5
348
330
33E
100
AcDbEntity
  8
0
100
AcDbBlockEnd
  0
BLOCK
  5
34B
330
349
100
AcDbEntity
  8
0
 62
     7
100
AcDbBlockBegin
  2
AI9-BLK87
 70
     0
 10
0.0
 20
0.0
 30
0.0
  3
AI9-BLK87
  1

  4

  0
LWPOLYLINE
  5
34D
330
349
100
AcDbEntity
  8
H2_5T_TIE_PLATES
 62
     7
100
AcDbPolyline
 90
        4
 70
     1
 43
0.0
 10
0.2203999837239583
 20
1.323605685763889
 10
-0.2243618435329861
 20
0.8526611328124999
 10
-0.2207444932725694
 20
-1.409044053819444
 10
0.2252231174045139
 20
-1.295355902777778
  0
LINE
  5
34C
330
349
100
AcDbEntity
  8
H2_5T_TIE_PLATES
 62
     7
100
AcDbLine
 10
-0.2252231174045139
 20
1.409044053819444
 30
0.0
 11
-0.224017333984375
 21
0.6525010850694444
 31
0.0
  0
ENDBLK
  5
353
330
349
100
AcDbEntity
  8
0
100
AcDbBlockEnd
  0
BLOCK
  5
356
330
354
100
AcDbEntity
  8
0
 62
     7
100
AcDbBlockBegin
  2
AI9-BLK88
 70
     0
 10
0.0
 20
0.0
 30
0.0
  3
AI9-BLK88
  1

  4

  0
LWPOLYLINE
  5
358
330
354
100
AcDbEntity
  8
H2_5T_TIE_PLATES
 62
     7
100
AcDbPolyline
 90
        4
 70
     1
 43
0.0
 10
0.2200554741753472
 20
1.321538628472222
 10
-0.2238450792100694
 20
0.8495605468749999
 10
-0.2200554741753472
 20
-1.404048665364583
 10
0.2247063530815972
 20
-1.288637966579861
  0
LINE
  5
357
330
354
100
AcDbEntity
  8
H2_5T_TIE_PLATES
 62
     7
100
AcDbLine
 10
-0.2235005696614583
 20
0.6500895182291666
 30
0.0
 11
-0.2247063530815972
 21
1.404048665364583
 31
0.0
  0
ENDBLK
  5
35E
330
354
100
AcDbEntity
  8
0
100
AcDbBlockEnd
  0
BLOCK
  5
362
330
360
100
AcDbEntity
  8
0
 62
     7
100
AcDbBlockBegin
  2
AI9-BLK89
 70
     0
 10
0.0
 20
0.0
 30
0.0
  3
AI9-BLK89
  1

  4

  0
INSERT
  5
37A
330
360
100
AcDbEntity
  8
H2_5T_TIE_PLATES
 62
     7
100
AcDbBlockReference
  2
AI9-BLK92
 10
-0.00465087890625
 20
3.849894205729167
 30
0.0
  0
INSERT
  5
36F
330
360
100
AcDbEntity
  8
H2_5T_TIE_PLATES
 62
     7
100
AcDbBlockReference
  2
AI9-BLK91
 10
-0.0003445095486111
 20
0.0121439615885417
 30
0.0
  0
INSERT
  5
364
330
360
100
AcDbEntity
  8
H2_5T_TIE_PLATES
 62
     7
100
AcDbBlockReference
  2
AI9-BLK90
 10
0.003875732421875
 20
-3.839817301432291
 30
0.0
  0
ENDBLK
  5
384
330
360
100
AcDbEntity
  8
0
100
AcDbBlockEnd
  0
BLOCK
  5
365
330
363
100
AcDbEntity
  8
0
 62
     7
100
AcDbBlockBegin
  2
AI9-BLK90
 70
     0
 10
0.0
 20
0.0
 30
0.0
  3
AI9-BLK90
  1

  4

  0
LWPOLYLINE
  5
367
330
363
100
AcDbEntity
  8
H2_5T_TIE_PLATES
 62
     7
100
AcDbPolyline
 90
        4
 70
     1
 43
0.0
 10
0.2210890028211806
 20
1.325155978732639
 10
-0.2236728244357639
 20
0.8562784830729165
 10
-0.2214335123697916
 20
-1.414728461371528
 10
0.2241895887586805
 20
-1.304485405815972
  0
LINE
  5
366
330
363
100
AcDbEntity
  8
H2_5T_TIE_PLATES
 62
     7
100
AcDbLine
 10
-0.2241895887586805
 20
1.414728461371528
 30
0.0
 11
-0.2235005696614583
 21
0.6550849066840278
 31
0.0
  0
ENDBLK
  5
36D
330
363
100
AcDbEntity
  8
0
100
AcDbBlockEnd
  0
BLOCK
  5
370
330
36E
100
AcDbEntity
  8
0
 62
     7
100
AcDbBlockBegin
  2
AI9-BLK91
 70
     0
 10
0.0
 20
0.0
 30
0.0
  3
AI9-BLK91
  1

  4

  0
LWPOLYLINE
  5
372
330
36E
100
AcDbEntity
  8
H2_5T_TIE_PLATES
 62
     7
100
AcDbPolyline
 90
        4
 70
     1
 43
0.0
 10
0.2206583658854167
 20
1.323088921440972
 10
-0.2232421875
 20
0.8531778971354166
 10
-0.2210028754340278
 20
-1.409560818142361
 10
0.2239312065972222
 20
-1.29759521484375
  0
LINE
  5
371
330
36E
100
AcDbEntity
  8
H2_5T_TIE_PLATES
 62
     7
100
AcDbLine
 10
-0.2239312065972222
 20
1.409560818142361
 30
0.0
 11
-0.2230699327256944
 21
0.65267333984375
 31
0.0
  0
ENDBLK
  5
378
330
36E
100
AcDbEntity
  8
0
100
AcDbBlockEnd
  0
BLOCK
  5
37B
330
379
100
AcDbEntity
  8
0
 62
     7
100
AcDbBlockBegin
  2
AI9-BLK92
 70
     0
 10
0.0
 20
0.0
 30
0.0
  3
AI9-BLK92
  1

  4

  0
LWPOLYLINE
  5
37D
330
379
100
AcDbEntity
  8
H2_5T_TIE_PLATES
 62
     7
100
AcDbPolyline
 90
        4
 70
     1
 43
0.0
 10
0.2203138563368055
 20
1.320763481987847
 10
-0.2227254231770833
 20
0.8501634385850694
 10
-0.2204861111111111
 20
-1.404651557074653
 10
0.2234144422743055
 20
-1.290274386935764
  0
LINE
  5
37C
330
379
100
AcDbEntity
  8
H2_5T_TIE_PLATES
 62
     7
100
AcDbLine
 10
-0.2225531684027778
 20
0.6506924099392361
 30
0.0
 11
-0.2234144422743055
 21
1.404651557074653
 31
0.0
  0
ENDBLK
  5
383
330
379
100
AcDbEntity
  8
0
100
AcDbBlockEnd
  0
BLOCK
  5
387
330
385
100
AcDbEntity
  8
0
 62
     7
100
AcDbBlockBegin
  2
AI9-BLK93
 70
     0
 10
0.0
 20
0.0
 30
0.0
  3
AI9-BLK93
  1

  4

  0
INSERT
  5
3AA
330
385
100
AcDbEntity
  8
H2_5T_TIE_PLATES
 62
     7
100
AcDbBlockReference
  2
AI9-BLK97
 10
-0.0035312228732639
 20
5.76553955078125
 30
0.0
  0
INSERT
  5
39F
330
385
100
AcDbEntity
  8
H2_5T_TIE_PLATES
 62
     7
100
AcDbBlockReference
  2
AI9-BLK96
 10
-0.0016364203559028
 20
1.940622287326389
 30
0.0
  0
INSERT
  5
394
330
385
100
AcDbEntity
  8
H2_5T_TIE_PLATES
 62
     7
100
AcDbBlockReference
  2
AI9-BLK95
 10
0.0003445095486111
 20
-1.898247612847222
 30
0.0
  0
INSERT
  5
389
330
385
100
AcDbEntity
  8
H2_5T_TIE_PLATES
 62
     7
100
AcDbBlockReference
  2
AI9-BLK94
 10
0.0024115668402778
 20
-5.750725640190971
 30
0.0
  0
ENDBLK
  5
3B4
330
385
100
AcDbEntity
  8
0
100
AcDbBlockEnd
  0
BLOCK
  5
38A
330
388
100
AcDbEntity
  8
0
 62
     7
100
AcDbBlockBegin
  2
AI9-BLK94
 70
     0
 10
0.0
 20
0.0
 30
0.0
  3
AI9-BLK94
  1

  4

  0
LWPOLYLINE
  5
38C
330
388
100
AcDbEntity
  8
H2_5T_TIE_PLATES
 62
     7
100
AcDbPolyline
 90
        4
 70
     1
 43
0.0
 10
0.2212612575954861
 20
1.324466959635417
 10
-0.2226392957899305
 20
0.8562784830729165
 10
-0.2217780219184028
 20
-1.414728461371528
 10
0.2228115505642361
 20
-1.305863444010417
  0
LINE
  5
38B
330
388
100
AcDbEntity
  8
H2_5T_TIE_PLATES
 62
     7
100
AcDbLine
 10
-0.2228115505642361
 20
1.414728461371528
 30
0.0
 11
-0.2226392957899305
 21
0.6554294162326388
 31
0.0
  0
ENDBLK
  5
392
330
388
100
AcDbEntity
  8
0
100
AcDbBlockEnd
  0
BLOCK
  5
395
330
393
100
AcDbEntity
  8
0
 62
     7
100
AcDbBlockBegin
  2
AI9-BLK95
 70
     0
 10
0.0
 20
0.0
 30
0.0
  3
AI9-BLK95
  1

  4

  0
LWPOLYLINE
  5
397
330
393
100
AcDbEntity
  8
H2_5T_TIE_PLATES
 62
     7
100
AcDbPolyline
 90
        4
 70
     1
 43
0.0
 10
0.2207444932725694
 20
1.321883138020833
 10
-0.2221225314670139
 20
0.853005642361111
 10
-0.2212612575954861
 20
-1.410077582465278
 10
0.222467041015625
 20
-1.298800998263889
  0
LINE
  5
396
330
393
100
AcDbEntity
  8
H2_5T_TIE_PLATES
 62
     7
100
AcDbLine
 10
-0.2221225314670139
 20
0.6528455946180555
 30
0.0
 11
-0.222467041015625
 21
1.410077582465278
 31
0.0
  0
ENDBLK
  5
39D
330
393
100
AcDbEntity
  8
0
100
AcDbBlockEnd
  0
BLOCK
  5
3A0
330
39E
100
AcDbEntity
  8
0
 62
     7
100
AcDbBlockBegin
  2
AI9-BLK96
 70
     0
 10
0.0
 20
0.0
 30
0.0
  3
AI9-BLK96
  1

  4

  0
LWPOLYLINE
  5
3A2
330
39E
100
AcDbEntity
  8
H2_5T_TIE_PLATES
 62
     7
100
AcDbPolyline
 90
        4
 70
     1
 43
0.0
 10
0.2204861111111111
 20
1.319471571180555
 10
-0.2218641493055555
 20
0.849905056423611
 10
-0.2208306206597222
 20
-1.404909939236111
 10
0.2220364040798611
 20
-1.292255316840278
  0
LINE
  5
3A1
330
39E
100
AcDbEntity
  8
H2_5T_TIE_PLATES
 62
     7
100
AcDbLine
 10
-0.22169189453125
 20
0.6504340277777777
 30
0.0
 11
-0.2220364040798611
 21
1.404909939236111
 31
0.0
  0
ENDBLK
  5
3A8
330
39E
100
AcDbEntity
  8
0
100
AcDbBlockEnd
  0
BLOCK
  5
3AB
330
3A9
100
AcDbEntity
  8
0
 62
     7
100
AcDbBlockBegin
  2
AI9-BLK97
 70
     0
 10
0.0
 20
0.0
 30
0.0
  3
AI9-BLK97
  1

  4

  0
LWPOLYLINE
  5
3AD
330
3A9
100
AcDbEntity
  8
H2_5T_TIE_PLATES
 62
     7
100
AcDbPolyline
 90
        4
 70
     1
 43
0.0
 10
0.2201416015625
 20
1.317232259114583
 10
-0.2215196397569444
 20
0.8469767252604166
 10
-0.2204861111111111
 20
-1.39991455078125
 10
0.22169189453125
 20
-1.28519287109375
  0
LINE
  5
3AC
330
3A9
100
AcDbEntity
  8
H2_5T_TIE_PLATES
 62
     7
100
AcDbLine
 10
-0.22169189453125
 20
1.39991455078125
 30
0.0
 11
-0.2213473849826389
 21
0.6480224609374999
 31
0.0
  0
ENDBLK
  5
3B3
330
3A9
100
AcDbEntity
  8
0
100
AcDbBlockEnd
  0
BLOCK
  5
3BE
330
3BC
100
AcDbEntity
  8
0
 62
     7
100
AcDbBlockBegin
  2
AI9-BLK98
 70
     0
 10
0.0
 20
0.0
 30
0.0
  3
AI9-BLK98
  1

  4

  0
LWPOLYLINE
  5
499
330
3BC
100
AcDbEntity
  8
H2_5T_TIE_PLATES
 62
     7
100
AcDbPolyline
 90
        4
 70
     1
 43
0.0
 10
3.669715711805555
 20
-6.973820665147569
 10
-3.714501953125
 20
-9.421733262803819
 10
-3.714501953125
 20
6.277050103081597
 10
3.714501953125
 20
9.421733262803819
  0
INSERT
  5
46A
330
3BC
100
AcDbEntity
  8
H2_5T_TIE_PLATES
 62
     7
100
AcDbBlockReference
  2
AI9-BLK117
 10
-2.631191677517361
 20
-1.121550835503472
 30
0.0
  0
INSERT
  5
445
330
3BC
100
AcDbEntity
  8
H2_5T_TIE_PLATES
 62
     7
100
AcDbBlockReference
  2
AI9-BLK113
 10
-1.328084309895833
 20
-0.8588623046874999
 30
0.0
  0
INSERT
  5
415
330
3BC
100
AcDbEntity
  8
H2_5T_TIE_PLATES
 62
     7
100
AcDbBlockReference
  2
AI9-BLK108
 10
-0.00465087890625
 20
-0.1306552463107639
 30
0.0
  0
INSERT
  5
3F0
330
3BC
100
AcDbEntity
  8
H2_5T_TIE_PLATES
 62
     7
100
AcDbBlockReference
  2
AI9-BLK104
 10
1.338333468967014
 20
0.1435743543836806
 30
0.0
  0
INSERT
  5
3C0
330
3BC
100
AcDbEntity
  8
H2_5T_TIE_PLATES
 62
     7
100
AcDbBlockReference
  2
AI9-BLK99
 10
2.703280300564236
 20
0.8909878200954861
 30
0.0
  0
ENDBLK
  5
49F
330
3BC
100
AcDbEntity
  8
0
100
AcDbBlockEnd
  0
BLOCK
  5
3C1
330
3BF
100
AcDbEntity
  8
0
 62
     7
100
AcDbBlockBegin
  2
AI9-BLK99
 70
     0
 10
0.0
 20
0.0
 30
0.0
  3
AI9-BLK99
  1

  4

  0
INSERT
  5
3E4
330
3BF
100
AcDbEntity
  8
H2_5T_TIE_PLATES
 62
     7
100
AcDbBlockReference
  2
AI9-BLK103
 10
0.0136081271701389
 20
5.948215738932291
 30
0.0
  0
INSERT
  5
3D9
330
3BF
100
AcDbEntity
  8
H2_5T_TIE_PLATES
 62
     7
100
AcDbBlockReference
  2
AI9-BLK102
 10
0.0041341145833333
 20
1.966891140407986
 30
0.0
  0
INSERT
  5
3CE
330
3BF
100
AcDbEntity
  8
H2_5T_TIE_PLATES
 62
     7
100
AcDbBlockReference
  2
AI9-BLK101
 10
-0.0052537706163194
 20
-2.002978515625
 30
0.0
  0
INSERT
  5
3C3
330
3BF
100
AcDbEntity
  8
H2_5T_TIE_PLATES
 62
     7
100
AcDbBlockReference
  2
AI9-BLK100
 10
-0.0146416558159722
 20
-5.960962592230902
 30
0.0
  0
ENDBLK
  5
3EE
330
3BF
100
AcDbEntity
  8
0
100
AcDbBlockEnd
  0
BLOCK
  5
3C4
330
3C2
100
AcDbEntity
  8
0
 62
     7
100
AcDbBlockBegin
  2
AI9-BLK100
 70
     0
 10
0.0
 20
0.0
 30
0.0
  3
AI9-BLK100
  1

  4

  0
LWPOLYLINE
  5
3C6
330
3C2
100
AcDbEntity
  8
H2_5T_TIE_PLATES
 62
     7
100
AcDbPolyline
 90
        4
 70
     1
 43
0.0
 10
0.2343526204427083
 20
1.405168321397569
 10
-0.2290127224392361
 20
0.8756571451822915
 10
-0.2343526204427083
 20
-1.449093288845486
 10
0.2276346842447916
 20
-1.29389173719618
  0
LINE
  5
3C5
330
3C2
100
AcDbEntity
  8
H2_5T_TIE_PLATES
 62
     7
100
AcDbLine
 10
-0.2295294867621528
 20
0.6694681803385416
 30
0.0
 11
-0.2276346842447916
 21
1.449093288845486
 31
0.0
  0
ENDBLK
  5
3CC
330
3C2
100
AcDbEntity
  8
0
100
AcDbBlockEnd
  0
BLOCK
  5
3CF
330
3CD
100
AcDbEntity
  8
0
 62
     7
100
AcDbBlockBegin
  2
AI9-BLK101
 70
     0
 10
0.0
 20
0.0
 30
0.0
  3
AI9-BLK101
  1

  4

  0
LWPOLYLINE
  5
3D1
330
3CD
100
AcDbEntity
  8
H2_5T_TIE_PLATES
 62
     7
100
AcDbPolyline
 90
        4
 70
     1
 43
0.0
 10
0.2346110026041667
 20
1.419551595052083
 10
-0.2292711046006944
 20
0.8783270941840277
 10
-0.2346110026041667
 20
-1.453313530815972
 10
0.2280653211805555
 20
-1.287432183159722
  0
LINE
  5
3D0
330
3CD
100
AcDbEntity
  8
H2_5T_TIE_PLATES
 62
     7
100
AcDbLine
 10
-0.2297878689236111
 20
0.6714491102430555
 30
0.0
 11
-0.2280653211805555
 21
1.453313530815972
 31
0.0
  0
ENDBLK
  5
3D7
330
3CD
100
AcDbEntity
  8
0
100
AcDbBlockEnd
  0
BLOCK
  5
3DA
330
3D8
100
AcDbEntity
  8
0
 62
     7
100
AcDbBlockBegin
  2
AI9-BLK102
 70
     0
 10
0.0
 20
0.0
 30
0.0
  3
AI9-BLK102
  1

  4

  0
LWPOLYLINE
  5
3DC
330
3D8
100
AcDbEntity
  8
H2_5T_TIE_PLATES
 62
     7
100
AcDbPolyline
 90
        4
 70
     1
 43
0.0
 10
0.2350416395399305
 20
1.433934868706597
 10
-0.2297017415364583
 20
0.8809970431857638
 10
-0.2350416395399305
 20
-1.457533772786458
 10
0.2283237033420139
 20
-1.281144883897569
  0
LINE
  5
3DB
330
3D8
100
AcDbEntity
  8
H2_5T_TIE_PLATES
 62
     7
100
AcDbLine
 10
-0.2283237033420139
 20
1.457533772786458
 30
0.0
 11
-0.230218505859375
 21
0.6734300401475694
 31
0.0
  0
ENDBLK
  5
3E2
330
3D8
100
AcDbEntity
  8
0
100
AcDbBlockEnd
  0
BLOCK
  5
3E5
330
3E3
100
AcDbEntity
  8
0
 62
     7
100
AcDbBlockBegin
  2
AI9-BLK103
 70
     0
 10
0.0
 20
0.0
 30
0.0
  3
AI9-BLK103
  1

  4

  0
LWPOLYLINE
  5
3E7
330
3E3
100
AcDbEntity
  8
H2_5T_TIE_PLATES
 62
     7
100
AcDbPolyline
 90
        4
 70
     1
 43
0.0
 10
0.2353861490885416
 20
1.448232014973958
 10
-0.2300462510850694
 20
0.8835808648003471
 10
-0.2353861490885416
 20
-1.461840142144097
 10
0.228668212890625
 20
-1.274771457248264
  0
LINE
  5
3E6
330
3E3
100
AcDbEntity
  8
H2_5T_TIE_PLATES
 62
     7
100
AcDbLine
 10
-0.2305630154079861
 20
0.675497097439236
 30
0.0
 11
-0.228668212890625
 21
1.461840142144097
 31
0.0
  0
ENDBLK
  5
3ED
330
3E3
100
AcDbEntity
  8
0
100
AcDbBlockEnd
  0
BLOCK
  5
3F1
330
3EF
100
AcDbEntity
  8
0
 62
     7
100
AcDbBlockBegin
  2
AI9-BLK104
 70
     0
 10
0.0
 20
0.0
 30
0.0
  3
AI9-BLK104
  1

  4

  0
INSERT
  5
409
330
3EF
100
AcDbEntity
  8
H2_5T_TIE_PLATES
 62
     7
100
AcDbBlockReference
  2
AI9-BLK107
 10
0.0070624457465278
 20
3.933610026041666
 30
0.0
  0
INSERT
  5
3FE
330
3EF
100
AcDbEntity
  8
H2_5T_TIE_PLATES
 62
     7
100
AcDbBlockReference
  2
AI9-BLK106
 10
-0.0003445095486111
 20
-0.0097323947482639
 30
0.0
  0
INSERT
  5
3F3
330
3EF
100
AcDbEntity
  8
H2_5T_TIE_PLATES
 62
     7
100
AcDbBlockReference
  2
AI9-BLK105
 10
-0.0076653374565972
 20
-3.941964382595486
 30
0.0
  0
ENDBLK
  5
413
330
3EF
100
AcDbEntity
  8
0
100
AcDbBlockEnd
  0
BLOCK
  5
3F4
330
3F2
100
AcDbEntity
  8
0
 62
     7
100
AcDbBlockBegin
  2
AI9-BLK105
 70
     0
 10
0.0
 20
0.0
 30
0.0
  3
AI9-BLK105
  1

  4

  0
LWPOLYLINE
  5
3F6
330
3F2
100
AcDbEntity
  8
H2_5T_TIE_PLATES
 62
     7
100
AcDbPolyline
 90
        4
 70
     1
 43
0.0
 10
0.2303046332465278
 20
1.399311659071181
 10
-0.2261705186631944
 20
0.8701449924045138
 10
-0.2303046332465278
 20
-1.43961927625868
 10
0.2249647352430556
 20
-1.282006157769097
  0
LINE
  5
3F5
330
3F2
100
AcDbEntity
  8
H2_5T_TIE_PLATES
 62
     7
100
AcDbLine
 10
-0.2265150282118055
 20
0.6651618109809028
 30
0.0
 11
-0.2251369900173611
 21
1.43961927625868
 31
0.0
  0
ENDBLK
  5
3FC
330
3F2
100
AcDbEntity
  8
0
100
AcDbBlockEnd
  0
BLOCK
  5
3FF
330
3FD
100
AcDbEntity
  8
0
 62
     7
100
AcDbBlockBegin
  2
AI9-BLK106
 70
     0
 10
0.0
 20
0.0
 30
0.0
  3
AI9-BLK106
  1

  4

  0
LWPOLYLINE
  5
401
330
3FD
100
AcDbEntity
  8
H2_5T_TIE_PLATES
 62
     7
100
AcDbPolyline
 90
        4
 70
     1
 43
0.0
 10
0.2305630154079861
 20
1.413608805338542
 10
-0.2264289008246528
 20
0.8725565592447916
 10
-0.2305630154079861
 20
-1.443753390842014
 10
0.2253953721788194
 20
-1.275804985894097
  0
LINE
  5
400
330
3FD
100
AcDbEntity
  8
H2_5T_TIE_PLATES
 62
     7
100
AcDbLine
 10
-0.2253953721788194
 20
1.443753390842014
 30
0.0
 11
-0.2267734103732639
 21
0.6672288682725693
 31
0.0
  0
ENDBLK
  5
407
330
3FD
100
AcDbEntity
  8
0
100
AcDbBlockEnd
  0
BLOCK
  5
40A
330
408
100
AcDbEntity
  8
0
 62
     7
100
AcDbBlockBegin
  2
AI9-BLK107
 70
     0
 10
0.0
 20
0.0
 30
0.0
  3
AI9-BLK107
  1

  4

  0
LWPOLYLINE
  5
40C
330
408
100
AcDbEntity
  8
H2_5T_TIE_PLATES
 62
     7
100
AcDbPolyline
 90
        4
 70
     1
 43
0.0
 10
0.2309075249565972
 20
1.427647569444444
 10
-0.2267734103732639
 20
0.8752265082465277
 10
-0.2309075249565972
 20
-1.4479736328125
 10
0.2257398817274305
 20
-1.269345431857639
  0
LINE
  5
40B
330
408
100
AcDbEntity
  8
H2_5T_TIE_PLATES
 62
     7
100
AcDbLine
 10
-0.227117919921875
 20
0.6690375434027778
 30
0.0
 11
-0.2257398817274305
 21
1.4479736328125
 31
0.0
  0
ENDBLK
  5
412
330
408
100
AcDbEntity
  8
0
100
AcDbBlockEnd
  0
BLOCK
  5
416
330
414
100
AcDbEntity
  8
0
 62
     7
100
AcDbBlockBegin
  2
AI9-BLK108
 70
     0
 10
0.0
 20
0.0
 30
0.0
  3
AI9-BLK108
  1

  4

  0
INSERT
  5
439
330
414
100
AcDbEntity
  8
H2_5T_TIE_PLATES
 62
     7
100
AcDbBlockReference
  2
AI9-BLK112
 10
0.0074930826822917
 20
5.855456542968749
 30
0.0
  0
INSERT
  5
42E
330
414
100
AcDbEntity
  8
H2_5T_TIE_PLATES
 62
     7
100
AcDbBlockReference
  2
AI9-BLK111
 10
0.0021531846788194
 20
1.936402045355903
 30
0.0
  0
INSERT
  5
423
330
414
100
AcDbEntity
  8
H2_5T_TIE_PLATES
 62
     7
100
AcDbBlockReference
  2
AI9-BLK110
 10
-0.0031867133246528
 20
-1.97136976453993
 30
0.0
  0
INSERT
  5
418
330
414
100
AcDbEntity
  8
H2_5T_TIE_PLATES
 62
     7
100
AcDbBlockReference
  2
AI9-BLK109
 10
-0.008526611328125
 20
-5.867858886718749
 30
0.0
  0
ENDBLK
  5
443
330
414
100
AcDbEntity
  8
0
100
AcDbBlockEnd
  0
BLOCK
  5
419
330
417
100
AcDbEntity
  8
0
 62
     7
100
AcDbBlockBegin
  2
AI9-BLK109
 70
     0
 10
0.0
 20
0.0
 30
0.0
  3
AI9-BLK109
  1

  4

  0
LWPOLYLINE
  5
41B
330
417
100
AcDbEntity
  8
H2_5T_TIE_PLATES
 62
     7
100
AcDbPolyline
 90
        4
 70
     1
 43
0.0
 10
0.2259121365017361
 20
1.380966525607639
 10
-0.2229838053385417
 20
0.8621351453993055
 10
-0.2259121365017361
 20
-1.426614040798611
 10
0.2221225314670139
 20
-1.27589111328125
  0
LINE
  5
41A
330
417
100
AcDbEntity
  8
H2_5T_TIE_PLATES
 62
     7
100
AcDbLine
 10
-0.2233283148871528
 20
0.6592190212673611
 30
0.0
 11
-0.2222947862413194
 21
1.426614040798611
 31
0.0
  0
ENDBLK
  5
421
330
417
100
AcDbEntity
  8
0
100
AcDbBlockEnd
  0
BLOCK
  5
424
330
422
100
AcDbEntity
  8
0
 62
     7
100
AcDbBlockBegin
  2
AI9-BLK110
 70
     0
 10
0.0
 20
0.0
 30
0.0
  3
AI9-BLK110
  1

  4

  0
LWPOLYLINE
  5
426
330
422
100
AcDbEntity
  8
H2_5T_TIE_PLATES
 62
     7
100
AcDbPolyline
 90
        4
 70
     1
 43
0.0
 10
0.2262566460503472
 20
1.394833034939236
 10
-0.2233283148871528
 20
0.864632839626736
 10
-0.2262566460503472
 20
-1.430662027994792
 10
0.222467041015625
 20
-1.269776068793403
  0
LINE
  5
425
330
422
100
AcDbEntity
  8
H2_5T_TIE_PLATES
 62
     7
100
AcDbLine
 10
-0.2226392957899305
 20
1.430662027994792
 30
0.0
 11
-0.2236728244357639
 21
0.6610276963975694
 31
0.0
  0
ENDBLK
  5
42C
330
422
100
AcDbEntity
  8
0
100
AcDbBlockEnd
  0
BLOCK
  5
42F
330
42D
100
AcDbEntity
  8
0
 62
     7
100
AcDbBlockBegin
  2
AI9-BLK111
 70
     0
 10
0.0
 20
0.0
 30
0.0
  3
AI9-BLK111
  1

  4

  0
LWPOLYLINE
  5
431
330
42D
100
AcDbEntity
  8
H2_5T_TIE_PLATES
 62
     7
100
AcDbPolyline
 90
        4
 70
     1
 43
0.0
 10
0.2266011555989583
 20
1.408957926432292
 10
-0.2236728244357639
 20
0.867388916015625
 10
-0.2266011555989583
 20
-1.434796142578125
 10
0.2228115505642361
 20
-1.263574896918403
  0
LINE
  5
430
330
42D
100
AcDbEntity
  8
H2_5T_TIE_PLATES
 62
     7
100
AcDbLine
 10
-0.2229838053385417
 20
1.434796142578125
 30
0.0
 11
-0.2238450792100694
 21
0.6630947536892361
 31
0.0
  0
ENDBLK
  5
437
330
42D
100
AcDbEntity
  8
0
100
AcDbBlockEnd
  0
BLOCK
  5
43A
330
438
100
AcDbEntity
  8
0
 62
     7
100
AcDbBlockBegin
  2
AI9-BLK112
 70
     0
 10
0.0
 20
0.0
 30
0.0
  3
AI9-BLK112
  1

  4

  0
LWPOLYLINE
  5
43C
330
438
100
AcDbEntity
  8
H2_5T_TIE_PLATES
 62
     7
100
AcDbPolyline
 90
        4
 70
     1
 43
0.0
 10
0.2269456651475694
 20
1.422652180989583
 10
-0.224017333984375
 20
0.8697143554687499
 10
-0.2269456651475694
 20
-1.439016384548611
 10
0.2231560601128472
 20
-1.257459852430555
  0
LINE
  5
43B
330
438
100
AcDbEntity
  8
H2_5T_TIE_PLATES
 62
     7
100
AcDbLine
 10
-0.2241895887586805
 20
0.6649034288194444
 30
0.0
 11
-0.2231560601128472
 21
1.439016384548611
 31
0.0
  0
ENDBLK
  5
442
330
438
100
AcDbEntity
  8
0
100
AcDbBlockEnd
  0
BLOCK
  5
446
330
444
100
AcDbEntity
  8
0
 62
     7
100
AcDbBlockBegin
  2
AI9-BLK113
 70
     0
 10
0.0
 20
0.0
 30
0.0
  3
AI9-BLK113
  1

  4

  0
INSERT
  5
45E
330
444
100
AcDbEntity
  8
H2_5T_TIE_PLATES
 62
     7
100
AcDbBlockReference
  2
AI9-BLK116
 10
0.0031005859375
 20
3.872804090711805
 30
0.0
  0
INSERT
  5
453
330
444
100
AcDbEntity
  8
H2_5T_TIE_PLATES
 62
     7
100
AcDbBlockReference
  2
AI9-BLK115
 10
-0.0003445095486111
 20
-0.0094740125868056
 30
0.0
  0
INSERT
  5
448
330
444
100
AcDbEntity
  8
H2_5T_TIE_PLATES
 62
     7
100
AcDbBlockReference
  2
AI9-BLK114
 10
-0.0037896050347222
 20
-3.880900065104167
 30
0.0
  0
ENDBLK
  5
468
330
444
100
AcDbEntity
  8
0
100
AcDbBlockEnd
  0
BLOCK
  5
449
330
447
100
AcDbEntity
  8
0
 62
     7
100
AcDbBlockBegin
  2
AI9-BLK114
 70
     0
 10
0.0
 20
0.0
 30
0.0
  3
AI9-BLK114
  1

  4

  0
LWPOLYLINE
  5
44B
330
447
100
AcDbEntity
  8
H2_5T_TIE_PLATES
 62
     7
100
AcDbPolyline
 90
        4
 70
     1
 43
0.0
 10
0.2220364040798611
 20
1.375368245442708
 10
-0.2203138563368055
 20
0.8565368652343749
 10
-0.2220364040798611
 20
-1.417398410373264
 10
0.2194525824652778
 20
-1.264436170789931
  0
LINE
  5
44A
330
447
100
AcDbEntity
  8
H2_5T_TIE_PLATES
 62
     7
100
AcDbLine
 10
-0.2197970920138889
 20
1.417398410373264
 30
0.0
 11
-0.2204861111111111
 21
0.6548265245225694
 31
0.0
  0
ENDBLK
  5
451
330
447
100
AcDbEntity
  8
0
100
AcDbBlockEnd
  0
BLOCK
  5
454
330
452
100
AcDbEntity
  8
0
 62
     7
100
AcDbBlockBegin
  2
AI9-BLK115
 70
     0
 10
0.0
 20
0.0
 30
0.0
  3
AI9-BLK115
  1

  4

  0
LWPOLYLINE
  5
456
330
452
100
AcDbEntity
  8
H2_5T_TIE_PLATES
 62
     7
100
AcDbPolyline
 90
        4
 70
     1
 43
0.0
 10
0.2223809136284722
 20
1.389148627387153
 10
-0.2206583658854167
 20
0.8592929416232639
 10
-0.2223809136284722
 20
-1.421360270182292
 10
0.2197970920138889
 20
-1.258407253689236
  0
LINE
  5
455
330
452
100
AcDbEntity
  8
H2_5T_TIE_PLATES
 62
     7
100
AcDbLine
 10
-0.2201416015625
 20
1.421360270182292
 30
0.0
 11
-0.2208306206597222
 21
0.6567213270399305
 31
0.0
  0
ENDBLK
  5
45C
330
452
100
AcDbEntity
  8
0
100
AcDbBlockEnd
  0
BLOCK
  5
45F
330
45D
100
AcDbEntity
  8
0
 62
     7
100
AcDbBlockBegin
  2
AI9-BLK116
 70
     0
 10
0.0
 20
0.0
 30
0.0
  3
AI9-BLK116
  1

  4

  0
LWPOLYLINE
  5
461
330
45D
100
AcDbEntity
  8
H2_5T_TIE_PLATES
 62
     7
100
AcDbPolyline
 90
        4
 70
     1
 43
0.0
 10
0.2227254231770833
 20
1.402756754557291
 10
-0.2210028754340278
 20
0.861532253689236
 10
-0.2227254231770833
 20
-1.425494384765625
 10
0.2201416015625
 20
-1.252206081814236
  0
LINE
  5
460
330
45D
100
AcDbEntity
  8
H2_5T_TIE_PLATES
 62
     7
100
AcDbLine
 10
-0.2211751302083333
 20
0.6587883843315971
 30
0.0
 11
-0.2204861111111111
 21
1.425494384765625
 31
0.0
  0
ENDBLK
  5
467
330
45D
100
AcDbEntity
  8
0
100
AcDbBlockEnd
  0
BLOCK
  5
46B
330
469
100
AcDbEntity
  8
0
 62
     7
100
AcDbBlockBegin
  2
AI9-BLK117
 70
     0
 10
0.0
 20
0.0
 30
0.0
  3
AI9-BLK117
  1

  4

  0
INSERT
  5
48E
330
469
100
AcDbEntity
  8
H2_5T_TIE_PLATES
 62
     7
100
AcDbBlockReference
  2
AI9-BLK121
 10
0.0018948025173611
 20
5.76553955078125
 30
0.0
  0
INSERT
  5
483
330
469
100
AcDbEntity
  8
H2_5T_TIE_PLATES
 62
     7
100
AcDbBlockReference
  2
AI9-BLK120
 10
0.0003445095486111
 20
1.9068603515625
 30
0.0
  0
INSERT
  5
478
330
469
100
AcDbEntity
  8
H2_5T_TIE_PLATES
 62
     7
100
AcDbBlockReference
  2
AI9-BLK119
 10
-0.0012057834201389
 20
-1.940880669487847
 30
0.0
  0
INSERT
  5
46D
330
469
100
AcDbEntity
  8
H2_5T_TIE_PLATES
 62
     7
100
AcDbBlockReference
  2
AI9-BLK118
 10
-0.0028422037760417
 20
-5.777597384982639
 30
0.0
  0
ENDBLK
  5
498
330
469
100
AcDbEntity
  8
0
100
AcDbBlockEnd
  0
BLOCK
  5
46E
330
46C
100
AcDbEntity
  8
0
 62
     7
100
AcDbBlockBegin
  2
AI9-BLK118
 70
     0
 10
0.0
 20
0.0
 30
0.0
  3
AI9-BLK118
  1

  4

  0
LWPOLYLINE
  5
470
330
46C
100
AcDbEntity
  8
H2_5T_TIE_PLATES
 62
     7
100
AcDbPolyline
 90
        4
 70
     1
 43
0.0
 10
0.2179884168836805
 20
1.357626003689236
 10
-0.2171271430121528
 20
0.8489576551649305
 10
-0.2179884168836805
 20
-1.404651557074653
 10
0.2167826334635417
 20
-1.258579508463542
  0
LINE
  5
46F
330
46C
100
AcDbEntity
  8
H2_5T_TIE_PLATES
 62
     7
100
AcDbLine
 10
-0.2169548882378472
 20
1.404651557074653
 30
0.0
 11
-0.2172993977864583
 21
0.6489698621961805
 31
0.0
  0
ENDBLK
  5
476
330
46C
100
AcDbEntity
  8
0
100
AcDbBlockEnd
  0
BLOCK
  5
479
330
477
100
AcDbEntity
  8
0
 62
     7
100
AcDbBlockBegin
  2
AI9-BLK119
 70
     0
 10
0.0
 20
0.0
 30
0.0
  3
AI9-BLK119
  1

  4

  0
LWPOLYLINE
  5
47B
330
477
100
AcDbEntity
  8
H2_5T_TIE_PLATES
 62
     7
100
AcDbPolyline
 90
        4
 70
     1
 43
0.0
 10
0.2182467990451389
 20
1.370975748697917
 10
-0.2175577799479166
 20
0.851455349392361
 10
-0.2182467990451389
 20
-1.408699544270833
 10
0.217041015625
 20
-1.25263671875
  0
LINE
  5
47A
330
477
100
AcDbEntity
  8
H2_5T_TIE_PLATES
 62
     7
100
AcDbLine
 10
-0.2177300347222222
 20
0.6509507921006944
 30
0.0
 11
-0.2173855251736111
 21
1.408699544270833
 31
0.0
  0
ENDBLK
  5
481
330
477
100
AcDbEntity
  8
0
100
AcDbBlockEnd
  0
BLOCK
  5
484
330
482
100
AcDbEntity
  8
0
 62
     7
100
AcDbBlockBegin
  2
AI9-BLK120
 70
     0
 10
0.0
 20
0.0
 30
0.0
  3
AI9-BLK120
  1

  4

  0
LWPOLYLINE
  5
486
330
482
100
AcDbEntity
  8
H2_5T_TIE_PLATES
 62
     7
100
AcDbPolyline
 90
        4
 70
     1
 43
0.0
 10
0.21859130859375
 20
1.384670003255208
 10
-0.2179022894965278
 20
0.8541252983940971
 10
-0.21859130859375
 20
-1.412747531467014
 10
0.2172132703993056
 20
-1.246693929036458
  0
LINE
  5
485
330
482
100
AcDbEntity
  8
H2_5T_TIE_PLATES
 62
     7
100
AcDbLine
 10
-0.2179022894965278
 20
0.6527594672309027
 30
0.0
 11
-0.2177300347222222
 21
1.412747531467014
 31
0.0
  0
ENDBLK
  5
48C
330
482
100
AcDbEntity
  8
0
100
AcDbBlockEnd
  0
BLOCK
  5
48F
330
48D
100
AcDbEntity
  8
0
 62
     7
100
AcDbBlockBegin
  2
AI9-BLK121
 70
     0
 10
0.0
 20
0.0
 30
0.0
  3
AI9-BLK121
  1

  4

  0
LWPOLYLINE
  5
491
330
48D
100
AcDbEntity
  8
H2_5T_TIE_PLATES
 62
     7
100
AcDbPolyline
 90
        4
 70
     1
 43
0.0
 10
0.2189358181423611
 20
1.397933620876736
 10
-0.2182467990451389
 20
0.8561923556857638
 10
-0.2189358181423611
 20
-1.416709391276042
 10
0.2175577799479166
 20
-1.240665011935764
  0
LINE
  5
490
330
48D
100
AcDbEntity
  8
H2_5T_TIE_PLATES
 62
     7
100
AcDbLine
 10
-0.2180745442708333
 20
1.416709391276042
 30
0.0
 11
-0.2182467990451389
 21
0.6546542697482638
 31
0.0
  0
ENDBLK
  5
497
330
48D
100
AcDbEntity
  8
0
100
AcDbBlockEnd
  0
ENDSEC
  0
SECTION
  2
ENTITIES
  0
LWPOLYLINE
  5
589
330
A
100
AcDbEntity
  8
WOOD
 62
     7
100
AcDbPolyline
 90
       42
 70
     1
 43
0.0
 10
124.2952555338542
 20
180.9751722547743
 10
124.2952555338542
 20
187.9132500542535
 10
123.3543999565972
 20
188.2658555772569
 10
125.5888888888889
 20
192.0287611219618
 10
124.2952555338542
 20
192.4993611653646
 10
124.2952555338542
 20
198.6140611436632
 10
118.8861111111111
 20
200.1426500108507
 10
71.61388888888888
 20
154.751966688368
 10
71.61388888888888
 20
140.5232055664062
 10
76.67042778862846
 20
139.7001722547743
 10
93.3684611002604
 20
153.9287611219618
 10
93.3684611002604
 20
123.2372667100694
 10
81.37401665581596
 20
124.7658555772569
 10
77.37581108940971
 20
123.825
 10
77.37581108940971
 20
122.7666666666667
 10
71.96649441189236
 20
123.3547444661458
 10
71.96649441189236
 20
122.5317111545139
 10
67.61568332248264
 20
121.7083333333333
 10
67.61568332248264
 20
118.1805555555555
 10
67.02760552300347
 20
118.2983778211806
 10
67.02760552300347
 20
117.2400444878472
 10
62.79427218967013
 20
116.2991889105903
 10
62.79427218967013
 20
110.5372667100694
 10
123.9424777560764
 20
105.1277777777778
 10
128.9988444010417
 20
105.8333333333333
 10
128.9988444010417
 20
106.4214111328125
 10
133.1146999782986
 20
105.5983778211806
 10
133.1146999782986
 20
106.4214111328125
 10
138.5238444010417
 20
107.126966688368
 10
138.5238444010417
 20
112.5361111111111
 10
134.4083333333333
 20
113.0067111545139
 10
134.4083333333333
 20
118.0630777994792
 10
111.2424777560764
 20
120.8853000217014
 10
134.6432888454861
 20
125.2361111111111
 10
134.6432888454861
 20
130.9983778211806
 10
133.4674777560764
 20
132.2916666666667
 10
136.2896999782986
 20
134.4083333333333
 10
134.6432888454861
 20
135.3488444010417
 10
134.6432888454861
 20
140.2880777994791
 10
128.7638888888889
 20
141.3464111328125
 10
110.301966688368
 20
136.7603000217014
 10
110.301966688368
 20
168.6279500325521
  0
LWPOLYLINE
  5
55D
330
A
100
AcDbEntity
  8
WOOD
 62
     7
100
AcDbPolyline
 90
       42
 70
     1
 43
0.0
 10
124.2952555338542
 20
180.9751722547743
 10
124.2952555338542
 20
187.9132500542535
 10
123.3543999565972
 20
188.2658555772569
 10
125.5888888888889
 20
192.0287611219618
 10
124.2952555338542
 20
192.4993611653646
 10
124.2952555338542
 20
198.6140611436632
 10
118.8861111111111
 20
200.1426500108507
 10
71.61388888888888
 20
154.751966688368
 10
71.61388888888888
 20
140.5232055664062
 10
76.67042778862846
 20
139.7001722547743
 10
93.3684611002604
 20
153.9287611219618
 10
93.3684611002604
 20
123.2372667100694
 10
81.37401665581596
 20
124.7658555772569
 10
77.37581108940971
 20
123.825
 10
77.37581108940971
 20
122.7666666666667
 10
71.96649441189236
 20
123.3547444661458
 10
71.96649441189236
 20
122.5317111545139
 10
67.61568332248264
 20
121.7083333333333
 10
67.61568332248264
 20
118.1805555555555
 10
67.02760552300347
 20
118.2983778211806
 10
67.02760552300347
 20
117.2400444878472
 10
62.79427218967013
 20
116.2991889105903
 10
62.79427218967013
 20
110.5372667100694
 10
123.9424777560764
 20
105.1277777777778
 10
128.9988444010417
 20
105.8333333333333
 10
128.9988444010417
 20
106.4214111328125
 10
133.1146999782986
 20
105.5983778211806
 10
133.1146999782986
 20
106.4214111328125
 10
138.5238444010417
 20
107.126966688368
 10
138.5238444010417
 20
112.5361111111111
 10
134.4083333333333
 20
113.0067111545139
 10
134.4083333333333
 20
118.0630777994792
 10
111.2424777560764
 20
120.8853000217014
 10
134.6432888454861
 20
125.2361111111111
 10
134.6432888454861
 20
130.9983778211806
 10
133.4674777560764
 20
132.2916666666667
 10
136.2896999782986
 20
134.4083333333333
 10
134.6432888454861
 20
135.3488444010417
 10
134.6432888454861
 20
140.2880777994791
 10
128.7638888888889
 20
141.3464111328125
 10
110.301966688368
 20
136.7603000217014
 10
110.301966688368
 20
168.6279500325521
  0
LINE
  5
55C
330
A
100
AcDbEntity
  8
WOOD
 62
     7
100
AcDbLine
 10
77.37581108940971
 20
123.825
 30
0.0
 11
77.37581108940971
 21
119.1214111328125
 31
0.0
  0
LWPOLYLINE
  5
557
330
A
100
AcDbEntity
  8
WOOD
 62
     7
100
AcDbPolyline
 90
        3
 70
     0
 43
0.0
 10
67.02760552300347
 20
118.2983778211806
 10
67.02760552300347
 20
112.1833333333333
 10
68.0859388563368
 20
111.4777777777778
  0
LINE
  5
556
330
A
100
AcDbEntity
  8
WOOD
 62
     7
100
AcDbLine
 10
71.96649441189236
 20
123.3547444661458
 30
0.0
 11
71.96649441189236
 21
118.1805555555555
 31
0.0
  0
LWPOLYLINE
  5
54F
330
A
100
AcDbEntity
  8
WOOD
 62
     7
100
AcDbPolyline
 90
        2
 70
     0
 43
0.0
 10
138.5238444010417
 20
112.5361111111111
 10
104.5793185763889
 20
116.2058674096137
  0
LWPOLYLINE
  5
54A
330
A
100
AcDbEntity
  8
WOOD
 62
     7
100
AcDbPolyline
 90
        3
 70
     0
 43
0.0
 10
71.61388888888888
 20
118.1805555555555
 10
71.61388888888888
 20
111.9483778211805
 10
72.31927218967013
 20
111.4777777777778
  0
LINE
  5
549
330
A
100
AcDbEntity
  8
WOOD
 62
     7
100
AcDbLine
 10
105.5909708658854
 20
121.6590684678819
 30
0.0
 11
105.135211449994
 21
121.7175377314394
 31
0.0
  0
LINE
  5
548
330
A
100
AcDbEntity
  8
WOOD
 62
     7
100
AcDbLine
 10
112.4186333550347
 20
120.767822265625
 30
0.0
 11
105.473493109809
 21
121.6590684678819
 31
0.0
  0
LINE
  5
547
330
A
100
AcDbEntity
  8
WOOD
 62
     7
100
AcDbLine
 10
93.3684611002604
 20
159.925983344184
 30
0.0
 11
93.3684611002604
 21
153.2232055664063
 31
0.0
  0
LINE
  5
546
330
A
100
AcDbEntity
  8
WOOD
 62
     7
100
AcDbLine
 10
104.9097032335069
 20
135.3939751519097
 30
0.0
 11
102.6657437532402
 21
134.8365354266924
 31
0.0
  0
LINE
  5
545
330
A
100
AcDbEntity
  8
WOOD
 62
     7
100
AcDbLine
 10
111.8305555555556
 20
137.1130777994792
 30
0.0
 11
109.8058904299773
 21
136.6101618267261
 31
0.0
  0
LINE
  5
544
330
A
100
AcDbEntity
  8
WOOD
 62
     7
100
AcDbLine
 10
124.2952555338542
 20
187.9132500542535
 30
0.0
 11
118.0627332899306
 21
189.7946166992187
 31
0.0
  0
LINE
  5
543
330
A
100
AcDbEntity
  8
WOOD
 62
     7
100
AcDbLine
 10
125.5888888888889
 20
192.0287611219618
 30
0.0
 11
119.0035888671875
 21
194.0279500325521
 31
0.0
  0
LWPOLYLINE
  5
53A
330
A
100
AcDbEntity
  8
WOOD
 62
     7
100
AcDbPolyline
 90
        7
 70
     0
 43
0.0
 10
124.2952555338542
 20
180.9751722547743
 10
118.8861111111111
 20
182.5037611219618
 10
118.8861111111111
 20
189.4416666666667
 10
117.8277777777778
 20
189.7946166992187
 10
120.4146999782986
 20
193.5575222439236
 10
118.8861111111111
 20
194.0277777777778
 10
118.8861111111111
 20
200.1426500108507
  0
LINE
  5
539
330
A
100
AcDbEntity
  8
WOOD
 62
     7
100
AcDbLine
 10
118.8861111111111
 20
197.4380777994792
 30
0.0
 11
119.3563666449653
 21
193.9103000217014
 31
0.0
  0
LINE
  5
538
330
A
100
AcDbEntity
  8
WOOD
 62
     7
100
AcDbLine
 10
119.4738444010417
 20
199.9075222439236
 30
0.0
 11
120.4146999782986
 21
193.5575222439236
 31
0.0
  0
LWPOLYLINE
  5
533
330
A
100
AcDbEntity
  8
WOOD
 62
     7
100
AcDbPolyline
 90
        3
 70
     0
 43
0.0
 10
120.532177734375
 20
199.6723944769965
 10
121.2377332899306
 20
193.4398722330729
 10
118.7682888454861
 20
189.676966688368
  0
LINE
  5
532
330
A
100
AcDbEntity
  8
WOOD
 62
     7
100
AcDbLine
 10
121.2377332899306
 20
199.4370944552951
 30
0.0
 11
122.1785888671875
 21
193.3223944769965
 31
0.0
  0
LINE
  5
531
330
A
100
AcDbEntity
  8
WOOD
 62
     7
100
AcDbLine
 10
122.5313666449653
 20
198.966838921441
 30
0.0
 11
123.2369222005208
 21
192.851966688368
 31
0.0
  0
LINE
  5
530
330
A
100
AcDbEntity
  8
WOOD
 62
     7
100
AcDbLine
 10
123.5896999782986
 20
198.8491889105903
 30
0.0
 11
124.2952555338542
 21
192.9696166992187
 31
0.0
  0
LINE
  5
52F
330
A
100
AcDbEntity
  8
WOOD
 62
     7
100
AcDbLine
 10
122.2960666232639
 20
193.0870944552951
 30
0.0
 11
119.5916666666667
 21
189.441838921441
 31
0.0
  0
LINE
  5
52E
330
A
100
AcDbEntity
  8
WOOD
 62
     7
100
AcDbLine
 10
122.8841444227431
 20
192.851966688368
 30
0.0
 11
120.4146999782986
 21
189.2065388997396
 31
0.0
  0
LINE
  5
52D
330
A
100
AcDbEntity
  8
WOOD
 62
     7
100
AcDbLine
 10
123.9424777560764
 20
192.4991889105903
 30
0.0
 11
121.1202555338542
 21
188.9714111328125
 31
0.0
  0
LINE
  5
52C
330
A
100
AcDbEntity
  8
WOOD
 62
     7
100
AcDbLine
 10
124.7655110677083
 20
192.2640611436632
 30
0.0
 11
122.0611111111111
 21
188.500983344184
 31
0.0
  0
LINE
  5
52B
330
A
100
AcDbEntity
  8
WOOD
 62
     7
100
AcDbLine
 10
125.1182888454861
 20
191.3232055664062
 30
0.0
 11
123.0016221788194
 21
188.3835055881076
 31
0.0
  0
LINE
  5
52A
330
A
100
AcDbEntity
  8
WOOD
 62
     7
100
AcDbLine
 10
118.8861111111111
 20
186.9723944769965
 30
0.0
 11
119.4738444010417
 21
182.3862833658854
 31
0.0
  0
LINE
  5
529
330
A
100
AcDbEntity
  8
WOOD
 62
     7
100
AcDbLine
 10
119.2388888888889
 20
189.441838921441
 30
0.0
 11
120.2972222222222
 21
182.150983344184
 31
0.0
  0
LINE
  5
528
330
A
100
AcDbEntity
  8
WOOD
 62
     7
100
AcDbLine
 10
120.0619222005208
 20
189.2065388997396
 30
0.0
 11
121.0027777777778
 21
181.9158555772569
 31
0.0
  0
LINE
  5
527
330
A
100
AcDbEntity
  8
WOOD
 62
     7
100
AcDbLine
 10
120.7674777560764
 20
189.0890611436632
 30
0.0
 11
121.8258110894097
 21
181.7982055664062
 31
0.0
  0
LINE
  5
526
330
A
100
AcDbEntity
  8
WOOD
 62
     7
100
AcDbLine
 10
121.8258110894097
 20
188.7362833658854
 30
0.0
 11
122.5313666449653
 21
181.5630777994792
 31
0.0
  0
LINE
  5
525
330
A
100
AcDbEntity
  8
WOOD
 62
     7
100
AcDbLine
 10
122.5313666449653
 20
188.3835055881076
 30
0.0
 11
123.3543999565972
 21
181.3279500325521
 31
0.0
  0
LINE
  5
524
330
A
100
AcDbEntity
  8
WOOD
 62
     7
100
AcDbLine
 10
123.4722222222222
 20
188.0307278103298
 30
0.0
 11
124.0599555121528
 21
181.4454277886285
 31
0.0
  0
LINE
  5
523
330
A
100
AcDbEntity
  8
WOOD
 62
     7
100
AcDbLine
 10
118.8861111111111
 20
182.5037611219618
 30
0.0
 11
102.7291041938223
 21
168.1553743819814
 31
0.0
  0
LINE
  5
522
330
A
100
AcDbEntity
  8
WOOD
 62
     7
100
AcDbLine
 10
110.0666666666667
 20
168.6279500325521
 30
0.0
 11
105.1277777777778
 21
170.1565388997396
 31
0.0
  0
LINE
  5
521
330
A
100
AcDbEntity
  8
WOOD
 62
     7
100
AcDbLine
 10
105.1276055230035
 20
135.5844889322917
 30
0.0
 11
105.1276055230035
 21
170.0390611436632
 31
0.0
  0
LWPOLYLINE
  5
518
330
A
100
AcDbEntity
  8
WOOD
 62
     7
100
AcDbPolyline
 90
        7
 70
     0
 43
0.0
 10
128.7638888888889
 20
141.3464111328125
 10
128.7638888888889
 20
136.4075222439236
 10
129.8222222222222
 20
135.3491889105903
 10
127.3527777777778
 20
133.35
 10
128.7638888888889
 20
132.0567111545139
 10
128.7638888888889
 20
126.2944444444444
 10
105.3629055447049
 20
121.7083333333333
  0
LINE
  5
517
330
A
100
AcDbEntity
  8
WOOD
 62
     7
100
AcDbLine
 10
128.7638888888889
 20
126.2944444444444
 30
0.0
 11
134.6432888454861
 21
125.2361111111111
 31
0.0
  0
LINE
  5
516
330
A
100
AcDbEntity
  8
WOOD
 62
     7
100
AcDbLine
 10
128.7638888888889
 20
136.4075222439236
 30
0.0
 11
134.6432888454861
 21
135.3488444010417
 31
0.0
  0
LINE
  5
515
330
A
100
AcDbEntity
  8
WOOD
 62
     7
100
AcDbLine
 10
129.8222222222222
 20
135.4666666666666
 30
0.0
 11
136.2896999782986
 21
134.4083333333333
 31
0.0
  0
LINE
  5
514
330
A
100
AcDbEntity
  8
WOOD
 62
     7
100
AcDbLine
 10
127.4702555338542
 20
133.3503445095486
 30
0.0
 11
133.3496554904514
 21
132.2916666666667
 31
0.0
  0
LINE
  5
513
330
A
100
AcDbEntity
  8
WOOD
 62
     7
100
AcDbLine
 10
128.8813666449653
 20
132.0567111545139
 30
0.0
 11
134.7607666015625
 21
130.9980333116319
 31
0.0
  0
LWPOLYLINE
  5
50B
330
A
100
AcDbEntity
  8
WOOD
 62
     7
100
AcDbPolyline
 90
        6
 70
     0
 43
0.0
 10
128.7638888888889
 20
138.1714111328125
 10
129.234144422743
 20
136.2900444878472
 10
130.4099555121528
 20
135.3491889105903
 10
128.2932888454861
 20
133.2325222439236
 10
129.5869222005208
 20
131.9388888888889
 10
130.057177734375
 20
126.0594889322917
  0
LINE
  5
50A
330
A
100
AcDbEntity
  8
WOOD
 62
     7
100
AcDbLine
 10
128.8221110026042
 20
130.4316596137153
 30
0.0
 11
129.3516221788194
 21
126.2944444444444
 31
0.0
  0
LWPOLYLINE
  5
502
330
A
100
AcDbEntity
  8
WOOD
 62
     7
100
AcDbPolyline
 90
        6
 70
     0
 43
0.0
 10
129.1166666666667
 20
141.2287611219618
 10
129.9396999782986
 20
136.1722222222222
 10
131.2333333333333
 20
135.2317111545139
 10
129.1166666666667
 20
133.1150444878472
 10
130.2924777560764
 20
131.8214111328125
 10
131.1155110677083
 20
125.9416666666667
  0
LWPOLYLINE
  5
4FA
330
A
100
AcDbEntity
  8
WOOD
 62
     7
100
AcDbPolyline
 90
        6
 70
     0
 43
0.0
 10
130.057177734375
 20
141.1112833658854
 10
131.1155110677083
 20
135.9372667100694
 10
132.0563666449653
 20
135.1138888888889
 10
129.7043999565972
 20
133.1150444878472
 10
130.9980333116319
 20
131.5861111111111
 10
131.9388888888889
 20
125.8241889105903
  0
LWPOLYLINE
  5
4F2
330
A
100
AcDbEntity
  8
WOOD
 62
     7
100
AcDbPolyline
 90
        6
 70
     0
 43
0.0
 10
131.1155110677083
 20
140.9936333550347
 10
132.1738444010417
 20
135.8194444444444
 10
133.232177734375
 20
134.9964111328125
 10
130.6452555338542
 20
132.8797444661458
 10
131.7035888671875
 20
131.4686333550347
 10
132.8793999565972
 20
125.5888888888889
  0
LWPOLYLINE
  5
4EA
330
A
100
AcDbEntity
  8
WOOD
 62
     7
100
AcDbPolyline
 90
        6
 70
     0
 43
0.0
 10
131.9388888888889
 20
140.7585055881076
 10
133.232177734375
 20
135.701966688368
 10
134.5258110894097
 20
134.7611111111111
 10
131.5861111111111
 20
132.6444444444445
 10
132.7619222005208
 20
131.3511555989583
 10
133.9377332899306
 20
125.3539333767361
  0
LWPOLYLINE
  5
4E2
330
A
100
AcDbEntity
  8
WOOD
 62
     7
100
AcDbPolyline
 90
        6
 70
     0
 43
0.0
 10
132.9972222222222
 20
140.5232055664062
 10
134.0555555555555
 20
135.4666666666666
 10
135.1138888888889
 20
134.6436333550347
 10
132.7619222005208
 20
132.5269666883681
 10
133.4674777560764
 20
131.3511555989583
 10
134.5258110894097
 20
126.5297444661458
  0
LINE
  5
4E1
330
A
100
AcDbEntity
  8
WOOD
 62
     7
100
AcDbLine
 10
133.8202555338542
 20
140.4057278103298
 30
0.0
 11
134.6432888454861
 21
136.525
 31
0.0
  0
LINE
  5
4E0
330
A
100
AcDbEntity
  8
WOOD
 62
     7
100
AcDbLine
 10
81.37401665581596
 20
124.6483778211806
 30
0.0
 11
81.37401665581596
 21
118.7686333550347
 31
0.0
  0
LINE
  5
4DF
330
A
100
AcDbEntity
  8
WOOD
 62
     7
100
AcDbLine
 10
77.6111111111111
 20
119.1214111328125
 30
0.0
 11
77.6111111111111
 21
112.8888888888889
 31
0.0
  0
LWPOLYLINE
  5
4D6
330
A
100
AcDbEntity
  8
WOOD
 62
     7
100
AcDbPolyline
 90
        7
 70
     0
 43
0.0
 10
62.79427218967013
 20
110.5372667100694
 10
68.09110649956597
 20
111.4202446831597
 10
67.14525553385415
 20
112.0658555772569
 10
72.43692220052083
 20
111.3603000217014
 10
71.85246175130207
 20
112.0472520616319
 10
77.6111111111111
 20
113.0067111545139
 10
138.5238444010417
 20
107.126966688368
  0
LWPOLYLINE
  5
4D1
330
A
100
AcDbEntity
  8
WOOD
 62
     7
100
AcDbPolyline
 90
        3
 70
     0
 43
0.0
 10
133.1146999782986
 20
106.4214111328125
 10
132.5266221788194
 20
106.3039333767361
 10
133.1146999782986
 20
105.5983778211806
  0
LWPOLYLINE
  5
4CC
330
A
100
AcDbEntity
  8
WOOD
 62
     7
100
AcDbPolyline
 90
        3
 70
     0
 43
0.0
 10
128.9988444010417
 20
106.4214111328125
 10
128.2932888454861
 20
106.6567111545139
 10
128.9988444010417
 20
105.8333333333333
  0
LINE
  5
4CB
330
A
100
AcDbEntity
  8
WOOD
 62
     7
100
AcDbLine
 10
67.73316107855902
 20
120.767822265625
 30
0.0
 11
71.96649441189236
 21
122.0611111111111
 31
0.0
  0
LINE
  5
4CA
330
A
100
AcDbEntity
  8
WOOD
 62
     7
100
AcDbLine
 10
67.61568332248264
 20
120.0622667100694
 30
0.0
 11
71.84901665581596
 21
121.2380777994792
 31
0.0
  0
LINE
  5
4C9
330
A
100
AcDbEntity
  8
WOOD
 62
     7
100
AcDbLine
 10
67.61568332248264
 20
119.1214111328125
 30
0.0
 11
71.84901665581596
 21
120.4150444878472
 31
0.0
  0
LINE
  5
4C8
330
A
100
AcDbEntity
  8
WOOD
 62
     7
100
AcDbLine
 10
67.96846110026041
 20
118.2983778211806
 30
0.0
 11
71.84901665581596
 21
119.4741889105903
 31
0.0
  0
LINE
  5
4C7
330
A
100
AcDbEntity
  8
WOOD
 62
     7
100
AcDbLine
 10
69.26192220052083
 20
118.0630777994792
 30
0.0
 11
71.96649441189236
 21
118.7686333550347
 31
0.0
  0
LINE
  5
4C6
330
A
100
AcDbEntity
  8
WOOD
 62
     7
100
AcDbLine
 10
70.43790554470486
 20
117.8277777777778
 30
0.0
 11
71.61371663411458
 21
118.0630777994792
 31
0.0
  0
LINE
  5
4C5
330
A
100
AcDbEntity
  8
WOOD
 62
     7
100
AcDbLine
 10
72.08414442274305
 20
122.7666666666667
 30
0.0
 11
77.25816107855903
 21
122.1789333767361
 31
0.0
  0
LINE
  5
4C4
330
A
100
AcDbEntity
  8
WOOD
 62
     7
100
AcDbLine
 10
72.08414442274305
 20
122.0611111111111
 30
0.0
 11
77.25816107855903
 21
121.4733778211806
 31
0.0
  0
LINE
  5
4C3
330
A
100
AcDbEntity
  8
WOOD
 62
     7
100
AcDbLine
 10
72.08414442274305
 20
121.0027777777778
 30
0.0
 11
77.25816107855903
 21
120.4150444878472
 31
0.0
  0
LINE
  5
4C2
330
A
100
AcDbEntity
  8
WOOD
 62
     7
100
AcDbLine
 10
72.08414442274305
 20
120.2972222222222
 30
0.0
 11
77.25816107855903
 21
119.7094889322917
 31
0.0
  0
LINE
  5
4C1
330
A
100
AcDbEntity
  8
WOOD
 62
     7
100
AcDbLine
 10
72.08414442274305
 20
119.5916666666667
 30
0.0
 11
77.25816107855903
 21
119.0039333767361
 31
0.0
  0
LINE
  5
4C0
330
A
100
AcDbEntity
  8
WOOD
 62
     7
100
AcDbLine
 10
71.96649441189236
 20
118.8861111111111
 30
0.0
 11
74.20081108940971
 21
118.5333333333333
 31
0.0
  0
LINE
  5
4BF
330
A
100
AcDbEntity
  8
WOOD
 62
     7
100
AcDbLine
 10
77.25816107855903
 20
123.3547444661458
 30
0.0
 11
81.25636664496527
 21
124.5305555555555
 31
0.0
  0
LINE
  5
4BE
330
A
100
AcDbEntity
  8
WOOD
 62
     7
100
AcDbLine
 10
77.25816107855903
 20
122.5313666449653
 30
0.0
 11
81.25636664496527
 21
123.707177734375
 31
0.0
  0
LINE
  5
4BD
330
A
100
AcDbEntity
  8
WOOD
 62
     7
100
AcDbLine
 10
77.25816107855903
 20
121.8261555989583
 30
0.0
 11
81.25636664496527
 21
123.001966688368
 31
0.0
  0
LINE
  5
4BC
330
A
100
AcDbEntity
  8
WOOD
 62
     7
100
AcDbLine
 10
77.25816107855903
 20
121.0027777777778
 30
0.0
 11
81.25636664496527
 21
122.1785888671875
 31
0.0
  0
LINE
  5
4BB
330
A
100
AcDbEntity
  8
WOOD
 62
     7
100
AcDbLine
 10
77.25816107855903
 20
119.8269666883681
 30
0.0
 11
81.25636664496527
 21
121.0027777777778
 31
0.0
  0
LINE
  5
4BA
330
A
100
AcDbEntity
  8
WOOD
 62
     7
100
AcDbLine
 10
77.25816107855903
 20
119.1214111328125
 30
0.0
 11
81.25636664496527
 21
120.2972222222222
 31
0.0
  0
LINE
  5
4B9
330
A
100
AcDbEntity
  8
WOOD
 62
     7
100
AcDbLine
 10
78.90457221137152
 20
118.8861111111111
 30
0.0
 11
81.25636664496527
 21
119.5916666666667
 31
0.0
  0
LINE
  5
4B8
330
A
100
AcDbEntity
  8
WOOD
 62
     7
100
AcDbLine
 10
63.14704996744791
 20
116.4166666666667
 30
0.0
 11
67.02760552300347
 21
116.5344889322917
 31
0.0
  0
LINE
  5
4B7
330
A
100
AcDbEntity
  8
WOOD
 62
     7
100
AcDbLine
 10
62.91192220052083
 20
115.7111111111111
 30
0.0
 11
67.02760552300347
 21
115.8289333767361
 31
0.0
  0
LINE
  5
4B6
330
A
100
AcDbEntity
  8
WOOD
 62
     7
100
AcDbLine
 10
62.79427218967013
 20
115.0055555555556
 30
0.0
 11
67.02760552300347
 21
115.1233778211805
 31
0.0
  0
LINE
  5
4B5
330
A
100
AcDbEntity
  8
WOOD
 62
     7
100
AcDbLine
 10
62.79427218967013
 20
114.0646999782986
 30
0.0
 11
67.02760552300347
 21
114.1825222439236
 31
0.0
  0
LINE
  5
4B4
330
A
100
AcDbEntity
  8
WOOD
 62
     7
100
AcDbLine
 10
62.79427218967013
 20
113.0063666449653
 30
0.0
 11
67.02760552300347
 21
113.1241889105903
 31
0.0
  0
LINE
  5
4B3
330
A
100
AcDbEntity
  8
WOOD
 62
     7
100
AcDbLine
 10
62.79427218967013
 20
112.0655110677083
 30
0.0
 11
67.02760552300347
 21
112.1833333333333
 31
0.0
  0
LINE
  5
4B2
330
A
100
AcDbEntity
  8
WOOD
 62
     7
100
AcDbLine
 10
62.79427218967013
 20
111.125
 30
0.0
 11
67.02760552300347
 21
111.242822265625
 31
0.0
  0
LINE
  5
4B1
330
A
100
AcDbEntity
  8
WOOD
 62
     7
100
AcDbLine
 10
73.14247775607639
 20
118.2983778211806
 30
0.0
 11
77.6109388563368
 21
118.4158555772569
 31
0.0
  0
LINE
  5
4B0
330
A
100
AcDbEntity
  8
WOOD
 62
     7
100
AcDbLine
 10
71.84901665581596
 20
116.5344889322917
 30
0.0
 11
77.4934611002604
 21
116.6519666883681
 31
0.0
  0
LINE
  5
4AF
330
A
100
AcDbEntity
  8
WOOD
 62
     7
100
AcDbLine
 10
71.84901665581596
 20
115.7114556206597
 30
0.0
 11
77.4934611002604
 21
115.8289333767361
 31
0.0
  0
LINE
  5
4AE
330
A
100
AcDbEntity
  8
WOOD
 62
     7
100
AcDbLine
 10
71.84901665581596
 20
117.3575222439236
 30
0.0
 11
77.4934611002604
 21
117.475
 31
0.0
  0
LINE
  5
4AD
330
A
100
AcDbEntity
  8
WOOD
 62
     7
100
AcDbLine
 10
71.84901665581596
 20
115.0059000651042
 30
0.0
 11
77.4934611002604
 21
115.1233778211805
 31
0.0
  0
LINE
  5
4AC
330
A
100
AcDbEntity
  8
WOOD
 62
     7
100
AcDbLine
 10
71.84901665581596
 20
113.9475667317708
 30
0.0
 11
77.4934611002604
 21
114.0650444878472
 31
0.0
  0
LINE
  5
4AB
330
A
100
AcDbEntity
  8
WOOD
 62
     7
100
AcDbLine
 10
71.84901665581596
 20
113.1241889105903
 30
0.0
 11
77.4934611002604
 21
113.2416666666667
 31
0.0
  0
LINE
  5
4AA
330
A
100
AcDbEntity
  8
WOOD
 62
     7
100
AcDbLine
 10
62.79427218967013
 20
115.0055555555556
 30
0.0
 11
67.02760552300347
 21
115.1233778211805
 31
0.0
  0
LINE
  5
4A9
330
A
100
AcDbEntity
  8
WOOD
 62
     7
100
AcDbLine
 10
67.02777777777777
 20
117.5924777560764
 30
0.0
 11
71.61371663411458
 21
116.6519666883681
 31
0.0
  0
LINE
  5
4A8
330
A
100
AcDbEntity
  8
WOOD
 62
     7
100
AcDbLine
 10
67.02777777777777
 20
116.6519666883681
 30
0.0
 11
71.61371663411458
 21
115.7114556206597
 31
0.0
  0
LINE
  5
4A7
330
A
100
AcDbEntity
  8
WOOD
 62
     7
100
AcDbLine
 10
67.02777777777777
 20
116.0635443793403
 30
0.0
 11
71.61371663411458
 21
115.1230333116319
 31
0.0
  0
LINE
  5
4A6
330
A
100
AcDbEntity
  8
WOOD
 62
     7
100
AcDbLine
 10
67.02777777777777
 20
115.0055555555556
 30
0.0
 11
71.61371663411458
 21
114.0650444878472
 31
0.0
  0
LINE
  5
4A5
330
A
100
AcDbEntity
  8
WOOD
 62
     7
100
AcDbLine
 10
67.02777777777777
 20
114.3
 30
0.0
 11
71.61371663411458
 21
113.3594889322917
 31
0.0
  0
LINE
  5
4A4
330
A
100
AcDbEntity
  8
WOOD
 62
     7
100
AcDbLine
 10
67.02777777777777
 20
113.4766221788194
 30
0.0
 11
71.61371663411458
 21
112.5361111111111
 31
0.0
  0
LINE
  5
4A3
330
A
100
AcDbEntity
  8
WOOD
 62
     7
100
AcDbLine
 10
67.02777777777777
 20
112.6535888671875
 30
0.0
 11
71.61371663411458
 21
111.7130777994792
 31
0.0
  0
SPLINE
  5
4A1
330
A
100
AcDbEntity
  8
H2_5T_TIE_PLATES
 62
     7
100
AcDbSpline
210
0.0
220
0.0
230
1.0
 70
    11
 71
     3
 72
    56
 73
    52
 74
     0
 42
0.0000000001
 43
0.0000000001
 40
0.0
 40
0.0
 40
0.0
 40
0.0
 40
1.0
 40
1.0
 40
1.0
 40
2.0
 40
2.0
 40
2.0
 40
3.0
 40
3.0
 40
3.0
 40
4.0
 40
4.0
 40
4.0
 40
5.0
 40
5.0
 40
5.0
 40
6.0
 40
6.0
 40
6.0
 40
7.0
 40
7.0
 40
7.0
 40
8.0
 40
8.0
 40
8.0
 40
9.0
 40
9.0
 40
9.0
 40
10.0
 40
10.0
 40
10.0
 40
11.0
 40
11.0
 40
11.0
 40
12.0
 40
12.0
 40
12.0
 40
13.0
 40
13.0
 40
13.0
 40
14.0
 40
14.0
 40
14.0
 40
15.0
 40
15.0
 40
15.0
 40
16.0
 40
16.0
 40
16.0
 40
17.0
 40
17.0
 40
17.0
 40
17.0
 10
109.6887396918403
 20
136.7389404296875
 30
0.0
 10
109.6887396918403
 20
136.7389404296875
 30
0.0
 10
109.1333902994792
 20
136.7944064670139
 30
0.0
 10
109.1333902994792
 20
136.7944064670139
 30
0.0
 10
109.1333902994792
 20
136.7944064670139
 30
0.0
 10
106.2453667534722
 20
136.0168484157986
 30
0.0
 10
106.2453667534722
 20
136.0168484157986
 30
0.0
 10
106.2453667534722
 20
136.0168484157986
 30
0.0
 10
105.5234469943576
 20
135.0174262152778
 30
0.0
 10
105.5234469943576
 20
135.0174262152778
 30
0.0
 10
105.5234469943576
 20
135.0174262152778
 30
0.0
 10
105.5234469943576
 20
131.2963785807292
 30
0.0
 10
105.5234469943576
 20
131.2963785807292
 30
0.0
 10
105.5234469943576
 20
131.2963785807292
 30
0.0
 10
105.5234469943576
 20
130.5188205295139
 30
0.0
 10
105.2457722981771
 20
130.2411458333333
 30
0.0
 10
105.2457722981771
 20
130.2411458333333
 30
0.0
 10
104.7458889431424
 20
129.8525390625
 30
0.0
 10
104.4682142469618
 20
129.5193983289931
 30
0.0
 10
104.4682142469618
 20
129.5193983289931
 30
0.0
 10
99.91431477864582
 20
122.6884629991319
 30
0.0
 10
99.91431477864582
 20
122.6884629991319
 30
0.0
 10
99.91431477864582
 20
122.6884629991319
 30
0.0
 10
99.91431477864582
 20
112.2481011284722
 30
0.0
 10
99.91431477864582
 20
112.2481011284722
 30
0.0
 10
99.91431477864582
 20
112.2481011284722
 30
0.0
 10
100.6364067925347
 20
111.1928683810764
 30
0.0
 10
100.6364067925347
 20
111.1928683810764
 30
0.0
 10
100.6364067925347
 20
111.1928683810764
 30
0.0
 10
103.5242580837674
 20
110.8597276475694
 30
0.0
 10
103.5242580837674
 20
110.8597276475694
 30
0.0
 10
103.5242580837674
 20
110.8597276475694
 30
0.0
 10
104.5793185763889
 20
111.9149603949653
 30
0.0
 10
104.5793185763889
 20
111.9149603949653
 30
0.0
 10
104.5793185763889
 20
111.9149603949653
 30
0.0
 10
104.5793185763889
 20
120.5228759765625
 30
0.0
 10
104.5793185763889
 20
120.5228759765625
 30
0.0
 10
104.5793185763889
 20
120.5228759765625
 30
0.0
 10
104.5698445638021
 20
121.3407416449653
 30
0.0
 10
105.1117580837674
 20
121.7004096137153
 30
0.0
 10
105.1117580837674
 20
121.7004096137153
 30
0.0
 10
105.6311062282986
 20
122.071790907118
 30
0.0
 10
105.8533148871528
 20
122.404931640625
 30
0.0
 10
105.8533148871528
 20
122.404931640625
 30
0.0
 10
110.2440890842014
 20
130.7968397352431
 30
0.0
 10
110.2440890842014
 20
130.7968397352431
 30
0.0
 10
110.2440890842014
 20
130.7968397352431
 30
0.0
 10
110.2440890842014
 20
136.1284695095486
 30
0.0
 10
110.2440890842014
 20
136.1284695095486
 30
0.0
 10
110.2440890842014
 20
136.1284695095486
 30
0.0
 10
109.6887396918403
 20
136.7389404296875
 30
0.0
 10
109.6887396918403
 20
136.7389404296875
 30
0.0
  0
LWPOLYLINE
  5
2D0
330
A
100
AcDbEntity
  8
H2_5T_TIE_PLATES
 62
     7
100
AcDbPolyline
 90
        3
 70
     0
 43
0.0
 10
102.7467000325521
 20
174.3890109592014
 10
102.7003634982639
 20
157.9734754774306
 10
95.29771457248263
 20
155.5265964084201
  0
LWPOLYLINE
  5
2CB
330
A
100
AcDbEntity
  8
H2_5T_TIE_PLATES
 62
     7
100
AcDbPolyline
 90
        3
 70
     0
 43
0.0
 10
102.6350789388021
 20
143.6344712999132
 10
102.6903727213542
 20
127.7703233506944
 10
95.30477701822916
 20
125.9637152777778
  0
SPLINE
  5
FD
330
A
100
AcDbEntity
  8
H2_5T_TIE_PLATES
 62
     7
100
AcDbSpline
210
0.0
220
0.0
230
1.0
 70
     8
 71
     3
 72
    20
 73
    16
 74
     0
 42
0.0000000001
 43
0.0000000001
 40
0.0
 40
0.0
 40
0.0
 40
0.0
 40
1.0
 40
1.0
 40
1.0
 40
2.0
 40
2.0
 40
2.0
 40
3.0
 40
3.0
 40
3.0
 40
4.0
 40
4.0
 40
4.0
 40
5.0
 40
5.0
 40
5.0
 40
5.0
 10
105.2457722981771
 20
130.241490342882
 30
0.0
 10
105.2457722981771
 20
130.241490342882
 30
0.0
 10
105.1748033311632
 20
129.9824191623264
 30
0.0
 10
105.0101277669271
 20
129.7340277777778
 30
0.0
 10
105.0101277669271
 20
129.7340277777778
 30
0.0
 10
100.3030938042535
 20
122.7990505642361
 30
0.0
 10
100.3030938042535
 20
122.7990505642361
 30
0.0
 10
100.3030938042535
 20
122.7990505642361
 30
0.0
 10
100.2770833333333
 20
112.3597222222222
 30
0.0
 10
100.2770833333333
 20
112.3597222222222
 30
0.0
 10
100.2770833333333
 20
112.3597222222222
 30
0.0
 10
100.9223497178819
 20
111.5053385416667
 30
0.0
 10
100.9223497178819
 20
111.5053385416667
 30
0.0
 10
100.9223497178819
 20
111.5053385416667
 30
0.0
 10
103.8343166775174
 20
111.1542833116319
 30
0.0
 10
103.8343166775174
 20
111.1542833116319
 30
0.0
  0
SPLINE
  5
FC
330
A
100
AcDbEntity
  8
H2_5T_TIE_PLATES
 62
     7
100
AcDbSpline
210
0.0
220
0.0
230
1.0
 70
     8
 71
     3
 72
    17
 73
    13
 74
     0
 42
0.0000000001
 43
0.0000000001
 40
0.0
 40
0.0
 40
0.0
 40
0.0
 40
1.0
 40
1.0
 40
1.0
 40
2.0
 40
2.0
 40
2.0
 40
3.0
 40
3.0
 40
3.0
 40
4.0
 40
4.0
 40
4.0
 40
4.0
 10
104.7040310329861
 20
121.2184407552083
 30
0.0
 10
104.7040310329861
 20
121.2184407552083
 30
0.0
 10
104.8893771701389
 20
121.7744791666667
 30
0.0
 10
105.3343112521701
 20
122.330517578125
 30
0.0
 10
105.3343112521701
 20
122.330517578125
 30
0.0
 10
109.8230984157986
 20
130.96875
 30
0.0
 10
109.8230984157986
 20
130.96875
 30
0.0
 10
109.8230984157986
 20
130.96875
 30
0.0
 10
109.8230984157986
 20
136.2128743489583
 30
0.0
 10
109.8230984157986
 20
136.2128743489583
 30
0.0
 10
109.8230984157986
 20
136.2128743489583
 30
0.0
 10
109.3559434678819
 20
136.7940619574653
 30
0.0
 10
109.3559434678819
 20
136.7940619574653
 30
0.0
  0
INSERT
  5
F6
330
A
100
AcDbEntity
  8
H2_5T_TIE_PLATES
 62
     7
100
AcDbBlockReference
  2
AI9-BLK23
 10
104.8631944444444
 20
125.5447916666667
 30
0.0
  0
INSERT
  5
EE
330
A
100
AcDbEntity
  8
H2_5T_TIE_PLATES
 62
     7
100
AcDbBlockReference
  2
AI9-BLK22
 10
101.4360995822483
 20
119.9239461263021
 30
0.0
  0
INSERT
  5
E6
330
A
100
AcDbEntity
  8
H2_5T_TIE_PLATES
 62
     7
100
AcDbBlockReference
  2
AI9-BLK21
 10
103.5438951280382
 20
118.0718627929687
 30
0.0
  0
INSERT
  5
DE
330
A
100
AcDbEntity
  8
H2_5T_TIE_PLATES
 62
     7
100
AcDbBlockReference
  2
AI9-BLK20
 10
101.2244845920139
 20
115.0682562934028
 30
0.0
  0
INSERT
  5
D6
330
A
100
AcDbEntity
  8
H2_5T_TIE_PLATES
 62
     7
100
AcDbBlockReference
  2
AI9-BLK19
 10
103.6498318142361
 20
112.5547146267361
 30
0.0
  0
INSERT
  5
CE
330
A
100
AcDbEntity
  8
H2_5T_TIE_PLATES
 62
     7
100
AcDbBlockReference
  2
AI9-BLK18
 10
102.4855617947049
 20
113.8826266818576
 30
0.0
  0
INSERT
  5
C6
330
A
100
AcDbEntity
  8
H2_5T_TIE_PLATES
 62
     7
100
AcDbBlockReference
  2
AI9-BLK17
 10
106.2293470594618
 20
134.3001573350694
 30
0.0
  0
INSERT
  5
BE
330
A
100
AcDbEntity
  8
H2_5T_TIE_PLATES
 62
     7
100
AcDbBlockReference
  2
AI9-BLK16
 10
108.9332302517361
 20
131.8727430555555
 30
0.0
  0
INSERT
  5
B6
330
A
100
AcDbEntity
  8
H2_5T_TIE_PLATES
 62
     7
100
AcDbBlockReference
  2
AI9-BLK15
 10
107.5098029242622
 20
133.0998860677083
 30
0.0
  0
INSERT
  5
AE
330
A
100
AcDbEntity
  8
H2_5T_TIE_PLATES
 62
     7
100
AcDbBlockReference
  2
AI9-BLK14
 10
106.5078830295139
 20
130.7703125
 30
0.0
  0
INSERT
  5
A6
330
A
100
AcDbEntity
  8
H2_5T_TIE_PLATES
 62
     7
100
AcDbBlockReference
  2
AI9-BLK13
 10
107.4781080457899
 20
129.0119357638889
 30
0.0
  0
LINE
  5
A4
330
A
100
AcDbEntity
  8
H2_5T_TIE_PLATES
 62
     7
100
AcDbLine
 10
93.22152777777777
 20
104.775
 30
0.0
 11
109.4493055555555
 21
103.4520833333333
 31
0.0
  0
LWPOLYLINE
  5
9F
330
A
100
AcDbEntity
  8
H2_5T_TIE_PLATES
 62
     7
100
AcDbPolyline
 90
        3
 70
     1
 43
0.0
 10
94.55322943793402
 20
106.0803466796875
 10
94.55322943793402
 20
103.1168755425347
 10
90.21413167317708
 20
105.0220133463542
  0
LWPOLYLINE
  5
9A
330
A
100
AcDbEntity
  8
H2_5T_TIE_PLATES
 62
     7
100
AcDbPolyline
 90
        3
 70
     1
 43
0.0
 10
107.9412150065104
 20
102.1467366536458
 10
107.9412150065104
 20
105.1102077907986
 10
112.2803127712674
 20
103.2050699869792
  0
LINE
  5
99
330
A
100
AcDbEntity
  8
H2_5T_TIE_PLATES
 62
     7
100
AcDbLine
 10
114.6310736762153
 20
141.566552734375
 30
0.0
 11
128.5196316189236
 21
145.2131863064236
 31
0.0
  0
LWPOLYLINE
  5
94
330
A
100
AcDbEntity
  8
H2_5T_TIE_PLATES
 62
     7
100
AcDbPolyline
 90
        3
 70
     1
 43
0.0
 10
115.9515787760417
 20
143.2007337782118
 10
115.9515787760417
 20
140.237262641059
 10
111.6483100043403
 20
140.6720336914062
  0
LWPOLYLINE
  5
8F
330
A
100
AcDbEntity
  8
H2_5T_TIE_PLATES
 62
     7
100
AcDbPolyline
 90
        3
 70
     1
 43
0.0
 10
127.0241156684028
 20
143.5194051106771
 10
127.0241156684028
 20
146.4828762478298
 10
131.3273844401042
 20
146.0481051974826
  0
LINE
  5
8E
330
A
100
AcDbEntity
  8
H2_5T_TIE_PLATES
 62
     7
100
AcDbLine
 10
130.4795464409722
 20
141.9520589192708
 30
0.0
 11
144.2378797743056
 21
145.3501288519965
 31
0.0
  0
LINE
  5
8D
330
A
100
AcDbEntity
  8
H2_5T_TIE_PLATES
 62
     7
100
AcDbLine
 10
129.8993923611111
 20
126.5359456380208
 30
0.0
 11
143.4920166015625
 21
129.2710069444444
 31
0.0
  0
LINE
  5
8C
330
A
100
AcDbEntity
  8
H2_5T_TIE_PLATES
 62
     7
100
AcDbLine
 10
141.2544270833333
 20
134.4097113715278
 30
0.0
 11
141.2544270833333
 21
130.4316596137153
 31
0.0
  0
LINE
  5
8B
330
A
100
AcDbEntity
  8
H2_5T_TIE_PLATES
 62
     7
100
AcDbLine
 10
141.2544270833333
 20
143.0295125325521
 30
0.0
 11
141.2544270833333
 21
139.2169976128472
 31
0.0
  0
LWPOLYLINE
  5
86
330
A
100
AcDbEntity
  8
H2_5T_TIE_PLATES
 62
     7
100
AcDbPolyline
 90
        3
 70
     1
 43
0.0
 10
140.5082194010417
 20
132.0890950520833
 10
142.0829725477431
 20
132.3378309461805
 10
141.337109375
 20
129.1052978515625
  0
LWPOLYLINE
  5
81
330
A
100
AcDbEntity
  8
H2_5T_TIE_PLATES
 62
     7
100
AcDbPolyline
 90
        3
 70
     1
 43
0.0
 10
142.0833170572917
 20
141.4544148763021
 10
140.5085639105903
 20
141.2056789822049
 10
141.2544270833333
 20
144.4382120768229
  0
INSERT
  5
55
330
A
100
AcDbEntity
  8
H2_5T_TIE_PLATES
 62
     7
100
AcDbBlockReference
  2
AI9-BLK7
 10
141.7146918402778
 20
136.8753662109375
 30
0.0
  0
INSERT
  5
3C
330
A
100
AcDbEntity
  8
H2_5T_TIE_PLATES
 62
     7
100
AcDbBlockReference
  2
AI9-BLK4
 10
100.8301934136285
 20
99.9165540907118
 30
0.0
  0
INSERT
  5
23
330
A
100
AcDbEntity
  8
H2_5T_TIE_PLATES
 62
     7
100
AcDbBlockReference
  2
AI9-BLK1
 10
120.8518825954861
 20
146.9980041503906
 30
0.0
  0
INSERT
  5
5C1
330
A
100
AcDbEntity
  8
H2_5T_TIE_PLATES
 62
     7
100
AcDbBlockReference
  2
AI9-BLK98
 10
98.79741482204861
 20
165.0428975423177
 30
0.0
  0
LINE
  5
5C3
330
A
100
AcDbEntity
  8
WOOD
 62
     7
100
AcDbLine
 10
95.07696436414256
 20
161.3401563334675
 30
0.0
 11
71.61388888888888
 21
140.5232055664062
 31
0.0
  0
LINE
  5
5C9
330
A
100
AcDbEntity
  8
WOOD
 62
     7
100
AcDbLine
 10
105.9891154556188
 20
135.6620953663723
 30
0.0
 11
104.9097032335069
 21
135.3939751519097
 31
0.0
  0
LINE
  5
5CA
330
A
100
AcDbEntity
  8
WOOD
 62
     7
100
AcDbLine
 10
99.91431477864582
 20
122.3873252834669
 30
0.0
 11
81.37401665581596
 21
124.7658555772569
 31
0.0
  0
LWPOLYLINE
  5
5CB
330
A
100
AcDbEntity
  8
WOOD
 62
     7
100
AcDbPolyline
 90
        5
 70
     0
 43
0.0
 10
99.9143147786458
 20
116.7102028408328
 10
77.6111111111111
 20
119.1214111328125
 10
71.61388888888888
 20
118.1805555555555
 10
71.61388888888888
 20
117.475
 10
67.61568332248264
 20
118.1805555555555
  0
INSERT
  5
5CE
330
A
100
AcDbEntity
  8
H2_5T_TIE_PLATES
 62
     7
100
AcDbBlockReference
  2
AI9-BLK93
 10
96.18956366644964
 20
134.3008463541667
 30
0.0
  0
INSERT
  5
5CF
330
A
100
AcDbEntity
  8
H2_5T_TIE_PLATES
 62
     7
100
AcDbBlockReference
  2
AI9-BLK89
 10
97.50653754340277
 20
134.4287455240886
 30
0.0
  0
INSERT
  5
5D0
330
A
100
AcDbEntity
  8
H2_5T_TIE_PLATES
 62
     7
100
AcDbBlockReference
  2
AI9-BLK84
 10
98.82773166232639
 20
134.9719509548611
 30
0.0
  0
INSERT
  5
5D1
330
A
100
AcDbEntity
  8
H2_5T_TIE_PLATES
 62
     7
100
AcDbBlockReference
  2
AI9-BLK80
 10
100.1536627875434
 20
135.1014865451389
 30
0.0
  0
INSERT
  5
5D2
330
A
100
AcDbEntity
  8
H2_5T_TIE_PLATES
 62
     7
100
AcDbBlockReference
  2
AI9-BLK75
 10
101.4831251356337
 20
135.6472757975261
 30
0.0
  0
LINE
  5
5D3
330
A
100
AcDbEntity
  8
H2_5T_TIE_PLATES
 62
     7
100
AcDbLine
 10
102.464202202691
 20
127.8843560112847
 30
0.0
 11
95.0829128689236
 21
126.0774034288195
 31
0.0
  0
LINE
  5
5D4
330
A
100
AcDbEntity
  8
H2_5T_TIE_PLATES
 62
     7
100
AcDbLine
 10
95.0829128689236
 20
126.0774034288195
 30
0.0
 11
95.0829128689236
 21
141.8087429470486
 31
0.0
  0
LINE
  5
5D5
330
A
100
AcDbEntity
  8
H2_5T_TIE_PLATES
 62
     7
100
AcDbLine
 10
95.0829128689236
 20
141.8087429470486
 30
0.0
 11
102.4102864583333
 21
143.7424750434028
 31
0.0
  0
LINE
  5
5D6
330
A
100
AcDbEntity
  8
H2_5T_TIE_PLATES
 62
     7
100
AcDbLine
 10
102.4102864583333
 20
143.7424750434028
 30
0.0
 11
102.464202202691
 21
127.8843560112847
 31
0.0
  0
LINE
  5
5D7
330
A
100
AcDbEntity
  8
WOOD
 62
     7
100
AcDbLine
 10
95.0829128689236
 20
132.9528244231317
 30
0.0
 11
93.36863335503472
 21
132.5269666883681
 31
0.0
  0
ENDSEC
  0
SECTION
  2
OBJECTS
  0
DICTIONARY
  5
19
330
0
100
AcDbDictionary
281
     1
  3
ACAD_COLOR
350
5DB
  3
ACAD_GROUP
350
1A
  3
ACAD_LAYOUT
350
5BA
  3
ACAD_MATERIAL
350
5DD
  3
ACAD_MLINESTYLE
350
1B
  3
ACAD_PLOTSETTINGS
350
5BB
  3
ACAD_PLOTSTYLENAME
350
5B8
  3
ACDBHEADERROUNDTRIPXREC
350
5DA
  3
ASE_INDEX_DICTIONARY
350
5C5
  0
DICTIONARY
  5
5DB
102
{ACAD_REACTORS
330
19
102
}
330
19
100
AcDbDictionary
281
     1
  0
DICTIONARY
  5
1A
102
{ACAD_REACTORS
330
19
102
}
330
19
100
AcDbDictionary
281
     1
  0
DICTIONARY
  5
5BA
102
{ACAD_REACTORS
330
19
102
}
330
19
100
AcDbDictionary
281
     1
  3
Layout1
350
5BD
  3
Model
350
5BC
  0
DICTIONARY
  5
5DD
102
{ACAD_REACTORS
330
19
102
}
330
19
100
AcDbDictionary
281
     1
  0
DICTIONARY
  5
1B
102
{ACAD_REACTORS
330
19
102
}
330
19
100
AcDbDictionary
281
     1
  3
STANDARD
350
1C
  0
DICTIONARY
  5
5BB
102
{ACAD_REACTORS
330
19
102
}
330
19
100
AcDbDictionary
281
     1
  0
ACDBDICTIONARYWDFLT
  5
5B8
102
{ACAD_REACTORS
330
19
102
}
330
19
100
AcDbDictionary
281
     1
  3
Normal
350
5B9
100
AcDbDictionaryWithDefault
340
5B9
  0
DICTIONARY
  5
5DA
102
{ACAD_REACTORS
330
19
102
}
330
19
100
AcDbDictionary
281
     1
  3
COLORDICT
350
5DC
  3
MATERIALDICT
350
5DE
  0
DICTIONARY
  5
5C5
102
{ACAD_REACTORS
330
19
102
}
330
19
100
AcDbDictionary
281
     1
  3
ASEBlockHierarchyIndexRecord
350
5C7
1001
DCO15
1040
1548150582.982
  0
LAYOUT
  5
5BD
102
{ACAD_REACTORS
330
5BA
102
}
102
{ACAD_XDICTIONARY
360
5DF
102
}
330
5BA
100
AcDbPlotSettings
  1

  2
HP LaserJet 2100 Series PS
  4

  6

 40
0.0
 41
0.0
 42
0.0
 43
0.0
 44
0.0
 45
0.0
 46
0.0
 47
0.0
 48
0.0
 49
0.0
140
0.0
141
0.0
142
1.0
143
1.0
 70
   688
 72
     0
 73
     0
 74
     5
  7
monochrome.ctb
 75
    16
147
1.0
148
0.0
149
0.0
100
AcDbLayout
  1
Layout1
 70
     0
 71
     1
 10
0.0
 20
0.0
 11
12.0
 21
9.0
 12
0.0
 22
0.0
 32
0.0
 14
1.000000000000000E+20
 24
1.000000000000000E+20
 34
1.000000000000000E+20
 15
-1.000000000000000E+20
 25
-1.000000000000000E+20
 35
-1.000000000000000E+20
146
0.0
 13
0.0
 23
0.0
 33
0.0
 16
1.0
 26
0.0
 36
0.0
 17
0.0
 27
1.0
 37
0.0
 76
     0
330
B
  0
LAYOUT
  5
5BC
102
{ACAD_REACTORS
330
5BA
102
}
102
{ACAD_XDICTIONARY
360
5E1
102
}
330
5BA
100
AcDbPlotSettings
  1

  2
HP LaserJet 2100 Series PS
  4

  6

 40
0.0
 41
0.0
 42
0.0
 43
0.0
 44
0.0
 45
0.0
 46
0.0
 47
0.0
 48
0.0
 49
0.0
140
0.0
141
0.0
142
1.0
143
1.0
 70
  1712
 72
     0
 73
     0
 74
     0
  7
monochrome.ctb
 75
     0
147
1.0
148
0.0
149
0.0
100
AcDbLayout
  1
Model
 70
     1
 71
     0
 10
0.0
 20
0.0
 11
12.0
 21
9.0
 12
0.0
 22
0.0
 32
0.0
 14
0.0
 24
0.0
 34
0.0
 15
0.0
 25
0.0
 35
0.0
146
0.0
 13
0.0
 23
0.0
 33
0.0
 16
1.0
 26
0.0
 36
0.0
 17
0.0
 27
1.0
 37
0.0
 76
     0
330
A
  0
MLINESTYLE
  5
1C
102
{ACAD_REACTORS
330
1B
102
}
330
1B
100
AcDbMlineStyle
  2
STANDARD
 70
     0
  3

 62
     0
 51
90.0000000000002
 52
90.0000000000002
 71
     2
 49
0.5
 62
   256
  6
BYLAYER
 49
-0.5
 62
   256
  6
BYLAYER
  0
ACDBPLACEHOLDER
  5
5B9
102
{ACAD_REACTORS
330
5B8
102
}
330
5B8
  0
XRECORD
  5
5DC
102
{ACAD_REACTORS
330
5DA
102
}
330
5DA
100
AcDbXrecord
340
5DB
  0
XRECORD
  5
5DE
102
{ACAD_REACTORS
330
5DA
102
}
330
5DA
100
AcDbXrecord
340
5DD
  0
XRECORD
  5
5C7
102
{ACAD_REACTORS
330
5C5
102
}
330
5C5
100
AcDbXrecord
280
     1
330
23
330
3C
330
55
330
A6
330
AE
330
B6
330
BE
330
C6
330
CE
330
D6
330
DE
330
E6
330
EE
330
F6
330
5C1
330
5CE
330
5CF
330
5D0
330
5D1
330
5D2
330
26
330
2B
330
3F
330
44
330
58
330
68
330
6D
330
77
330
7C
330
106
330
136
330
15B
330
18B
330
1B0
330
109
330
114
330
11F
330
12A
330
139
330
144
330
14F
330
15E
330
169
330
174
330
17F
330
18E
330
199
330
1A4
330
1B3
330
1BE
330
1C9
330
1D4
330
1EA
330
21A
330
23F
330
26F
330
294
330
1ED
330
1F8
330
203
330
20E
330
21D
330
228
330
233
330
242
330
24D
330
258
330
263
330
272
330
27D
330
288
330
297
330
2A2
330
2AD
330
2B8
330
2DC
330
30C
330
331
330
361
330
386
330
2DF
330
2EA
330
2F5
330
300
330
30F
330
31A
330
325
330
334
330
33F
330
34A
330
355
330
364
330
36F
330
37A
330
389
330
394
330
39F
330
3AA
330
3C0
330
3F0
330
415
330
445
330
46A
330
3C3
330
3CE
330
3D9
330
3E4
330
3F3
330
3FE
330
409
330
418
330
423
330
42E
330
439
330
448
330
453
330
45E
330
46D
330
478
330
483
330
48E
  0
DICTIONARY
  5
5DF
330
5BD
100
AcDbDictionary
280
     1
281
     1
  3
ACAD_XREC_ROUNDTRIP
360
5E0
  0
DICTIONARY
  5
5E1
330
5BC
100
AcDbDictionary
280
     1
281
     1
  3
ACAD_XREC_ROUNDTRIP
360
5E2
  0
XRECORD
  5
5E0
102
{ACAD_REACTORS
330
5DF
102
}
330
5DF
100
AcDbXrecord
102
SHADEPLOT
 70
 31552
102
SHADEPLOTRESLEVEL
 70
 30752
102
SHADEPLOTCUSTOMDPI
 70
 31608
  0
XRECORD
  5
5E2
102
{ACAD_REACTORS
330
5E1
102
}
330
5E1
100
AcDbXrecord
102
SHADEPLOT
 70
     0
102
SHADEPLOTRESLEVEL
 70
     0
102
SHADEPLOTCUSTOMDPI
 70
     0
  0
ENDSEC
  0
EOF
