  0
SECTION
  2
HEADER
  9
$ACADVER
  1
AC1015
  9
$ACADMAINTVER
 70
     6
  9
$DWGCODEPAGE
  3
ASCII
  9
$INSBASE
 10
0.0
 20
0.0
 30
0.0
  9
$EXTMIN
 10
1.176828
 20
1.79393
 30
0.0
  9
$EXTMAX
 10
7.362116
 20
8.287857000000001
 30
0.0
  9
$LIMMIN
 10
0.0
 20
0.0
  9
$LIMMAX
 10
8.5
 20
11.0
  9
$ORTHOMODE
 70
     0
  9
$REGENMODE
 70
     0
  9
$FILLMODE
 70
     1
  9
$QTEXTMODE
 70
     0
  9
$MIRRTEXT
 70
     0
  9
$LTSCALE
 40
0.35
  9
$ATTMODE
 70
     1
  9
$TEXTSIZE
 40
0.3125
  9
$TRACEWID
 40
0.05
  9
$TEXTSTYLE
  7
STANDARD
  9
$CLAYER
  8
0
  9
$CELTYPE
  6
ByLayer
  9
$CECOLOR
 62
   256
  9
$CELTSCALE
 40
1.0
  9
$DISPSILH
 70
     0
  9
$DIMSCALE
 40
1.0
  9
$DIMASZ
 40
0.125
  9
$DIMEXO
 40
0.0625
  9
$DIMDLI
 40
0.38
  9
$DIMRND
 40
0.0
  9
$DIMDLE
 40
0.0
  9
$DIMEXE
 40
0.18
  9
$DIMTP
 40
0.0
  9
$DIMTM
 40
0.0
  9
$DIMTXT
 40
0.125
  9
$DIMCEN
 40
0.09
  9
$DIMTSZ
 40
0.0
  9
$DIMTOL
 70
     0
  9
$DIMLIM
 70
     0
  9
$DIMTIH
 70
     1
  9
$DIMTOH
 70
     1
  9
$DIMSE1
 70
     0
  9
$DIMSE2
 70
     0
  9
$DIMTAD
 70
     0
  9
$DIMZIN
 70
     0
  9
$DIMBLK
  1

  9
$DIMASO
 70
     0
  9
$DIMSHO
 70
     1
  9
$DIMPOST
  1

  9
$DIMAPOST
  1

  9
$DIMALT
 70
     0
  9
$DIMALTD
 70
     2
  9
$DIMALTF
 40
25.4
  9
$DIMLFAC
 40
1.0
  9
$DIMTOFL
 70
     0
  9
$DIMTVP
 40
0.0
  9
$DIMTIX
 70
     0
  9
$DIMSOXD
 70
     0
  9
$DIMSAH
 70
     0
  9
$DIMBLK1
  1

  9
$DIMBLK2
  1

  9
$DIMSTYLE
  2
Standard
  9
$DIMCLRD
 70
     0
  9
$DIMCLRE
 70
     0
  9
$DIMCLRT
 70
     0
  9
$DIMTFAC
 40
1.0
  9
$DIMGAP
 40
0.09
  9
$DIMJUST
 70
     0
  9
$DIMSD1
 70
     0
  9
$DIMSD2
 70
     0
  9
$DIMTOLJ
 70
     1
  9
$DIMTZIN
 70
     0
  9
$DIMALTZ
 70
     0
  9
$DIMALTTZ
 70
     0
  9
$DIMUPT
 70
     0
  9
$DIMDEC
 70
     4
  9
$DIMTDEC
 70
     4
  9
$DIMALTU
 70
     2
  9
$DIMALTTD
 70
     2
  9
$DIMTXSTY
  7
STANDARD
  9
$DIMAUNIT
 70
     0
  9
$DIMADEC
 70
     0
  9
$DIMALTRND
 40
0.0
  9
$DIMAZIN
 70
     0
  9
$DIMDSEP
 70
    46
  9
$DIMATFIT
 70
     3
  9
$DIMFRAC
 70
     0
  9
$DIMLDRBLK
  1

  9
$DIMLUNIT
 70
     2
  9
$DIMLWD
 70
    -2
  9
$DIMLWE
 70
    -2
  9
$DIMTMOVE
 70
     0
  9
$LUNITS
 70
     2
  9
$LUPREC
 70
     4
  9
$SKETCHINC
 40
0.1
  9
$FILLETRAD
 40
0.0
  9
$AUNITS
 70
     0
  9
$AUPREC
 70
     0
  9
$MENU
  1
acad
  9
$ELEVATION
 40
0.0
  9
$PELEVATION
 40
0.0
  9
$THICKNESS
 40
0.0
  9
$LIMCHECK
 70
     0
  9
$CHAMFERA
 40
0.02
  9
$CHAMFERB
 40
0.02
  9
$CHAMFERC
 40
1.0
  9
$CHAMFERD
 40
0.0
  9
$SKPOLY
 70
     0
  9
$TDCREATE
 40
2453955.561805868
  9
$TDUCREATE
 40
2453955.895139202
  9
$TDUPDATE
 40
2453955.603472546
  9
$TDUUPDATE
 40
2453955.895139213
  9
$TDINDWG
 40
0.0000000116
  9
$TDUSRTIMER
 40
0.0000000116
  9
$USRTIMER
 70
     1
  9
$ANGBASE
 50
0.0
  9
$ANGDIR
 70
     0
  9
$PDMODE
 70
     0
  9
$PDSIZE
 40
0.0
  9
$PLINEWID
 40
0.0
  9
$SPLFRAME
 70
     0
  9
$SPLINETYPE
 70
     6
  9
$SPLINESEGS
 70
     8
  9
$HANDSEED
  5
146
  9
$SURFTAB1
 70
     6
  9
$SURFTAB2
 70
     6
  9
$SURFTYPE
 70
     6
  9
$SURFU
 70
     6
  9
$SURFV
 70
     6
  9
$UCSBASE
  2

  9
$UCSNAME
  2

  9
$UCSORG
 10
0.0
 20
0.0
 30
0.0
  9
$UCSXDIR
 10
1.0
 20
0.0
 30
0.0
  9
$UCSYDIR
 10
0.0
 20
1.0
 30
0.0
  9
$UCSORTHOREF
  2

  9
$UCSORTHOVIEW
 70
     0
  9
$UCSORGTOP
 10
0.0
 20
0.0
 30
0.0
  9
$UCSORGBOTTOM
 10
0.0
 20
0.0
 30
0.0
  9
$UCSORGLEFT
 10
0.0
 20
0.0
 30
0.0
  9
$UCSORGRIGHT
 10
0.0
 20
0.0
 30
0.0
  9
$UCSORGFRONT
 10
0.0
 20
0.0
 30
0.0
  9
$UCSORGBACK
 10
0.0
 20
0.0
 30
0.0
  9
$PUCSBASE
  2

  9
$PUCSNAME
  2

  9
$PUCSORG
 10
0.0
 20
0.0
 30
0.0
  9
$PUCSXDIR
 10
1.0
 20
0.0
 30
0.0
  9
$PUCSYDIR
 10
0.0
 20
1.0
 30
0.0
  9
$PUCSORTHOREF
  2

  9
$PUCSORTHOVIEW
 70
     0
  9
$PUCSORGTOP
 10
0.0
 20
0.0
 30
0.0
  9
$PUCSORGBOTTOM
 10
0.0
 20
0.0
 30
0.0
  9
$PUCSORGLEFT
 10
0.0
 20
0.0
 30
0.0
  9
$PUCSORGRIGHT
 10
0.0
 20
0.0
 30
0.0
  9
$PUCSORGFRONT
 10
0.0
 20
0.0
 30
0.0
  9
$PUCSORGBACK
 10
0.0
 20
0.0
 30
0.0
  9
$USERI1
 70
     0
  9
$USERI2
 70
     0
  9
$USERI3
 70
     0
  9
$USERI4
 70
     0
  9
$USERI5
 70
     0
  9
$USERR1
 40
0.0
  9
$USERR2
 40
0.0
  9
$USERR3
 40
0.0
  9
$USERR4
 40
0.0
  9
$USERR5
 40
0.0
  9
$WORLDVIEW
 70
     1
  9
$SHADEDGE
 70
     3
  9
$SHADEDIF
 70
    70
  9
$TILEMODE
 70
     1
  9
$MAXACTVP
 70
    16
  9
$PINSBASE
 10
0.0
 20
0.0
 30
0.0
  9
$PLIMCHECK
 70
     0
  9
$PEXTMIN
 10
1.000000000000000E+20
 20
1.000000000000000E+20
 30
1.000000000000000E+20
  9
$PEXTMAX
 10
-1.000000000000000E+20
 20
-1.000000000000000E+20
 30
-1.000000000000000E+20
  9
$PLIMMIN
 10
0.0
 20
0.0
  9
$PLIMMAX
 10
12.0
 20
9.0
  9
$UNITMODE
 70
     0
  9
$VISRETAIN
 70
     0
  9
$PLINEGEN
 70
     0
  9
$PSLTSCALE
 70
     1
  9
$TREEDEPTH
 70
  3020
  9
$CMLSTYLE
  2
Standard
  9
$CMLJUST
 70
     0
  9
$CMLSCALE
 40
1.0
  9
$PROXYGRAPHICS
 70
     1
  9
$MEASUREMENT
 70
     0
  9
$CELWEIGHT
370
    -1
  9
$ENDCAPS
280
     0
  9
$JOINSTYLE
280
     0
  9
$LWDISPLAY
290
     0
  9
$INSUNITS
 70
     1
  9
$HYPERLINKBASE
  1

  9
$STYLESHEET
  1

  9
$XEDIT
290
     1
  9
$CEPSNTYPE
380
     0
  9
$PSTYLEMODE
290
     0
  9
$FINGERPRINTGUID
  2
{FAEB1C30-E019-11D5-929B-00C0DF256EC4}
  9
$VERSIONGUID
  2
{FAEB1C32-E019-11D5-929B-00C0DF256EC4}
  9
$EXTNAMES
290
     1
  9
$PSVPSCALE
 40
0.0
  9
$OLESTARTUP
290
     0
  0
ENDSEC
  0
SECTION
  2
CLASSES
  0
CLASS
  1
ACDBDICTIONARYWDFLT
  2
AcDbDictionaryWithDefault
  3
AutoCAD 2000
 90
        0
280
     0
281
     0
  0
CLASS
  1
ACDBPLACEHOLDER
  2
AcDbPlaceHolder
  3
ObjectDBX Classes
 90
        0
280
     0
281
     0
  0
CLASS
  1
LAYOUT
  2
AcDbLayout
  3
ObjectDBX Classes
 90
        0
280
     0
281
     0
  0
ENDSEC
  0
SECTION
  2
TABLES
  0
TABLE
  2
VPORT
  5
8
330
0
100
AcDbSymbolTable
 70
     2
  0
VPORT
  5
1E
330
8
100
AcDbSymbolTableRecord
100
AcDbViewportTableRecord
  2
*ACTIVE
 70
     0
 10
0.0
 20
0.0
 11
1.0
 21
1.0
 12
7.630750605326877
 22
5.5
 13
7.466993
 23
9.972550999999999
 14
0.0625
 24
0.0625
 15
0.0
 25
0.0
 16
0.0
 26
0.0
 36
1.0
 17
0.0
 27
0.0
 37
0.0
 40
11.0
 41
0.7207678883071553
 42
50.0
 43
0.0
 44
0.0
 50
90.0
 51
0.0
 71
     0
 72
  2000
 73
     1
 74
     0
 75
     0
 76
     0
 77
     0
 78
     0
281
     0
 65
     1
110
0.0
120
0.0
130
0.0
111
1.0
121
0.0
131
0.0
112
0.0
122
1.0
132
0.0
 79
     0
146
0.0
  0
ENDTAB
  0
TABLE
  2
LTYPE
  5
5
330
0
100
AcDbSymbolTable
 70
     1
  0
LTYPE
  5
10
330
5
100
AcDbSymbolTableRecord
100
AcDbLinetypeTableRecord
  2
ByBlock
 70
     0
  3

 72
    65
 73
     0
 40
0.0
  0
LTYPE
  5
11
330
5
100
AcDbSymbolTableRecord
100
AcDbLinetypeTableRecord
  2
ByLayer
 70
     0
  3

 72
    65
 73
     0
 40
0.0
  0
LTYPE
  5
1B
330
5
100
AcDbSymbolTableRecord
100
AcDbLinetypeTableRecord
  2
CONTINUOUS
 70
     0
  3
Solid line
 72
    65
 73
     0
 40
0.0
  0
ENDTAB
  0
TABLE
  2
LAYER
  5
2
330
0
100
AcDbSymbolTable
 70
     1
  0
LAYER
  5
1C
330
2
100
AcDbSymbolTableRecord
100
AcDbLayerTableRecord
  2
0
 70
     0
 62
     7
  6
CONTINUOUS
370
    -3
390
F
  0
ENDTAB
  0
TABLE
  2
STYLE
  5
3
330
0
100
AcDbSymbolTable
 70
     1
  0
STYLE
  5
21
330
3
100
AcDbSymbolTableRecord
100
AcDbTextStyleTableRecord
  2
STANDARD
 70
     0
 40
0.0
 41
1.0
 50
0.0
 71
     0
 42
0.3125
  3
ROMANS.shx
  4

  0
ENDTAB
  0
TABLE
  2
VIEW
  5
6
330
0
100
AcDbSymbolTable
 70
     1
  0
VIEW
  5
20
330
6
100
AcDbSymbolTableRecord
100
AcDbViewTableRecord
  2
1
 70
     0
 40
11.0
 10
7.225941000000001
 20
5.5
 41
14.451883
 11
0.0
 21
0.0
 31
1.0
 12
0.0
 22
0.0
 32
0.0
 42
50.0
 43
0.0
 44
0.0
 50
0.0
 71
     0
281
     0
 72
     0
  0
ENDTAB
  0
TABLE
  2
UCS
  5
7
330
0
100
AcDbSymbolTable
 70
     0
  0
ENDTAB
  0
TABLE
  2
APPID
  5
9
330
0
100
AcDbSymbolTable
 70
     1
  0
APPID
  5
1F
330
9
100
AcDbSymbolTableRecord
100
AcDbRegAppTableRecord
  2
ACAD
 70
     0
  0
ENDTAB
  0
TABLE
  2
DIMSTYLE
  5
A
330
0
100
AcDbSymbolTable
 70
     1
100
AcDbDimStyleTable
  0
DIMSTYLE
105
22
330
A
100
AcDbSymbolTableRecord
100
AcDbDimStyleTableRecord
  2
Standard
 70
     0
  3

  4

340
21
  0
ENDTAB
  0
TABLE
  2
BLOCK_RECORD
  5
1
330
0
100
AcDbSymbolTable
 70
     0
  0
BLOCK_RECORD
  5
18
330
1
100
AcDbSymbolTableRecord
100
AcDbBlockTableRecord
  2
*Model_Space
340
19
  0
BLOCK_RECORD
  5
16
330
1
100
AcDbSymbolTableRecord
100
AcDbBlockTableRecord
  2
*Paper_Space
340
17
  0
ENDTAB
  0
ENDSEC
  0
SECTION
  2
BLOCKS
  0
BLOCK
  5
13B
330
18
100
AcDbEntity
  8
0
100
AcDbBlockBegin
  2
*Model_Space
 70
     0
 10
0.0
 20
0.0
 30
0.0
  3
*Model_Space
  1

  4

  0
ENDBLK
  5
13C
330
18
100
AcDbEntity
  8
0
100
AcDbBlockEnd
  0
BLOCK
  5
139
330
16
100
AcDbEntity
 67
     1
  8
0
100
AcDbBlockBegin
  2
*Paper_Space
 70
     0
 10
0.0
 20
0.0
 30
0.0
  3
*Paper_Space
  1

  4

  0
ENDBLK
  5
13A
330
16
100
AcDbEntity
 67
     1
  8
0
100
AcDbBlockEnd
  0
ENDSEC
  0
SECTION
  2
ENTITIES
  0
LINE
  5
23
330
18
100
AcDbEntity
  8
0
100
AcDbLine
 10
1.176828
 20
5.266655
 30
0.0
 11
1.87086
 21
4.880769
 31
0.0
  0
LINE
  5
24
330
18
100
AcDbEntity
  8
0
100
AcDbLine
 10
1.194553
 20
5.831732
 30
0.0
 11
1.880496
 21
5.473254
 31
0.0
  0
LINE
  5
25
330
18
100
AcDbEntity
  8
0
100
AcDbLine
 10
1.176828
 20
6.408447
 30
0.0
 11
2.0997
 21
5.949128
 31
0.0
  0
LINE
  5
26
330
18
100
AcDbEntity
  8
0
100
AcDbLine
 10
1.176828
 20
5.266655
 30
0.0
 11
1.176828
 21
5.820996
 31
0.0
  0
LINE
  5
27
330
18
100
AcDbEntity
  8
0
100
AcDbLine
 10
5.968659
 20
2.60237
 30
0.0
 11
5.968659
 21
3.336752
 31
0.0
  0
LINE
  5
28
330
18
100
AcDbEntity
  8
0
100
AcDbLine
 10
5.968659
 20
3.336752
 30
0.0
 11
5.968659
 21
4.02352
 31
0.0
  0
LINE
  5
29
330
18
100
AcDbEntity
  8
0
100
AcDbLine
 10
5.968659
 20
4.02352
 30
0.0
 11
7.362116
 21
4.587817
 31
0.0
  0
LINE
  5
2A
330
18
100
AcDbEntity
  8
0
100
AcDbLine
 10
5.968659
 20
3.336752
 30
0.0
 11
7.343849000000001
 21
3.949894
 31
0.0
  0
LINE
  5
2B
330
18
100
AcDbEntity
  8
0
100
AcDbLine
 10
5.968659
 20
2.60237
 30
0.0
 11
7.362116
 21
3.30555
 31
0.0
  0
LINE
  5
2C
330
18
100
AcDbEntity
  8
0
100
AcDbLine
 10
7.362116
 20
3.30555
 30
0.0
 11
7.362116
 21
3.938038
 31
0.0
  0
LINE
  5
2D
330
18
100
AcDbEntity
  8
0
100
AcDbLine
 10
7.362116
 20
3.978038
 30
0.0
 11
7.362116
 21
4.587817
 31
0.0
  0
LINE
  5
2E
330
18
100
AcDbEntity
  8
0
100
AcDbLine
 10
7.362116
 20
4.587817
 30
0.0
 11
5.789657
 21
5.313193
 31
0.0
  0
LINE
  5
2F
330
18
100
AcDbEntity
  8
0
100
AcDbLine
 10
2.4747
 20
6.842384
 30
0.0
 11
2.242156
 21
6.764634
 31
0.0
  0
LINE
  5
30
330
18
100
AcDbEntity
  8
0
100
AcDbLine
 10
1.839404
 20
2.94647
 30
0.0
 11
2.394096
 21
2.621012
 31
0.0
  0
LINE
  5
31
330
18
100
AcDbEntity
  8
0
100
AcDbLine
 10
1.885581
 20
5.785938
 30
0.0
 11
2.440274
 21
5.46048
 31
0.0
  0
LINE
  5
32
330
18
100
AcDbEntity
  8
0
100
AcDbLine
 10
1.839404
 20
2.94647
 30
0.0
 11
1.885581
 21
5.785938
 31
0.0
  0
LINE
  5
33
330
18
100
AcDbEntity
  8
0
100
AcDbLine
 10
2.394096
 20
2.621012
 30
0.0
 11
2.440274
 21
5.46048
 31
0.0
  0
LINE
  5
34
330
18
100
AcDbEntity
  8
0
100
AcDbLine
 10
1.885581
 20
5.785938
 30
0.0
 11
5.168319
 21
8.287857000000001
 31
0.0
  0
LINE
  5
35
330
18
100
AcDbEntity
  8
0
100
AcDbLine
 10
2.440274
 20
5.46048
 30
0.0
 11
5.685224
 21
8.099844000000001
 31
0.0
  0
LINE
  5
36
330
18
100
AcDbEntity
  8
0
100
AcDbLine
 10
5.168319
 20
8.287857000000001
 30
0.0
 11
5.685224
 21
8.099844000000001
 31
0.0
  0
LINE
  5
37
330
18
100
AcDbEntity
  8
0
100
AcDbLine
 10
2.394096
 20
2.621012
 30
0.0
 11
4.259876
 21
4.100301
 31
0.0
  0
LINE
  5
38
330
18
100
AcDbEntity
  8
0
100
AcDbLine
 10
6.726137
 20
6.055685
 30
0.0
 11
6.334867
 21
6.824066
 31
0.0
  0
LINE
  5
39
330
18
100
AcDbEntity
  8
0
100
AcDbLine
 10
3.853727
 20
3.778285
 30
0.0
 11
5.968659
 21
2.60237
 31
0.0
  0
LINE
  5
3A
330
18
100
AcDbEntity
  8
0
100
AcDbLine
 10
5.011913
 20
3.836754
 30
0.0
 11
5.968659
 21
3.336752
 31
0.0
  0
LINE
  5
3B
330
18
100
AcDbEntity
  8
0
100
AcDbLine
 10
5.011913
 20
4.499699
 30
0.0
 11
5.968659
 21
4.02352
 31
0.0
  0
LINE
  5
3C
330
18
100
AcDbEntity
  8
0
100
AcDbLine
 10
2.97121
 20
6.613344000000001
 30
0.0
 11
2.4747
 21
6.842384
 31
0.0
  0
LINE
  5
3D
330
18
100
AcDbEntity
  8
0
100
AcDbLine
 10
4.283404
 20
4.118956
 30
0.0
 11
4.93381
 21
3.779049
 31
0.0
  0
LINE
  5
3E
330
18
100
AcDbEntity
  8
0
100
AcDbLine
 10
4.93381
 20
3.779049
 30
0.0
 11
4.93381
 21
4.540609
 31
0.0
  0
LINE
  5
3F
330
18
100
AcDbEntity
  8
0
100
AcDbLine
 10
4.93381
 20
4.540609
 30
0.0
 11
4.380698000000001
 21
5.483798999999999
 31
0.0
  0
LINE
  5
40
330
18
100
AcDbEntity
  8
0
100
AcDbLine
 10
5.011913
 20
3.836754
 30
0.0
 11
5.011913
 21
4.598314
 31
0.0
  0
LINE
  5
41
330
18
100
AcDbEntity
  8
0
100
AcDbLine
 10
4.93381
 20
3.779049
 30
0.0
 11
5.011913
 21
3.836754
 31
0.0
  0
LINE
  5
42
330
18
100
AcDbEntity
  8
0
100
AcDbLine
 10
5.011913
 20
4.598314
 30
0.0
 11
4.454733999999999
 21
5.548179
 31
0.0
  0
LINE
  5
43
330
18
100
AcDbEntity
  8
0
100
AcDbLine
 10
5.047839
 20
5.768671
 30
0.0
 11
5.047839
 21
6.405409
 31
0.0
  0
LINE
  5
44
330
18
100
AcDbEntity
  8
0
100
AcDbLine
 10
5.047839
 20
6.405409
 30
0.0
 11
4.969736
 21
6.463114
 31
0.0
  0
LINE
  5
45
330
18
100
AcDbEntity
  8
0
100
AcDbLine
 10
5.047839
 20
6.405409
 30
0.0
 11
4.448982
 21
6.168849
 31
0.0
  0
LINE
  5
46
330
18
100
AcDbEntity
  8
0
100
AcDbLine
 10
4.969736
 20
6.463114
 30
0.0
 11
4.370879
 21
6.226554
 31
0.0
  0
LINE
  5
47
330
18
100
AcDbEntity
  8
0
100
AcDbLine
 10
4.448982
 20
6.168849
 30
0.0
 11
4.370879
 21
6.226554
 31
0.0
  0
LINE
  5
48
330
18
100
AcDbEntity
  8
0
100
AcDbLine
 10
4.448982
 20
6.168849
 30
0.0
 11
4.448982
 21
5.568671
 31
0.0
  0
LINE
  5
49
330
18
100
AcDbEntity
  8
0
100
AcDbLine
 10
4.370879
 20
6.226554
 30
0.0
 11
4.370879
 21
5.611641000000001
 31
0.0
  0
LINE
  5
4A
330
18
100
AcDbEntity
  8
0
100
AcDbLine
 10
5.047839
 20
5.768671
 30
0.0
 11
4.673229
 21
5.189622
 31
0.0
  0
LINE
  5
4B
330
18
100
AcDbEntity
  8
0
100
AcDbLine
 10
4.283404
 20
4.118956
 30
0.0
 11
4.368166
 21
5.535598
 31
0.0
  0
ARC
  5
4C
330
18
100
AcDbEntity
  8
0
100
AcDbCircle
 10
4.58829
 20
5.561439
 30
0.0
 40
0.221636
100
AcDbArc
 50
170.379597
 51
200.505836
  0
ARC
  5
4D
330
18
100
AcDbEntity
  8
0
100
AcDbCircle
 10
4.292119000000001
 20
5.611641000000001
 30
0.0
 40
0.07876
100
AcDbArc
 50
350.3795970000001
 51
0.0
  0
ARC
  5
4E
330
18
100
AcDbEntity
  8
0
100
AcDbCircle
 10
4.488362
 20
5.568671
 30
0.0
 40
0.03938
100
AcDbArc
 50
180.0
 51
211.357144
  0
LINE
  5
4F
330
18
100
AcDbEntity
  8
0
100
AcDbLine
 10
5.789657
 20
5.313193
 30
0.0
 11
4.814724
 21
4.934476999999999
 31
0.0
  0
LINE
  5
50
330
18
100
AcDbEntity
  8
0
100
AcDbLine
 10
5.789657
 20
5.313193
 30
0.0
 11
6.726137
 21
6.055685
 31
0.0
  0
CIRCLE
  5
51
330
18
100
AcDbEntity
  8
0
100
AcDbCircle
 10
4.578091000000001
 20
6.088367
 30
0.0
 40
0.062327
  0
ARC
  5
52
330
18
100
AcDbEntity
  8
0
100
AcDbCircle
 10
4.593572
 20
6.076546
 30
0.0
 40
0.061035
100
AcDbArc
 50
57.94494200000001
 51
227.324692
  0
ARC
  5
53
330
18
100
AcDbEntity
  8
0
100
AcDbCircle
 10
4.934968000000001
 20
6.211403
 30
0.0
 40
0.061035
100
AcDbArc
 50
57.94494200000001
 51
227.324692
  0
CIRCLE
  5
54
330
18
100
AcDbEntity
  8
0
100
AcDbCircle
 10
4.919486
 20
6.223225
 30
0.0
 40
0.062327
  0
ARC
  5
55
330
18
100
AcDbEntity
  8
0
100
AcDbCircle
 10
4.593572
 20
5.68946
 30
0.0
 40
0.061035
100
AcDbArc
 50
57.94494200000001
 51
227.324692
  0
CIRCLE
  5
56
330
18
100
AcDbEntity
  8
0
100
AcDbCircle
 10
4.578091000000001
 20
5.701282
 30
0.0
 40
0.062327
  0
ARC
  5
57
330
18
100
AcDbEntity
  8
0
100
AcDbCircle
 10
4.934968000000001
 20
5.824318
 30
0.0
 40
0.061035
100
AcDbArc
 50
57.94494200000001
 51
227.324692
  0
CIRCLE
  5
58
330
18
100
AcDbEntity
  8
0
100
AcDbCircle
 10
4.919486
 20
5.836139
 30
0.0
 40
0.062327
  0
CIRCLE
  5
59
330
18
100
AcDbEntity
  8
0
100
AcDbCircle
 10
4.815462999999999
 20
4.022431
 30
0.0
 40
0.062327
  0
ARC
  5
5A
330
18
100
AcDbEntity
  8
0
100
AcDbCircle
 10
4.799982
 20
4.01061
 30
0.0
 40
0.061035
100
AcDbArc
 50
312.675308
 51
122.055058
  0
ARC
  5
5B
330
18
100
AcDbEntity
  8
0
100
AcDbCircle
 10
4.799982
 20
4.397696
 30
0.0
 40
0.061035
100
AcDbArc
 50
312.675308
 51
122.055058
  0
CIRCLE
  5
5C
330
18
100
AcDbEntity
  8
0
100
AcDbCircle
 10
4.815462999999999
 20
4.409517
 30
0.0
 40
0.062327
  0
CIRCLE
  5
5D
330
18
100
AcDbEntity
  8
0
100
AcDbCircle
 10
4.474068
 20
4.20409
 30
0.0
 40
0.062327
  0
ARC
  5
5E
330
18
100
AcDbEntity
  8
0
100
AcDbCircle
 10
4.458586
 20
4.192268
 30
0.0
 40
0.061035
100
AcDbArc
 50
312.675308
 51
122.055058
  0
ARC
  5
5F
330
18
100
AcDbEntity
  8
0
100
AcDbCircle
 10
4.458586
 20
4.579354
 30
0.0
 40
0.061035
100
AcDbArc
 50
312.675308
 51
122.055058
  0
CIRCLE
  5
60
330
18
100
AcDbEntity
  8
0
100
AcDbCircle
 10
4.474068
 20
4.591175
 30
0.0
 40
0.062327
  0
LWPOLYLINE
  5
61
330
18
100
AcDbEntity
  8
0
100
AcDbPolyline
 90
        2
 70
     0
 43
0.0
 10
5.968659
 20
3.851888
 10
6.386275
 20
4.192639
  0
LWPOLYLINE
  5
66
330
18
100
AcDbEntity
  8
0
100
AcDbPolyline
 90
        2
 70
     0
 43
0.0
 10
6.908603
 20
4.404162
 10
5.968659
 20
3.650144
  0
LWPOLYLINE
  5
6B
330
18
100
AcDbEntity
  8
0
100
AcDbPolyline
 90
        2
 70
     0
 43
0.0
 10
5.968659
 20
3.464804
 10
7.362116
 20
4.508417
  0
LWPOLYLINE
  5
70
330
18
100
AcDbEntity
  8
0
100
AcDbPolyline
 90
        2
 70
     0
 43
0.0
 10
7.362116
 20
4.359639
 10
6.161304
 20
3.422645
  0
LWPOLYLINE
  5
75
330
18
100
AcDbEntity
  8
0
100
AcDbPolyline
 90
        2
 70
     0
 43
0.0
 10
6.48271
 20
3.565947
 10
7.362116
 20
4.246156
  0
LWPOLYLINE
  5
7A
330
18
100
AcDbEntity
  8
0
100
AcDbPolyline
 90
        2
 70
     0
 43
0.0
 10
7.362116
 20
4.123854
 10
6.81177
 20
3.712661
  0
LWPOLYLINE
  5
7F
330
18
100
AcDbEntity
  8
0
100
AcDbPolyline
 90
        2
 70
     0
 43
0.0
 10
7.205806
 20
3.888346
 10
7.362116
 20
4.021721
  0
LWPOLYLINE
  5
84
330
18
100
AcDbEntity
  8
0
100
AcDbPolyline
 90
        2
 70
     0
 43
0.0
 10
5.968659
 20
2.751148
 10
6.547031
 20
2.894234
  0
LWPOLYLINE
  5
89
330
18
100
AcDbEntity
  8
0
100
AcDbPolyline
 90
        2
 70
     0
 43
0.0
 10
5.968659
 20
2.945318
 10
7.068567
 20
3.157417
  0
LWPOLYLINE
  5
8E
330
18
100
AcDbEntity
  8
0
100
AcDbPolyline
 90
        2
 70
     0
 43
0.0
 10
7.362116
 20
3.333286
 10
5.968659
 20
3.048711
  0
LWPOLYLINE
  5
93
330
18
100
AcDbEntity
  8
0
100
AcDbPolyline
 90
        2
 70
     0
 43
0.0
 10
5.968659
 20
3.197493
 10
7.362116
 20
3.470724
  0
LWPOLYLINE
  5
98
330
18
100
AcDbEntity
  8
0
100
AcDbPolyline
 90
        2
 70
     0
 43
0.0
 10
7.362116
 20
3.596812
 10
6.11194
 20
3.400635
  0
LWPOLYLINE
  5
9D
330
18
100
AcDbEntity
  8
0
100
AcDbPolyline
 90
        2
 70
     0
 43
0.0
 10
6.67625
 20
3.652238
 10
7.362116
 20
3.722902
  0
LWPOLYLINE
  5
A2
330
18
100
AcDbEntity
  8
0
100
AcDbPolyline
 90
        2
 70
     0
 43
0.0
 10
7.362116
 20
3.806118
 10
6.931741000000001
 20
3.766152
  0
LWPOLYLINE
  5
A7
330
18
100
AcDbEntity
  8
0
100
AcDbPolyline
 90
        2
 70
     0
 43
0.0
 10
7.141493
 20
3.859671
 10
7.362116
 20
3.8742
  0
LWPOLYLINE
  5
AC
330
18
100
AcDbEntity
  8
0
100
AcDbPolyline
 90
        3
 70
     0
 43
0.0
 10
1.875929
 20
5.192444
 10
1.963676
 20
5.500959
 10
1.967786
 20
5.737705
  0
LWPOLYLINE
  5
B2
330
18
100
AcDbEntity
  8
0
100
AcDbPolyline
 90
        3
 70
     0
 43
0.0
 10
2.080403
 20
5.671629
 10
2.01528
 20
5.169336
 10
1.868479
 20
4.734303
  0
LWPOLYLINE
  5
B8
330
18
100
AcDbEntity
  8
0
100
AcDbPolyline
 90
        3
 70
     0
 43
0.0
 10
1.861592
 20
4.310861
 10
2.075752
 20
4.989015
 10
2.179199
 20
5.613661000000001
  0
LWPOLYLINE
  5
BE
330
18
100
AcDbEntity
  8
0
100
AcDbPolyline
 90
        3
 70
     0
 43
0.0
 10
2.280913
 20
5.553982
 10
2.118529
 20
4.656133000000001
 10
1.85546
 20
3.933818
  0
LWPOLYLINE
  5
C4
330
18
100
AcDbEntity
  8
0
100
AcDbPolyline
 90
        3
 70
     0
 43
0.0
 10
1.8499
 20
3.591908
 10
2.21561
 20
4.633411
 10
2.392234
 20
5.488666
  0
LWPOLYLINE
  5
CA
330
18
100
AcDbEntity
  8
0
100
AcDbPolyline
 90
        3
 70
     0
 43
0.0
 10
2.433736
 20
5.058487
 10
2.21928
 20
4.226149
 10
1.844101
 20
3.235296
  0
LWPOLYLINE
  5
D0
330
18
100
AcDbEntity
  8
0
100
AcDbPolyline
 90
        3
 70
     0
 43
0.0
 10
1.840245
 20
2.998193
 10
2.233049
 20
3.861753
 10
2.425637
 20
4.560472
  0
LWPOLYLINE
  5
D6
330
18
100
AcDbEntity
  8
0
100
AcDbPolyline
 90
        3
 70
     0
 43
0.0
 10
2.417924
 20
4.086206
 10
2.198904
 20
3.49611
 10
1.961107
 20
2.875062
  0
LWPOLYLINE
  5
DC
330
18
100
AcDbEntity
  8
0
100
AcDbPolyline
 90
        2
 70
     0
 43
0.0
 10
2.118012
 20
2.783
 10
2.410137
 20
3.607381
  0
LWPOLYLINE
  5
E1
330
18
100
AcDbEntity
  8
0
100
AcDbPolyline
 90
        2
 70
     0
 43
0.0
 10
2.402277
 20
3.124029
 10
2.214255
 20
2.726532
  0
LWPOLYLINE
  5
E6
330
18
100
AcDbEntity
  8
0
100
AcDbPolyline
 90
        2
 70
     0
 43
0.0
 10
2.350231
 20
2.64675
 10
2.396888
 20
2.792667
  0
LINE
  5
EB
330
18
100
AcDbEntity
  8
0
100
AcDbLine
 10
1.681339
 20
6.577128
 30
0.0
 11
2.03835
 21
6.523505
 31
0.0
  0
LINE
  5
EC
330
18
100
AcDbEntity
  8
0
100
AcDbLine
 10
2.03835
 20
6.523505
 30
0.0
 11
1.908544
 21
6.750497
 31
0.0
  0
LINE
  5
ED
330
18
100
AcDbEntity
  8
0
100
AcDbLine
 10
1.908544
 20
6.750497
 30
0.0
 11
2.242156
 21
6.764634
 31
0.0
  0
LINE
  5
EE
330
18
100
AcDbEntity
  8
0
100
AcDbLine
 10
1.681339
 20
6.577128
 30
0.0
 11
1.176828
 21
6.408447
 31
0.0
  0
LINE
  5
EF
330
18
100
AcDbEntity
  8
0
100
AcDbLine
 10
1.908544
 20
6.750497
 30
0.0
 11
1.908544
 21
6.543002
 31
0.0
  0
LWPOLYLINE
  5
F0
330
18
100
AcDbEntity
  8
0
100
AcDbPolyline
 90
        2
 70
     0
 43
0.0
 10
1.908544
 20
6.567672
 10
1.968942
 20
6.644878
  0
LINE
  5
F5
330
18
100
AcDbEntity
  8
0
100
AcDbLine
 10
6.091459
 20
7.302074
 30
0.0
 11
6.046791000000001
 21
7.006569
 31
0.0
  0
LINE
  5
F6
330
18
100
AcDbEntity
  8
0
100
AcDbLine
 10
6.046791000000001
 20
7.006569
 30
0.0
 11
6.394814
 21
7.087169
 31
0.0
  0
LINE
  5
F7
330
18
100
AcDbEntity
  8
0
100
AcDbLine
 10
6.394814
 20
7.087169
 30
0.0
 11
6.334867
 21
6.824066
 31
0.0
  0
LINE
  5
F8
330
18
100
AcDbEntity
  8
0
100
AcDbLine
 10
6.091459
 20
7.302074
 30
0.0
 11
5.685224
 21
8.099844000000001
 31
0.0
  0
LINE
  5
F9
330
18
100
AcDbEntity
  8
0
100
AcDbLine
 10
6.394814
 20
7.087169
 30
0.0
 11
6.082667
 21
7.243907000000001
 31
0.0
  0
LWPOLYLINE
  5
FA
330
18
100
AcDbEntity
  8
0
100
AcDbPolyline
 90
        2
 70
     0
 43
0.0
 10
6.142866000000001
 20
7.213678999999999
 10
6.062465
 20
7.110258999999999
  0
LWPOLYLINE
  5
FF
330
18
100
AcDbEntity
  8
0
100
AcDbPolyline
 90
        2
 70
     0
 43
0.0
 10
6.171447
 20
7.035439
 10
6.241628
 20
7.164088000000001
  0
LWPOLYLINE
  5
104
330
18
100
AcDbEntity
  8
0
100
AcDbPolyline
 90
        2
 70
     0
 43
0.0
 10
6.279541
 20
7.060472
 10
6.305639
 20
7.131946000000001
  0
LINE
  5
109
330
18
100
AcDbEntity
  8
0
100
AcDbLine
 10
1.176828
 20
5.860996
 30
0.0
 11
1.176828
 21
6.408447
 31
0.0
  0
LINE
  5
10A
330
18
100
AcDbEntity
  8
0
100
AcDbLine
 10
1.176828
 20
5.820996
 30
0.0
 11
1.194553
 21
5.831732
 31
0.0
  0
LINE
  5
10B
330
18
100
AcDbEntity
  8
0
100
AcDbLine
 10
1.194553
 20
5.831732
 30
0.0
 11
1.176828
 21
5.860996
 31
0.0
  0
LINE
  5
10C
330
18
100
AcDbEntity
  8
0
100
AcDbLine
 10
4.93381
 20
4.540609
 30
0.0
 11
5.011913
 21
4.598314
 31
0.0
  0
LINE
  5
10D
330
18
100
AcDbEntity
  8
0
100
AcDbLine
 10
4.259876
 20
4.100301
 30
0.0
 11
4.297772
 21
4.733665
 31
0.0
  0
LINE
  5
10E
330
18
100
AcDbEntity
  8
0
100
AcDbLine
 10
4.320717
 20
4.742578
 30
0.0
 11
4.297772
 21
4.733665
 31
0.0
  0
LINE
  5
10F
330
18
100
AcDbEntity
  8
0
100
AcDbLine
 10
6.729349000000001
 20
4.565798
 30
0.0
 11
5.731345
 21
5.026177
 31
0.0
  0
LINE
  5
110
330
18
100
AcDbEntity
  8
0
100
AcDbLine
 10
7.343849000000001
 20
3.949894
 30
0.0
 11
7.362116
 21
3.978038
 31
0.0
  0
LINE
  5
111
330
18
100
AcDbEntity
  8
0
100
AcDbLine
 10
7.343849000000001
 20
3.949894
 30
0.0
 11
7.362116
 21
3.938038
 31
0.0
  0
LWPOLYLINE
  5
112
330
18
100
AcDbEntity
  8
0
100
AcDbPolyline
 90
        3
 70
     1
 43
0.0
 10
6.835909
 20
4.527645
 10
6.706321000000001
 20
4.518583000000001
 10
6.763267
 20
4.63534
  0
LWPOLYLINE
  5
118
330
18
100
AcDbEntity
  8
0
100
AcDbPolyline
 90
        3
 70
     1
 43
0.0
 10
5.635467
 20
5.086844999999999
 10
5.708108
 20
4.979149
 10
5.765054
 20
5.095905999999999
  0
LINE
  5
11E
330
18
100
AcDbEntity
  8
0
100
AcDbLine
 10
6.740311
 20
4.588273
 30
0.0
 11
5.741817
 21
5.048878
 31
0.0
  0
SOLID
  5
11F
330
18
100
AcDbEntity
  8
0
100
AcDbTrace
 10
5.708108
 20
4.979149
 30
0.0
 11
5.765054
 21
5.095905999999999
 31
0.0
 12
5.635467
 22
5.086844999999999
 32
0.0
 13
5.635467
 23
5.086844999999999
 33
0.0
  0
SOLID
  5
120
330
18
100
AcDbEntity
  8
0
100
AcDbTrace
 10
5.731345
 20
5.026177
 30
0.0
 11
6.729349000000001
 21
4.565798
 31
0.0
 12
5.741817
 22
5.048878
 32
0.0
 13
6.740311
 23
4.588273
 33
0.0
  0
SOLID
  5
121
330
18
100
AcDbEntity
  8
0
100
AcDbTrace
 10
6.706321000000001
 20
4.518583000000001
 30
0.0
 11
6.835909
 21
4.527645
 31
0.0
 12
6.763267
 22
4.63534
 32
0.0
 13
6.763267
 23
4.63534
 33
0.0
  0
SOLID
  5
122
330
18
100
AcDbEntity
  8
0
100
AcDbTrace
 10
5.728247000000001
 20
5.814982
 30
0.0
 11
6.972177
 21
6.307663
 31
0.0
 12
5.719041000000001
 22
5.838225
 32
0.0
 13
6.963473
 23
6.331105
 33
0.0
  0
LINE
  5
123
330
18
100
AcDbEntity
  8
0
100
AcDbLine
 10
6.963473
 20
6.331105
 30
0.0
 11
5.719041000000001
 21
5.838225
 31
0.0
  0
LINE
  5
124
330
18
100
AcDbEntity
  8
0
100
AcDbLine
 10
6.972177
 20
6.307663
 30
0.0
 11
5.728247000000001
 21
5.814982
 31
0.0
  0
SOLID
  5
125
330
18
100
AcDbEntity
  8
0
100
AcDbTrace
 10
5.746254
 20
5.765714
 30
0.0
 11
5.701035
 21
5.887493
 31
0.0
 12
5.618180000000001
 22
5.787443
 32
0.0
 13
5.618180000000001
 23
5.787443
 33
0.0
  0
LWPOLYLINE
  5
126
330
18
100
AcDbEntity
  8
0
100
AcDbPolyline
 90
        3
 70
     1
 43
0.0
 10
5.618180000000001
 20
5.787443
 10
5.746254
 20
5.765714
 10
5.701035
 20
5.887493
  0
SOLID
  5
12C
330
18
100
AcDbEntity
  8
0
100
AcDbTrace
 10
6.990463
 20
6.258418
 30
0.0
 11
7.073316999999999
 21
6.358468
 31
0.0
 12
6.945244000000001
 22
6.380197
 32
0.0
 13
6.945244000000001
 23
6.380197
 33
0.0
  0
LWPOLYLINE
  5
12D
330
18
100
AcDbEntity
  8
0
100
AcDbPolyline
 90
        3
 70
     1
 43
0.0
 10
7.073316999999999
 20
6.358468
 10
6.990463
 20
6.258418
 10
6.945244000000001
 20
6.380197
  0
TEXT
  5
133
330
18
100
AcDbEntity
  8
0
100
AcDbText
 10
2.672026
 20
2.11774
 30
0.0
 40
0.2
  1
Simpson Strong-Tie
100
AcDbText
  0
TEXT
  5
134
330
18
100
AcDbEntity
  8
0
100
AcDbText
 10
2.672026
 20
1.79393
 30
0.0
 40
0.2
  1
H3
100
AcDbText
  0
TEXT
  5
135
330
18
100
AcDbEntity
  8
0
100
AcDbText
 10
5.774956
 20
4.400928
 30
0.0
 40
0.375
  1
F
100
AcDbText
  0
TEXT
  5
136
330
18
100
AcDbEntity
  8
0
100
AcDbText
 10
6.015352
 20
4.286411
 30
0.0
 40
0.3125
  1
1
100
AcDbText
  0
TEXT
  5
137
330
18
100
AcDbEntity
  8
0
100
AcDbText
 10
5.754894999999999
 20
6.265124
 30
0.0
 40
0.375
  1
F
100
AcDbText
  0
TEXT
  5
138
330
18
100
AcDbEntity
  8
0
100
AcDbText
 10
6.028726
 20
6.150607
 30
0.0
 40
0.3125
  1
2
100
AcDbText
  0
ENDSEC
  0
SECTION
  2
OBJECTS
  0
DICTIONARY
  5
C
330
0
100
AcDbDictionary
281
     1
  3
ACAD_COLOR
350
13E
  3
ACAD_GROUP
350
D
  3
ACAD_LAYOUT
350
15
  3
ACAD_MATERIAL
350
140
  3
ACAD_MLINESTYLE
350
12
  3
ACAD_PLOTSETTINGS
350
14
  3
ACAD_PLOTSTYLENAME
350
E
  3
ACDBHEADERROUNDTRIPXREC
350
13D
  0
DICTIONARY
  5
13E
102
{ACAD_REACTORS
330
C
102
}
330
C
100
AcDbDictionary
281
     1
  0
DICTIONARY
  5
D
102
{ACAD_REACTORS
330
C
102
}
330
C
100
AcDbDictionary
281
     1
  0
DICTIONARY
  5
15
102
{ACAD_REACTORS
330
C
102
}
330
C
100
AcDbDictionary
281
     1
  3
Layout1
350
17
  3
Model
350
19
  0
DICTIONARY
  5
140
102
{ACAD_REACTORS
330
C
102
}
330
C
100
AcDbDictionary
281
     1
  0
DICTIONARY
  5
12
102
{ACAD_REACTORS
330
C
102
}
330
C
100
AcDbDictionary
281
     1
  3
Standard
350
13
  0
DICTIONARY
  5
14
102
{ACAD_REACTORS
330
C
102
}
330
C
100
AcDbDictionary
281
     1
  0
ACDBDICTIONARYWDFLT
  5
E
102
{ACAD_REACTORS
330
C
102
}
330
C
100
AcDbDictionary
281
     1
  3
Normal
350
F
100
AcDbDictionaryWithDefault
340
F
  0
DICTIONARY
  5
13D
102
{ACAD_REACTORS
330
C
102
}
330
C
100
AcDbDictionary
281
     1
  3
COLORDICT
350
13F
  3
MATERIALDICT
350
141
  0
LAYOUT
  5
17
102
{ACAD_REACTORS
330
15
102
}
102
{ACAD_XDICTIONARY
360
142
102
}
330
15
100
AcDbPlotSettings
  1

  2

  4

  6

 40
0.0
 41
0.0
 42
0.0
 43
0.0
 44
0.0
 45
0.0
 46
0.0
 47
0.0
 48
0.0
 49
0.0
140
0.0
141
0.0
142
1.0
143
1.0
 70
   688
 72
     0
 73
     0
 74
     5
  7

 75
    16
147
1.0
148
0.0
149
0.0
100
AcDbLayout
  1
Layout1
 70
     1
 71
     1
 10
0.0
 20
0.0
 11
12.0
 21
9.0
 12
0.0
 22
0.0
 32
0.0
 14
1.000000000000000E+20
 24
1.000000000000000E+20
 34
1.000000000000000E+20
 15
-1.000000000000000E+20
 25
-1.000000000000000E+20
 35
-1.000000000000000E+20
146
0.0
 13
0.0
 23
0.0
 33
0.0
 16
1.0
 26
0.0
 36
0.0
 17
0.0
 27
1.0
 37
0.0
 76
     0
330
16
  0
LAYOUT
  5
19
102
{ACAD_REACTORS
330
15
102
}
102
{ACAD_XDICTIONARY
360
144
102
}
330
15
100
AcDbPlotSettings
  1

  2

  4

  6

 40
0.0
 41
0.0
 42
0.0
 43
0.0
 44
0.0
 45
0.0
 46
0.0
 47
0.0
 48
0.0
 49
0.0
140
0.0
141
0.0
142
1.0
143
1.0
 70
  1712
 72
     0
 73
     0
 74
     0
  7

 75
     0
147
1.0
148
0.0
149
0.0
100
AcDbLayout
  1
Model
 70
     1
 71
     0
 10
0.0
 20
0.0
 11
0.0
 21
0.0
 12
0.0
 22
0.0
 32
0.0
 14
0.0
 24
0.0
 34
0.0
 15
0.0
 25
0.0
 35
0.0
146
0.0
 13
0.0
 23
0.0
 33
0.0
 16
1.0
 26
0.0
 36
0.0
 17
0.0
 27
1.0
 37
0.0
 76
     0
330
18
  0
MLINESTYLE
  5
13
102
{ACAD_REACTORS
330
12
102
}
330
12
100
AcDbMlineStyle
  2
Standard
 70
     0
  3

 62
   256
 51
90.0
 52
90.0
 71
     2
 49
0.5
 62
   256
  6
BYLAYER
 49
-0.5
 62
   256
  6
BYLAYER
  0
ACDBPLACEHOLDER
  5
F
102
{ACAD_REACTORS
330
E
102
}
330
E
  0
XRECORD
  5
13F
102
{ACAD_REACTORS
330
13D
102
}
330
13D
100
AcDbXrecord
340
13E
  0
XRECORD
  5
141
102
{ACAD_REACTORS
330
13D
102
}
330
13D
100
AcDbXrecord
340
140
  0
DICTIONARY
  5
142
330
17
100
AcDbDictionary
280
     1
281
     1
  3
ACAD_XREC_ROUNDTRIP
360
143
  0
DICTIONARY
  5
144
330
19
100
AcDbDictionary
280
     1
281
     1
  3
ACAD_XREC_ROUNDTRIP
360
145
  0
XRECORD
  5
143
102
{ACAD_REACTORS
330
142
102
}
330
142
100
AcDbXrecord
102
SHADEPLOT
 70
     0
102
SHADEPLOTRESLEVEL
 70
     0
102
SHADEPLOTCUSTOMDPI
 70
     0
  0
XRECORD
  5
145
102
{ACAD_REACTORS
330
144
102
}
330
144
100
AcDbXrecord
102
SHADEPLOT
 70
 31552
102
SHADEPLOTRESLEVEL
 70
 30752
102
SHADEPLOTCUSTOMDPI
 70
 31608
  0
ENDSEC
  0
EOF
