  0
SECTION
  2
HEADER
  9
$ACADVER
  1
AC1015
  9
$ACADMAINTVER
 70
     6
  9
$DWGCODEPAGE
  3
ANSI_1252
  9
$INSBASE
 10
0.0
 20
0.0
 30
0.0
  9
$EXTMIN
 10
0.259
 20
-0.053
 30
0.0
  9
$EXTMAX
 10
2.305761904761904
 20
1.671
 30
0.0
  9
$LIMMIN
 10
0.0
 20
0.0
  9
$LIMMAX
 10
17.0
 20
11.0
  9
$ORTHOMODE
 70
     0
  9
$REGENMODE
 70
     0
  9
$FILLMODE
 70
     1
  9
$QTEXTMODE
 70
     0
  9
$MIRRTEXT
 70
     1
  9
$LTSCALE
 40
0.25
  9
$ATTMODE
 70
     1
  9
$TEXTSIZE
 40
0.125
  9
$TRACEWID
 40
0.05
  9
$TEXTSTYLE
  7
STANDARD
  9
$CLAYER
  8
0
  9
$CELTYPE
  6
ByLayer
  9
$CECOLOR
 62
   256
  9
$CELTSCALE
 40
1.0
  9
$DISPSILH
 70
     0
  9
$DIMSCALE
 40
1.0
  9
$DIMASZ
 40
0.125
  9
$DIMEXO
 40
0.063
  9
$DIMDLI
 40
0.38
  9
$DIMRND
 40
0.0
  9
$DIMDLE
 40
0.0
  9
$DIMEXE
 40
0.18
  9
$DIMTP
 40
0.0
  9
$DIMTM
 40
0.0
  9
$DIMTXT
 40
0.125
  9
$DIMCEN
 40
0.09
  9
$DIMTSZ
 40
0.0
  9
$DIMTOL
 70
     0
  9
$DIMLIM
 70
     0
  9
$DIMTIH
 70
     1
  9
$DIMTOH
 70
     1
  9
$DIMSE1
 70
     0
  9
$DIMSE2
 70
     0
  9
$DIMTAD
 70
     0
  9
$DIMZIN
 70
     0
  9
$DIMBLK
  1

  9
$DIMASO
 70
     0
  9
$DIMSHO
 70
     0
  9
$DIMPOST
  1

  9
$DIMAPOST
  1

  9
$DIMALT
 70
     0
  9
$DIMALTD
 70
     2
  9
$DIMALTF
 40
25.4
  9
$DIMLFAC
 40
1.0
  9
$DIMTOFL
 70
     0
  9
$DIMTVP
 40
0.0
  9
$DIMTIX
 70
     0
  9
$DIMSOXD
 70
     0
  9
$DIMSAH
 70
     0
  9
$DIMBLK1
  1

  9
$DIMBLK2
  1

  9
$DIMSTYLE
  2
Standard
  9
$DIMCLRD
 70
     0
  9
$DIMCLRE
 70
     0
  9
$DIMCLRT
 70
     0
  9
$DIMTFAC
 40
1.0
  9
$DIMGAP
 40
0.09
  9
$DIMJUST
 70
     0
  9
$DIMSD1
 70
     0
  9
$DIMSD2
 70
     0
  9
$DIMTOLJ
 70
     1
  9
$DIMTZIN
 70
     0
  9
$DIMALTZ
 70
     0
  9
$DIMALTTZ
 70
     0
  9
$DIMUPT
 70
     0
  9
$DIMDEC
 70
     4
  9
$DIMTDEC
 70
     4
  9
$DIMALTU
 70
     2
  9
$DIMALTTD
 70
     2
  9
$DIMTXSTY
  7
STANDARD
  9
$DIMAUNIT
 70
     0
  9
$DIMADEC
 70
     0
  9
$DIMALTRND
 40
0.0
  9
$DIMAZIN
 70
     0
  9
$DIMDSEP
 70
    46
  9
$DIMATFIT
 70
     3
  9
$DIMFRAC
 70
     0
  9
$DIMLDRBLK
  1

  9
$DIMLUNIT
 70
     2
  9
$DIMLWD
 70
    -2
  9
$DIMLWE
 70
    -2
  9
$DIMTMOVE
 70
     0
  9
$LUNITS
 70
     2
  9
$LUPREC
 70
     4
  9
$SKETCHINC
 40
0.1
  9
$FILLETRAD
 40
0.003
  9
$AUNITS
 70
     0
  9
$AUPREC
 70
     0
  9
$MENU
  1
acad
  9
$ELEVATION
 40
0.0
  9
$PELEVATION
 40
0.0
  9
$THICKNESS
 40
0.0
  9
$LIMCHECK
 70
     0
  9
$CHAMFERA
 40
0.0
  9
$CHAMFERB
 40
0.0
  9
$CHAMFERC
 40
1.0
  9
$CHAMFERD
 40
0.0
  9
$SKPOLY
 70
     0
  9
$TDCREATE
 40
2453955.561804421
  9
$TDUCREATE
 40
2453955.895137755
  9
$TDUPDATE
 40
2453955.603471099
  9
$TDUUPDATE
 40
2453955.895137766
  9
$TDINDWG
 40
0.0000000116
  9
$TDUSRTIMER
 40
0.0000000116
  9
$USRTIMER
 70
     1
  9
$ANGBASE
 50
0.0
  9
$ANGDIR
 70
     0
  9
$PDMODE
 70
     0
  9
$PDSIZE
 40
0.0
  9
$PLINEWID
 40
0.0
  9
$SPLFRAME
 70
     0
  9
$SPLINETYPE
 70
     6
  9
$SPLINESEGS
 70
     8
  9
$HANDSEED
  5
1B5
  9
$SURFTAB1
 70
     6
  9
$SURFTAB2
 70
     6
  9
$SURFTYPE
 70
     6
  9
$SURFU
 70
     6
  9
$SURFV
 70
     6
  9
$UCSBASE
  2

  9
$UCSNAME
  2

  9
$UCSORG
 10
0.0
 20
0.0
 30
0.0
  9
$UCSXDIR
 10
1.0
 20
0.0
 30
0.0
  9
$UCSYDIR
 10
0.0
 20
1.0
 30
0.0
  9
$UCSORTHOREF
  2

  9
$UCSORTHOVIEW
 70
     0
  9
$UCSORGTOP
 10
0.0
 20
0.0
 30
0.0
  9
$UCSORGBOTTOM
 10
0.0
 20
0.0
 30
0.0
  9
$UCSORGLEFT
 10
0.0
 20
0.0
 30
0.0
  9
$UCSORGRIGHT
 10
0.0
 20
0.0
 30
0.0
  9
$UCSORGFRONT
 10
0.0
 20
0.0
 30
0.0
  9
$UCSORGBACK
 10
0.0
 20
0.0
 30
0.0
  9
$PUCSBASE
  2

  9
$PUCSNAME
  2

  9
$PUCSORG
 10
0.0
 20
0.0
 30
0.0
  9
$PUCSXDIR
 10
1.0
 20
0.0
 30
0.0
  9
$PUCSYDIR
 10
0.0
 20
1.0
 30
0.0
  9
$PUCSORTHOREF
  2

  9
$PUCSORTHOVIEW
 70
     0
  9
$PUCSORGTOP
 10
0.0
 20
0.0
 30
0.0
  9
$PUCSORGBOTTOM
 10
0.0
 20
0.0
 30
0.0
  9
$PUCSORGLEFT
 10
0.0
 20
0.0
 30
0.0
  9
$PUCSORGRIGHT
 10
0.0
 20
0.0
 30
0.0
  9
$PUCSORGFRONT
 10
0.0
 20
0.0
 30
0.0
  9
$PUCSORGBACK
 10
0.0
 20
0.0
 30
0.0
  9
$USERI1
 70
     0
  9
$USERI2
 70
     0
  9
$USERI3
 70
     0
  9
$USERI4
 70
     0
  9
$USERI5
 70
     0
  9
$USERR1
 40
0.0
  9
$USERR2
 40
0.0
  9
$USERR3
 40
0.0
  9
$USERR4
 40
0.0
  9
$USERR5
 40
0.0
  9
$WORLDVIEW
 70
     1
  9
$SHADEDGE
 70
     3
  9
$SHADEDIF
 70
    70
  9
$TILEMODE
 70
     1
  9
$MAXACTVP
 70
    16
  9
$PINSBASE
 10
0.0
 20
0.0
 30
0.0
  9
$PLIMCHECK
 70
     0
  9
$PEXTMIN
 10
1.000000000000000E+20
 20
1.000000000000000E+20
 30
1.000000000000000E+20
  9
$PEXTMAX
 10
-1.000000000000000E+20
 20
-1.000000000000000E+20
 30
-1.000000000000000E+20
  9
$PLIMMIN
 10
0.0
 20
0.0
  9
$PLIMMAX
 10
12.0
 20
9.0
  9
$UNITMODE
 70
     0
  9
$VISRETAIN
 70
     0
  9
$PLINEGEN
 70
     0
  9
$PSLTSCALE
 70
     0
  9
$TREEDEPTH
 70
  3020
  9
$CMLSTYLE
  2
Standard
  9
$CMLJUST
 70
     0
  9
$CMLSCALE
 40
1.0
  9
$PROXYGRAPHICS
 70
     1
  9
$MEASUREMENT
 70
     0
  9
$CELWEIGHT
370
    -1
  9
$ENDCAPS
280
     0
  9
$JOINSTYLE
280
     0
  9
$LWDISPLAY
290
     0
  9
$INSUNITS
 70
     1
  9
$HYPERLINKBASE
  1

  9
$STYLESHEET
  1

  9
$XEDIT
290
     1
  9
$CEPSNTYPE
380
     0
  9
$PSTYLEMODE
290
     0
  9
$FINGERPRINTGUID
  2
{FAEB1C30-E019-11D5-929B-00C0DF256EC4}
  9
$VERSIONGUID
  2
{FAEB1C32-E019-11D5-929B-00C0DF256EC4}
  9
$EXTNAMES
290
     1
  9
$PSVPSCALE
 40
0.0
  9
$OLESTARTUP
290
     0
  0
ENDSEC
  0
SECTION
  2
CLASSES
  0
CLASS
  1
ACDBDICTIONARYWDFLT
  2
AcDbDictionaryWithDefault
  3
AutoCAD 2000
 90
        0
280
     0
281
     0
  0
CLASS
  1
ACDBPLACEHOLDER
  2
AcDbPlaceHolder
  3
ObjectDBX Classes
 90
        0
280
     0
281
     0
  0
CLASS
  1
LAYOUT
  2
AcDbLayout
  3
ObjectDBX Classes
 90
        0
280
     0
281
     0
  0
ENDSEC
  0
SECTION
  2
TABLES
  0
TABLE
  2
VPORT
  5
8
330
0
100
AcDbSymbolTable
 70
     2
  0
VPORT
  5
1E
330
8
100
AcDbSymbolTableRecord
100
AcDbViewportTableRecord
  2
*ACTIVE
 70
     0
 10
0.0
 20
0.0
 11
1.0
 21
1.0
 12
8.5
 22
6.07352705061082
 13
0.0
 23
0.0
 14
1.0
 24
1.0
 15
0.0
 25
0.0
 16
0.0
 26
0.0
 36
1.0
 17
0.0
 27
0.0
 37
0.0
 40
12.25305410122164
 41
0.7207678883071553
 42
50.0
 43
0.0
 44
0.0
 50
0.0
 51
0.0
 71
     0
 72
  2000
 73
     1
 74
     0
 75
     0
 76
     0
 77
     0
 78
     1
281
     0
 65
     1
110
0.0
120
0.0
130
0.0
111
1.0
121
0.0
131
0.0
112
0.0
122
1.0
132
0.0
 79
     0
146
0.0
  0
ENDTAB
  0
TABLE
  2
LTYPE
  5
5
330
0
100
AcDbSymbolTable
 70
     1
  0
LTYPE
  5
10
330
5
100
AcDbSymbolTableRecord
100
AcDbLinetypeTableRecord
  2
ByBlock
 70
     0
  3

 72
    65
 73
     0
 40
0.0
  0
LTYPE
  5
11
330
5
100
AcDbSymbolTableRecord
100
AcDbLinetypeTableRecord
  2
ByLayer
 70
     0
  3

 72
    65
 73
     0
 40
0.0
  0
LTYPE
  5
1B
330
5
100
AcDbSymbolTableRecord
100
AcDbLinetypeTableRecord
  2
CONTINUOUS
 70
     0
  3
Solid line
 72
    65
 73
     0
 40
0.0
  0
ENDTAB
  0
TABLE
  2
LAYER
  5
2
330
0
100
AcDbSymbolTable
 70
     1
  0
LAYER
  5
1C
330
2
100
AcDbSymbolTableRecord
100
AcDbLayerTableRecord
  2
0
 70
     0
 62
     7
  6
CONTINUOUS
370
    -3
390
F
  0
ENDTAB
  0
TABLE
  2
STYLE
  5
3
330
0
100
AcDbSymbolTable
 70
     1
  0
STYLE
  5
20
330
3
100
AcDbSymbolTableRecord
100
AcDbTextStyleTableRecord
  2
STANDARD
 70
     0
 40
0.0
 41
1.0
 50
0.0
 71
     0
 42
0.125
  3
ROMANS
  4

  0
ENDTAB
  0
TABLE
  2
VIEW
  5
6
330
0
100
AcDbSymbolTable
 70
     0
  0
ENDTAB
  0
TABLE
  2
UCS
  5
7
330
0
100
AcDbSymbolTable
 70
     0
  0
ENDTAB
  0
TABLE
  2
APPID
  5
9
330
0
100
AcDbSymbolTable
 70
     1
  0
APPID
  5
1F
330
9
100
AcDbSymbolTableRecord
100
AcDbRegAppTableRecord
  2
ACAD
 70
     0
  0
ENDTAB
  0
TABLE
  2
DIMSTYLE
  5
A
330
0
100
AcDbSymbolTable
 70
     1
100
AcDbDimStyleTable
  0
DIMSTYLE
105
21
330
A
100
AcDbSymbolTableRecord
100
AcDbDimStyleTableRecord
  2
Standard
 70
     0
  3

  4

340
20
  0
ENDTAB
  0
TABLE
  2
BLOCK_RECORD
  5
1
330
0
100
AcDbSymbolTable
 70
     0
  0
BLOCK_RECORD
  5
18
330
1
100
AcDbSymbolTableRecord
100
AcDbBlockTableRecord
  2
*Model_Space
340
19
  0
BLOCK_RECORD
  5
16
330
1
100
AcDbSymbolTableRecord
100
AcDbBlockTableRecord
  2
*Paper_Space
340
17
  0
ENDTAB
  0
ENDSEC
  0
SECTION
  2
BLOCKS
  0
BLOCK
  5
1AA
330
18
100
AcDbEntity
  8
0
100
AcDbBlockBegin
  2
*Model_Space
 70
     0
 10
0.0
 20
0.0
 30
0.0
  3
*Model_Space
  1

  4

  0
ENDBLK
  5
1AB
330
18
100
AcDbEntity
  8
0
100
AcDbBlockEnd
  0
BLOCK
  5
1A8
330
16
100
AcDbEntity
 67
     1
  8
0
100
AcDbBlockBegin
  2
*Paper_Space
 70
     0
 10
0.0
 20
0.0
 30
0.0
  3
*Paper_Space
  1

  4

  0
ENDBLK
  5
1A9
330
16
100
AcDbEntity
 67
     1
  8
0
100
AcDbBlockEnd
  0
ENDSEC
  0
SECTION
  2
ENTITIES
  0
TEXT
  5
22
330
18
100
AcDbEntity
  8
0
100
AcDbText
 10
0.401
 20
-0.053
 30
0.0
 40
0.125
  1
H4
100
AcDbText
  0
LINE
  5
23
330
18
100
AcDbEntity
  8
0
100
AcDbLine
 10
1.797
 20
1.542
 30
0.0
 11
1.813
 21
1.545
 31
0.0
  0
LINE
  5
24
330
18
100
AcDbEntity
  8
0
100
AcDbLine
 10
1.786
 20
1.511
 30
0.0
 11
1.82
 21
1.518
 31
0.0
  0
LINE
  5
25
330
18
100
AcDbEntity
  8
0
100
AcDbLine
 10
1.807
 20
1.57
 30
0.0
 11
1.825
 21
1.498
 31
0.0
  0
LINE
  5
26
330
18
100
AcDbEntity
  8
0
100
AcDbLine
 10
1.695
 20
1.548
 30
0.0
 11
1.515
 21
1.592
 31
0.0
  0
LINE
  5
27
330
18
100
AcDbEntity
  8
0
100
AcDbLine
 10
1.778
 20
1.488
 30
0.0
 11
1.864
 21
1.507
 31
0.0
  0
LINE
  5
28
330
18
100
AcDbEntity
  8
0
100
AcDbLine
 10
1.807
 20
1.57
 30
0.0
 11
1.778
 21
1.488
 31
0.0
  0
LINE
  5
29
330
18
100
AcDbEntity
  8
0
100
AcDbLine
 10
1.695
 20
1.548
 30
0.0
 11
1.807
 21
1.57
 31
0.0
  0
LINE
  5
2A
330
18
100
AcDbEntity
  8
0
100
AcDbLine
 10
0.29
 20
0.8190000000000001
 30
0.0
 11
0.259
 21
0.8420000000000001
 31
0.0
  0
LINE
  5
2B
330
18
100
AcDbEntity
  8
0
100
AcDbLine
 10
0.328
 20
0.755
 30
0.0
 11
0.29
 21
0.8190000000000001
 31
0.0
  0
LINE
  5
2C
330
18
100
AcDbEntity
  8
0
100
AcDbLine
 10
0.307
 20
0.877
 30
0.0
 11
0.259
 21
0.91
 31
0.0
  0
LINE
  5
2D
330
18
100
AcDbEntity
  8
0
100
AcDbLine
 10
0.35
 20
0.8190000000000001
 30
0.0
 11
0.307
 21
0.877
 31
0.0
  0
LINE
  5
2E
330
18
100
AcDbEntity
  8
0
100
AcDbLine
 10
0.405
 20
0.7190000000000001
 30
0.0
 11
0.35
 21
0.8190000000000001
 31
0.0
  0
LINE
  5
2F
330
18
100
AcDbEntity
  8
0
100
AcDbLine
 10
0.304
 20
0.9350000000000001
 30
0.0
 11
0.259
 21
0.97
 31
0.0
  0
LINE
  5
30
330
18
100
AcDbEntity
  8
0
100
AcDbLine
 10
0.363
 20
0.872
 30
0.0
 11
0.304
 21
0.9350000000000001
 31
0.0
  0
LINE
  5
31
330
18
100
AcDbEntity
  8
0
100
AcDbLine
 10
0.403
 20
0.8190000000000001
 30
0.0
 11
0.363
 21
0.872
 31
0.0
  0
LINE
  5
32
330
18
100
AcDbEntity
  8
0
100
AcDbLine
 10
0.463
 20
0.6920000000000001
 30
0.0
 11
0.403
 21
0.8190000000000001
 31
0.0
  0
LINE
  5
33
330
18
100
AcDbEntity
  8
0
100
AcDbLine
 10
0.4320000000000001
 20
0.8859999999999999
 30
0.0
 11
0.418
 21
0.9129999999999999
 31
0.0
  0
LINE
  5
34
330
18
100
AcDbEntity
  8
0
100
AcDbLine
 10
0.468
 20
0.8190000000000001
 30
0.0
 11
0.4320000000000001
 21
0.8859999999999999
 31
0.0
  0
LINE
  5
35
330
18
100
AcDbEntity
  8
0
100
AcDbLine
 10
0.515
 20
0.6679999999999999
 30
0.0
 11
0.468
 21
0.8190000000000001
 31
0.0
  0
LINE
  5
36
330
18
100
AcDbEntity
  8
0
100
AcDbLine
 10
0.513
 20
0.853
 30
0.0
 11
0.502
 21
0.878
 31
0.0
  0
LINE
  5
37
330
18
100
AcDbEntity
  8
0
100
AcDbLine
 10
0.539
 20
0.7859999999999999
 30
0.0
 11
0.513
 21
0.853
 31
0.0
  0
LINE
  5
38
330
18
100
AcDbEntity
  8
0
100
AcDbLine
 10
0.578
 20
0.639
 30
0.0
 11
0.539
 21
0.7859999999999999
 31
0.0
  0
LINE
  5
39
330
18
100
AcDbEntity
  8
0
100
AcDbLine
 10
0.602
 20
0.7859999999999999
 30
0.0
 11
0.5760000000000001
 21
0.848
 31
0.0
  0
LINE
  5
3A
330
18
100
AcDbEntity
  8
0
100
AcDbLine
 10
0.632
 20
0.614
 30
0.0
 11
0.602
 21
0.7859999999999999
 31
0.0
  0
LINE
  5
3B
330
18
100
AcDbEntity
  8
0
100
AcDbLine
 10
0.657
 20
0.799
 30
0.0
 11
0.652
 21
0.816
 31
0.0
  0
LINE
  5
3C
330
18
100
AcDbEntity
  8
0
100
AcDbLine
 10
0.6859999999999999
 20
0.589
 30
0.0
 11
0.657
 21
0.799
 31
0.0
  0
LINE
  5
3D
330
18
100
AcDbEntity
  8
0
100
AcDbLine
 10
0.659
 20
0.424
 30
0.0
 11
0.71
 21
0.412
 31
0.0
  0
LINE
  5
3E
330
18
100
AcDbEntity
  8
0
100
AcDbLine
 10
0.589
 20
0.422
 30
0.0
 11
0.659
 21
0.424
 31
0.0
  0
LINE
  5
3F
330
18
100
AcDbEntity
  8
0
100
AcDbLine
 10
0.664
 20
0.459
 30
0.0
 11
0.71
 21
0.449
 31
0.0
  0
LINE
  5
40
330
18
100
AcDbEntity
  8
0
100
AcDbLine
 10
0.5579999999999999
 20
0.48
 30
0.0
 11
0.664
 21
0.459
 31
0.0
  0
LINE
  5
41
330
18
100
AcDbEntity
  8
0
100
AcDbLine
 10
0.466
 20
0.481
 30
0.0
 11
0.5579999999999999
 21
0.48
 31
0.0
  0
LINE
  5
42
330
18
100
AcDbEntity
  8
0
100
AcDbLine
 10
0.637
 20
0.511
 30
0.0
 11
0.71
 21
0.488
 31
0.0
  0
LINE
  5
43
330
18
100
AcDbEntity
  8
0
100
AcDbLine
 10
0.505
 20
0.529
 30
0.0
 11
0.637
 21
0.511
 31
0.0
  0
LINE
  5
44
330
18
100
AcDbEntity
  8
0
100
AcDbLine
 10
0.3720000000000001
 20
0.526
 30
0.0
 11
0.505
 21
0.529
 31
0.0
  0
LINE
  5
45
330
18
100
AcDbEntity
  8
0
100
AcDbLine
 10
0.618
 20
0.5720000000000001
 30
0.0
 11
0.71
 21
0.541
 31
0.0
  0
LINE
  5
46
330
18
100
AcDbEntity
  8
0
100
AcDbLine
 10
0.522
 20
0.581
 30
0.0
 11
0.618
 21
0.5720000000000001
 31
0.0
  0
LINE
  5
47
330
18
100
AcDbEntity
  8
0
100
AcDbLine
 10
0.352
 20
0.58
 30
0.0
 11
0.522
 21
0.581
 31
0.0
  0
LINE
  5
48
330
18
100
AcDbEntity
  8
0
100
AcDbLine
 10
0.272
 20
0.574
 30
0.0
 11
0.352
 21
0.58
 31
0.0
  0
LINE
  5
49
330
18
100
AcDbEntity
  8
0
100
AcDbLine
 10
0.581
 20
0.621
 30
0.0
 11
0.647
 21
0.607
 31
0.0
  0
LINE
  5
4A
330
18
100
AcDbEntity
  8
0
100
AcDbLine
 10
0.351
 20
0.629
 30
0.0
 11
0.581
 21
0.621
 31
0.0
  0
LINE
  5
4B
330
18
100
AcDbEntity
  8
0
100
AcDbLine
 10
0.259
 20
0.613
 30
0.0
 11
0.351
 21
0.629
 31
0.0
  0
LINE
  5
4C
330
18
100
AcDbEntity
  8
0
100
AcDbLine
 10
0.434
 20
0.6679999999999999
 30
0.0
 11
0.54
 21
0.657
 31
0.0
  0
LINE
  5
4D
330
18
100
AcDbEntity
  8
0
100
AcDbLine
 10
0.331
 20
0.6729999999999999
 30
0.0
 11
0.434
 21
0.6679999999999999
 31
0.0
  0
LINE
  5
4E
330
18
100
AcDbEntity
  8
0
100
AcDbLine
 10
0.259
 20
0.6629999999999999
 30
0.0
 11
0.331
 21
0.6729999999999999
 31
0.0
  0
LINE
  5
4F
330
18
100
AcDbEntity
  8
0
100
AcDbLine
 10
0.323
 20
0.723
 30
0.0
 11
0.4270000000000001
 21
0.7090000000000001
 31
0.0
  0
LINE
  5
50
330
18
100
AcDbEntity
  8
0
100
AcDbLine
 10
0.259
 20
0.72
 30
0.0
 11
0.323
 21
0.723
 31
0.0
  0
LINE
  5
51
330
18
100
AcDbEntity
  8
0
100
AcDbLine
 10
0.259
 20
0.762
 30
0.0
 11
0.302
 21
0.767
 31
0.0
  0
LINE
  5
52
330
18
100
AcDbEntity
  8
0
100
AcDbLine
 10
1.773
 20
0.8420000000000001
 30
0.0
 11
1.755
 21
0.8109999999999999
 31
0.0
  0
LINE
  5
53
330
18
100
AcDbEntity
  8
0
100
AcDbLine
 10
1.79
 20
0.89
 30
0.0
 11
1.773
 21
0.8420000000000001
 31
0.0
  0
LINE
  5
54
330
18
100
AcDbEntity
  8
0
100
AcDbLine
 10
1.8
 20
0.9379999999999999
 30
0.0
 11
1.79
 21
0.89
 31
0.0
  0
LINE
  5
55
330
18
100
AcDbEntity
  8
0
100
AcDbLine
 10
1.792
 20
0.987
 30
0.0
 11
1.8
 21
0.9379999999999999
 31
0.0
  0
LINE
  5
56
330
18
100
AcDbEntity
  8
0
100
AcDbLine
 10
1.769
 20
1.034
 30
0.0
 11
1.792
 21
0.987
 31
0.0
  0
LINE
  5
57
330
18
100
AcDbEntity
  8
0
100
AcDbLine
 10
1.826
 20
1.108
 30
0.0
 11
1.769
 21
1.034
 31
0.0
  0
LINE
  5
58
330
18
100
AcDbEntity
  8
0
100
AcDbLine
 10
1.804
 20
1.158
 30
0.0
 11
1.826
 21
1.108
 31
0.0
  0
LINE
  5
59
330
18
100
AcDbEntity
  8
0
100
AcDbLine
 10
1.836
 20
1.214
 30
0.0
 11
1.804
 21
1.158
 31
0.0
  0
LINE
  5
5A
330
18
100
AcDbEntity
  8
0
100
AcDbLine
 10
1.859
 20
1.291
 30
0.0
 11
1.836
 21
1.214
 31
0.0
  0
LINE
  5
5B
330
18
100
AcDbEntity
  8
0
100
AcDbLine
 10
1.868
 20
1.351
 30
0.0
 11
1.859
 21
1.291
 31
0.0
  0
LINE
  5
5C
330
18
100
AcDbEntity
  8
0
100
AcDbLine
 10
1.747
 20
0.86
 30
0.0
 11
1.729
 21
0.8170000000000001
 31
0.0
  0
LINE
  5
5D
330
18
100
AcDbEntity
  8
0
100
AcDbLine
 10
1.762
 20
0.9159999999999999
 30
0.0
 11
1.747
 21
0.86
 31
0.0
  0
LINE
  5
5E
330
18
100
AcDbEntity
  8
0
100
AcDbLine
 10
1.761
 20
0.9690000000000001
 30
0.0
 11
1.762
 21
0.9159999999999999
 31
0.0
  0
LINE
  5
5F
330
18
100
AcDbEntity
  8
0
100
AcDbLine
 10
1.736
 20
1.017
 30
0.0
 11
1.761
 21
0.9690000000000001
 31
0.0
  0
LINE
  5
60
330
18
100
AcDbEntity
  8
0
100
AcDbLine
 10
1.793
 20
1.09
 30
0.0
 11
1.736
 21
1.017
 31
0.0
  0
LINE
  5
61
330
18
100
AcDbEntity
  8
0
100
AcDbLine
 10
1.769
 20
1.137
 30
0.0
 11
1.793
 21
1.09
 31
0.0
  0
LINE
  5
62
330
18
100
AcDbEntity
  8
0
100
AcDbLine
 10
1.819
 20
1.221
 30
0.0
 11
1.769
 21
1.137
 31
0.0
  0
LINE
  5
63
330
18
100
AcDbEntity
  8
0
100
AcDbLine
 10
1.844
 20
1.339
 30
0.0
 11
1.819
 21
1.221
 31
0.0
  0
LINE
  5
64
330
18
100
AcDbEntity
  8
0
100
AcDbLine
 10
1.852
 20
0.9159999999999999
 30
0.0
 11
1.839
 21
0.86
 31
0.0
  0
LINE
  5
65
330
18
100
AcDbEntity
  8
0
100
AcDbLine
 10
1.858
 20
0.991
 30
0.0
 11
1.852
 21
0.9159999999999999
 31
0.0
  0
LINE
  5
66
330
18
100
AcDbEntity
  8
0
100
AcDbLine
 10
1.855
 20
1.026
 30
0.0
 11
1.858
 21
0.991
 31
0.0
  0
LINE
  5
67
330
18
100
AcDbEntity
  8
0
100
AcDbLine
 10
1.84
 20
1.073
 30
0.0
 11
1.855
 21
1.026
 31
0.0
  0
LINE
  5
68
330
18
100
AcDbEntity
  8
0
100
AcDbLine
 10
1.884
 20
1.139
 30
0.0
 11
1.84
 21
1.073
 31
0.0
  0
LINE
  5
69
330
18
100
AcDbEntity
  8
0
100
AcDbLine
 10
1.868
 20
1.197
 30
0.0
 11
1.884
 21
1.139
 31
0.0
  0
LINE
  5
6A
330
18
100
AcDbEntity
  8
0
100
AcDbLine
 10
1.897
 20
1.256
 30
0.0
 11
1.868
 21
1.197
 31
0.0
  0
LINE
  5
6B
330
18
100
AcDbEntity
  8
0
100
AcDbLine
 10
1.906
 20
1.29
 30
0.0
 11
1.897
 21
1.256
 31
0.0
  0
LINE
  5
6C
330
18
100
AcDbEntity
  8
0
100
AcDbLine
 10
1.88
 20
0.915
 30
0.0
 11
1.86
 21
0.873
 31
0.0
  0
LINE
  5
6D
330
18
100
AcDbEntity
  8
0
100
AcDbLine
 10
1.884
 20
0.996
 30
0.0
 11
1.88
 21
0.915
 31
0.0
  0
LINE
  5
6E
330
18
100
AcDbEntity
  8
0
100
AcDbLine
 10
1.881
 20
1.041
 30
0.0
 11
1.884
 21
0.996
 31
0.0
  0
LINE
  5
6F
330
18
100
AcDbEntity
  8
0
100
AcDbLine
 10
1.872
 20
1.09
 30
0.0
 11
1.881
 21
1.041
 31
0.0
  0
LINE
  5
70
330
18
100
AcDbEntity
  8
0
100
AcDbLine
 10
1.91
 20
1.153
 30
0.0
 11
1.872
 21
1.09
 31
0.0
  0
LINE
  5
71
330
18
100
AcDbEntity
  8
0
100
AcDbLine
 10
1.895
 20
1.214
 30
0.0
 11
1.91
 21
1.153
 31
0.0
  0
LINE
  5
72
330
18
100
AcDbEntity
  8
0
100
AcDbLine
 10
1.906
 20
1.243
 30
0.0
 11
1.895
 21
1.214
 31
0.0
  0
LINE
  5
73
330
18
100
AcDbEntity
  8
0
100
AcDbLine
 10
1.812
 20
0.856
 30
0.0
 11
1.803
 21
0.8390000000000001
 31
0.0
  0
LINE
  5
74
330
18
100
AcDbEntity
  8
0
100
AcDbLine
 10
1.821
 20
0.892
 30
0.0
 11
1.812
 21
0.856
 31
0.0
  0
LINE
  5
75
330
18
100
AcDbEntity
  8
0
100
AcDbLine
 10
1.828
 20
0.9620000000000001
 30
0.0
 11
1.821
 21
0.892
 31
0.0
  0
LINE
  5
76
330
18
100
AcDbEntity
  8
0
100
AcDbLine
 10
1.823
 20
1.003
 30
0.0
 11
1.828
 21
0.9620000000000001
 31
0.0
  0
LINE
  5
77
330
18
100
AcDbEntity
  8
0
100
AcDbLine
 10
1.807
 20
1.05
 30
0.0
 11
1.823
 21
1.003
 31
0.0
  0
LINE
  5
78
330
18
100
AcDbEntity
  8
0
100
AcDbLine
 10
1.855
 20
1.128
 30
0.0
 11
1.807
 21
1.05
 31
0.0
  0
LINE
  5
79
330
18
100
AcDbEntity
  8
0
100
AcDbLine
 10
1.837
 20
1.179
 30
0.0
 11
1.855
 21
1.128
 31
0.0
  0
LINE
  5
7A
330
18
100
AcDbEntity
  8
0
100
AcDbLine
 10
1.877
 20
1.272
 30
0.0
 11
1.837
 21
1.179
 31
0.0
  0
LINE
  5
7B
330
18
100
AcDbEntity
  8
0
100
AcDbLine
 10
1.893
 20
1.363
 30
0.0
 11
1.877
 21
1.272
 31
0.0
  0
LINE
  5
7C
330
18
100
AcDbEntity
  8
0
100
AcDbLine
 10
1.765
 20
1.178
 30
0.0
 11
1.731
 21
1.108
 31
0.0
  0
LINE
  5
7D
330
18
100
AcDbEntity
  8
0
100
AcDbLine
 10
1.797
 20
1.243
 30
0.0
 11
1.765
 21
1.178
 31
0.0
  0
LINE
  5
7E
330
18
100
AcDbEntity
  8
0
100
AcDbLine
 10
1.815
 20
1.325
 30
0.0
 11
1.797
 21
1.243
 31
0.0
  0
LINE
  5
7F
330
18
100
AcDbEntity
  8
0
100
AcDbLine
 10
1.75
 20
1.211
 30
0.0
 11
1.729
 21
1.171
 31
0.0
  0
LINE
  5
80
330
18
100
AcDbEntity
  8
0
100
AcDbLine
 10
1.769
 20
1.254
 30
0.0
 11
1.75
 21
1.211
 31
0.0
  0
LINE
  5
81
330
18
100
AcDbEntity
  8
0
100
AcDbLine
 10
1.787
 20
1.311
 30
0.0
 11
1.769
 21
1.254
 31
0.0
  0
LINE
  5
82
330
18
100
AcDbEntity
  8
0
100
AcDbLine
 10
1.744
 20
1.265
 30
0.0
 11
1.729
 21
1.232
 31
0.0
  0
LINE
  5
83
330
18
100
AcDbEntity
  8
0
100
AcDbLine
 10
1.754
 20
1.296
 30
0.0
 11
1.744
 21
1.265
 31
0.0
  0
LINE
  5
84
330
18
100
AcDbEntity
  8
0
100
AcDbLine
 10
1.896
 20
0.925
 30
0.0
 11
1.892
 21
0.892
 31
0.0
  0
LINE
  5
85
330
18
100
AcDbEntity
  8
0
100
AcDbLine
 10
1.9
 20
0.991
 30
0.0
 11
1.896
 21
0.925
 31
0.0
  0
LINE
  5
86
330
18
100
AcDbEntity
  8
0
100
AcDbLine
 10
1.896
 20
1.05
 30
0.0
 11
1.9
 21
0.991
 31
0.0
  0
LINE
  5
87
330
18
100
AcDbEntity
  8
0
100
AcDbLine
 10
1.898
 20
1.068
 30
0.0
 11
1.896
 21
1.05
 31
0.0
  0
ARC
  5
88
330
18
100
AcDbEntity
  8
0
100
AcDbCircle
 10
1.143
 20
1.054
 30
0.0
 40
0.011
100
AcDbArc
 50
64.895
 51
90.0
  0
ARC
  5
89
330
18
100
AcDbEntity
  8
0
100
AcDbCircle
 10
1.143
 20
1.053
 30
0.0
 40
0.012
100
AcDbArc
 50
41.479
 51
64.895
  0
ARC
  5
8A
330
18
100
AcDbEntity
  8
0
100
AcDbCircle
 10
1.142
 20
1.052
 30
0.0
 40
0.013
100
AcDbArc
 50
20.112
 51
41.479
  0
ARC
  5
8B
330
18
100
AcDbEntity
  8
0
100
AcDbCircle
 10
1.14
 20
1.051
 30
0.0
 40
0.015
100
AcDbArc
 50
0.0
 51
20.112
  0
ARC
  5
8C
330
18
100
AcDbEntity
  8
0
100
AcDbCircle
 10
1.14
 20
1.051
 30
0.0
 40
0.015
100
AcDbArc
 50
339.888
 51
0.0
  0
ARC
  5
8D
330
18
100
AcDbEntity
  8
0
100
AcDbCircle
 10
1.142
 20
1.051
 30
0.0
 40
0.013
100
AcDbArc
 50
318.521
 51
339.888
  0
ARC
  5
8E
330
18
100
AcDbEntity
  8
0
100
AcDbCircle
 10
1.143
 20
1.05
 30
0.0
 40
0.012
100
AcDbArc
 50
295.105
 51
318.521
  0
ARC
  5
8F
330
18
100
AcDbEntity
  8
0
100
AcDbCircle
 10
1.143
 20
1.048
 30
0.0
 40
0.011
100
AcDbArc
 50
270.0
 51
295.105
  0
ARC
  5
90
330
18
100
AcDbEntity
  8
0
100
AcDbCircle
 10
1.143
 20
1.048
 30
0.0
 40
0.011
100
AcDbArc
 50
244.895
 51
270.0
  0
ARC
  5
91
330
18
100
AcDbEntity
  8
0
100
AcDbCircle
 10
1.144
 20
1.05
 30
0.0
 40
0.012
100
AcDbArc
 50
221.479
 51
244.895
  0
ARC
  5
92
330
18
100
AcDbEntity
  8
0
100
AcDbCircle
 10
1.145
 20
1.051
 30
0.0
 40
0.013
100
AcDbArc
 50
200.112
 51
221.479
  0
ARC
  5
93
330
18
100
AcDbEntity
  8
0
100
AcDbCircle
 10
1.147
 20
1.051
 30
0.0
 40
0.015
100
AcDbArc
 50
180.0
 51
200.112
  0
ARC
  5
94
330
18
100
AcDbEntity
  8
0
100
AcDbCircle
 10
1.147
 20
1.051
 30
0.0
 40
0.015
100
AcDbArc
 50
159.888
 51
180.0
  0
ARC
  5
95
330
18
100
AcDbEntity
  8
0
100
AcDbCircle
 10
1.145
 20
1.052
 30
0.0
 40
0.013
100
AcDbArc
 50
138.521
 51
159.888
  0
ARC
  5
96
330
18
100
AcDbEntity
  8
0
100
AcDbCircle
 10
1.144
 20
1.053
 30
0.0
 40
0.012
100
AcDbArc
 50
115.105
 51
138.521
  0
ARC
  5
97
330
18
100
AcDbEntity
  8
0
100
AcDbCircle
 10
1.143
 20
1.054
 30
0.0
 40
0.011
100
AcDbArc
 50
90.0
 51
115.105
  0
ARC
  5
98
330
18
100
AcDbEntity
  8
0
100
AcDbCircle
 10
1.149
 20
1.055
 30
0.0
 40
0.012
100
AcDbArc
 50
115.105
 51
127.376
  0
ARC
  5
99
330
18
100
AcDbEntity
  8
0
100
AcDbCircle
 10
1.148
 20
1.056
 30
0.0
 40
0.011
100
AcDbArc
 50
90.0
 51
115.105
  0
ARC
  5
9A
330
18
100
AcDbEntity
  8
0
100
AcDbCircle
 10
1.148
 20
1.056
 30
0.0
 40
0.011
100
AcDbArc
 50
64.895
 51
90.0
  0
ARC
  5
9B
330
18
100
AcDbEntity
  8
0
100
AcDbCircle
 10
1.148
 20
1.055
 30
0.0
 40
0.012
100
AcDbArc
 50
41.479
 51
64.895
  0
ARC
  5
9C
330
18
100
AcDbEntity
  8
0
100
AcDbCircle
 10
1.147
 20
1.054
 30
0.0
 40
0.013
100
AcDbArc
 50
20.112
 51
41.479
  0
ARC
  5
9D
330
18
100
AcDbEntity
  8
0
100
AcDbCircle
 10
1.145
 20
1.053
 30
0.0
 40
0.015
100
AcDbArc
 50
0.0
 51
20.112
  0
ARC
  5
9E
330
18
100
AcDbEntity
  8
0
100
AcDbCircle
 10
1.145
 20
1.053
 30
0.0
 40
0.015
100
AcDbArc
 50
339.888
 51
0.0
  0
ARC
  5
9F
330
18
100
AcDbEntity
  8
0
100
AcDbCircle
 10
1.147
 20
1.053
 30
0.0
 40
0.013
100
AcDbArc
 50
318.521
 51
339.888
  0
ARC
  5
A0
330
18
100
AcDbEntity
  8
0
100
AcDbCircle
 10
1.148
 20
1.052
 30
0.0
 40
0.012
100
AcDbArc
 50
295.105
 51
318.521
  0
ARC
  5
A1
330
18
100
AcDbEntity
  8
0
100
AcDbCircle
 10
1.148
 20
1.051
 30
0.0
 40
0.011
100
AcDbArc
 50
280.124
 51
295.105
  0
ARC
  5
A2
330
18
100
AcDbEntity
  8
0
100
AcDbCircle
 10
1.192
 20
1.149
 30
0.0
 40
0.011
100
AcDbArc
 50
64.895
 51
90.0
  0
ARC
  5
A3
330
18
100
AcDbEntity
  8
0
100
AcDbCircle
 10
1.191
 20
1.147
 30
0.0
 40
0.012
100
AcDbArc
 50
41.479
 51
64.895
  0
ARC
  5
A4
330
18
100
AcDbEntity
  8
0
100
AcDbCircle
 10
1.19
 20
1.146
 30
0.0
 40
0.013
100
AcDbArc
 50
20.112
 51
41.479
  0
ARC
  5
A5
330
18
100
AcDbEntity
  8
0
100
AcDbCircle
 10
1.189
 20
1.146
 30
0.0
 40
0.015
100
AcDbArc
 50
0.0
 51
20.112
  0
ARC
  5
A6
330
18
100
AcDbEntity
  8
0
100
AcDbCircle
 10
1.189
 20
1.146
 30
0.0
 40
0.015
100
AcDbArc
 50
339.888
 51
0.0
  0
ARC
  5
A7
330
18
100
AcDbEntity
  8
0
100
AcDbCircle
 10
1.19
 20
1.145
 30
0.0
 40
0.013
100
AcDbArc
 50
318.521
 51
339.888
  0
ARC
  5
A8
330
18
100
AcDbEntity
  8
0
100
AcDbCircle
 10
1.191
 20
1.144
 30
0.0
 40
0.012
100
AcDbArc
 50
295.105
 51
318.521
  0
ARC
  5
A9
330
18
100
AcDbEntity
  8
0
100
AcDbCircle
 10
1.192
 20
1.143
 30
0.0
 40
0.011
100
AcDbArc
 50
270.0
 51
295.105
  0
ARC
  5
AA
330
18
100
AcDbEntity
  8
0
100
AcDbCircle
 10
1.192
 20
1.143
 30
0.0
 40
0.011
100
AcDbArc
 50
244.895
 51
270.0
  0
ARC
  5
AB
330
18
100
AcDbEntity
  8
0
100
AcDbCircle
 10
1.193
 20
1.144
 30
0.0
 40
0.012
100
AcDbArc
 50
221.479
 51
244.895
  0
ARC
  5
AC
330
18
100
AcDbEntity
  8
0
100
AcDbCircle
 10
1.194
 20
1.145
 30
0.0
 40
0.013
100
AcDbArc
 50
200.112
 51
221.479
  0
ARC
  5
AD
330
18
100
AcDbEntity
  8
0
100
AcDbCircle
 10
1.195
 20
1.146
 30
0.0
 40
0.015
100
AcDbArc
 50
180.0
 51
200.112
  0
ARC
  5
AE
330
18
100
AcDbEntity
  8
0
100
AcDbCircle
 10
1.195
 20
1.146
 30
0.0
 40
0.015
100
AcDbArc
 50
159.888
 51
180.0
  0
ARC
  5
AF
330
18
100
AcDbEntity
  8
0
100
AcDbCircle
 10
1.194
 20
1.146
 30
0.0
 40
0.013
100
AcDbArc
 50
138.521
 51
159.888
  0
ARC
  5
B0
330
18
100
AcDbEntity
  8
0
100
AcDbCircle
 10
1.193
 20
1.147
 30
0.0
 40
0.012
100
AcDbArc
 50
115.105
 51
138.521
  0
ARC
  5
B1
330
18
100
AcDbEntity
  8
0
100
AcDbCircle
 10
1.192
 20
1.149
 30
0.0
 40
0.011
100
AcDbArc
 50
90.0
 51
115.105
  0
ARC
  5
B2
330
18
100
AcDbEntity
  8
0
100
AcDbCircle
 10
1.198
 20
1.15
 30
0.0
 40
0.012
100
AcDbArc
 50
115.105
 51
127.376
  0
ARC
  5
B3
330
18
100
AcDbEntity
  8
0
100
AcDbCircle
 10
1.197
 20
1.151
 30
0.0
 40
0.011
100
AcDbArc
 50
90.0
 51
115.105
  0
ARC
  5
B4
330
18
100
AcDbEntity
  8
0
100
AcDbCircle
 10
1.197
 20
1.151
 30
0.0
 40
0.011
100
AcDbArc
 50
64.895
 51
90.0
  0
ARC
  5
B5
330
18
100
AcDbEntity
  8
0
100
AcDbCircle
 10
1.196
 20
1.15
 30
0.0
 40
0.012
100
AcDbArc
 50
41.479
 51
64.895
  0
ARC
  5
B6
330
18
100
AcDbEntity
  8
0
100
AcDbCircle
 10
1.195
 20
1.149
 30
0.0
 40
0.013
100
AcDbArc
 50
20.112
 51
41.479
  0
ARC
  5
B7
330
18
100
AcDbEntity
  8
0
100
AcDbCircle
 10
1.194
 20
1.148
 30
0.0
 40
0.015
100
AcDbArc
 50
0.0
 51
20.112
  0
ARC
  5
B8
330
18
100
AcDbEntity
  8
0
100
AcDbCircle
 10
1.194
 20
1.148
 30
0.0
 40
0.015
100
AcDbArc
 50
339.888
 51
0.0
  0
ARC
  5
B9
330
18
100
AcDbEntity
  8
0
100
AcDbCircle
 10
1.195
 20
1.147
 30
0.0
 40
0.013
100
AcDbArc
 50
318.521
 51
339.888
  0
ARC
  5
BA
330
18
100
AcDbEntity
  8
0
100
AcDbCircle
 10
1.196
 20
1.147
 30
0.0
 40
0.012
100
AcDbArc
 50
295.105
 51
318.521
  0
ARC
  5
BB
330
18
100
AcDbEntity
  8
0
100
AcDbCircle
 10
1.197
 20
1.145
 30
0.0
 40
0.011
100
AcDbArc
 50
280.124
 51
295.105
  0
ARC
  5
BC
330
18
100
AcDbEntity
  8
0
100
AcDbCircle
 10
1.234
 20
1.24
 30
0.0
 40
0.011
100
AcDbArc
 50
64.895
 51
90.0
  0
ARC
  5
BD
330
18
100
AcDbEntity
  8
0
100
AcDbCircle
 10
1.233
 20
1.239
 30
0.0
 40
0.012
100
AcDbArc
 50
41.479
 51
64.895
  0
ARC
  5
BE
330
18
100
AcDbEntity
  8
0
100
AcDbCircle
 10
1.232
 20
1.238
 30
0.0
 40
0.013
100
AcDbArc
 50
20.112
 51
41.479
  0
ARC
  5
BF
330
18
100
AcDbEntity
  8
0
100
AcDbCircle
 10
1.23
 20
1.237
 30
0.0
 40
0.015
100
AcDbArc
 50
0.0
 51
20.112
  0
ARC
  5
C0
330
18
100
AcDbEntity
  8
0
100
AcDbCircle
 10
1.23
 20
1.237
 30
0.0
 40
0.015
100
AcDbArc
 50
339.888
 51
0.0
  0
ARC
  5
C1
330
18
100
AcDbEntity
  8
0
100
AcDbCircle
 10
1.232
 20
1.237
 30
0.0
 40
0.013
100
AcDbArc
 50
318.521
 51
339.888
  0
ARC
  5
C2
330
18
100
AcDbEntity
  8
0
100
AcDbCircle
 10
1.233
 20
1.236
 30
0.0
 40
0.012
100
AcDbArc
 50
295.105
 51
318.521
  0
ARC
  5
C3
330
18
100
AcDbEntity
  8
0
100
AcDbCircle
 10
1.234
 20
1.234
 30
0.0
 40
0.011
100
AcDbArc
 50
270.0
 51
295.105
  0
ARC
  5
C4
330
18
100
AcDbEntity
  8
0
100
AcDbCircle
 10
1.234
 20
1.234
 30
0.0
 40
0.011
100
AcDbArc
 50
244.895
 51
270.0
  0
ARC
  5
C5
330
18
100
AcDbEntity
  8
0
100
AcDbCircle
 10
1.234
 20
1.236
 30
0.0
 40
0.012
100
AcDbArc
 50
221.479
 51
244.895
  0
ARC
  5
C6
330
18
100
AcDbEntity
  8
0
100
AcDbCircle
 10
1.235
 20
1.237
 30
0.0
 40
0.013
100
AcDbArc
 50
200.112
 51
221.479
  0
ARC
  5
C7
330
18
100
AcDbEntity
  8
0
100
AcDbCircle
 10
1.237
 20
1.237
 30
0.0
 40
0.015
100
AcDbArc
 50
180.0
 51
200.112
  0
ARC
  5
C8
330
18
100
AcDbEntity
  8
0
100
AcDbCircle
 10
1.237
 20
1.237
 30
0.0
 40
0.015
100
AcDbArc
 50
159.888
 51
180.0
  0
ARC
  5
C9
330
18
100
AcDbEntity
  8
0
100
AcDbCircle
 10
1.235
 20
1.238
 30
0.0
 40
0.013
100
AcDbArc
 50
138.521
 51
159.888
  0
ARC
  5
CA
330
18
100
AcDbEntity
  8
0
100
AcDbCircle
 10
1.234
 20
1.239
 30
0.0
 40
0.012
100
AcDbArc
 50
115.105
 51
138.521
  0
ARC
  5
CB
330
18
100
AcDbEntity
  8
0
100
AcDbCircle
 10
1.234
 20
1.24
 30
0.0
 40
0.011
100
AcDbArc
 50
90.0
 51
115.105
  0
ARC
  5
CC
330
18
100
AcDbEntity
  8
0
100
AcDbCircle
 10
1.239
 20
1.241
 30
0.0
 40
0.012
100
AcDbArc
 50
115.105
 51
127.376
  0
ARC
  5
CD
330
18
100
AcDbEntity
  8
0
100
AcDbCircle
 10
1.239
 20
1.242
 30
0.0
 40
0.011
100
AcDbArc
 50
90.0
 51
115.105
  0
ARC
  5
CE
330
18
100
AcDbEntity
  8
0
100
AcDbCircle
 10
1.239
 20
1.242
 30
0.0
 40
0.011
100
AcDbArc
 50
64.895
 51
90.0
  0
ARC
  5
CF
330
18
100
AcDbEntity
  8
0
100
AcDbCircle
 10
1.238
 20
1.241
 30
0.0
 40
0.012
100
AcDbArc
 50
41.479
 51
64.895
  0
ARC
  5
D0
330
18
100
AcDbEntity
  8
0
100
AcDbCircle
 10
1.237
 20
1.24
 30
0.0
 40
0.013
100
AcDbArc
 50
20.112
 51
41.479
  0
ARC
  5
D1
330
18
100
AcDbEntity
  8
0
100
AcDbCircle
 10
1.235
 20
1.239
 30
0.0
 40
0.015
100
AcDbArc
 50
0.0
 51
20.112
  0
ARC
  5
D2
330
18
100
AcDbEntity
  8
0
100
AcDbCircle
 10
1.235
 20
1.239
 30
0.0
 40
0.015
100
AcDbArc
 50
339.888
 51
0.0
  0
ARC
  5
D3
330
18
100
AcDbEntity
  8
0
100
AcDbCircle
 10
1.237
 20
1.239
 30
0.0
 40
0.013
100
AcDbArc
 50
318.521
 51
339.888
  0
ARC
  5
D4
330
18
100
AcDbEntity
  8
0
100
AcDbCircle
 10
1.238
 20
1.238
 30
0.0
 40
0.012
100
AcDbArc
 50
295.105
 51
318.521
  0
ARC
  5
D5
330
18
100
AcDbEntity
  8
0
100
AcDbCircle
 10
1.239
 20
1.236
 30
0.0
 40
0.011
100
AcDbArc
 50
280.124
 51
295.105
  0
ARC
  5
D6
330
18
100
AcDbEntity
  8
0
100
AcDbCircle
 10
1.157
 20
1.255
 30
0.0
 40
0.011
100
AcDbArc
 50
64.895
 51
90.0
  0
ARC
  5
D7
330
18
100
AcDbEntity
  8
0
100
AcDbCircle
 10
1.156
 20
1.254
 30
0.0
 40
0.012
100
AcDbArc
 50
41.479
 51
64.895
  0
ARC
  5
D8
330
18
100
AcDbEntity
  8
0
100
AcDbCircle
 10
1.155
 20
1.253
 30
0.0
 40
0.013
100
AcDbArc
 50
20.112
 51
41.479
  0
ARC
  5
D9
330
18
100
AcDbEntity
  8
0
100
AcDbCircle
 10
1.154
 20
1.252
 30
0.0
 40
0.015
100
AcDbArc
 50
0.0
 51
20.112
  0
ARC
  5
DA
330
18
100
AcDbEntity
  8
0
100
AcDbCircle
 10
1.154
 20
1.252
 30
0.0
 40
0.015
100
AcDbArc
 50
339.888
 51
0.0
  0
ARC
  5
DB
330
18
100
AcDbEntity
  8
0
100
AcDbCircle
 10
1.155
 20
1.252
 30
0.0
 40
0.013
100
AcDbArc
 50
318.521
 51
339.888
  0
ARC
  5
DC
330
18
100
AcDbEntity
  8
0
100
AcDbCircle
 10
1.156
 20
1.251
 30
0.0
 40
0.012
100
AcDbArc
 50
295.105
 51
318.521
  0
ARC
  5
DD
330
18
100
AcDbEntity
  8
0
100
AcDbCircle
 10
1.157
 20
1.25
 30
0.0
 40
0.011
100
AcDbArc
 50
280.124
 51
295.105
  0
ARC
  5
DE
330
18
100
AcDbEntity
  8
0
100
AcDbCircle
 10
1.158
 20
1.254
 30
0.0
 40
0.012
100
AcDbArc
 50
115.105
 51
127.376
  0
ARC
  5
DF
330
18
100
AcDbEntity
  8
0
100
AcDbCircle
 10
1.157
 20
1.255
 30
0.0
 40
0.011
100
AcDbArc
 50
90.0
 51
115.105
  0
ARC
  5
E0
330
18
100
AcDbEntity
  8
0
100
AcDbCircle
 10
1.152
 20
1.253
 30
0.0
 40
0.011
100
AcDbArc
 50
64.895
 51
90.0
  0
ARC
  5
E1
330
18
100
AcDbEntity
  8
0
100
AcDbCircle
 10
1.152
 20
1.252
 30
0.0
 40
0.012
100
AcDbArc
 50
41.479
 51
64.895
  0
ARC
  5
E2
330
18
100
AcDbEntity
  8
0
100
AcDbCircle
 10
1.15
 20
1.251
 30
0.0
 40
0.013
100
AcDbArc
 50
20.112
 51
41.479
  0
ARC
  5
E3
330
18
100
AcDbEntity
  8
0
100
AcDbCircle
 10
1.149
 20
1.25
 30
0.0
 40
0.015
100
AcDbArc
 50
0.0
 51
20.112
  0
ARC
  5
E4
330
18
100
AcDbEntity
  8
0
100
AcDbCircle
 10
1.149
 20
1.25
 30
0.0
 40
0.015
100
AcDbArc
 50
339.888
 51
0.0
  0
ARC
  5
E5
330
18
100
AcDbEntity
  8
0
100
AcDbCircle
 10
1.15
 20
1.25
 30
0.0
 40
0.013
100
AcDbArc
 50
318.521
 51
339.888
  0
ARC
  5
E6
330
18
100
AcDbEntity
  8
0
100
AcDbCircle
 10
1.152
 20
1.249
 30
0.0
 40
0.012
100
AcDbArc
 50
295.105
 51
318.521
  0
ARC
  5
E7
330
18
100
AcDbEntity
  8
0
100
AcDbCircle
 10
1.152
 20
1.247
 30
0.0
 40
0.011
100
AcDbArc
 50
270.0
 51
295.105
  0
ARC
  5
E8
330
18
100
AcDbEntity
  8
0
100
AcDbCircle
 10
1.152
 20
1.247
 30
0.0
 40
0.011
100
AcDbArc
 50
244.895
 51
270.0
  0
ARC
  5
E9
330
18
100
AcDbEntity
  8
0
100
AcDbCircle
 10
1.153
 20
1.249
 30
0.0
 40
0.012
100
AcDbArc
 50
221.479
 51
244.895
  0
ARC
  5
EA
330
18
100
AcDbEntity
  8
0
100
AcDbCircle
 10
1.154
 20
1.25
 30
0.0
 40
0.013
100
AcDbArc
 50
200.112
 51
221.479
  0
ARC
  5
EB
330
18
100
AcDbEntity
  8
0
100
AcDbCircle
 10
1.155
 20
1.25
 30
0.0
 40
0.015
100
AcDbArc
 50
180.0
 51
200.112
  0
ARC
  5
EC
330
18
100
AcDbEntity
  8
0
100
AcDbCircle
 10
1.155
 20
1.25
 30
0.0
 40
0.015
100
AcDbArc
 50
159.888
 51
180.0
  0
ARC
  5
ED
330
18
100
AcDbEntity
  8
0
100
AcDbCircle
 10
1.154
 20
1.251
 30
0.0
 40
0.013
100
AcDbArc
 50
138.521
 51
159.888
  0
ARC
  5
EE
330
18
100
AcDbEntity
  8
0
100
AcDbCircle
 10
1.153
 20
1.252
 30
0.0
 40
0.012
100
AcDbArc
 50
115.105
 51
138.521
  0
ARC
  5
EF
330
18
100
AcDbEntity
  8
0
100
AcDbCircle
 10
1.152
 20
1.253
 30
0.0
 40
0.011
100
AcDbArc
 50
90.0
 51
115.105
  0
ARC
  5
F0
330
18
100
AcDbEntity
  8
0
100
AcDbCircle
 10
1.069
 20
0.943
 30
0.0
 40
0.009
100
AcDbArc
 50
59.965
 51
90.0
  0
ARC
  5
F1
330
18
100
AcDbEntity
  8
0
100
AcDbCircle
 10
1.067
 20
0.9390000000000001
 30
0.0
 40
0.013
100
AcDbArc
 50
35.619
 51
59.965
  0
ARC
  5
F2
330
18
100
AcDbEntity
  8
0
100
AcDbCircle
 10
1.064
 20
0.9359999999999999
 30
0.0
 40
0.017
100
AcDbArc
 50
16.528
 51
35.619
  0
ARC
  5
F3
330
18
100
AcDbEntity
  8
0
100
AcDbCircle
 10
1.058
 20
0.9350000000000001
 30
0.0
 40
0.023
100
AcDbArc
 50
0.0
 51
16.528
  0
ARC
  5
F4
330
18
100
AcDbEntity
  8
0
100
AcDbCircle
 10
1.058
 20
0.9350000000000001
 30
0.0
 40
0.023
100
AcDbArc
 50
343.472
 51
0.0
  0
ARC
  5
F5
330
18
100
AcDbEntity
  8
0
100
AcDbCircle
 10
1.064
 20
0.9329999999999999
 30
0.0
 40
0.017
100
AcDbArc
 50
324.381
 51
343.472
  0
ARC
  5
F6
330
18
100
AcDbEntity
  8
0
100
AcDbCircle
 10
1.067
 20
0.9309999999999999
 30
0.0
 40
0.013
100
AcDbArc
 50
300.035
 51
324.381
  0
ARC
  5
F7
330
18
100
AcDbEntity
  8
0
100
AcDbCircle
 10
1.069
 20
0.9270000000000001
 30
0.0
 40
0.009
100
AcDbArc
 50
270.0
 51
300.035
  0
ARC
  5
F8
330
18
100
AcDbEntity
  8
0
100
AcDbCircle
 10
1.069
 20
0.9270000000000001
 30
0.0
 40
0.009
100
AcDbArc
 50
239.965
 51
270.0
  0
ARC
  5
F9
330
18
100
AcDbEntity
  8
0
100
AcDbCircle
 10
1.072
 20
0.9309999999999999
 30
0.0
 40
0.013
100
AcDbArc
 50
215.6190000000001
 51
239.965
  0
ARC
  5
FA
330
18
100
AcDbEntity
  8
0
100
AcDbCircle
 10
1.075
 20
0.9329999999999999
 30
0.0
 40
0.017
100
AcDbArc
 50
196.528
 51
215.6190000000001
  0
ARC
  5
FB
330
18
100
AcDbEntity
  8
0
100
AcDbCircle
 10
1.081
 20
0.9350000000000001
 30
0.0
 40
0.023
100
AcDbArc
 50
180.0
 51
196.528
  0
ARC
  5
FC
330
18
100
AcDbEntity
  8
0
100
AcDbCircle
 10
1.081
 20
0.9350000000000001
 30
0.0
 40
0.023
100
AcDbArc
 50
163.472
 51
180.0
  0
ARC
  5
FD
330
18
100
AcDbEntity
  8
0
100
AcDbCircle
 10
1.075
 20
0.9359999999999999
 30
0.0
 40
0.017
100
AcDbArc
 50
144.381
 51
163.472
  0
ARC
  5
FE
330
18
100
AcDbEntity
  8
0
100
AcDbCircle
 10
1.072
 20
0.9390000000000001
 30
0.0
 40
0.013
100
AcDbArc
 50
120.035
 51
144.381
  0
ARC
  5
FF
330
18
100
AcDbEntity
  8
0
100
AcDbCircle
 10
1.069
 20
0.943
 30
0.0
 40
0.009
100
AcDbArc
 50
90.0
 51
120.035
  0
ARC
  5
100
330
18
100
AcDbEntity
  8
0
100
AcDbCircle
 10
1.062
 20
0.9290000000000001
 30
0.0
 40
0.009
100
AcDbArc
 50
270.0
 51
277.875
  0
ARC
  5
101
330
18
100
AcDbEntity
  8
0
100
AcDbCircle
 10
1.062
 20
0.9290000000000001
 30
0.0
 40
0.009
100
AcDbArc
 50
239.965
 51
270.0
  0
ARC
  5
102
330
18
100
AcDbEntity
  8
0
100
AcDbCircle
 10
1.065
 20
0.9329999999999999
 30
0.0
 40
0.013
100
AcDbArc
 50
215.6190000000001
 51
239.965
  0
ARC
  5
103
330
18
100
AcDbEntity
  8
0
100
AcDbCircle
 10
1.068
 20
0.9350000000000001
 30
0.0
 40
0.017
100
AcDbArc
 50
196.528
 51
215.6190000000001
  0
ARC
  5
104
330
18
100
AcDbEntity
  8
0
100
AcDbCircle
 10
1.074
 20
0.9370000000000001
 30
0.0
 40
0.023
100
AcDbArc
 50
180.0
 51
196.528
  0
ARC
  5
105
330
18
100
AcDbEntity
  8
0
100
AcDbCircle
 10
1.074
 20
0.9370000000000001
 30
0.0
 40
0.023
100
AcDbArc
 50
163.472
 51
180.0
  0
ARC
  5
106
330
18
100
AcDbEntity
  8
0
100
AcDbCircle
 10
1.068
 20
0.9379999999999999
 30
0.0
 40
0.017
100
AcDbArc
 50
144.381
 51
163.472
  0
ARC
  5
107
330
18
100
AcDbEntity
  8
0
100
AcDbCircle
 10
1.065
 20
0.941
 30
0.0
 40
0.013
100
AcDbArc
 50
120.035
 51
144.381
  0
ARC
  5
108
330
18
100
AcDbEntity
  8
0
100
AcDbCircle
 10
1.062
 20
0.945
 30
0.0
 40
0.009
100
AcDbArc
 50
90.0
 51
120.035
  0
ARC
  5
109
330
18
100
AcDbEntity
  8
0
100
AcDbCircle
 10
1.062
 20
0.945
 30
0.0
 40
0.009
100
AcDbArc
 50
59.965
 51
90.0
  0
ARC
  5
10A
330
18
100
AcDbEntity
  8
0
100
AcDbCircle
 10
1.06
 20
0.941
 30
0.0
 40
0.013
100
AcDbArc
 50
51.648
 51
59.965
  0
ARC
  5
10B
330
18
100
AcDbEntity
  8
0
100
AcDbCircle
 10
1.066
 20
0.831
 30
0.0
 40
0.009
100
AcDbArc
 50
59.965
 51
90.0
  0
ARC
  5
10C
330
18
100
AcDbEntity
  8
0
100
AcDbCircle
 10
1.063
 20
0.8270000000000001
 30
0.0
 40
0.013
100
AcDbArc
 50
35.619
 51
59.965
  0
ARC
  5
10D
330
18
100
AcDbEntity
  8
0
100
AcDbCircle
 10
1.06
 20
0.825
 30
0.0
 40
0.017
100
AcDbArc
 50
16.528
 51
35.619
  0
ARC
  5
10E
330
18
100
AcDbEntity
  8
0
100
AcDbCircle
 10
1.055
 20
0.823
 30
0.0
 40
0.023
100
AcDbArc
 50
0.0
 51
16.528
  0
ARC
  5
10F
330
18
100
AcDbEntity
  8
0
100
AcDbCircle
 10
1.055
 20
0.823
 30
0.0
 40
0.023
100
AcDbArc
 50
343.472
 51
0.0
  0
ARC
  5
110
330
18
100
AcDbEntity
  8
0
100
AcDbCircle
 10
1.06
 20
0.821
 30
0.0
 40
0.017
100
AcDbArc
 50
324.381
 51
343.472
  0
ARC
  5
111
330
18
100
AcDbEntity
  8
0
100
AcDbCircle
 10
1.063
 20
0.8190000000000001
 30
0.0
 40
0.013
100
AcDbArc
 50
300.035
 51
324.381
  0
ARC
  5
112
330
18
100
AcDbEntity
  8
0
100
AcDbCircle
 10
1.066
 20
0.815
 30
0.0
 40
0.009
100
AcDbArc
 50
270.0
 51
300.035
  0
ARC
  5
113
330
18
100
AcDbEntity
  8
0
100
AcDbCircle
 10
1.066
 20
0.815
 30
0.0
 40
0.009
100
AcDbArc
 50
239.965
 51
270.0
  0
ARC
  5
114
330
18
100
AcDbEntity
  8
0
100
AcDbCircle
 10
1.068
 20
0.8190000000000001
 30
0.0
 40
0.013
100
AcDbArc
 50
215.6190000000001
 51
239.965
  0
ARC
  5
115
330
18
100
AcDbEntity
  8
0
100
AcDbCircle
 10
1.071
 20
0.821
 30
0.0
 40
0.017
100
AcDbArc
 50
196.528
 51
215.6190000000001
  0
ARC
  5
116
330
18
100
AcDbEntity
  8
0
100
AcDbCircle
 10
1.077
 20
0.823
 30
0.0
 40
0.023
100
AcDbArc
 50
180.0
 51
196.528
  0
ARC
  5
117
330
18
100
AcDbEntity
  8
0
100
AcDbCircle
 10
1.077
 20
0.823
 30
0.0
 40
0.023
100
AcDbArc
 50
163.472
 51
180.0
  0
ARC
  5
118
330
18
100
AcDbEntity
  8
0
100
AcDbCircle
 10
1.071
 20
0.825
 30
0.0
 40
0.017
100
AcDbArc
 50
144.381
 51
163.472
  0
ARC
  5
119
330
18
100
AcDbEntity
  8
0
100
AcDbCircle
 10
1.068
 20
0.8270000000000001
 30
0.0
 40
0.013
100
AcDbArc
 50
120.035
 51
144.381
  0
ARC
  5
11A
330
18
100
AcDbEntity
  8
0
100
AcDbCircle
 10
1.066
 20
0.831
 30
0.0
 40
0.009
100
AcDbArc
 50
90.0
 51
120.035
  0
ARC
  5
11B
330
18
100
AcDbEntity
  8
0
100
AcDbCircle
 10
1.059
 20
0.8170000000000001
 30
0.0
 40
0.009
100
AcDbArc
 50
270.0
 51
277.875
  0
ARC
  5
11C
330
18
100
AcDbEntity
  8
0
100
AcDbCircle
 10
1.059
 20
0.8170000000000001
 30
0.0
 40
0.009
100
AcDbArc
 50
239.965
 51
270.0
  0
ARC
  5
11D
330
18
100
AcDbEntity
  8
0
100
AcDbCircle
 10
1.061
 20
0.821
 30
0.0
 40
0.013
100
AcDbArc
 50
215.6190000000001
 51
239.965
  0
ARC
  5
11E
330
18
100
AcDbEntity
  8
0
100
AcDbCircle
 10
1.064
 20
0.8240000000000001
 30
0.0
 40
0.017
100
AcDbArc
 50
196.528
 51
215.6190000000001
  0
ARC
  5
11F
330
18
100
AcDbEntity
  8
0
100
AcDbCircle
 10
1.07
 20
0.825
 30
0.0
 40
0.023
100
AcDbArc
 50
180.0
 51
196.528
  0
ARC
  5
120
330
18
100
AcDbEntity
  8
0
100
AcDbCircle
 10
1.07
 20
0.825
 30
0.0
 40
0.023
100
AcDbArc
 50
163.472
 51
180.0
  0
ARC
  5
121
330
18
100
AcDbEntity
  8
0
100
AcDbCircle
 10
1.064
 20
0.8270000000000001
 30
0.0
 40
0.017
100
AcDbArc
 50
144.381
 51
163.472
  0
ARC
  5
122
330
18
100
AcDbEntity
  8
0
100
AcDbCircle
 10
1.061
 20
0.8290000000000001
 30
0.0
 40
0.013
100
AcDbArc
 50
120.035
 51
144.381
  0
ARC
  5
123
330
18
100
AcDbEntity
  8
0
100
AcDbCircle
 10
1.059
 20
0.833
 30
0.0
 40
0.009
100
AcDbArc
 50
90.0
 51
120.035
  0
ARC
  5
124
330
18
100
AcDbEntity
  8
0
100
AcDbCircle
 10
1.059
 20
0.833
 30
0.0
 40
0.009
100
AcDbArc
 50
59.965
 51
90.0
  0
ARC
  5
125
330
18
100
AcDbEntity
  8
0
100
AcDbCircle
 10
1.056
 20
0.8290000000000001
 30
0.0
 40
0.013
100
AcDbArc
 50
51.648
 51
59.965
  0
ARC
  5
126
330
18
100
AcDbEntity
  8
0
100
AcDbCircle
 10
0.9440000000000001
 20
0.735
 30
0.0
 40
0.009
100
AcDbArc
 50
59.965
 51
90.0
  0
ARC
  5
127
330
18
100
AcDbEntity
  8
0
100
AcDbCircle
 10
0.941
 20
0.731
 30
0.0
 40
0.013
100
AcDbArc
 50
35.619
 51
59.965
  0
ARC
  5
128
330
18
100
AcDbEntity
  8
0
100
AcDbCircle
 10
0.9379999999999999
 20
0.7290000000000001
 30
0.0
 40
0.017
100
AcDbArc
 50
16.528
 51
35.619
  0
ARC
  5
129
330
18
100
AcDbEntity
  8
0
100
AcDbCircle
 10
0.9329999999999999
 20
0.727
 30
0.0
 40
0.023
100
AcDbArc
 50
0.0
 51
16.528
  0
ARC
  5
12A
330
18
100
AcDbEntity
  8
0
100
AcDbCircle
 10
0.9329999999999999
 20
0.727
 30
0.0
 40
0.023
100
AcDbArc
 50
343.472
 51
0.0
  0
ARC
  5
12B
330
18
100
AcDbEntity
  8
0
100
AcDbCircle
 10
0.9379999999999999
 20
0.725
 30
0.0
 40
0.017
100
AcDbArc
 50
324.381
 51
343.472
  0
ARC
  5
12C
330
18
100
AcDbEntity
  8
0
100
AcDbCircle
 10
0.941
 20
0.723
 30
0.0
 40
0.013
100
AcDbArc
 50
300.035
 51
324.381
  0
ARC
  5
12D
330
18
100
AcDbEntity
  8
0
100
AcDbCircle
 10
0.9440000000000001
 20
0.7190000000000001
 30
0.0
 40
0.009
100
AcDbArc
 50
270.0
 51
300.035
  0
ARC
  5
12E
330
18
100
AcDbEntity
  8
0
100
AcDbCircle
 10
0.9440000000000001
 20
0.7190000000000001
 30
0.0
 40
0.009
100
AcDbArc
 50
239.965
 51
270.0
  0
ARC
  5
12F
330
18
100
AcDbEntity
  8
0
100
AcDbCircle
 10
0.946
 20
0.723
 30
0.0
 40
0.013
100
AcDbArc
 50
215.6190000000001
 51
239.965
  0
ARC
  5
130
330
18
100
AcDbEntity
  8
0
100
AcDbCircle
 10
0.9490000000000001
 20
0.725
 30
0.0
 40
0.017
100
AcDbArc
 50
196.528
 51
215.6190000000001
  0
ARC
  5
131
330
18
100
AcDbEntity
  8
0
100
AcDbCircle
 10
0.955
 20
0.727
 30
0.0
 40
0.023
100
AcDbArc
 50
180.0
 51
196.528
  0
ARC
  5
132
330
18
100
AcDbEntity
  8
0
100
AcDbCircle
 10
0.955
 20
0.727
 30
0.0
 40
0.023
100
AcDbArc
 50
163.472
 51
180.0
  0
ARC
  5
133
330
18
100
AcDbEntity
  8
0
100
AcDbCircle
 10
0.9490000000000001
 20
0.7290000000000001
 30
0.0
 40
0.017
100
AcDbArc
 50
144.381
 51
163.472
  0
ARC
  5
134
330
18
100
AcDbEntity
  8
0
100
AcDbCircle
 10
0.946
 20
0.731
 30
0.0
 40
0.013
100
AcDbArc
 50
120.035
 51
144.381
  0
ARC
  5
135
330
18
100
AcDbEntity
  8
0
100
AcDbCircle
 10
0.9440000000000001
 20
0.735
 30
0.0
 40
0.009
100
AcDbArc
 50
90.0
 51
120.035
  0
ARC
  5
136
330
18
100
AcDbEntity
  8
0
100
AcDbCircle
 10
0.9370000000000001
 20
0.721
 30
0.0
 40
0.009
100
AcDbArc
 50
270.0
 51
277.875
  0
ARC
  5
137
330
18
100
AcDbEntity
  8
0
100
AcDbCircle
 10
0.9370000000000001
 20
0.721
 30
0.0
 40
0.009
100
AcDbArc
 50
239.965
 51
270.0
  0
ARC
  5
138
330
18
100
AcDbEntity
  8
0
100
AcDbCircle
 10
0.9390000000000001
 20
0.725
 30
0.0
 40
0.013
100
AcDbArc
 50
215.6190000000001
 51
239.965
  0
ARC
  5
139
330
18
100
AcDbEntity
  8
0
100
AcDbCircle
 10
0.9420000000000001
 20
0.728
 30
0.0
 40
0.017
100
AcDbArc
 50
196.528
 51
215.6190000000001
  0
ARC
  5
13A
330
18
100
AcDbEntity
  8
0
100
AcDbCircle
 10
0.948
 20
0.7290000000000001
 30
0.0
 40
0.023
100
AcDbArc
 50
180.0
 51
196.528
  0
ARC
  5
13B
330
18
100
AcDbEntity
  8
0
100
AcDbCircle
 10
0.948
 20
0.7290000000000001
 30
0.0
 40
0.023
100
AcDbArc
 50
163.472
 51
180.0
  0
ARC
  5
13C
330
18
100
AcDbEntity
  8
0
100
AcDbCircle
 10
0.9420000000000001
 20
0.731
 30
0.0
 40
0.017
100
AcDbArc
 50
144.381
 51
163.472
  0
ARC
  5
13D
330
18
100
AcDbEntity
  8
0
100
AcDbCircle
 10
0.9390000000000001
 20
0.733
 30
0.0
 40
0.013
100
AcDbArc
 50
120.035
 51
144.381
  0
ARC
  5
13E
330
18
100
AcDbEntity
  8
0
100
AcDbCircle
 10
0.9370000000000001
 20
0.737
 30
0.0
 40
0.009
100
AcDbArc
 50
90.0
 51
120.035
  0
ARC
  5
13F
330
18
100
AcDbEntity
  8
0
100
AcDbCircle
 10
0.9370000000000001
 20
0.737
 30
0.0
 40
0.009
100
AcDbArc
 50
59.965
 51
90.0
  0
ARC
  5
140
330
18
100
AcDbEntity
  8
0
100
AcDbCircle
 10
0.9340000000000001
 20
0.733
 30
0.0
 40
0.013
100
AcDbArc
 50
51.648
 51
59.965
  0
ARC
  5
141
330
18
100
AcDbEntity
  8
0
100
AcDbCircle
 10
0.97
 20
0.857
 30
0.0
 40
0.009
100
AcDbArc
 50
59.965
 51
90.0
  0
ARC
  5
142
330
18
100
AcDbEntity
  8
0
100
AcDbCircle
 10
0.968
 20
0.853
 30
0.0
 40
0.013
100
AcDbArc
 50
51.648
 51
59.965
  0
ARC
  5
143
330
18
100
AcDbEntity
  8
0
100
AcDbCircle
 10
0.97
 20
0.841
 30
0.0
 40
0.009
100
AcDbArc
 50
270.0
 51
277.875
  0
ARC
  5
144
330
18
100
AcDbEntity
  8
0
100
AcDbCircle
 10
0.97
 20
0.841
 30
0.0
 40
0.009
100
AcDbArc
 50
239.965
 51
270.0
  0
ARC
  5
145
330
18
100
AcDbEntity
  8
0
100
AcDbCircle
 10
0.972
 20
0.845
 30
0.0
 40
0.013
100
AcDbArc
 50
215.6190000000001
 51
239.965
  0
ARC
  5
146
330
18
100
AcDbEntity
  8
0
100
AcDbCircle
 10
0.976
 20
0.847
 30
0.0
 40
0.017
100
AcDbArc
 50
196.528
 51
215.6190000000001
  0
ARC
  5
147
330
18
100
AcDbEntity
  8
0
100
AcDbCircle
 10
0.981
 20
0.8490000000000001
 30
0.0
 40
0.023
100
AcDbArc
 50
180.0
 51
196.528
  0
ARC
  5
148
330
18
100
AcDbEntity
  8
0
100
AcDbCircle
 10
0.981
 20
0.8490000000000001
 30
0.0
 40
0.023
100
AcDbArc
 50
163.472
 51
180.0
  0
ARC
  5
149
330
18
100
AcDbEntity
  8
0
100
AcDbCircle
 10
0.976
 20
0.851
 30
0.0
 40
0.017
100
AcDbArc
 50
144.381
 51
163.472
  0
ARC
  5
14A
330
18
100
AcDbEntity
  8
0
100
AcDbCircle
 10
0.972
 20
0.853
 30
0.0
 40
0.013
100
AcDbArc
 50
120.035
 51
144.381
  0
ARC
  5
14B
330
18
100
AcDbEntity
  8
0
100
AcDbCircle
 10
0.97
 20
0.857
 30
0.0
 40
0.009
100
AcDbArc
 50
90.0
 51
120.035
  0
ARC
  5
14C
330
18
100
AcDbEntity
  8
0
100
AcDbCircle
 10
0.977
 20
0.855
 30
0.0
 40
0.009
100
AcDbArc
 50
59.965
 51
90.0
  0
ARC
  5
14D
330
18
100
AcDbEntity
  8
0
100
AcDbCircle
 10
0.975
 20
0.851
 30
0.0
 40
0.013
100
AcDbArc
 50
35.619
 51
59.965
  0
ARC
  5
14E
330
18
100
AcDbEntity
  8
0
100
AcDbCircle
 10
0.971
 20
0.8490000000000001
 30
0.0
 40
0.017
100
AcDbArc
 50
16.528
 51
35.619
  0
ARC
  5
14F
330
18
100
AcDbEntity
  8
0
100
AcDbCircle
 10
0.966
 20
0.847
 30
0.0
 40
0.023
100
AcDbArc
 50
0.0
 51
16.528
  0
ARC
  5
150
330
18
100
AcDbEntity
  8
0
100
AcDbCircle
 10
0.966
 20
0.847
 30
0.0
 40
0.023
100
AcDbArc
 50
343.472
 51
0.0
  0
ARC
  5
151
330
18
100
AcDbEntity
  8
0
100
AcDbCircle
 10
0.971
 20
0.845
 30
0.0
 40
0.017
100
AcDbArc
 50
324.381
 51
343.472
  0
ARC
  5
152
330
18
100
AcDbEntity
  8
0
100
AcDbCircle
 10
0.975
 20
0.843
 30
0.0
 40
0.013
100
AcDbArc
 50
300.035
 51
324.381
  0
ARC
  5
153
330
18
100
AcDbEntity
  8
0
100
AcDbCircle
 10
0.977
 20
0.8390000000000001
 30
0.0
 40
0.009
100
AcDbArc
 50
270.0
 51
300.035
  0
ARC
  5
154
330
18
100
AcDbEntity
  8
0
100
AcDbCircle
 10
0.977
 20
0.8390000000000001
 30
0.0
 40
0.009
100
AcDbArc
 50
239.965
 51
270.0
  0
ARC
  5
155
330
18
100
AcDbEntity
  8
0
100
AcDbCircle
 10
0.9790000000000001
 20
0.843
 30
0.0
 40
0.013
100
AcDbArc
 50
215.6190000000001
 51
239.965
  0
ARC
  5
156
330
18
100
AcDbEntity
  8
0
100
AcDbCircle
 10
0.983
 20
0.845
 30
0.0
 40
0.017
100
AcDbArc
 50
196.528
 51
215.6190000000001
  0
ARC
  5
157
330
18
100
AcDbEntity
  8
0
100
AcDbCircle
 10
0.988
 20
0.847
 30
0.0
 40
0.023
100
AcDbArc
 50
180.0
 51
196.528
  0
ARC
  5
158
330
18
100
AcDbEntity
  8
0
100
AcDbCircle
 10
0.988
 20
0.847
 30
0.0
 40
0.023
100
AcDbArc
 50
163.472
 51
180.0
  0
ARC
  5
159
330
18
100
AcDbEntity
  8
0
100
AcDbCircle
 10
0.983
 20
0.8490000000000001
 30
0.0
 40
0.017
100
AcDbArc
 50
144.381
 51
163.472
  0
ARC
  5
15A
330
18
100
AcDbEntity
  8
0
100
AcDbCircle
 10
0.9790000000000001
 20
0.851
 30
0.0
 40
0.013
100
AcDbArc
 50
120.035
 51
144.381
  0
ARC
  5
15B
330
18
100
AcDbEntity
  8
0
100
AcDbCircle
 10
0.977
 20
0.855
 30
0.0
 40
0.009
100
AcDbArc
 50
90.0
 51
120.035
  0
LINE
  5
15C
330
18
100
AcDbEntity
  8
0
100
AcDbLine
 10
1.906
 20
1.056
 30
0.0
 11
1.906
 21
0.9
 31
0.0
  0
LINE
  5
15D
330
18
100
AcDbEntity
  8
0
100
AcDbLine
 10
1.729
 20
0.9490000000000001
 30
0.0
 11
1.729
 21
0.7959999999999999
 31
0.0
  0
LINE
  5
15E
330
18
100
AcDbEntity
  8
0
100
AcDbLine
 10
1.882
 20
1.096
 30
0.0
 11
1.906
 21
1.056
 31
0.0
  0
LINE
  5
15F
330
18
100
AcDbEntity
  8
0
100
AcDbLine
 10
1.941
 20
1.169
 30
0.0
 11
1.882
 21
1.096
 31
0.0
  0
LINE
  5
160
330
18
100
AcDbEntity
  8
0
100
AcDbLine
 10
1.906
 20
1.22
 30
0.0
 11
1.941
 21
1.169
 31
0.0
  0
LINE
  5
161
330
18
100
AcDbEntity
  8
0
100
AcDbLine
 10
1.702
 20
0.998
 30
0.0
 11
1.729
 21
0.9490000000000001
 31
0.0
  0
LINE
  5
162
330
18
100
AcDbEntity
  8
0
100
AcDbLine
 10
1.751
 20
1.068
 30
0.0
 11
1.702
 21
0.998
 31
0.0
  0
LINE
  5
163
330
18
100
AcDbEntity
  8
0
100
AcDbLine
 10
1.729
 20
1.113
 30
0.0
 11
1.751
 21
1.068
 31
0.0
  0
LINE
  5
164
330
18
100
AcDbEntity
  8
0
100
AcDbLine
 10
1.702
 20
0.998
 30
0.0
 11
1.882
 21
1.096
 31
0.0
  0
LINE
  5
165
330
18
100
AcDbEntity
  8
0
100
AcDbLine
 10
1.751
 20
1.068
 30
0.0
 11
1.941
 21
1.169
 31
0.0
  0
LINE
  5
166
330
18
100
AcDbEntity
  8
0
100
AcDbLine
 10
1.729
 20
0.9490000000000001
 30
0.0
 11
1.906
 21
1.056
 31
0.0
  0
LINE
  5
167
330
18
100
AcDbEntity
  8
0
100
AcDbLine
 10
1.729
 20
1.113
 30
0.0
 11
1.906
 21
1.22
 31
0.0
  0
ARC
  5
168
330
18
100
AcDbEntity
  8
0
100
AcDbCircle
 10
0.713
 20
0.5760000000000001
 30
0.0
 40
0.003
100
AcDbArc
 50
119.642
 51
180.0
  0
ARC
  5
169
330
18
100
AcDbEntity
  8
0
100
AcDbCircle
 10
0.708
 20
0.5760000000000001
 30
0.0
 40
0.003
100
AcDbArc
 50
0.0
 51
65.13200000000001
  0
ARC
  5
16A
330
18
100
AcDbEntity
  8
0
100
AcDbCircle
 10
0.713
 20
0.5820000000000001
 30
0.0
 40
0.003
100
AcDbArc
 50
180.0
 51
299.642
  0
ARC
  5
16B
330
18
100
AcDbEntity
  8
0
100
AcDbCircle
 10
0.708
 20
0.581
 30
0.0
 40
0.003
100
AcDbArc
 50
245.132
 51
0.0
  0
ARC
  5
16C
330
18
100
AcDbEntity
  8
0
100
AcDbCircle
 10
2.0
 20
1.314
 30
0.0
 40
0.003
100
AcDbArc
 50
299.642
 51
0.0
  0
ARC
  5
16D
330
18
100
AcDbEntity
  8
0
100
AcDbCircle
 10
2.0
 20
1.309
 30
0.0
 40
0.003
100
AcDbArc
 50
0.0
 51
119.642
  0
LINE
  5
16E
330
18
100
AcDbEntity
  8
0
100
AcDbLine
 10
2.003
 20
1.309
 30
0.0
 11
2.003
 21
1.146
 31
0.0
  0
ARC
  5
16F
330
18
100
AcDbEntity
  8
0
100
AcDbCircle
 10
0.264
 20
0.79
 30
0.0
 40
0.005
100
AcDbArc
 50
180.0
 51
245.132
  0
ARC
  5
170
330
18
100
AcDbEntity
  8
0
100
AcDbCircle
 10
0.264
 20
0.779
 30
0.0
 40
0.005
100
AcDbArc
 50
65.13200000000001
 51
180.0
  0
LINE
  5
171
330
18
100
AcDbEntity
  8
0
100
AcDbLine
 10
0.259
 20
0.779
 30
0.0
 11
0.259
 21
0.58
 31
0.0
  0
LINE
  5
172
330
18
100
AcDbEntity
  8
0
100
AcDbLine
 10
0.71
 20
0.5760000000000001
 30
0.0
 11
0.71
 21
0.364
 31
0.0
  0
LINE
  5
173
330
18
100
AcDbEntity
  8
0
100
AcDbLine
 10
1.091
 20
1.304
 30
0.0
 11
1.091
 21
1.082
 31
0.0
  0
LINE
  5
174
330
18
100
AcDbEntity
  8
0
100
AcDbLine
 10
1.081
 20
1.264
 30
0.0
 11
1.081
 21
1.04
 31
0.0
  0
LINE
  5
175
330
18
100
AcDbEntity
  8
0
100
AcDbLine
 10
1.166
 20
0.981
 30
0.0
 11
1.175
 21
0.985
 31
0.0
  0
LINE
  5
176
330
18
100
AcDbEntity
  8
0
100
AcDbLine
 10
1.287
 20
1.228
 30
0.0
 11
1.298
 21
1.233
 31
0.0
  0
LINE
  5
177
330
18
100
AcDbEntity
  8
0
100
AcDbLine
 10
1.175
 20
0.985
 30
0.0
 11
1.297
 21
1.235
 31
0.0
  0
LINE
  5
178
330
18
100
AcDbEntity
  8
0
100
AcDbLine
 10
0.872
 20
0.634
 30
0.0
 11
0.883
 21
0.63
 31
0.0
  0
LINE
  5
179
330
18
100
AcDbEntity
  8
0
100
AcDbLine
 10
0.872
 20
0.7070000000000001
 30
0.0
 11
0.883
 21
0.7020000000000001
 31
0.0
  0
LINE
  5
17A
330
18
100
AcDbEntity
  8
0
100
AcDbLine
 10
0.872
 20
0.7070000000000001
 30
0.0
 11
0.872
 21
0.634
 31
0.0
  0
LINE
  5
17B
330
18
100
AcDbEntity
  8
0
100
AcDbLine
 10
1.036
 20
1.273
 30
0.0
 11
0.872
 21
0.7070000000000001
 31
0.0
  0
ARC
  5
17C
330
18
100
AcDbEntity
  8
0
100
AcDbCircle
 10
1.091
 20
1.31
 30
0.0
 40
0.01
100
AcDbArc
 50
75.392
 51
143.572
  0
ARC
  5
17D
330
18
100
AcDbEntity
  8
0
100
AcDbCircle
 10
1.084
 20
1.32
 30
0.0
 40
0.01
100
AcDbArc
 50
75.392
 51
143.572
  0
LINE
  5
17E
330
18
100
AcDbEntity
  8
0
100
AcDbLine
 10
1.076
 20
1.326
 30
0.0
 11
1.036
 21
1.273
 31
0.0
  0
LINE
  5
17F
330
18
100
AcDbEntity
  8
0
100
AcDbLine
 10
1.264
 20
1.283
 30
0.0
 11
1.086
 21
1.33
 31
0.0
  0
LINE
  5
180
330
18
100
AcDbEntity
  8
0
100
AcDbLine
 10
1.297
 20
1.235
 30
0.0
 11
1.264
 21
1.283
 31
0.0
  0
LINE
  5
181
330
18
100
AcDbEntity
  8
0
100
AcDbLine
 10
1.254
 20
1.278
 30
0.0
 11
1.264
 21
1.283
 31
0.0
  0
ARC
  5
182
330
18
100
AcDbEntity
  8
0
100
AcDbCircle
 10
1.119
 20
0.9890000000000001
 30
0.0
 40
0.008
100
AcDbArc
 50
70.859
 51
180.0
  0
LINE
  5
183
330
18
100
AcDbEntity
  8
0
100
AcDbLine
 10
0.978
 20
1.07
 30
0.0
 11
0.6729999999999999
 21
1.181
 31
0.0
  0
LINE
  5
184
330
18
100
AcDbEntity
  8
0
100
AcDbLine
 10
1.105
 20
0.8020000000000001
 30
0.0
 11
1.342
 21
0.9370000000000001
 31
0.0
  0
LINE
  5
185
330
18
100
AcDbEntity
  8
0
100
AcDbLine
 10
0.883
 20
0.7020000000000001
 30
0.0
 11
0.883
 21
0.63
 31
0.0
  0
LINE
  5
186
330
18
100
AcDbEntity
  8
0
100
AcDbLine
 10
1.048
 20
1.269
 30
0.0
 11
0.883
 21
0.7020000000000001
 31
0.0
  0
LINE
  5
187
330
18
100
AcDbEntity
  8
0
100
AcDbLine
 10
1.083
 20
1.316
 30
0.0
 11
1.048
 21
1.269
 31
0.0
  0
LINE
  5
188
330
18
100
AcDbEntity
  8
0
100
AcDbLine
 10
1.254
 20
1.278
 30
0.0
 11
1.093
 21
1.32
 31
0.0
  0
LINE
  5
189
330
18
100
AcDbEntity
  8
0
100
AcDbLine
 10
1.287
 20
1.228
 30
0.0
 11
1.254
 21
1.278
 31
0.0
  0
LINE
  5
18A
330
18
100
AcDbEntity
  8
0
100
AcDbLine
 10
1.166
 20
0.981
 30
0.0
 11
1.287
 21
1.228
 31
0.0
  0
LINE
  5
18B
330
18
100
AcDbEntity
  8
0
100
AcDbLine
 10
1.121
 20
0.996
 30
0.0
 11
1.166
 21
0.981
 31
0.0
  0
LINE
  5
18C
330
18
100
AcDbEntity
  8
0
100
AcDbLine
 10
1.111
 20
0.8190000000000001
 30
0.0
 11
1.111
 21
0.9890000000000001
 31
0.0
  0
LINE
  5
18D
330
18
100
AcDbEntity
  8
0
100
AcDbLine
 10
1.087
 20
0.752
 30
0.0
 11
1.111
 21
0.8190000000000001
 31
0.0
  0
LINE
  5
18E
330
18
100
AcDbEntity
  8
0
100
AcDbLine
 10
0.883
 20
0.63
 30
0.0
 11
1.087
 21
0.752
 31
0.0
  0
LINE
  5
18F
330
18
100
AcDbEntity
  8
0
100
AcDbLine
 10
1.906
 20
1.258
 30
0.0
 11
2.001
 21
1.312
 31
0.0
  0
LINE
  5
190
330
18
100
AcDbEntity
  8
0
100
AcDbLine
 10
0.7090000000000001
 20
0.578
 30
0.0
 11
0.262
 21
0.785
 31
0.0
  0
LINE
  5
191
330
18
100
AcDbEntity
  8
0
100
AcDbLine
 10
0.7120000000000001
 20
0.578
 30
0.0
 11
0.872
 21
0.67
 31
0.0
  0
LINE
  5
192
330
18
100
AcDbEntity
  8
0
100
AcDbLine
 10
1.892
 20
1.079
 30
0.0
 11
2.003
 21
1.146
 31
0.0
  0
LINE
  5
193
330
18
100
AcDbEntity
  8
0
100
AcDbLine
 10
0.9309999999999999
 20
0.9079999999999999
 30
0.0
 11
0.71
 21
0.792
 31
0.0
  0
LINE
  5
194
330
18
100
AcDbEntity
  8
0
100
AcDbLine
 10
0.6729999999999999
 20
1.181
 30
0.0
 11
0.259
 21
0.9790000000000001
 31
0.0
  0
LINE
  5
195
330
18
100
AcDbEntity
  8
0
100
AcDbLine
 10
1.729
 20
0.7959999999999999
 30
0.0
 11
1.18
 21
0.996
 31
0.0
  0
LINE
  5
196
330
18
100
AcDbEntity
  8
0
100
AcDbLine
 10
1.729
 20
0.7959999999999999
 30
0.0
 11
1.906
 21
0.9
 31
0.0
  0
LINE
  5
197
330
18
100
AcDbEntity
  8
0
100
AcDbLine
 10
0.825
 20
1.671
 30
0.0
 11
0.6729999999999999
 21
1.59
 31
0.0
  0
LINE
  5
198
330
18
100
AcDbEntity
  8
0
100
AcDbLine
 10
1.906
 20
1.368
 30
0.0
 11
0.825
 21
1.671
 31
0.0
  0
LINE
  5
199
330
18
100
AcDbEntity
  8
0
100
AcDbLine
 10
1.729
 20
1.284
 30
0.0
 11
1.906
 21
1.368
 31
0.0
  0
LINE
  5
19A
330
18
100
AcDbEntity
  8
0
100
AcDbLine
 10
0.6729999999999999
 20
1.59
 30
0.0
 11
1.729
 21
1.284
 31
0.0
  0
LINE
  5
19B
330
18
100
AcDbEntity
  8
0
100
AcDbLine
 10
1.515
 20
1.592
 30
0.0
 11
1.367
 21
1.519
 31
0.0
  0
LINE
  5
19C
330
18
100
AcDbEntity
  8
0
100
AcDbLine
 10
2.003
 20
1.474
 30
0.0
 11
1.864
 21
1.507
 31
0.0
  0
LINE
  5
19D
330
18
100
AcDbEntity
  8
0
100
AcDbLine
 10
0.259
 20
0.58
 30
0.0
 11
0.71
 21
0.364
 31
0.0
  0
LINE
  5
19E
330
18
100
AcDbEntity
  8
0
100
AcDbLine
 10
0.259
 20
0.9790000000000001
 30
0.0
 11
0.71
 21
0.792
 31
0.0
  0
LINE
  5
19F
330
18
100
AcDbEntity
  8
0
100
AcDbLine
 10
2.003
 20
1.474
 30
0.0
 11
1.839
 21
1.387
 31
0.0
  0
LINE
  5
1A0
330
18
100
AcDbEntity
  8
0
100
AcDbLine
 10
0.71
 20
0.364
 30
0.0
 11
1.538
 21
0.865
 31
0.0
  0
LINE
  5
1A1
330
18
100
AcDbEntity
  8
0
100
AcDbLine
 10
2.003
 20
1.474
 30
0.0
 11
2.003
 21
1.314
 31
0.0
  0
LINE
  5
1A2
330
18
100
AcDbEntity
  8
0
100
AcDbLine
 10
1.906
 20
1.368
 30
0.0
 11
1.906
 21
1.22
 31
0.0
  0
LINE
  5
1A3
330
18
100
AcDbEntity
  8
0
100
AcDbLine
 10
1.729
 20
1.284
 30
0.0
 11
1.729
 21
1.113
 31
0.0
  0
LINE
  5
1A4
330
18
100
AcDbEntity
  8
0
100
AcDbLine
 10
0.6729999999999999
 20
1.59
 30
0.0
 11
0.6729999999999999
 21
1.181
 31
0.0
  0
LINE
  5
1A5
330
18
100
AcDbEntity
  8
0
100
AcDbLine
 10
0.71
 20
0.792
 30
0.0
 11
0.71
 21
0.5820000000000001
 31
0.0
  0
LINE
  5
1A6
330
18
100
AcDbEntity
  8
0
100
AcDbLine
 10
0.259
 20
0.9790000000000001
 30
0.0
 11
0.259
 21
0.79
 31
0.0
  0
TEXT
  5
1A7
330
18
100
AcDbEntity
  8
0
100
AcDbText
 10
0.401
 20
0.134
 30
0.0
 40
0.125
  1
Simpson Strong-Tie
100
AcDbText
  0
ENDSEC
  0
SECTION
  2
OBJECTS
  0
DICTIONARY
  5
C
330
0
100
AcDbDictionary
281
     1
  3
ACAD_COLOR
350
1AD
  3
ACAD_GROUP
350
D
  3
ACAD_LAYOUT
350
15
  3
ACAD_MATERIAL
350
1AF
  3
ACAD_MLINESTYLE
350
12
  3
ACAD_PLOTSETTINGS
350
14
  3
ACAD_PLOTSTYLENAME
350
E
  3
ACDBHEADERROUNDTRIPXREC
350
1AC
  0
DICTIONARY
  5
1AD
102
{ACAD_REACTORS
330
C
102
}
330
C
100
AcDbDictionary
281
     1
  0
DICTIONARY
  5
D
102
{ACAD_REACTORS
330
C
102
}
330
C
100
AcDbDictionary
281
     1
  0
DICTIONARY
  5
15
102
{ACAD_REACTORS
330
C
102
}
330
C
100
AcDbDictionary
281
     1
  3
Layout1
350
17
  3
Model
350
19
  0
DICTIONARY
  5
1AF
102
{ACAD_REACTORS
330
C
102
}
330
C
100
AcDbDictionary
281
     1
  0
DICTIONARY
  5
12
102
{ACAD_REACTORS
330
C
102
}
330
C
100
AcDbDictionary
281
     1
  3
Standard
350
13
  0
DICTIONARY
  5
14
102
{ACAD_REACTORS
330
C
102
}
330
C
100
AcDbDictionary
281
     1
  0
ACDBDICTIONARYWDFLT
  5
E
102
{ACAD_REACTORS
330
C
102
}
330
C
100
AcDbDictionary
281
     1
  3
Normal
350
F
100
AcDbDictionaryWithDefault
340
F
  0
DICTIONARY
  5
1AC
102
{ACAD_REACTORS
330
C
102
}
330
C
100
AcDbDictionary
281
     1
  3
COLORDICT
350
1AE
  3
MATERIALDICT
350
1B0
  0
LAYOUT
  5
17
102
{ACAD_REACTORS
330
15
102
}
102
{ACAD_XDICTIONARY
360
1B1
102
}
330
15
100
AcDbPlotSettings
  1

  2

  4

  6

 40
0.0
 41
0.0
 42
0.0
 43
0.0
 44
0.0
 45
0.0
 46
0.0
 47
0.0
 48
0.0
 49
0.0
140
0.0
141
0.0
142
1.0
143
1.0
 70
   688
 72
     0
 73
     0
 74
     5
  7

 75
    16
147
1.0
148
0.0
149
0.0
100
AcDbLayout
  1
Layout1
 70
     1
 71
     1
 10
0.0
 20
0.0
 11
12.0
 21
9.0
 12
0.0
 22
0.0
 32
0.0
 14
1.000000000000000E+20
 24
1.000000000000000E+20
 34
1.000000000000000E+20
 15
-1.000000000000000E+20
 25
-1.000000000000000E+20
 35
-1.000000000000000E+20
146
0.0
 13
0.0
 23
0.0
 33
0.0
 16
1.0
 26
0.0
 36
0.0
 17
0.0
 27
1.0
 37
0.0
 76
     0
330
16
  0
LAYOUT
  5
19
102
{ACAD_REACTORS
330
15
102
}
102
{ACAD_XDICTIONARY
360
1B3
102
}
330
15
100
AcDbPlotSettings
  1

  2

  4

  6

 40
0.0
 41
0.0
 42
0.0
 43
0.0
 44
0.0
 45
0.0
 46
0.0
 47
0.0
 48
0.0
 49
0.0
140
0.0
141
0.0
142
1.0
143
1.0
 70
  1712
 72
     0
 73
     0
 74
     0
  7

 75
     0
147
1.0
148
0.0
149
0.0
100
AcDbLayout
  1
Model
 70
     1
 71
     0
 10
0.0
 20
0.0
 11
0.0
 21
0.0
 12
0.0
 22
0.0
 32
0.0
 14
0.0
 24
0.0
 34
0.0
 15
0.0
 25
0.0
 35
0.0
146
0.0
 13
0.0
 23
0.0
 33
0.0
 16
1.0
 26
0.0
 36
0.0
 17
0.0
 27
1.0
 37
0.0
 76
     0
330
18
  0
MLINESTYLE
  5
13
102
{ACAD_REACTORS
330
12
102
}
330
12
100
AcDbMlineStyle
  2
Standard
 70
     0
  3

 62
   256
 51
90.0
 52
90.0
 71
     2
 49
0.5
 62
   256
  6
BYLAYER
 49
-0.5
 62
   256
  6
BYLAYER
  0
ACDBPLACEHOLDER
  5
F
102
{ACAD_REACTORS
330
E
102
}
330
E
  0
XRECORD
  5
1AE
102
{ACAD_REACTORS
330
1AC
102
}
330
1AC
100
AcDbXrecord
340
1AD
  0
XRECORD
  5
1B0
102
{ACAD_REACTORS
330
1AC
102
}
330
1AC
100
AcDbXrecord
340
1AF
  0
DICTIONARY
  5
1B1
330
17
100
AcDbDictionary
280
     1
281
     1
  3
ACAD_XREC_ROUNDTRIP
360
1B2
  0
DICTIONARY
  5
1B3
330
19
100
AcDbDictionary
280
     1
281
     1
  3
ACAD_XREC_ROUNDTRIP
360
1B4
  0
XRECORD
  5
1B2
102
{ACAD_REACTORS
330
1B1
102
}
330
1B1
100
AcDbXrecord
102
SHADEPLOT
 70
 31552
102
SHADEPLOTRESLEVEL
 70
 30752
102
SHADEPLOTCUSTOMDPI
 70
 31608
  0
XRECORD
  5
1B4
102
{ACAD_REACTORS
330
1B3
102
}
330
1B3
100
AcDbXrecord
102
SHADEPLOT
 70
     0
102
SHADEPLOTRESLEVEL
 70
     0
102
SHADEPLOTCUSTOMDPI
 70
     0
  0
ENDSEC
  0
EOF
