  0
SECTION
  2
HEADER
  9
$ACADVER
  1
AC1015
  9
$ACADMAINTVER
 70
     6
  9
$DWGCODEPAGE
  3
ANSI_1252
  9
$INSBASE
 10
0.0
 20
0.0
 30
0.0
  9
$EXTMIN
 10
31.70015660582374
 20
54.65664643123955
 30
-0.0015258207003612
  9
$EXTMAX
 10
200.0576204375776
 20
223.7506004941216
 30
0.0000000349246008
  9
$LIMMIN
 10
46.12259385850694
 20
85.38307427300346
  9
$LIMMAX
 10
167.5029541015625
 20
199.7516316731771
  9
$ORTHOMODE
 70
     0
  9
$REGENMODE
 70
     1
  9
$FILLMODE
 70
     1
  9
$QTEXTMODE
 70
     0
  9
$MIRRTEXT
 70
     1
  9
$LTSCALE
 40
1.0
  9
$ATTMODE
 70
     1
  9
$TEXTSIZE
 40
0.2
  9
$TRACEWID
 40
0.05
  9
$TEXTSTYLE
  7
STANDARD
  9
$CLAYER
  8
0
  9
$CELTYPE
  6
CONTINUOUS
  9
$CECOLOR
 62
   256
  9
$CELTSCALE
 40
1.0
  9
$DISPSILH
 70
     0
  9
$DIMSCALE
 40
1.0
  9
$DIMASZ
 40
0.18
  9
$DIMEXO
 40
0.0625
  9
$DIMDLI
 40
0.38
  9
$DIMRND
 40
0.0
  9
$DIMDLE
 40
0.0
  9
$DIMEXE
 40
0.18
  9
$DIMTP
 40
0.0
  9
$DIMTM
 40
0.0
  9
$DIMTXT
 40
0.18
  9
$DIMCEN
 40
0.09
  9
$DIMTSZ
 40
0.0
  9
$DIMTOL
 70
     0
  9
$DIMLIM
 70
     0
  9
$DIMTIH
 70
     1
  9
$DIMTOH
 70
     1
  9
$DIMSE1
 70
     0
  9
$DIMSE2
 70
     0
  9
$DIMTAD
 70
     0
  9
$DIMZIN
 70
     0
  9
$DIMBLK
  1

  9
$DIMASO
 70
     1
  9
$DIMSHO
 70
     1
  9
$DIMPOST
  1

  9
$DIMAPOST
  1

  9
$DIMALT
 70
     0
  9
$DIMALTD
 70
     2
  9
$DIMALTF
 40
25.4
  9
$DIMLFAC
 40
1.0
  9
$DIMTOFL
 70
     0
  9
$DIMTVP
 40
0.0
  9
$DIMTIX
 70
     0
  9
$DIMSOXD
 70
     0
  9
$DIMSAH
 70
     0
  9
$DIMBLK1
  1

  9
$DIMBLK2
  1

  9
$DIMSTYLE
  2
STANDARD
  9
$DIMCLRD
 70
     0
  9
$DIMCLRE
 70
     0
  9
$DIMCLRT
 70
     0
  9
$DIMTFAC
 40
1.0
  9
$DIMGAP
 40
0.09
  9
$DIMJUST
 70
     0
  9
$DIMSD1
 70
     0
  9
$DIMSD2
 70
     0
  9
$DIMTOLJ
 70
     1
  9
$DIMTZIN
 70
     0
  9
$DIMALTZ
 70
     0
  9
$DIMALTTZ
 70
     0
  9
$DIMUPT
 70
     0
  9
$DIMDEC
 70
     4
  9
$DIMTDEC
 70
     4
  9
$DIMALTU
 70
     2
  9
$DIMALTTD
 70
     2
  9
$DIMTXSTY
  7
STANDARD
  9
$DIMAUNIT
 70
     0
  9
$DIMADEC
 70
     0
  9
$DIMALTRND
 40
0.0
  9
$DIMAZIN
 70
     0
  9
$DIMDSEP
 70
    46
  9
$DIMATFIT
 70
     3
  9
$DIMFRAC
 70
     0
  9
$DIMLDRBLK
  1

  9
$DIMLUNIT
 70
     2
  9
$DIMLWD
 70
    -2
  9
$DIMLWE
 70
    -2
  9
$DIMTMOVE
 70
     0
  9
$LUNITS
 70
     2
  9
$LUPREC
 70
     4
  9
$SKETCHINC
 40
0.1
  9
$FILLETRAD
 40
0.0
  9
$AUNITS
 70
     0
  9
$AUPREC
 70
     0
  9
$MENU
  1
acad
  9
$ELEVATION
 40
0.0
  9
$PELEVATION
 40
0.0
  9
$THICKNESS
 40
0.0
  9
$LIMCHECK
 70
     0
  9
$CHAMFERA
 40
0.0
  9
$CHAMFERB
 40
0.0
  9
$CHAMFERC
 40
0.0
  9
$CHAMFERD
 40
0.0
  9
$SKPOLY
 70
     0
  9
$TDCREATE
 40
2444971.666666667
  9
$TDUCREATE
 40
2444972.0
  9
$TDUPDATE
 40
2452215.54502037
  9
$TDUUPDATE
 40
2452215.878353704
  9
$TDINDWG
 40
0.0003515046
  9
$TDUSRTIMER
 40
0.0003515046
  9
$USRTIMER
 70
     1
  9
$ANGBASE
 50
0.0
  9
$ANGDIR
 70
     0
  9
$PDMODE
 70
     0
  9
$PDSIZE
 40
0.0
  9
$PLINEWID
 40
0.0
  9
$SPLFRAME
 70
     0
  9
$SPLINETYPE
 70
     6
  9
$SPLINESEGS
 70
     8
  9
$HANDSEED
  5
127
  9
$SURFTAB1
 70
     6
  9
$SURFTAB2
 70
     6
  9
$SURFTYPE
 70
     6
  9
$SURFU
 70
     6
  9
$SURFV
 70
     6
  9
$UCSBASE
  2

  9
$UCSNAME
  2

  9
$UCSORG
 10
0.0
 20
0.0
 30
0.0
  9
$UCSXDIR
 10
1.0
 20
0.0
 30
0.0
  9
$UCSYDIR
 10
0.0
 20
1.0
 30
0.0
  9
$UCSORTHOREF
  2

  9
$UCSORTHOVIEW
 70
     0
  9
$UCSORGTOP
 10
0.0
 20
0.0
 30
0.0
  9
$UCSORGBOTTOM
 10
0.0
 20
0.0
 30
0.0
  9
$UCSORGLEFT
 10
0.0
 20
0.0
 30
0.0
  9
$UCSORGRIGHT
 10
0.0
 20
0.0
 30
0.0
  9
$UCSORGFRONT
 10
0.0
 20
0.0
 30
0.0
  9
$UCSORGBACK
 10
0.0
 20
0.0
 30
0.0
  9
$PUCSBASE
  2

  9
$PUCSNAME
  2

  9
$PUCSORG
 10
0.0
 20
0.0
 30
0.0
  9
$PUCSXDIR
 10
1.0
 20
0.0
 30
0.0
  9
$PUCSYDIR
 10
0.0
 20
1.0
 30
0.0
  9
$PUCSORTHOREF
  2

  9
$PUCSORTHOVIEW
 70
     0
  9
$PUCSORGTOP
 10
0.0
 20
0.0
 30
0.0
  9
$PUCSORGBOTTOM
 10
0.0
 20
0.0
 30
0.0
  9
$PUCSORGLEFT
 10
0.0
 20
0.0
 30
0.0
  9
$PUCSORGRIGHT
 10
0.0
 20
0.0
 30
0.0
  9
$PUCSORGFRONT
 10
0.0
 20
0.0
 30
0.0
  9
$PUCSORGBACK
 10
0.0
 20
0.0
 30
0.0
  9
$USERI1
 70
     0
  9
$USERI2
 70
     0
  9
$USERI3
 70
     0
  9
$USERI4
 70
     0
  9
$USERI5
 70
     0
  9
$USERR1
 40
0.0
  9
$USERR2
 40
0.0
  9
$USERR3
 40
0.0
  9
$USERR4
 40
0.0
  9
$USERR5
 40
0.0
  9
$WORLDVIEW
 70
     1
  9
$SHADEDGE
 70
     3
  9
$SHADEDIF
 70
    70
  9
$TILEMODE
 70
     1
  9
$MAXACTVP
 70
    16
  9
$PINSBASE
 10
0.0
 20
0.0
 30
0.0
  9
$PLIMCHECK
 70
     0
  9
$PEXTMIN
 10
1.000000000000000E+20
 20
1.000000000000000E+20
 30
1.000000000000000E+20
  9
$PEXTMAX
 10
-1.000000000000000E+20
 20
-1.000000000000000E+20
 30
-1.000000000000000E+20
  9
$PLIMMIN
 10
0.0
 20
0.0
  9
$PLIMMAX
 10
12.0
 20
9.0
  9
$UNITMODE
 70
     0
  9
$VISRETAIN
 70
     0
  9
$PLINEGEN
 70
     1
  9
$PSLTSCALE
 70
     0
  9
$TREEDEPTH
 70
  3020
  9
$CMLSTYLE
  2
STANDARD
  9
$CMLJUST
 70
     0
  9
$CMLSCALE
 40
1.0
  9
$PROXYGRAPHICS
 70
     0
  9
$MEASUREMENT
 70
     0
  9
$CELWEIGHT
370
    -1
  9
$ENDCAPS
280
     0
  9
$JOINSTYLE
280
     0
  9
$LWDISPLAY
290
     0
  9
$INSUNITS
 70
     0
  9
$HYPERLINKBASE
  1

  9
$STYLESHEET
  1

  9
$XEDIT
290
     1
  9
$CEPSNTYPE
380
     0
  9
$PSTYLEMODE
290
     1
  9
$FINGERPRINTGUID
  2
{890B5528-CEC8-11D5-923F-00805F198AD5}
  9
$VERSIONGUID
  2
{890B552A-CEC8-11D5-923F-00805F198AD5}
  9
$EXTNAMES
290
     1
  9
$PSVPSCALE
 40
0.0
  9
$OLESTARTUP
290
     0
  0
ENDSEC
  0
SECTION
  2
CLASSES
  0
CLASS
  1
LWPOLYLINE
  2
AcDbPolyline
  3
AutoCAD 2000
 90
        0
280
     0
281
     1
  0
CLASS
  1
IMAGE
  2
AcDbRasterImage
  3
ISM
 90
      127
280
     0
281
     1
  0
CLASS
  1
OLE2FRAME
  2
AcDbOle2Frame
  3
AutoCAD 2000
 90
        0
280
     0
281
     1
  0
CLASS
  1
HATCH
  2
AcDbHatch
  3
AutoCAD 2000
 90
        0
280
     0
281
     1
  0
CLASS
  1
DICTIONARYVAR
  2
AcDbDictionaryVar
  3
AutoCAD 2000
 90
        0
280
     0
281
     0
  0
CLASS
  1
RASTERVARIABLES
  2
AcDbRasterVariables
  3
ISM
 90
        0
280
     0
281
     0
  0
CLASS
  1
IMAGEDEF
  2
AcDbRasterImageDef
  3
ISM
 90
        0
280
     0
281
     0
  0
CLASS
  1
IMAGEDEF_REACTOR
  2
AcDbRasterImageDefReactor
  3
ISM
 90
        1
280
     0
281
     0
  0
CLASS
  1
IDBUFFER
  2
AcDbIdBuffer
  3
AutoCAD 2000
 90
        0
280
     0
281
     0
  0
CLASS
  1
SPATIAL_FILTER
  2
AcDbSpatialFilter
  3
AutoCAD 2000
 90
        0
280
     0
281
     0
  0
CLASS
  1
XRECORD
  2
AcDbXrecord
  3
AutoCAD 2000
 90
        0
280
     0
281
     0
  0
CLASS
  1
SORTENTSTABLE
  2
AcDbSortentsTable
  3
AutoCAD 2000
 90
        0
280
     0
281
     0
  0
CLASS
  1
LAYER_INDEX
  2
AcDbLayerIndex
  3
AutoCAD 2000
 90
        0
280
     0
281
     0
  0
CLASS
  1
SPATIAL_INDEX
  2
AcDbSpatialIndex
  3
AutoCAD 2000
 90
        0
280
     0
281
     0
  0
CLASS
  1
OBJECT_PTR
  2
CAseDLPNTableRecord
  3
ASE-LPNTableRecord
 90
        1
280
     1
281
     0
  0
CLASS
  1
LAYOUT
  2
AcDbLayout
  3
ObjectDBX Classes
 90
        0
280
     0
281
     0
  0
CLASS
  1
PLOTSETTINGS
  2
AcDbPlotSettings
  3
AutoCAD 2000
 90
        0
280
     0
281
     0
  0
CLASS
  1
ACDBDICTIONARYWDFLT
  2
AcDbDictionaryWithDefault
  3
AutoCAD 2000
 90
        0
280
     0
281
     0
  0
CLASS
  1
ACDBPLACEHOLDER
  2
AcDbPlaceHolder
  3
ObjectDBX Classes
 90
        0
280
     0
281
     0
  0
CLASS
  1
VBAPROJECT
  2
AcDbVbaProject
  3
ObjectDBX Classes
 90
        0
280
     0
281
     0
  0
CLASS
  1
WIPEOUT
  2
AcDbWipeout
  3
WipeOut|AutoCAD Express Tool|expresstools@autodesk.com
 90
      127
280
     0
281
     1
  0
CLASS
  1
WIPEOUTVARIABLES
  2
AcDbWipeoutVariables
  3
WipeOut|AutoCAD Express Tool|expresstools@autodesk.com
 90
        0
280
     0
281
     0
  0
CLASS
  1
RTEXT
  2
RText
  3
RText|AutoCAD Express Tool|expresstools@autodesk.com
 90
        0
280
     0
281
     1
  0
CLASS
  1
ARCALIGNEDTEXT
  2
AcDbArcAlignedText
  3
ATEXT|AutoCAD Express Tool|expresstools@autodesk.com
 90
        0
280
     0
281
     1
  0
CLASS
  1
LONG_TRANSACTION
  2
AcDbLongTransaction
  3
AutoCAD 2000
 90
        0
280
     1
281
     0
  0
CLASS
  1
LWPOLYLINE
  2
AcDbPolyline
  3
AutoCAD 2000
 90
        0
280
     0
281
     1
  0
CLASS
  1
HATCH
  2
AcDbHatch
  3
AutoCAD 2000
 90
        0
280
     0
281
     1
  0
CLASS
  1
XRECORD
  2
AcDbXrecord
  3
AutoCAD 2000
 90
        0
280
     0
281
     0
  0
ENDSEC
  0
SECTION
  2
TABLES
  0
TABLE
  2
VPORT
  5
7
330
0
100
AcDbSymbolTable
 70
     2
  0
VPORT
  5
F3
330
7
100
AcDbSymbolTableRecord
100
AcDbViewportTableRecord
  2
*Active
 70
     0
 10
0.0
 20
0.0
 11
1.0
 21
1.0
 12
115.8788885217007
 22
139.2036234626806
 13
0.0
 23
0.0
 14
1.0
 24
1.0
 15
0.0
 25
0.0
 16
0.0
 26
0.0
 36
1.0
 17
0.0
 27
0.0
 37
0.0
 40
171.7568509772582
 41
1.836842105263158
 42
50.0
 43
0.0
 44
0.0
 50
0.0
 51
0.0
 71
     0
 72
   100
 73
     1
 74
     1
 75
     0
 76
     0
 77
     0
 78
     0
281
     0
 65
     1
110
0.0
120
0.0
130
0.0
111
1.0
121
0.0
131
0.0
112
0.0
122
1.0
132
0.0
 79
     0
146
0.0
  0
ENDTAB
  0
TABLE
  2
LTYPE
  5
4
330
0
100
AcDbSymbolTable
 70
     1
  0
LTYPE
  5
11
330
4
100
AcDbSymbolTableRecord
100
AcDbLinetypeTableRecord
  2
BYBLOCK
 70
     0
  3

 72
    65
 73
     0
 40
0.0
  0
LTYPE
  5
12
330
4
100
AcDbSymbolTableRecord
100
AcDbLinetypeTableRecord
  2
BYLAYER
 70
     0
  3

 72
    65
 73
     0
 40
0.0
  0
LTYPE
  5
13
330
4
100
AcDbSymbolTableRecord
100
AcDbLinetypeTableRecord
  2
CONTINUOUS
 70
     0
  3
Solid line
 72
    65
 73
     0
 40
0.0
  0
ENDTAB
  0
TABLE
  2
LAYER
  5
2
330
0
100
AcDbSymbolTable
 70
     2
  0
LAYER
  5
14
330
2
100
AcDbSymbolTableRecord
100
AcDbLayerTableRecord
  2
0
 70
     0
 62
     7
  6
CONTINUOUS
370
    -3
390
0
  0
LAYER
  5
21
330
2
100
AcDbSymbolTableRecord
100
AcDbLayerTableRecord
  2
LAYER_1
 70
     0
 62
     5
  6
CONTINUOUS
370
    -3
390
0
  0
ENDTAB
  0
TABLE
  2
STYLE
  5
3
330
0
100
AcDbSymbolTable
 70
     5
  0
STYLE
  5
17
330
3
100
AcDbSymbolTableRecord
100
AcDbTextStyleTableRecord
  2
STANDARD
 70
     0
 40
0.0
 41
1.0
 50
0.0
 71
     0
 42
0.2
  3
txt
  4

  0
STYLE
  5
1D
330
3
100
AcDbSymbolTableRecord
100
AcDbTextStyleTableRecord
  2
STD
 70
     0
 40
0.0
 41
1.0
 50
0.0
 71
     0
 42
0.2
  3
txt
  4

  0
STYLE
  5
1E
330
3
100
AcDbSymbolTableRecord
100
AcDbTextStyleTableRecord
  2
TATESTD
 70
     4
 40
0.0
 41
1.0
 50
0.0
 71
     0
 42
0.2
  3
txt
  4

  0
STYLE
  5
1F
330
3
100
AcDbSymbolTableRecord
100
AcDbTextStyleTableRecord
  2
KANJISTD
 70
     0
 40
0.0
 41
1.0
 50
0.0
 71
     0
 42
0.2
  3
txt
  4
extfont
  0
STYLE
  5
20
330
3
100
AcDbSymbolTableRecord
100
AcDbTextStyleTableRecord
  2
KANJITATE
 70
     4
 40
0.0
 41
1.0
 50
0.0
 71
     0
 42
0.2
  3
txt
  4
extfont
  0
ENDTAB
  0
TABLE
  2
VIEW
  5
5
330
0
100
AcDbSymbolTable
 70
     0
  0
ENDTAB
  0
TABLE
  2
UCS
  5
6
330
0
100
AcDbSymbolTable
 70
     0
  0
ENDTAB
  0
TABLE
  2
APPID
  5
8
330
0
100
AcDbSymbolTable
 70
     1
  0
APPID
  5
16
330
8
100
AcDbSymbolTableRecord
100
AcDbRegAppTableRecord
  2
ACAD
 70
     0
  0
ENDTAB
  0
TABLE
  2
DIMSTYLE
  5
9
330
0
100
AcDbSymbolTable
 70
     1
100
AcDbDimStyleTable
  0
DIMSTYLE
105
18
330
9
100
AcDbSymbolTableRecord
100
AcDbDimStyleTableRecord
  2
STANDARD
 70
     0
  3

  4

289
     0
340
17
  0
ENDTAB
  0
TABLE
  2
BLOCK_RECORD
  5
1
330
0
100
AcDbSymbolTable
 70
     8
  0
BLOCK_RECORD
  5
A
330
1
100
AcDbSymbolTableRecord
100
AcDbBlockTableRecord
  2
*MODEL_SPACE
340
EE
  0
BLOCK_RECORD
  5
B
330
1
100
AcDbSymbolTableRecord
100
AcDbBlockTableRecord
  2
*PAPER_SPACE
340
EF
  0
BLOCK_RECORD
  5
22
330
1
100
AcDbSymbolTableRecord
100
AcDbBlockTableRecord
  2
AI9-BLK1
340
0
102
{BLKREFS
331
23
102
}
  0
BLOCK_RECORD
  5
28
330
1
100
AcDbSymbolTableRecord
100
AcDbBlockTableRecord
  2
AI9-BLK2
340
0
102
{BLKREFS
331
29
102
}
  0
BLOCK_RECORD
  5
2E
330
1
100
AcDbSymbolTableRecord
100
AcDbBlockTableRecord
  2
AI9-BLK3
340
0
102
{BLKREFS
331
2F
102
}
  0
BLOCK_RECORD
  5
34
330
1
100
AcDbSymbolTableRecord
100
AcDbBlockTableRecord
  2
AI9-BLK4
340
0
102
{BLKREFS
331
35
102
}
  0
BLOCK_RECORD
  5
3A
330
1
100
AcDbSymbolTableRecord
100
AcDbBlockTableRecord
  2
AI9-BLK5
340
0
102
{BLKREFS
331
3B
102
}
  0
BLOCK_RECORD
  5
40
330
1
100
AcDbSymbolTableRecord
100
AcDbBlockTableRecord
  2
AI9-BLK6
340
0
102
{BLKREFS
331
41
102
}
  0
BLOCK_RECORD
  5
46
330
1
100
AcDbSymbolTableRecord
100
AcDbBlockTableRecord
  2
AI9-BLK7
340
0
102
{BLKREFS
331
47
102
}
  0
BLOCK_RECORD
  5
4C
330
1
100
AcDbSymbolTableRecord
100
AcDbBlockTableRecord
  2
AI9-BLK8
340
0
102
{BLKREFS
331
4D
102
}
  0
ENDTAB
  0
ENDSEC
  0
SECTION
  2
BLOCKS
  0
BLOCK
  5
D
330
A
100
AcDbEntity
  8
0
100
AcDbBlockBegin
  2
*MODEL_SPACE
 70
     0
 10
0.0
 20
0.0
 30
0.0
  3
*MODEL_SPACE
  1

  4

  0
ENDBLK
  5
E
330
A
100
AcDbEntity
  8
0
100
AcDbBlockEnd
  0
BLOCK
  5
F
330
B
100
AcDbEntity
 67
     1
  8
0
100
AcDbBlockBegin
  2
*PAPER_SPACE
 70
     0
 10
0.0
 20
0.0
 30
0.0
  3
*PAPER_SPACE
  1

  4

  0
ENDBLK
  5
10
330
B
100
AcDbEntity
 67
     1
  8
0
100
AcDbBlockEnd
  0
BLOCK
  5
24
330
22
100
AcDbEntity
  8
LAYER_1
 62
     7
100
AcDbBlockBegin
  2
AI9-BLK1
 70
     0
 10
0.0
 20
0.0
 30
0.0
  3
AI9-BLK1
  1

  4

  0
ELLIPSE
  5
26
330
22
100
AcDbEntity
  8
LAYER_1
 62
     7
100
AcDbEllipse
 10
0.2970533582899305
 20
-0.1129130045572917
 30
0.0
 11
-0.3917934841579861
 21
-1.392938232421875
 31
0.0
210
0.0
220
0.0
230
1.0
 40
0.7210341736862075
 41
0.0
 42
6.283185307179586
  0
SPLINE
  5
25
330
22
100
AcDbEntity
  8
LAYER_1
 62
     7
100
AcDbSpline
210
0.0
220
0.0
230
1.0
 70
    11
 71
     3
 72
    29
 73
    25
 74
     0
 42
0.0000000001
 43
0.0000000001
 40
0.0
 40
0.0
 40
0.0
 40
0.0
 40
1.0
 40
1.0
 40
1.0
 40
2.0
 40
2.0
 40
2.0
 40
3.0
 40
3.0
 40
3.0
 40
4.0
 40
4.0
 40
4.0
 40
5.0
 40
5.0
 40
5.0
 40
6.0
 40
6.0
 40
6.0
 40
7.0
 40
7.0
 40
7.0
 40
8.0
 40
8.0
 40
8.0
 40
8.0
 10
0.6891913519965277
 20
1.279680718315972
 30
0.0
 10
0.595657009548611
 20
1.305691189236111
 30
0.0
 10
0.5002278645833332
 20
1.307413736979167
 30
0.0
 10
0.4051432291666666
 20
1.298284233940972
 30
0.0
 10
0.3145372178819444
 20
1.380105251736111
 30
0.0
 10
0.2125623914930555
 20
1.444528537326389
 30
0.0
 10
0.0942233615451389
 20
1.478118218315972
 30
0.0
 10
-0.4600925021701389
 20
1.6340087890625
 30
0.0
 10
-1.085549587673611
 20
1.137398274739583
 30
0.0
 10
-1.30224609375
 20
0.3681084526909722
 30
0.0
 10
-1.518425835503472
 20
-0.4008368598090277
 30
0.0
 10
-1.244368489583333
 20
-1.151178656684028
 30
0.0
 10
-0.6895358615451388
 20
-1.307413736979167
 30
0.0
 10
-0.5961737738715277
 20
-1.333596462673611
 30
0.0
 10
-0.5005723741319444
 20
-1.335146755642361
 30
0.0
 10
-0.4054877387152778
 20
-1.326017252604167
 30
0.0
 10
-0.3150539822048611
 20
-1.408010525173611
 30
0.0
 10
-0.2129069010416667
 20
-1.472433810763889
 30
0.0
 10
-0.0947401258680556
 20
-1.505851236979167
 30
0.0
 10
0.4597479926215277
 20
-1.661741807725694
 30
0.0
 10
1.084860568576389
 20
-1.164786783854167
 30
0.0
 10
1.301384819878472
 20
-0.3954969618055556
 30
0.0
 10
1.517564561631944
 20
0.3731038411458333
 30
0.0
 10
1.244023980034722
 20
1.123445638020833
 30
0.0
 10
0.6891913519965277
 20
1.279680718315972
 30
0.0
  0
ENDBLK
  5
27
330
22
100
AcDbEntity
  8
LAYER_1
100
AcDbBlockEnd
  0
BLOCK
  5
2A
330
28
100
AcDbEntity
  8
LAYER_1
 62
     7
100
AcDbBlockBegin
  2
AI9-BLK2
 70
     0
 10
0.0
 20
0.0
 30
0.0
  3
AI9-BLK2
  1

  4

  0
ELLIPSE
  5
2C
330
28
100
AcDbEntity
  8
LAYER_1
 62
     7
100
AcDbEllipse
 10
0.2970533582899305
 20
-0.1129130045572917
 30
0.0
 11
-0.3917934841579861
 21
-1.392938232421875
 31
0.0
210
0.0
220
0.0
230
1.0
 40
0.7210341736862075
 41
0.0
 42
6.283185307179586
  0
SPLINE
  5
2B
330
28
100
AcDbEntity
  8
LAYER_1
 62
     7
100
AcDbSpline
210
0.0
220
0.0
230
1.0
 70
    11
 71
     3
 72
    29
 73
    25
 74
     0
 42
0.0000000001
 43
0.0000000001
 40
0.0
 40
0.0
 40
0.0
 40
0.0
 40
1.0
 40
1.0
 40
1.0
 40
2.0
 40
2.0
 40
2.0
 40
3.0
 40
3.0
 40
3.0
 40
4.0
 40
4.0
 40
4.0
 40
5.0
 40
5.0
 40
5.0
 40
6.0
 40
6.0
 40
6.0
 40
7.0
 40
7.0
 40
7.0
 40
8.0
 40
8.0
 40
8.0
 40
8.0
 10
0.6891913519965277
 20
1.279680718315972
 30
0.0
 10
0.595657009548611
 20
1.305691189236111
 30
0.0
 10
0.5002278645833332
 20
1.307413736979167
 30
0.0
 10
0.4051432291666666
 20
1.298284233940972
 30
0.0
 10
0.3145372178819444
 20
1.380105251736111
 30
0.0
 10
0.2125623914930555
 20
1.444528537326389
 30
0.0
 10
0.0942233615451389
 20
1.478118218315972
 30
0.0
 10
-0.4600925021701389
 20
1.6340087890625
 30
0.0
 10
-1.085549587673611
 20
1.137398274739583
 30
0.0
 10
-1.30224609375
 20
0.3681084526909722
 30
0.0
 10
-1.518425835503472
 20
-0.4008368598090277
 30
0.0
 10
-1.244368489583333
 20
-1.151178656684028
 30
0.0
 10
-0.6895358615451388
 20
-1.307413736979167
 30
0.0
 10
-0.5961737738715277
 20
-1.333596462673611
 30
0.0
 10
-0.5005723741319444
 20
-1.335146755642361
 30
0.0
 10
-0.4054877387152778
 20
-1.326017252604167
 30
0.0
 10
-0.3150539822048611
 20
-1.408010525173611
 30
0.0
 10
-0.2129069010416667
 20
-1.472433810763889
 30
0.0
 10
-0.0947401258680556
 20
-1.505851236979167
 30
0.0
 10
0.4597479926215277
 20
-1.661741807725694
 30
0.0
 10
1.084860568576389
 20
-1.164786783854167
 30
0.0
 10
1.301384819878472
 20
-0.3954969618055556
 30
0.0
 10
1.517564561631944
 20
0.3731038411458333
 30
0.0
 10
1.244023980034722
 20
1.123445638020833
 30
0.0
 10
0.6891913519965277
 20
1.279680718315972
 30
0.0
  0
ENDBLK
  5
2D
330
28
100
AcDbEntity
  8
LAYER_1
100
AcDbBlockEnd
  0
BLOCK
  5
30
330
2E
100
AcDbEntity
  8
LAYER_1
 62
     7
100
AcDbBlockBegin
  2
AI9-BLK3
 70
     0
 10
0.0
 20
0.0
 30
0.0
  3
AI9-BLK3
  1

  4

  0
ELLIPSE
  5
32
330
2E
100
AcDbEntity
  8
LAYER_1
 62
     7
100
AcDbEllipse
 10
-0.2190219455295139
 20
-0.1696709526909722
 30
0.0
 11
0.2605353461371527
 21
-1.423599582248264
 31
0.0
210
0.0
220
0.0
230
1.0
 40
0.8063442646126761
 41
0.0
 42
6.283185307179586
  0
SPLINE
  5
31
330
2E
100
AcDbEntity
  8
LAYER_1
 62
     7
100
AcDbSpline
210
0.0
220
0.0
230
1.0
 70
    11
 71
     3
 72
    23
 73
    19
 74
     0
 42
0.0000000001
 43
0.0000000001
 40
0.0
 40
0.0
 40
0.0
 40
0.0
 40
1.0
 40
1.0
 40
1.0
 40
2.0
 40
2.0
 40
2.0
 40
3.0
 40
3.0
 40
3.0
 40
4.0
 40
4.0
 40
4.0
 40
5.0
 40
5.0
 40
5.0
 40
6.0
 40
6.0
 40
6.0
 40
6.0
 10
1.355817328559028
 20
0.3792188856336805
 30
0.0
 10
1.211467827690972
 20
1.164700656467014
 30
0.0
 10
0.5803263346354166
 20
1.707475450303819
 30
0.0
 10
-0.0530544704861111
 20
1.591203477647569
 30
0.0
 10
-0.3057522243923611
 20
1.54503919813368
 30
0.0
 10
-0.5181423611111111
 20
1.39776136610243
 30
0.0
 10
-0.6760999891493055
 20
1.191055636935764
 30
0.0
 10
-1.191658528645833
 20
0.9740146213107638
 30
0.0
 10
-1.494999186197917
 20
0.3199632432725694
 30
0.0
 10
-1.366841634114583
 20
-0.3802524142795138
 30
0.0
 10
-1.222664388020833
 20
-1.166250949435764
 30
0.0
 10
-0.5913506401909722
 20
-1.709025743272569
 30
0.0
 10
0.0415134006076389
 20
-1.593270534939236
 30
0.0
 10
0.2945556640625
 20
-1.546589491102431
 30
0.0
 10
0.5071180555555556
 20
-1.399311659071181
 30
0.0
 10
0.665420193142361
 20
-1.192605929904514
 30
0.0
 10
1.1813232421875
 20
-0.9755649142795138
 30
0.0
 10
1.484319390190972
 20
-0.3215135362413194
 30
0.0
 10
1.355817328559028
 20
0.3792188856336805
 30
0.0
  0
ENDBLK
  5
33
330
2E
100
AcDbEntity
  8
LAYER_1
100
AcDbBlockEnd
  0
BLOCK
  5
36
330
34
100
AcDbEntity
  8
LAYER_1
 62
     7
100
AcDbBlockBegin
  2
AI9-BLK4
 70
     0
 10
0.0
 20
0.0
 30
0.0
  3
AI9-BLK4
  1

  4

  0
ELLIPSE
  5
38
330
34
100
AcDbEntity
  8
LAYER_1
 62
     7
100
AcDbEllipse
 10
-0.2190219455295139
 20
-0.1696709526909722
 30
0.0
 11
0.2605353461371527
 21
-1.423599582248264
 31
0.0
210
0.0
220
0.0
230
1.0
 40
0.8063442646126761
 41
0.0
 42
6.283185307179586
  0
SPLINE
  5
37
330
34
100
AcDbEntity
  8
LAYER_1
 62
     7
100
AcDbSpline
210
0.0
220
0.0
230
1.0
 70
    11
 71
     3
 72
    23
 73
    19
 74
     0
 42
0.0000000001
 43
0.0000000001
 40
0.0
 40
0.0
 40
0.0
 40
0.0
 40
1.0
 40
1.0
 40
1.0
 40
2.0
 40
2.0
 40
2.0
 40
3.0
 40
3.0
 40
3.0
 40
4.0
 40
4.0
 40
4.0
 40
5.0
 40
5.0
 40
5.0
 40
6.0
 40
6.0
 40
6.0
 40
6.0
 10
1.355817328559028
 20
0.3792188856336805
 30
0.0
 10
1.211467827690972
 20
1.164700656467014
 30
0.0
 10
0.5803263346354166
 20
1.707475450303819
 30
0.0
 10
-0.0530544704861111
 20
1.591203477647569
 30
0.0
 10
-0.3057522243923611
 20
1.54503919813368
 30
0.0
 10
-0.5181423611111111
 20
1.39776136610243
 30
0.0
 10
-0.6760999891493055
 20
1.191055636935764
 30
0.0
 10
-1.191658528645833
 20
0.9740146213107638
 30
0.0
 10
-1.494999186197917
 20
0.3199632432725694
 30
0.0
 10
-1.366841634114583
 20
-0.3802524142795138
 30
0.0
 10
-1.222664388020833
 20
-1.166250949435764
 30
0.0
 10
-0.5913506401909722
 20
-1.709025743272569
 30
0.0
 10
0.0415134006076389
 20
-1.593270534939236
 30
0.0
 10
0.2945556640625
 20
-1.546589491102431
 30
0.0
 10
0.5071180555555556
 20
-1.399311659071181
 30
0.0
 10
0.665420193142361
 20
-1.192605929904514
 30
0.0
 10
1.1813232421875
 20
-0.9755649142795138
 30
0.0
 10
1.484319390190972
 20
-0.3215135362413194
 30
0.0
 10
1.355817328559028
 20
0.3792188856336805
 30
0.0
  0
ENDBLK
  5
39
330
34
100
AcDbEntity
  8
LAYER_1
100
AcDbBlockEnd
  0
BLOCK
  5
3C
330
3A
100
AcDbEntity
  8
LAYER_1
 62
     7
100
AcDbBlockBegin
  2
AI9-BLK5
 70
     0
 10
0.0
 20
0.0
 30
0.0
  3
AI9-BLK5
  1

  4

  0
ELLIPSE
  5
3E
330
3A
100
AcDbEntity
  8
LAYER_1
 62
     7
100
AcDbEllipse
 10
-0.2190219455295139
 20
-0.1696709526909722
 30
0.0
 11
0.2605353461371527
 21
-1.423599582248264
 31
0.0
210
0.0
220
0.0
230
1.0
 40
0.8063442646126761
 41
0.0
 42
6.283185307179586
  0
SPLINE
  5
3D
330
3A
100
AcDbEntity
  8
LAYER_1
 62
     7
100
AcDbSpline
210
0.0
220
0.0
230
1.0
 70
    11
 71
     3
 72
    23
 73
    19
 74
     0
 42
0.0000000001
 43
0.0000000001
 40
0.0
 40
0.0
 40
0.0
 40
0.0
 40
1.0
 40
1.0
 40
1.0
 40
2.0
 40
2.0
 40
2.0
 40
3.0
 40
3.0
 40
3.0
 40
4.0
 40
4.0
 40
4.0
 40
5.0
 40
5.0
 40
5.0
 40
6.0
 40
6.0
 40
6.0
 40
6.0
 10
1.355817328559028
 20
0.3792188856336805
 30
0.0
 10
1.211467827690972
 20
1.164700656467014
 30
0.0
 10
0.5803263346354166
 20
1.707475450303819
 30
0.0
 10
-0.0530544704861111
 20
1.591203477647569
 30
0.0
 10
-0.3057522243923611
 20
1.54503919813368
 30
0.0
 10
-0.5181423611111111
 20
1.39776136610243
 30
0.0
 10
-0.6760999891493055
 20
1.191055636935764
 30
0.0
 10
-1.191658528645833
 20
0.9740146213107638
 30
0.0
 10
-1.494999186197917
 20
0.3199632432725694
 30
0.0
 10
-1.366841634114583
 20
-0.3802524142795138
 30
0.0
 10
-1.222664388020833
 20
-1.166250949435764
 30
0.0
 10
-0.5913506401909722
 20
-1.709025743272569
 30
0.0
 10
0.0415134006076389
 20
-1.593270534939236
 30
0.0
 10
0.2945556640625
 20
-1.546589491102431
 30
0.0
 10
0.5071180555555556
 20
-1.399311659071181
 30
0.0
 10
0.665420193142361
 20
-1.192605929904514
 30
0.0
 10
1.1813232421875
 20
-0.9755649142795138
 30
0.0
 10
1.484319390190972
 20
-0.3215135362413194
 30
0.0
 10
1.355817328559028
 20
0.3792188856336805
 30
0.0
  0
ENDBLK
  5
3F
330
3A
100
AcDbEntity
  8
LAYER_1
100
AcDbBlockEnd
  0
BLOCK
  5
42
330
40
100
AcDbEntity
  8
LAYER_1
 62
     7
100
AcDbBlockBegin
  2
AI9-BLK6
 70
     0
 10
0.0
 20
0.0
 30
0.0
  3
AI9-BLK6
  1

  4

  0
ELLIPSE
  5
44
330
40
100
AcDbEntity
  8
LAYER_1
 62
     7
100
AcDbEllipse
 10
-0.2074808756510417
 20
-0.1686374240451389
 30
0.0
 11
0.2605353461371527
 21
-1.423599582248264
 31
0.0
210
0.0
220
0.0
230
1.0
 40
0.8063442646126761
 41
0.0
 42
6.283185307179586
  0
SPLINE
  5
43
330
40
100
AcDbEntity
  8
LAYER_1
 62
     7
100
AcDbSpline
210
0.0
220
0.0
230
1.0
 70
    11
 71
     3
 72
    23
 73
    19
 74
     0
 42
0.0000000001
 43
0.0000000001
 40
0.0
 40
0.0
 40
0.0
 40
0.0
 40
1.0
 40
1.0
 40
1.0
 40
2.0
 40
2.0
 40
2.0
 40
3.0
 40
3.0
 40
3.0
 40
4.0
 40
4.0
 40
4.0
 40
5.0
 40
5.0
 40
5.0
 40
6.0
 40
6.0
 40
6.0
 40
6.0
 10
1.3673583984375
 20
0.3802524142795138
 30
0.0
 10
1.223008897569444
 20
1.165734185112847
 30
0.0
 10
0.5918674045138889
 20
1.708508978949653
 30
0.0
 10
-0.0415134006076389
 20
1.592237006293403
 30
0.0
 10
-0.2942111545138889
 20
1.546072726779514
 30
0.0
 10
-0.5066012912326389
 20
1.398794894748264
 30
0.0
 10
-0.6645589192708333
 20
1.192089165581597
 30
0.0
 10
-1.180117458767361
 20
0.9750481499565972
 30
0.0
 10
-1.483458116319444
 20
0.3209967719184028
 30
0.0
 10
-1.355300564236111
 20
-0.3792188856336805
 30
0.0
 10
-1.211123318142361
 20
-1.16521742078993
 30
0.0
 10
-0.5798095703124999
 20
-1.707992214626736
 30
0.0
 10
0.0530544704861111
 20
-1.592237006293403
 30
0.0
 10
0.3060967339409722
 20
-1.545555962456597
 30
0.0
 10
0.5186591254340277
 20
-1.398278130425347
 30
0.0
 10
0.6769612630208333
 20
-1.19157240125868
 30
0.0
 10
1.192864312065972
 20
-0.9745313856336805
 30
0.0
 10
1.495860460069444
 20
-0.3204800075954861
 30
0.0
 10
1.3673583984375
 20
0.3802524142795138
 30
0.0
  0
ENDBLK
  5
45
330
40
100
AcDbEntity
  8
LAYER_1
100
AcDbBlockEnd
  0
BLOCK
  5
48
330
46
100
AcDbEntity
  8
LAYER_1
 62
     7
100
AcDbBlockBegin
  2
AI9-BLK7
 70
     0
 10
0.0
 20
0.0
 30
0.0
  3
AI9-BLK7
  1

  4

  0
ELLIPSE
  5
4A
330
46
100
AcDbEntity
  8
LAYER_1
 62
     7
100
AcDbEllipse
 10
0.2970533582899305
 20
-0.1129130045572917
 30
0.0
 11
-0.3917934841579861
 21
-1.392938232421875
 31
0.0
210
0.0
220
0.0
230
1.0
 40
0.7210341736862075
 41
0.0
 42
6.283185307179586
  0
SPLINE
  5
49
330
46
100
AcDbEntity
  8
LAYER_1
 62
     7
100
AcDbSpline
210
0.0
220
0.0
230
1.0
 70
    11
 71
     3
 72
    29
 73
    25
 74
     0
 42
0.0000000001
 43
0.0000000001
 40
0.0
 40
0.0
 40
0.0
 40
0.0
 40
1.0
 40
1.0
 40
1.0
 40
2.0
 40
2.0
 40
2.0
 40
3.0
 40
3.0
 40
3.0
 40
4.0
 40
4.0
 40
4.0
 40
5.0
 40
5.0
 40
5.0
 40
6.0
 40
6.0
 40
6.0
 40
7.0
 40
7.0
 40
7.0
 40
8.0
 40
8.0
 40
8.0
 40
8.0
 10
0.6891913519965277
 20
1.279680718315972
 30
0.0
 10
0.595657009548611
 20
1.305691189236111
 30
0.0
 10
0.5002278645833332
 20
1.307413736979167
 30
0.0
 10
0.4051432291666666
 20
1.298284233940972
 30
0.0
 10
0.3145372178819444
 20
1.380105251736111
 30
0.0
 10
0.2125623914930555
 20
1.444528537326389
 30
0.0
 10
0.0942233615451389
 20
1.478118218315972
 30
0.0
 10
-0.4600925021701389
 20
1.6340087890625
 30
0.0
 10
-1.085549587673611
 20
1.137398274739583
 30
0.0
 10
-1.30224609375
 20
0.3681084526909722
 30
0.0
 10
-1.518425835503472
 20
-0.4008368598090277
 30
0.0
 10
-1.244368489583333
 20
-1.151178656684028
 30
0.0
 10
-0.6895358615451388
 20
-1.307413736979167
 30
0.0
 10
-0.5961737738715277
 20
-1.333596462673611
 30
0.0
 10
-0.5005723741319444
 20
-1.335146755642361
 30
0.0
 10
-0.4054877387152778
 20
-1.326017252604167
 30
0.0
 10
-0.3150539822048611
 20
-1.408010525173611
 30
0.0
 10
-0.2129069010416667
 20
-1.472433810763889
 30
0.0
 10
-0.0947401258680556
 20
-1.505851236979167
 30
0.0
 10
0.4597479926215277
 20
-1.661741807725694
 30
0.0
 10
1.084860568576389
 20
-1.164786783854167
 30
0.0
 10
1.301384819878472
 20
-0.3954969618055556
 30
0.0
 10
1.517564561631944
 20
0.3731038411458333
 30
0.0
 10
1.244023980034722
 20
1.123445638020833
 30
0.0
 10
0.6891913519965277
 20
1.279680718315972
 30
0.0
  0
ENDBLK
  5
4B
330
46
100
AcDbEntity
  8
LAYER_1
100
AcDbBlockEnd
  0
BLOCK
  5
4E
330
4C
100
AcDbEntity
  8
LAYER_1
 62
     7
100
AcDbBlockBegin
  2
AI9-BLK8
 70
     0
 10
0.0
 20
0.0
 30
0.0
  3
AI9-BLK8
  1

  4

  0
ELLIPSE
  5
50
330
4C
100
AcDbEntity
  8
LAYER_1
 62
     7
100
AcDbEllipse
 10
0.2970533582899305
 20
-0.1129130045572917
 30
0.0
 11
-0.3917934841579861
 21
-1.392938232421875
 31
0.0
210
0.0
220
0.0
230
1.0
 40
0.7210341736862075
 41
0.0
 42
6.283185307179586
  0
SPLINE
  5
4F
330
4C
100
AcDbEntity
  8
LAYER_1
 62
     7
100
AcDbSpline
210
0.0
220
0.0
230
1.0
 70
    11
 71
     3
 72
    29
 73
    25
 74
     0
 42
0.0000000001
 43
0.0000000001
 40
0.0
 40
0.0
 40
0.0
 40
0.0
 40
1.0
 40
1.0
 40
1.0
 40
2.0
 40
2.0
 40
2.0
 40
3.0
 40
3.0
 40
3.0
 40
4.0
 40
4.0
 40
4.0
 40
5.0
 40
5.0
 40
5.0
 40
6.0
 40
6.0
 40
6.0
 40
7.0
 40
7.0
 40
7.0
 40
8.0
 40
8.0
 40
8.0
 40
8.0
 10
0.6891913519965277
 20
1.279680718315972
 30
0.0
 10
0.595657009548611
 20
1.305691189236111
 30
0.0
 10
0.5002278645833332
 20
1.307413736979167
 30
0.0
 10
0.4051432291666666
 20
1.298284233940972
 30
0.0
 10
0.3145372178819444
 20
1.380105251736111
 30
0.0
 10
0.2125623914930555
 20
1.444528537326389
 30
0.0
 10
0.0942233615451389
 20
1.478118218315972
 30
0.0
 10
-0.4600925021701389
 20
1.6340087890625
 30
0.0
 10
-1.085549587673611
 20
1.137398274739583
 30
0.0
 10
-1.30224609375
 20
0.3681084526909722
 30
0.0
 10
-1.518425835503472
 20
-0.4008368598090277
 30
0.0
 10
-1.244368489583333
 20
-1.151178656684028
 30
0.0
 10
-0.6895358615451388
 20
-1.307413736979167
 30
0.0
 10
-0.5961737738715277
 20
-1.333596462673611
 30
0.0
 10
-0.5005723741319444
 20
-1.335146755642361
 30
0.0
 10
-0.4054877387152778
 20
-1.326017252604167
 30
0.0
 10
-0.3150539822048611
 20
-1.408010525173611
 30
0.0
 10
-0.2129069010416667
 20
-1.472433810763889
 30
0.0
 10
-0.0947401258680556
 20
-1.505851236979167
 30
0.0
 10
0.4597479926215277
 20
-1.661741807725694
 30
0.0
 10
1.084860568576389
 20
-1.164786783854167
 30
0.0
 10
1.301384819878472
 20
-0.3954969618055556
 30
0.0
 10
1.517564561631944
 20
0.3731038411458333
 30
0.0
 10
1.244023980034722
 20
1.123445638020833
 30
0.0
 10
0.6891913519965277
 20
1.279680718315972
 30
0.0
  0
ENDBLK
  5
51
330
4C
100
AcDbEntity
  8
LAYER_1
100
AcDbBlockEnd
  0
ENDSEC
  0
SECTION
  2
ENTITIES
  0
SPLINE
  5
E8
330
A
100
AcDbEntity
  8
LAYER_1
 62
     7
100
AcDbSpline
210
0.0
220
0.0
230
1.0
 70
     8
 71
     3
 72
    77
 73
    73
 74
     0
 42
0.0000000001
 43
0.0000000001
 40
0.0
 40
0.0
 40
0.0
 40
0.0
 40
1.0
 40
1.0
 40
1.0
 40
2.0
 40
2.0
 40
2.0
 40
3.0
 40
3.0
 40
3.0
 40
4.0
 40
4.0
 40
4.0
 40
5.0
 40
5.0
 40
5.0
 40
6.0
 40
6.0
 40
6.0
 40
7.0
 40
7.0
 40
7.0
 40
8.0
 40
8.0
 40
8.0
 40
9.0
 40
9.0
 40
9.0
 40
10.0
 40
10.0
 40
10.0
 40
11.0
 40
11.0
 40
11.0
 40
12.0
 40
12.0
 40
12.0
 40
13.0
 40
13.0
 40
13.0
 40
14.0
 40
14.0
 40
14.0
 40
15.0
 40
15.0
 40
15.0
 40
16.0
 40
16.0
 40
16.0
 40
17.0
 40
17.0
 40
17.0
 40
18.0
 40
18.0
 40
18.0
 40
19.0
 40
19.0
 40
19.0
 40
20.0
 40
20.0
 40
20.0
 40
21.0
 40
21.0
 40
21.0
 40
22.0
 40
22.0
 40
22.0
 40
23.0
 40
23.0
 40
23.0
 40
24.0
 40
24.0
 40
24.0
 40
24.0
 10
81.00435791015624
 20
116.3866943359375
 30
0.0
 10
81.00435791015624
 20
116.3866943359375
 30
0.0
 10
46.25488552517361
 20
136.791650390625
 30
0.0
 10
46.25488552517361
 20
136.791650390625
 30
0.0
 10
46.25488552517361
 20
136.791650390625
 30
0.0
 10
46.25488552517361
 20
150.6474799262153
 30
0.0
 10
46.25488552517361
 20
150.6474799262153
 30
0.0
 10
46.25488552517361
 20
150.6474799262153
 30
0.0
 10
62.48369683159721
 20
155.5469224717882
 30
0.0
 10
62.48369683159721
 20
155.5469224717882
 30
0.0
 10
62.48369683159721
 20
155.5469224717882
 30
0.0
 10
64.93419325086805
 20
155.5469224717882
 30
0.0
 10
64.93419325086805
 20
155.5469224717882
 30
0.0
 10
64.93419325086805
 20
155.5469224717882
 30
0.0
 10
64.97243381076389
 20
158.5896308051215
 30
0.0
 10
64.97243381076389
 20
158.5896308051215
 30
0.0
 10
64.97243381076389
 20
158.5896308051215
 30
0.0
 10
71.45989312065971
 20
158.1455579969618
 30
0.0
 10
71.45989312065971
 20
158.1455579969618
 30
0.0
 10
71.45989312065971
 20
158.1455579969618
 30
0.0
 10
79.78479410807292
 20
160.77158203125
 30
0.0
 10
79.78479410807292
 20
160.77158203125
 30
0.0
 10
79.78479410807292
 20
160.77158203125
 30
0.0
 10
87.65115288628472
 20
156.5806233723958
 30
0.0
 10
87.65115288628472
 20
156.5806233723958
 30
0.0
 10
87.65115288628472
 20
156.5806233723958
 30
0.0
 10
87.96672363281249
 20
191.200732421875
 30
0.0
 10
87.96672363281249
 20
191.200732421875
 30
0.0
 10
87.96672363281249
 20
191.200732421875
 30
0.0
 10
101.5453952365451
 20
194.4448065863715
 30
0.0
 10
101.5453952365451
 20
194.4448065863715
 30
0.0
 10
101.5453952365451
 20
194.4448065863715
 30
0.0
 10
103.8127848307292
 20
198.6938151041667
 30
0.0
 10
103.8127848307292
 20
198.6938151041667
 30
0.0
 10
103.8127848307292
 20
198.6938151041667
 30
0.0
 10
109.1526828342014
 20
196.1675265842014
 30
0.0
 10
109.1526828342014
 20
196.1675265842014
 30
0.0
 10
109.1526828342014
 20
196.1675265842014
 30
0.0
 10
123.1611300998264
 20
199.6119330512153
 30
0.0
 10
123.1611300998264
 20
199.6119330512153
 30
0.0
 10
123.1611300998264
 20
199.6119330512153
 30
0.0
 10
135.7061008029514
 20
193.6980821397569
 30
0.0
 10
135.7061008029514
 20
193.6980821397569
 30
0.0
 10
135.7061008029514
 20
193.6980821397569
 30
0.0
 10
135.0744425455729
 20
131.7488918728299
 30
0.0
 10
135.0744425455729
 20
131.7488918728299
 30
0.0
 10
135.0744425455729
 20
131.7488918728299
 30
0.0
 10
167.3701456705729
 20
114.8117689344618
 30
0.0
 10
167.3701456705729
 20
114.8117689344618
 30
0.0
 10
167.3701456705729
 20
114.8117689344618
 30
0.0
 10
167.2552517361111
 20
99.19497884114583
 30
0.0
 10
167.2552517361111
 20
99.19497884114583
 30
0.0
 10
167.2552517361111
 20
99.19497884114583
 30
0.0
 10
156.7201497395833
 20
94.97508138020832
 30
0.0
 10
156.7201497395833
 20
94.97508138020832
 30
0.0
 10
156.7201497395833
 20
94.97508138020832
 30
0.0
 10
153.3608371310764
 20
95.7216335720486
 30
0.0
 10
153.3608371310764
 20
95.7216335720486
 30
0.0
 10
153.3608371310764
 20
95.7216335720486
 30
0.0
 10
153.3608371310764
 20
91.5296413845486
 30
0.0
 10
153.3608371310764
 20
91.5296413845486
 30
0.0
 10
153.3608371310764
 20
91.5296413845486
 30
0.0
 10
153.6192192925347
 20
90.75501166449652
 30
0.0
 10
152.2699476453993
 20
90.75501166449652
 30
0.0
 10
152.2699476453993
 20
90.75501166449652
 30
0.0
 10
147.0168660481771
 20
90.89815538194443
 30
0.0
 10
147.0168660481771
 20
90.89815538194443
 30
0.0
 10
147.0168660481771
 20
90.89815538194443
 30
0.0
 10
133.5530883789062
 20
85.5300075954861
 30
0.0
 10
133.5530883789062
 20
85.5300075954861
 30
0.0
 10
133.5530883789062
 20
85.5300075954861
 30
0.0
 10
99.4824720594618
 20
105.5361938476562
 30
0.0
 10
99.4824720594618
 20
105.5361938476562
 30
0.0
  0
SPLINE
  5
E7
330
A
100
AcDbEntity
  8
LAYER_1
 62
     7
100
AcDbSpline
210
0.0
220
0.0
230
1.0
 70
    11
 71
     3
 72
    56
 73
    52
 74
     0
 42
0.0000000001
 43
0.0000000001
 40
0.0
 40
0.0
 40
0.0
 40
0.0
 40
1.0
 40
1.0
 40
1.0
 40
2.0
 40
2.0
 40
2.0
 40
3.0
 40
3.0
 40
3.0
 40
4.0
 40
4.0
 40
4.0
 40
5.0
 40
5.0
 40
5.0
 40
6.0
 40
6.0
 40
6.0
 40
7.0
 40
7.0
 40
7.0
 40
8.0
 40
8.0
 40
8.0
 40
9.0
 40
9.0
 40
9.0
 40
10.0
 40
10.0
 40
10.0
 40
11.0
 40
11.0
 40
11.0
 40
12.0
 40
12.0
 40
12.0
 40
13.0
 40
13.0
 40
13.0
 40
14.0
 40
14.0
 40
14.0
 40
15.0
 40
15.0
 40
15.0
 40
16.0
 40
16.0
 40
16.0
 40
17.0
 40
17.0
 40
17.0
 40
17.0
 10
81.13423800998264
 20
115.1271674262153
 30
0.0
 10
81.13423800998264
 20
115.1271674262153
 30
0.0
 10
81.04793836805555
 20
119.0600884331597
 30
0.0
 10
81.04793836805555
 20
119.0600884331597
 30
0.0
 10
81.04793836805555
 20
119.0600884331597
 30
0.0
 10
96.72191704644096
 20
142.7146308051215
 30
0.0
 10
96.72191704644096
 20
142.7146308051215
 30
0.0
 10
96.72191704644096
 20
142.7146308051215
 30
0.0
 10
99.13331163194444
 20
144.5233059353299
 30
0.0
 10
99.13331163194444
 20
144.5233059353299
 30
0.0
 10
99.13331163194444
 20
144.5233059353299
 30
0.0
 10
100.0231797960069
 20
144.6953884548611
 30
0.0
 10
100.0231797960069
 20
144.6953884548611
 30
0.0
 10
100.0231797960069
 20
144.6953884548611
 30
0.0
 10
100.8560316297743
 20
144.322112358941
 30
0.0
 10
100.8560316297743
 20
144.322112358941
 30
0.0
 10
100.8560316297743
 20
144.322112358941
 30
0.0
 10
101.4875176323785
 20
143.949525282118
 30
0.0
 10
102.0900648328993
 20
144.2359849717882
 30
0.0
 10
102.0900648328993
 20
144.2359849717882
 30
0.0
 10
112.2527520073785
 20
147.4800591362847
 30
0.0
 10
112.2527520073785
 20
147.4800591362847
 30
0.0
 10
112.2527520073785
 20
147.4800591362847
 30
0.0
 10
113.5158962673611
 20
146.9347005208333
 30
0.0
 10
113.5158962673611
 20
146.9347005208333
 30
0.0
 10
113.5158962673611
 20
146.9347005208333
 30
0.0
 10
115.8701022677951
 20
143.6906263563368
 30
0.0
 10
115.8701022677951
 20
143.6906263563368
 30
0.0
 10
115.8701022677951
 20
143.6906263563368
 30
0.0
 10
108.3771918402778
 20
126.0646565755208
 30
0.0
 10
108.3771918402778
 20
126.0646565755208
 30
0.0
 10
108.3771918402778
 20
126.0646565755208
 30
0.0
 10
101.1142415364583
 20
123.6244954427083
 30
0.0
 10
101.1142415364583
 20
123.6244954427083
 30
0.0
 10
101.1142415364583
 20
123.6244954427083
 30
0.0
 10
100.9419867621528
 20
110.2184231228299
 30
0.0
 10
100.9419867621528
 20
110.2184231228299
 30
0.0
 10
100.9419867621528
 20
110.2184231228299
 30
0.0
 10
99.93705240885416
 20
109.7590196397569
 30
0.0
 10
99.93705240885416
 20
109.7590196397569
 30
0.0
 10
99.93705240885416
 20
109.7590196397569
 30
0.0
 10
99.4206325954861
 20
109.0703450520833
 30
0.0
 10
99.4206325954861
 20
109.0703450520833
 30
0.0
 10
99.4206325954861
 20
109.0703450520833
 30
0.0
 10
99.44957139756943
 20
105.48193359375
 30
0.0
 10
99.44957139756943
 20
105.48193359375
 30
0.0
 10
99.44957139756943
 20
105.48193359375
 30
0.0
 10
98.32957085503472
 20
105.0516411675347
 30
0.0
 10
98.32957085503472
 20
105.0516411675347
 30
0.0
 10
98.32957085503472
 20
105.0516411675347
 30
0.0
 10
81.13423800998264
 20
115.1271674262153
 30
0.0
 10
81.13423800998264
 20
115.1271674262153
 30
0.0
  0
LINE
  5
E6
330
A
100
AcDbEntity
  8
LAYER_1
 62
     7
100
AcDbLine
 10
87.38794759114583
 20
129.1263129340278
 30
0.0
 11
87.93313395182291
 21
191.0675794813368
 31
0.0
  0
LINE
  5
E5
330
A
100
AcDbEntity
  8
LAYER_1
 62
     7
100
AcDbLine
 10
87.96672363281249
 20
191.200732421875
 30
0.0
 11
101.5453952365451
 21
194.4117336697048
 31
0.0
  0
LINE
  5
E4
330
A
100
AcDbEntity
  8
LAYER_1
 62
     7
100
AcDbLine
 10
101.478215874566
 20
194.5779595269097
 30
0.0
 11
103.7461222330729
 21
198.5606621636285
 31
0.0
  0
LINE
  5
E3
330
A
100
AcDbEntity
  8
LAYER_1
 62
     7
100
AcDbLine
 10
103.8460300021701
 20
198.7270602756076
 30
0.0
 11
109.1185763888889
 21
196.1341091579861
 31
0.0
  0
LINE
  5
E2
330
A
100
AcDbEntity
  8
LAYER_1
 62
     7
100
AcDbLine
 10
109.2141777886285
 20
196.1914699978298
 30
0.0
 11
123.1611300998264
 21
199.5454427083333
 31
0.0
  0
LINE
  5
E1
330
A
100
AcDbEntity
  8
LAYER_1
 62
     7
100
AcDbLine
 10
123.3609456380208
 20
199.5454427083333
 30
0.0
 11
135.7061008029514
 21
193.6980821397569
 31
0.0
  0
LINE
  5
E0
330
A
100
AcDbEntity
  8
LAYER_1
 62
     7
100
AcDbLine
 10
135.7061008029514
 20
193.5985188802083
 30
0.0
 11
135.1080322265625
 21
131.7488918728299
 31
0.0
  0
LINE
  5
DF
330
A
100
AcDbEntity
  8
LAYER_1
 62
     7
100
AcDbLine
 10
135.1080322265625
 20
131.7488918728299
 30
0.0
 11
167.303655327691
 21
114.944921875
 31
0.0
  0
LINE
  5
DE
330
A
100
AcDbEntity
  8
LAYER_1
 62
     7
100
AcDbLine
 10
167.3701456705729
 20
114.7785237630208
 30
0.0
 11
167.2884969075521
 21
99.19497884114583
 31
0.0
  0
LINE
  5
DD
330
A
100
AcDbEntity
  8
LAYER_1
 62
     7
100
AcDbLine
 10
167.2884969075521
 20
99.19497884114583
 30
0.0
 11
156.7201497395833
 21
94.90859103732637
 31
0.0
  0
LINE
  5
DC
330
A
100
AcDbEntity
  8
LAYER_1
 62
     7
100
AcDbLine
 10
156.5478949652778
 20
94.86001519097222
 30
0.0
 11
153.5606526692708
 21
95.58779161241318
 31
0.0
  0
LINE
  5
DB
330
A
100
AcDbEntity
  8
LAYER_1
 62
     7
100
AcDbLine
 10
153.3608371310764
 20
95.7216335720486
 30
0.0
 11
153.3608371310764
 21
91.5296413845486
 31
0.0
  0
SPLINE
  5
DA
330
A
100
AcDbEntity
  8
LAYER_1
 62
     7
100
AcDbSpline
210
0.0
220
0.0
230
1.0
 70
     8
 71
     3
 72
    11
 73
     7
 74
     0
 42
0.0000000001
 43
0.0000000001
 40
0.0
 40
0.0
 40
0.0
 40
0.0
 40
1.0
 40
1.0
 40
1.0
 40
2.0
 40
2.0
 40
2.0
 40
2.0
 10
153.3608371310764
 20
91.5296413845486
 30
0.0
 10
153.3608371310764
 20
91.5296413845486
 30
0.0
 10
153.6192192925347
 20
90.55381808810763
 30
0.0
 10
152.3431559244792
 20
90.50110812717013
 30
0.0
 10
152.3431559244792
 20
90.50110812717013
 30
0.0
 10
147.0835286458333
 20
90.86491021050347
 30
0.0
 10
147.0835286458333
 20
90.86491021050347
 30
0.0
  0
LINE
  5
D9
330
A
100
AcDbEntity
  8
LAYER_1
 62
     7
100
AcDbLine
 10
146.9836208767361
 20
90.93157280815971
 30
0.0
 11
133.6529961480035
 21
85.5300075954861
 31
0.0
  0
LINE
  5
D8
330
A
100
AcDbEntity
  8
LAYER_1
 62
     7
100
AcDbLine
 10
133.5530883789062
 20
85.5300075954861
 30
0.0
 11
99.69331190321179
 21
105.3467135959201
 31
0.0
  0
LINE
  5
D7
330
A
100
AcDbEntity
  8
LAYER_1
 62
     7
100
AcDbLine
 10
80.71514214409721
 20
116.5017605251736
 30
0.0
 11
46.25488552517361
 21
136.6915703667535
 31
0.0
  0
LINE
  5
D6
330
A
100
AcDbEntity
  8
LAYER_1
 62
     7
100
AcDbLine
 10
46.25488552517361
 20
136.791650390625
 30
0.0
 11
46.25488552517361
 21
150.6474799262153
 31
0.0
  0
LWPOLYLINE
  5
D1
330
A
100
AcDbEntity
  8
LAYER_1
 62
     7
100
AcDbPolyline
 90
        3
 70
     0
 43
0.0
 10
46.35479329427083
 20
150.7141425238715
 10
62.51780327690972
 20
155.5799953884549
 10
67.62326253255208
 20
155.4034342447916
  0
LINE
  5
D0
330
A
100
AcDbEntity
  8
LAYER_1
 62
     7
100
AcDbLine
 10
67.69509277343749
 20
155.6039388020833
 30
0.0
 11
65.25028076171874
 21
158.4216824001736
 31
0.0
  0
LWPOLYLINE
  5
CB
330
A
100
AcDbEntity
  8
LAYER_1
 62
     7
100
AcDbPolyline
 90
        3
 70
     0
 43
0.0
 10
64.96726616753472
 20
155.5469224717882
 10
64.97243381076389
 20
158.6230482313368
 10
71.49296603732638
 20
158.1455579969618
  0
LWPOLYLINE
  5
C6
330
A
100
AcDbEntity
  8
LAYER_1
 62
     7
100
AcDbPolyline
 90
        3
 70
     0
 43
0.0
 10
71.45989312065971
 20
158.2452935112847
 10
79.78479410807292
 20
160.7385091145833
 10
87.65115288628472
 20
156.6471137152778
  0
LINE
  5
C5
330
A
100
AcDbEntity
  8
LAYER_1
 62
     7
100
AcDbLine
 10
99.4206325954861
 20
109.0703450520833
 30
0.0
 11
99.44957139756943
 21
105.48193359375
 31
0.0
  0
LWPOLYLINE
  5
BD
330
A
100
AcDbEntity
  8
LAYER_1
 62
     7
100
AcDbPolyline
 90
        6
 70
     0
 43
0.0
 10
99.44957139756943
 20
105.48193359375
 10
98.32957085503472
 20
104.9841172960069
 10
81.07257080078124
 20
115.1705756293403
 10
81.08135579427082
 20
119.1598239474826
 10
96.6888441297743
 20
142.7146308051215
 10
99.06682128906249
 20
144.3901529947917
  0
SPLINE
  5
BC
330
A
100
AcDbEntity
  8
LAYER_1
 62
     7
100
AcDbSpline
210
0.0
220
0.0
230
1.0
 70
     8
 71
     3
 72
    20
 73
    16
 74
     0
 42
0.0000000001
 43
0.0000000001
 40
0.0
 40
0.0
 40
0.0
 40
0.0
 40
1.0
 40
1.0
 40
1.0
 40
2.0
 40
2.0
 40
2.0
 40
3.0
 40
3.0
 40
3.0
 40
4.0
 40
4.0
 40
4.0
 40
5.0
 40
5.0
 40
5.0
 40
5.0
 10
99.13331163194444
 20
144.5233059353299
 30
0.0
 10
99.13331163194444
 20
144.5233059353299
 30
0.0
 10
100.0231797960069
 20
144.6953884548611
 30
0.0
 10
100.0231797960069
 20
144.6953884548611
 30
0.0
 10
100.0231797960069
 20
144.6953884548611
 30
0.0
 10
100.8560316297743
 20
144.322112358941
 30
0.0
 10
100.8560316297743
 20
144.322112358941
 30
0.0
 10
100.8560316297743
 20
144.322112358941
 30
0.0
 10
101.4875176323785
 20
143.949525282118
 30
0.0
 10
102.0900648328993
 20
144.2359849717882
 30
0.0
 10
102.0900648328993
 20
144.2359849717882
 30
0.0
 10
112.2527520073785
 20
147.4800591362847
 30
0.0
 10
112.2527520073785
 20
147.4800591362847
 30
0.0
 10
112.2527520073785
 20
147.4800591362847
 30
0.0
 10
113.5158962673611
 20
146.9347005208333
 30
0.0
 10
113.5158962673611
 20
146.9347005208333
 30
0.0
  0
LINE
  5
BB
330
A
100
AcDbEntity
  8
LAYER_1
 62
     7
100
AcDbLine
 10
113.5823866102431
 20
146.9347005208333
 30
0.0
 11
115.9033474392361
 21
143.6906263563368
 31
0.0
  0
LINE
  5
BA
330
A
100
AcDbEntity
  8
LAYER_1
 62
     7
100
AcDbLine
 10
115.9033474392361
 20
143.6906263563368
 30
0.0
 11
108.3107014973958
 21
125.9647488064236
 31
0.0
  0
LINE
  5
B9
330
A
100
AcDbEntity
  8
LAYER_1
 62
     7
100
AcDbLine
 10
108.2106214735243
 20
125.8982584635417
 30
0.0
 11
101.3138848198785
 21
123.657568359375
 31
0.0
  0
LWPOLYLINE
  5
B3
330
A
100
AcDbEntity
  8
LAYER_1
 62
     7
100
AcDbPolyline
 90
        4
 70
     0
 43
0.0
 10
101.0238077799479
 20
123.2801581488715
 10
100.9419867621528
 20
110.1853502061632
 10
99.93705240885416
 20
109.7590196397569
 10
99.4206325954861
 20
109.0703450520833
  0
LINE
  5
B2
330
A
100
AcDbEntity
  8
LAYER_1
 62
     7
100
AcDbLine
 10
134.902532280816
 20
131.5189317491319
 30
0.0
 11
101.2964870876736
 21
120.7536973741319
 31
0.0
  0
LINE
  5
B1
330
A
100
AcDbEntity
  8
LAYER_1
 62
     7
100
AcDbLine
 10
101.2582465277778
 20
120.1799167209201
 30
0.0
 11
133.6390435112847
 21
101.9464043511285
 31
0.0
  0
LINE
  5
B0
330
A
100
AcDbEntity
  8
LAYER_1
 62
     7
100
AcDbLine
 10
133.667982313368
 20
85.70226236979165
 30
0.0
 11
133.6390435112847
 21
101.7786282009549
 31
0.0
  0
LINE
  5
AF
330
A
100
AcDbEntity
  8
LAYER_1
 62
     7
100
AcDbLine
 10
133.8693481445312
 20
102.0323594835069
 30
0.0
 11
147.3040147569444
 21
107.3186862521701
 31
0.0
  0
LWPOLYLINE
  5
AA
330
A
100
AcDbEntity
  8
LAYER_1
 62
     7
100
AcDbPolyline
 90
        3
 70
     0
 43
0.0
 10
147.3040147569444
 20
107.3186862521701
 10
153.5577243381076
 20
107.3186862521701
 10
152.6432237413194
 20
111.2803738064236
  0
LINE
  5
A9
330
A
100
AcDbEntity
  8
LAYER_1
 62
     7
100
AcDbLine
 10
152.7097140842014
 20
111.2473008897569
 30
0.0
 11
156.7909464518229
 21
110.6113362630208
 31
0.0
  0
LINE
  5
A8
330
A
100
AcDbEntity
  8
LAYER_1
 62
     7
100
AcDbLine
 10
156.6912109375
 20
110.6445814344618
 30
0.0
 11
167.1496595594618
 21
114.6917073567708
 31
0.0
  0
LINE
  5
A7
330
A
100
AcDbEntity
  8
LAYER_1
 62
     7
100
AcDbLine
 10
156.8343546549479
 20
110.4768052842882
 30
0.0
 11
156.7773383246528
 21
95.17110731336804
 31
0.0
  0
LINE
  5
A6
330
A
100
AcDbEntity
  8
LAYER_1
 62
     7
100
AcDbLine
 10
153.3660047743055
 20
107.1560777452257
 30
0.0
 11
153.3897759331597
 21
95.79398057725693
 31
0.0
  0
SPLINE
  5
A5
330
A
100
AcDbEntity
  8
LAYER_1
 62
     7
100
AcDbSpline
210
0.0
220
0.0
230
1.0
 70
     8
 71
     3
 72
    23
 73
    19
 74
     0
 42
0.0000000001
 43
0.0000000001
 40
0.0
 40
0.0
 40
0.0
 40
0.0
 40
1.0
 40
1.0
 40
1.0
 40
2.0
 40
2.0
 40
2.0
 40
3.0
 40
3.0
 40
3.0
 40
4.0
 40
4.0
 40
4.0
 40
5.0
 40
5.0
 40
5.0
 40
6.0
 40
6.0
 40
6.0
 40
6.0
 10
133.8114705403646
 20
90.12335340711805
 30
0.0
 10
134.7301052517361
 20
90.35348578559027
 30
0.0
 10
135.6490844726562
 20
90.55381808810763
 30
0.0
 10
136.6249077690972
 20
90.64011773003472
 30
0.0
 10
137.1704386393229
 20
90.72607286241319
 30
0.0
 10
137.6870307074653
 20
90.84096679687499
 30
0.0
 10
138.232561577691
 20
90.86990559895833
 30
0.0
 10
138.3185167100695
 20
90.89815538194443
 30
0.0
 10
138.4046440972222
 20
90.9560329861111
 30
0.0
 10
138.4909437391493
 20
90.9560329861111
 30
0.0
 10
139.3806396484375
 20
91.01339382595485
 30
0.0
 10
140.2133192274305
 20
91.1853040907118
 30
0.0
 10
141.103187391493
 20
91.24318169487846
 30
0.0
 10
142.7390909830729
 20
91.33223741319443
 30
0.0
 10
144.3203898111979
 20
91.35256347656249
 30
0.0
 10
145.8396769205729
 20
91.21424289279513
 30
0.0
 10
146.1559366861979
 20
91.1853040907118
 30
0.0
 10
146.5002739800347
 20
91.09934895833332
 30
0.0
 10
146.8158447265625
 20
91.04233262803818
 30
0.0
  0
LINE
  5
A4
330
A
100
AcDbEntity
  8
LAYER_1
 62
     7
100
AcDbLine
 10
146.8158447265625
 20
91.04233262803818
 30
0.0
 11
146.8780287000868
 21
106.9173326280382
 31
0.0
  0
LINE
  5
A3
330
A
100
AcDbEntity
  8
LAYER_1
 62
     7
100
AcDbLine
 10
47.18385552300347
 20
150.6474799262153
 30
0.0
 11
86.82777506510416
 21
128.3609849717882
 31
0.0
  0
LINE
  5
A2
330
A
100
AcDbEntity
  8
LAYER_1
 62
     7
100
AcDbLine
 10
88.14896918402776
 20
191.0577609592014
 30
0.0
 11
101.2863240559896
 21
184.4550632052951
 31
0.0
  0
LINE
  5
A1
330
A
100
AcDbEntity
  8
LAYER_1
 62
     7
100
AcDbLine
 10
101.2863240559896
 20
184.4886528862847
 30
0.0
 11
114.7986775716146
 21
188.1008355034722
 31
0.0
  0
LINE
  5
A0
330
A
100
AcDbEntity
  8
LAYER_1
 62
     7
100
AcDbLine
 10
114.9318305121528
 20
188.1008355034722
 30
0.0
 11
117.0378173828125
 21
192.0335842556424
 31
0.0
  0
LWPOLYLINE
  5
9B
330
A
100
AcDbEntity
  8
LAYER_1
 62
     7
100
AcDbPolyline
 90
        3
 70
     0
 43
0.0
 10
117.0710625542535
 20
192.1000745985243
 10
120.0610609266493
 20
187.3873562282986
 10
121.4385823567708
 20
189.737255859375
  0
LINE
  5
9A
330
A
100
AcDbEntity
  8
LAYER_1
 62
     7
100
AcDbLine
 10
121.4385823567708
 20
189.737255859375
 30
0.0
 11
135.4766574435764
 21
193.4689832899306
 31
0.0
  0
LINE
  5
99
330
A
100
AcDbEntity
  8
LAYER_1
 62
     7
100
AcDbLine
 10
121.0659952799479
 20
189.4499348958333
 30
0.0
 11
118.0513644748264
 21
190.7704399956597
 31
0.0
  0
LINE
  5
98
330
A
100
AcDbEntity
  8
LAYER_1
 62
     7
100
AcDbLine
 10
109.1721476236979
 20
196.1103379991319
 30
0.0
 11
117.061760796441
 21
192.2723293728298
 31
0.0
  0
LINE
  5
97
330
A
100
AcDbEntity
  8
LAYER_1
 62
     7
100
AcDbLine
 10
101.8180745442708
 20
194.716796875
 30
0.0
 11
114.5780192057292
 21
188.2107340494792
 31
0.0
  0
LINE
  5
96
330
A
100
AcDbEntity
  8
LAYER_1
 62
     7
100
AcDbLine
 10
101.2863240559896
 20
184.2542141384548
 30
0.0
 11
100.9130479600694
 21
144.5233059353299
 31
0.0
  0
LINE
  5
95
330
A
100
AcDbEntity
  8
LAYER_1
 62
     7
100
AcDbLine
 10
100.6453640407986
 20
140.5426703559028
 30
0.0
 11
100.4875786675347
 21
125.6862128363715
 31
0.0
  0
LINE
  5
94
330
A
100
AcDbEntity
  8
LAYER_1
 62
     7
100
AcDbLine
 10
101.4875176323785
 20
140.9638332790798
 30
0.0
 11
101.3681450737847
 21
126.3807440863715
 31
0.0
  0
LINE
  5
93
330
A
100
AcDbEntity
  8
LAYER_1
 62
     7
100
AcDbLine
 10
99.4206325954861
 20
109.2136610243056
 30
0.0
 11
98.41569824218749
 21
108.1804768880208
 31
0.0
  0
LINE
  5
92
330
A
100
AcDbEntity
  8
LAYER_1
 62
     7
100
AcDbLine
 10
98.38228081597221
 20
108.1804768880208
 30
0.0
 11
98.41569824218749
 21
105.2518012152778
 31
0.0
  0
SPLINE
  5
91
330
A
100
AcDbEntity
  8
LAYER_1
 62
     7
100
AcDbSpline
210
0.0
220
0.0
230
1.0
 70
     8
 71
     3
 72
    11
 73
     7
 74
     0
 42
0.0000000001
 43
0.0000000001
 40
0.0
 40
0.0
 40
0.0
 40
0.0
 40
1.0
 40
1.0
 40
1.0
 40
2.0
 40
2.0
 40
2.0
 40
2.0
 10
101.2582465277778
 20
123.8542833116319
 30
0.0
 10
101.2582465277778
 20
123.8542833116319
 30
0.0
 10
100.4827555338542
 20
124.1987928602431
 30
0.0
 10
99.90880262586805
 20
124.0547878689236
 30
0.0
 10
99.90880262586805
 20
124.0547878689236
 30
0.0
 10
99.90880262586805
 20
109.9312744140625
 30
0.0
 10
99.90880262586805
 20
109.9312744140625
 30
0.0
  0
SPLINE
  5
90
330
A
100
AcDbEntity
  8
LAYER_1
 62
     7
100
AcDbSpline
210
0.0
220
0.0
230
1.0
 70
     8
 71
     3
 72
    14
 73
    10
 74
     0
 42
0.0000000001
 43
0.0000000001
 40
0.0
 40
0.0
 40
0.0
 40
0.0
 40
1.0
 40
1.0
 40
1.0
 40
2.0
 40
2.0
 40
2.0
 40
3.0
 40
3.0
 40
3.0
 40
3.0
 10
113.4096150716146
 20
146.8201510959201
 30
0.0
 10
113.4096150716146
 20
146.8201510959201
 30
0.0
 10
103.4393364800347
 20
143.4901217990451
 30
0.0
 10
103.4393364800347
 20
143.4901217990451
 30
0.0
 10
103.4393364800347
 20
143.4901217990451
 30
0.0
 10
101.6025838216146
 20
142.7725084092882
 30
0.0
 10
100.7220174153646
 20
143.2934068467882
 30
0.0
 10
100.7220174153646
 20
143.2934068467882
 30
0.0
 10
99.03788248697916
 20
144.178968641493
 30
0.0
 10
99.03788248697916
 20
144.178968641493
 30
0.0
  0
SPLINE
  5
8F
330
A
100
AcDbEntity
  8
LAYER_1
 62
     7
100
AcDbSpline
210
0.0
220
0.0
230
1.0
 70
     8
 71
     3
 72
    11
 73
     7
 74
     0
 42
0.0000000001
 43
0.0000000001
 40
0.0
 40
0.0
 40
0.0
 40
0.0
 40
1.0
 40
1.0
 40
1.0
 40
2.0
 40
2.0
 40
2.0
 40
2.0
 10
153.3944268120659
 20
91.5296413845486
 30
0.0
 10
153.3944268120659
 20
91.5296413845486
 30
0.0
 10
153.3327596028646
 20
90.98497178819444
 30
0.0
 10
152.7917073567708
 20
90.91779242621527
 30
0.0
 10
152.7917073567708
 20
90.91779242621527
 30
0.0
 10
146.9879272460937
 20
90.99944118923611
 30
0.0
 10
146.9879272460937
 20
90.99944118923611
 30
0.0
  0
SPLINE
  5
8E
330
A
100
AcDbEntity
  8
LAYER_1
 62
     7
100
AcDbSpline
210
0.0
220
0.0
230
1.0
 70
     8
 71
     3
 72
    11
 73
     7
 74
     0
 42
0.0000000001
 43
0.0000000001
 40
0.0
 40
0.0
 40
0.0
 40
0.0
 40
1.0
 40
1.0
 40
1.0
 40
2.0
 40
2.0
 40
2.0
 40
2.0
 10
66.19716525607639
 20
157.1159912109375
 30
0.0
 10
66.12068413628472
 20
156.8867201063368
 30
0.0
 10
66.00561794704861
 20
156.6950005425347
 30
0.0
 10
65.96737738715277
 20
156.4655571831597
 30
0.0
 10
65.89055175781249
 20
156.1980455186632
 30
0.0
 10
65.81407063802082
 20
155.9677408854167
 30
0.0
 10
65.73793402777777
 20
155.738469780816
 30
0.0
  0
SPLINE
  5
8D
330
A
100
AcDbEntity
  8
LAYER_1
 62
     7
100
AcDbSpline
210
0.0
220
0.0
230
1.0
 70
     8
 71
     3
 72
     8
 73
     4
 74
     0
 42
0.0000000001
 43
0.0000000001
 40
0.0
 40
0.0
 40
0.0
 40
0.0
 40
1.0
 40
1.0
 40
1.0
 40
1.0
 10
67.00107828776041
 20
156.1210476345486
 30
0.0
 10
67.00107828776041
 20
155.9677408854167
 30
0.0
 10
67.03880208333332
 20
155.738469780816
 30
0.0
 10
66.8860120985243
 20
155.6234035915799
 30
0.0
  0
SPLINE
  5
8C
330
A
100
AcDbEntity
  8
LAYER_1
 62
     7
100
AcDbSpline
210
0.0
220
0.0
230
1.0
 70
     8
 71
     3
 72
    11
 73
     7
 74
     0
 42
0.0000000001
 43
0.0000000001
 40
0.0
 40
0.0
 40
0.0
 40
0.0
 40
1.0
 40
1.0
 40
1.0
 40
2.0
 40
2.0
 40
2.0
 40
2.0
 10
65.0101576063368
 20
157.3845364040799
 30
0.0
 10
65.0101576063368
 20
157.6904608832465
 30
0.0
 10
65.35449490017361
 20
157.9199042426215
 30
0.0
 10
65.58462727864583
 20
158.1114515516493
 30
0.0
 10
65.81407063802082
 20
158.2258287217882
 30
0.0
 10
66.12068413628472
 20
158.3886094835069
 30
0.0
 10
66.60816514756944
 20
158.4175482855903
 30
0.0
  0
SPLINE
  5
8B
330
A
100
AcDbEntity
  8
LAYER_1
 62
     7
100
AcDbSpline
210
0.0
220
0.0
230
1.0
 70
     8
 71
     3
 72
    17
 73
    13
 74
     0
 42
0.0000000001
 43
0.0000000001
 40
0.0
 40
0.0
 40
0.0
 40
0.0
 40
1.0
 40
1.0
 40
1.0
 40
2.0
 40
2.0
 40
2.0
 40
3.0
 40
3.0
 40
3.0
 40
4.0
 40
4.0
 40
4.0
 40
4.0
 10
89.97624782986111
 20
190.3969916449653
 30
0.0
 10
90.06237521701388
 20
190.3969916449653
 30
0.0
 10
90.11973605685763
 20
190.4968994140625
 30
0.0
 10
90.20569118923611
 20
190.4968994140625
 30
0.0
 10
90.69386121961804
 20
190.6409044053819
 30
0.0
 10
91.06662055121527
 20
190.8233222113715
 30
0.0
 10
91.55513509114583
 20
190.9952324761285
 30
0.0
 10
92.07138264973958
 20
191.1965983072917
 30
0.0
 10
92.73060167100694
 20
191.5075181749132
 30
0.0
 10
93.21911621093749
 20
191.8807942708333
 30
0.0
 10
93.62046983506944
 20
192.1391764322917
 30
0.0
 10
94.11828613281249
 20
192.3634521484375
 30
0.0
 10
94.51963975694444
 20
192.5927232530382
 30
0.0
  0
SPLINE
  5
8A
330
A
100
AcDbEntity
  8
LAYER_1
 62
     7
100
AcDbSpline
210
0.0
220
0.0
230
1.0
 70
     8
 71
     3
 72
    35
 73
    31
 74
     0
 42
0.0000000001
 43
0.0000000001
 40
0.0
 40
0.0
 40
0.0
 40
0.0
 40
1.0
 40
1.0
 40
1.0
 40
2.0
 40
2.0
 40
2.0
 40
3.0
 40
3.0
 40
3.0
 40
4.0
 40
4.0
 40
4.0
 40
5.0
 40
5.0
 40
5.0
 40
6.0
 40
6.0
 40
6.0
 40
7.0
 40
7.0
 40
7.0
 40
8.0
 40
8.0
 40
8.0
 40
9.0
 40
9.0
 40
9.0
 40
10.0
 40
10.0
 40
10.0
 40
10.0
 10
92.3297648111979
 20
189.1055976019965
 30
0.0
 10
92.58814697265625
 20
189.3061021592882
 30
0.0
 10
92.87529568142361
 20
189.4781846788194
 30
0.0
 10
93.16244439019097
 20
189.6223619249132
 30
0.0
 10
93.67920871310763
 20
189.8805718315972
 30
0.0
 10
94.1095011393229
 20
190.1675482855903
 30
0.0
 10
94.6267822265625
 20
190.4259304470486
 30
0.0
 10
94.91410319010416
 20
190.5692464192708
 30
0.0
 10
95.2005628797743
 20
190.6843126085069
 30
0.0
 10
95.45894504123262
 20
190.9135837131076
 30
0.0
 10
95.63171657986111
 20
191.028822157118
 30
0.0
 10
95.83222113715277
 20
191.0577609592014
 30
0.0
 10
96.03307020399305
 20
191.1726548936632
 30
0.0
 10
97.00923800998262
 20
191.746435546875
 30
0.0
 10
97.95698377821179
 20
192.1486504448785
 30
0.0
 10
98.93280707465277
 20
192.8374972873264
 30
0.0
 10
99.01893446180554
 20
192.8945136176215
 30
0.0
 10
99.13331163194444
 20
192.9234524197048
 30
0.0
 10
99.24820556640624
 20
192.98046875
 30
0.0
 10
99.76496988932291
 20
193.2107733832465
 30
0.0
 10
100.1671847873264
 20
193.6410658094618
 30
0.0
 10
100.7125434027778
 20
193.8133205837673
 30
0.0
 10
100.8849704318576
 20
193.8705091688368
 30
0.0
 10
101.0858194986979
 20
193.8994479709201
 30
0.0
 10
101.2582465277778
 20
193.9854031032986
 30
0.0
 10
101.4301567925347
 20
194.0432807074653
 30
0.0
 10
101.6306613498264
 20
194.129408094618
 30
0.0
 10
101.8029161241319
 20
194.2155354817708
 30
0.0
 10
102.0041097005208
 20
194.2727240668403
 30
0.0
 10
102.2051310221354
 20
194.3016628689236
 30
0.0
 10
102.4063245985243
 20
194.3877902560764
 30
0.0
  0
SPLINE
  5
89
330
A
100
AcDbEntity
  8
LAYER_1
 62
     7
100
AcDbSpline
210
0.0
220
0.0
230
1.0
 70
     8
 71
     3
 72
    23
 73
    19
 74
     0
 42
0.0000000001
 43
0.0000000001
 40
0.0
 40
0.0
 40
0.0
 40
0.0
 40
1.0
 40
1.0
 40
1.0
 40
2.0
 40
2.0
 40
2.0
 40
3.0
 40
3.0
 40
3.0
 40
4.0
 40
4.0
 40
4.0
 40
5.0
 40
5.0
 40
5.0
 40
6.0
 40
6.0
 40
6.0
 40
6.0
 10
94.67466905381944
 20
188.0811984592014
 30
0.0
 10
95.01900634765624
 20
188.1196112738715
 30
0.0
 10
95.17248535156249
 20
188.4263970269097
 30
0.0
 10
95.43982476128471
 20
188.5788425021701
 30
0.0
 10
96.32039116753471
 20
189.0001776801215
 30
0.0
 10
97.12413194444443
 20
189.42099609375
 30
0.0
 10
98.00469835069444
 20
189.9188123914931
 30
0.0
 10
98.42568901909722
 20
190.148255750868
 30
0.0
 10
98.80843912760416
 20
190.378215874566
 30
0.0
 10
99.26784261067708
 20
190.6458997938368
 30
0.0
 10
99.45887315538194
 20
190.7607937282986
 30
0.0
 10
99.84024522569443
 20
190.9135837131076
 30
0.0
 10
100.0317925347222
 20
191.0670627170139
 30
0.0
 10
100.9499104817708
 20
191.6413601345486
 30
0.0
 10
101.6692464192708
 20
191.9472846137153
 30
0.0
 10
102.5877088758681
 20
192.5601671006944
 30
0.0
 10
103.1230767144097
 20
192.9046766493055
 30
0.0
 10
103.6312282986111
 20
193.0188815646701
 30
0.0
 10
104.16728515625
 20
193.3256673177083
 30
0.0
  0
SPLINE
  5
88
330
A
100
AcDbEntity
  8
LAYER_1
 62
     7
100
AcDbSpline
210
0.0
220
0.0
230
1.0
 70
     8
 71
     3
 72
    26
 73
    22
 74
     0
 42
0.0000000001
 43
0.0000000001
 40
0.0
 40
0.0
 40
0.0
 40
0.0
 40
1.0
 40
1.0
 40
1.0
 40
2.0
 40
2.0
 40
2.0
 40
3.0
 40
3.0
 40
3.0
 40
4.0
 40
4.0
 40
4.0
 40
5.0
 40
5.0
 40
5.0
 40
6.0
 40
6.0
 40
6.0
 40
7.0
 40
7.0
 40
7.0
 40
7.0
 10
96.86592203776041
 20
186.8085801866319
 30
0.0
 10
97.43953043619791
 20
186.9808349609375
 30
0.0
 10
98.02571343315971
 20
187.2760796440972
 30
0.0
 10
98.50165337456596
 20
187.62265625
 30
0.0
 10
98.88526475694444
 20
187.8519273546007
 30
0.0
 10
99.1911892361111
 20
188.1196112738715
 30
0.0
 10
99.57393934461804
 20
188.3113308376736
 30
0.0
 10
99.80321044921874
 20
188.4263970269097
 30
0.0
 10
99.95668945312499
 20
188.5788425021701
 30
0.0
 10
100.1857883029514
 20
188.6558403862847
 30
0.0
 10
100.6453640407986
 20
188.9231797960069
 30
0.0
 10
100.9897013346354
 20
189.2683783637153
 30
0.0
 10
101.4492770724826
 20
189.5743028428819
 30
0.0
 10
102.0619873046875
 20
189.9188123914931
 30
0.0
 10
102.712249077691
 20
190.1866685655382
 30
0.0
 10
103.2868910047743
 20
190.6458997938368
 30
0.0
 10
103.3626831054688
 20
190.7225531684028
 30
0.0
 10
103.4779215494792
 20
190.799378797743
 30
0.0
 10
103.5544026692708
 20
190.8377916124132
 30
0.0
 10
104.4349690755208
 20
191.2970228407118
 30
0.0
 10
105.2769504123264
 20
191.7557373046875
 30
0.0
 10
106.0424506293403
 20
192.3302069769965
 30
0.0
  0
SPLINE
  5
87
330
A
100
AcDbEntity
  8
LAYER_1
 62
     7
100
AcDbSpline
210
0.0
220
0.0
230
1.0
 70
     8
 71
     3
 72
    26
 73
    22
 74
     0
 42
0.0000000001
 43
0.0000000001
 40
0.0
 40
0.0
 40
0.0
 40
0.0
 40
1.0
 40
1.0
 40
1.0
 40
2.0
 40
2.0
 40
2.0
 40
3.0
 40
3.0
 40
3.0
 40
4.0
 40
4.0
 40
4.0
 40
5.0
 40
5.0
 40
5.0
 40
6.0
 40
6.0
 40
6.0
 40
7.0
 40
7.0
 40
7.0
 40
7.0
 10
99.4206325954861
 20
185.5940117730034
 30
0.0
 10
99.45887315538194
 20
185.708216688368
 30
0.0
 10
99.5355265299479
 20
185.8232828776042
 30
0.0
 10
99.61217990451388
 20
185.8999362521701
 30
0.0
 10
100.262786187066
 20
186.3977525499132
 30
0.0
 10
100.8754964192708
 20
186.8187432183159
 30
0.0
 10
101.6025838216146
 20
187.239906141493
 30
0.0
 10
101.8700954861111
 20
187.3923516167534
 30
0.0
 10
102.0619873046875
 20
187.6602077907986
 30
0.0
 10
102.3296712239583
 20
187.8901679144965
 30
0.0
 10
102.5587700737847
 20
188.0434746636284
 30
0.0
 10
102.7506618923611
 20
188.1962646484375
 30
0.0
 10
102.9801052517361
 20
188.3878119574653
 30
0.0
 10
103.2868910047743
 20
188.6172553168403
 30
0.0
 10
103.592815483941
 20
188.7323215060764
 30
0.0
 10
103.8987399631076
 20
188.9617648654514
 30
0.0
 10
104.7793063693576
 20
189.6128879123264
 30
0.0
 10
105.5267198350694
 20
189.9956380208333
 30
0.0
 10
106.4446655273437
 20
190.6458997938368
 30
0.0
 10
106.7896918402778
 20
190.876032172309
 30
0.0
 10
107.3238538953993
 20
191.2486192491319
 30
0.0
 10
107.6681911892361
 20
191.4778903537326
 30
0.0
  0
SPLINE
  5
86
330
A
100
AcDbEntity
  8
LAYER_1
 62
     7
100
AcDbSpline
210
0.0
220
0.0
230
1.0
 70
     8
 71
     3
 72
    11
 73
     7
 74
     0
 42
0.0000000001
 43
0.0000000001
 40
0.0
 40
0.0
 40
0.0
 40
0.0
 40
1.0
 40
1.0
 40
1.0
 40
2.0
 40
2.0
 40
2.0
 40
2.0
 10
101.0151950412326
 20
184.7366997612847
 30
0.0
 10
102.6609171549479
 20
185.9231906467014
 30
0.0
 10
104.2814900716146
 20
186.9532741970486
 30
0.0
 10
106.0042100694444
 20
188.1783501519097
 30
0.0
 10
107.2671820746528
 20
189.0203314887153
 30
0.0
 10
108.5304985894097
 20
189.6895412868923
 30
0.0
 10
109.7552300347222
 20
190.4548692491319
 30
0.0
  0
SPLINE
  5
85
330
A
100
AcDbEntity
  8
LAYER_1
 62
     7
100
AcDbSpline
210
0.0
220
0.0
230
1.0
 70
     8
 71
     3
 72
    14
 73
    10
 74
     0
 42
0.0000000001
 43
0.0000000001
 40
0.0
 40
0.0
 40
0.0
 40
0.0
 40
1.0
 40
1.0
 40
1.0
 40
2.0
 40
2.0
 40
2.0
 40
3.0
 40
3.0
 40
3.0
 40
3.0
 10
104.731591796875
 20
185.4882473415798
 30
0.0
 10
105.1525824652778
 20
185.7176907009549
 30
0.0
 10
105.6214599609375
 20
186.1676201714409
 30
0.0
 10
106.0042100694444
 20
186.4353040907118
 30
0.0
 10
106.692884657118
 20
186.971533203125
 30
0.0
 10
107.3822482638889
 20
187.3158704969618
 30
0.0
 10
108.1093356662326
 20
187.7752739800347
 30
0.0
 10
109.1809326171875
 20
188.4263970269097
 30
0.0
 10
110.3577772352431
 20
189.1150716145833
 30
0.0
 10
111.5060275607639
 20
189.650439453125
 30
0.0
  0
SPLINE
  5
84
330
A
100
AcDbEntity
  8
LAYER_1
 62
     7
100
AcDbSpline
210
0.0
220
0.0
230
1.0
 70
     8
 71
     3
 72
    14
 73
    10
 74
     0
 42
0.0000000001
 43
0.0000000001
 40
0.0
 40
0.0
 40
0.0
 40
0.0
 40
1.0
 40
1.0
 40
1.0
 40
2.0
 40
2.0
 40
2.0
 40
3.0
 40
3.0
 40
3.0
 40
3.0
 10
109.4875461154514
 20
186.8564670138889
 30
0.0
 10
110.1286783854167
 20
187.1248399522569
 30
0.0
 10
110.1286783854167
 20
187.3344740125868
 30
0.0
 10
110.4730156792535
 20
187.4497124565972
 30
0.0
 10
111.0850368923611
 20
187.641259765625
 30
0.0
 10
111.6782823350694
 20
188.0434746636284
 30
0.0
 10
112.2527520073785
 20
188.2729180230035
 30
0.0
 10
112.5204359266493
 20
188.3878119574653
 30
0.0
 10
112.7982828776042
 20
188.5313001844618
 30
0.0
 10
113.0277262369792
 20
188.7605712890625
 30
0.0
  0
SPLINE
  5
83
330
A
100
AcDbEntity
  8
LAYER_1
 62
     7
100
AcDbSpline
210
0.0
220
0.0
230
1.0
 70
     8
 71
     3
 72
    11
 73
     7
 74
     0
 42
0.0000000001
 43
0.0000000001
 40
0.0
 40
0.0
 40
0.0
 40
0.0
 40
1.0
 40
1.0
 40
1.0
 40
2.0
 40
2.0
 40
2.0
 40
2.0
 10
114.4245402018229
 20
188.3113308376736
 30
0.0
 10
114.7313259548611
 20
188.5788425021701
 30
0.0
 10
114.922356499566
 20
188.9617648654514
 30
0.0
 10
115.1523166232639
 20
189.3061021592882
 30
0.0
 10
115.4585856119792
 20
189.6895412868923
 30
0.0
 10
115.7645100911458
 20
190.0338785807292
 30
0.0
 10
115.9944702148437
 20
190.4548692491319
 30
0.0
  0
SPLINE
  5
82
330
A
100
AcDbEntity
  8
LAYER_1
 62
     7
100
AcDbSpline
210
0.0
220
0.0
230
1.0
 70
     8
 71
     3
 72
    11
 73
     7
 74
     0
 42
0.0000000001
 43
0.0000000001
 40
0.0
 40
0.0
 40
0.0
 40
0.0
 40
1.0
 40
1.0
 40
1.0
 40
2.0
 40
2.0
 40
2.0
 40
2.0
 10
115.1905571831597
 20
192.9422281901042
 30
0.0
 10
114.922356499566
 20
192.2535536024305
 30
0.0
 10
114.4629530164931
 20
191.679945203993
 30
0.0
 10
114.0802029079861
 20
191.0670627170139
 30
0.0
 10
113.7358656141493
 20
190.4548692491319
 30
0.0
 10
113.5064222547743
 20
189.8423312717014
 30
0.0
 10
113.1613959418403
 20
189.2683783637153
 30
0.0
  0
SPLINE
  5
81
330
A
100
AcDbEntity
  8
LAYER_1
 62
     7
100
AcDbSpline
210
0.0
220
0.0
230
1.0
 70
     8
 71
     3
 72
    14
 73
    10
 74
     0
 42
0.0000000001
 43
0.0000000001
 40
0.0
 40
0.0
 40
0.0
 40
0.0
 40
1.0
 40
1.0
 40
1.0
 40
2.0
 40
2.0
 40
2.0
 40
3.0
 40
3.0
 40
3.0
 40
3.0
 10
113.1613959418403
 20
193.8994479709201
 30
0.0
 10
113.0856038411458
 20
193.478285047743
 30
0.0
 10
112.8937120225694
 20
193.0572943793403
 30
0.0
 10
112.7793348524306
 20
192.5978908962673
 30
0.0
 10
112.5443793402778
 20
191.7383395724826
 30
0.0
 10
112.4298299153646
 20
191.8923353407118
 30
0.0
 10
112.0234809027778
 20
191.1147772894965
 30
0.0
 10
112.0234809027778
 20
191.0763644748264
 30
0.0
 10
111.592327202691
 20
190.1096706814236
 30
0.0
 10
111.5161905924479
 20
190.0714301215278
 30
0.0
  0
SPLINE
  5
80
330
A
100
AcDbEntity
  8
LAYER_1
 62
     7
100
AcDbSpline
210
0.0
220
0.0
230
1.0
 70
     8
 71
     3
 72
    17
 73
    13
 74
     0
 42
0.0000000001
 43
0.0000000001
 40
0.0
 40
0.0
 40
0.0
 40
0.0
 40
1.0
 40
1.0
 40
1.0
 40
2.0
 40
2.0
 40
2.0
 40
3.0
 40
3.0
 40
3.0
 40
4.0
 40
4.0
 40
4.0
 40
4.0
 10
111.7456339518229
 20
194.6647759331597
 30
0.0
 10
111.6305677625868
 20
194.2053724500868
 30
0.0
 10
111.28623046875
 20
193.8226223415798
 30
0.0
 10
111.133440483941
 20
193.4018039279514
 30
0.0
 10
111.0569593641493
 20
193.2490139431423
 30
0.0
 10
111.0185465494792
 20
193.1337754991319
 30
0.0
 10
110.9417209201389
 20
192.98046875
 30
0.0
 10
110.7884141710069
 20
192.4835137261285
 30
0.0
 10
110.5207302517361
 20
192.0625230577257
 30
0.0
 10
110.2912868923611
 20
191.5647067599826
 30
0.0
 10
110.1763929578993
 20
191.3347466362847
 30
0.0
 10
110.022913953993
 20
191.1053032769097
 30
0.0
 10
109.8704684787326
 20
190.876032172309
 30
0.0
  0
SPLINE
  5
7F
330
A
100
AcDbEntity
  8
LAYER_1
 62
     7
100
AcDbSpline
210
0.0
220
0.0
230
1.0
 70
     8
 71
     3
 72
    20
 73
    16
 74
     0
 42
0.0000000001
 43
0.0000000001
 40
0.0
 40
0.0
 40
0.0
 40
0.0
 40
1.0
 40
1.0
 40
1.0
 40
2.0
 40
2.0
 40
2.0
 40
3.0
 40
3.0
 40
3.0
 40
4.0
 40
4.0
 40
4.0
 40
5.0
 40
5.0
 40
5.0
 40
5.0
 10
109.8985460069444
 20
195.5646348741319
 30
0.0
 10
109.9369588216146
 20
195.1054036458333
 30
0.0
 10
109.6880506727431
 20
194.9615709092882
 30
0.0
 10
109.6112250434028
 20
194.501995171441
 30
0.0
 10
109.5736735026042
 20
194.3492051866319
 30
0.0
 10
109.3726521809896
 20
194.0911675347222
 30
0.0
 10
109.2575859917535
 20
193.937688530816
 30
0.0
 10
109.1432088216146
 20
193.86103515625
 30
0.0
 10
109.1432088216146
 20
193.707728407118
 30
0.0
 10
109.0665554470486
 20
193.5933512369792
 30
0.0
 10
108.9132486979167
 20
193.3632188585069
 30
0.0
 10
108.7597696940104
 20
193.0955349392361
 30
0.0
 10
108.683977593316
 20
192.8278510199653
 30
0.0
 10
108.5304985894097
 20
192.4835137261285
 30
0.0
 10
108.2244018554687
 20
192.2535536024305
 30
0.0
 10
108.1477484809028
 20
191.8708034939236
 30
0.0
  0
SPLINE
  5
7E
330
A
100
AcDbEntity
  8
LAYER_1
 62
     7
100
AcDbSpline
210
0.0
220
0.0
230
1.0
 70
     8
 71
     3
 72
    11
 73
     7
 74
     0
 42
0.0000000001
 43
0.0000000001
 40
0.0
 40
0.0
 40
0.0
 40
0.0
 40
1.0
 40
1.0
 40
1.0
 40
2.0
 40
2.0
 40
2.0
 40
2.0
 10
108.2337036132812
 20
196.3685479058159
 30
0.0
 10
107.9661919487847
 20
195.6032199435764
 30
0.0
 10
107.6115193684896
 20
194.7798421223958
 30
0.0
 10
107.2671820746528
 20
194.0143419053819
 30
0.0
 10
107.075634765625
 20
193.5551106770833
 30
0.0
 10
106.8463636610243
 20
193.0572943793403
 30
0.0
 10
106.692884657118
 20
192.5601671006944
 30
0.0
  0
SPLINE
  5
7D
330
A
100
AcDbEntity
  8
LAYER_1
 62
     7
100
AcDbSpline
210
0.0
220
0.0
230
1.0
 70
     8
 71
     3
 72
    11
 73
     7
 74
     0
 42
0.0000000001
 43
0.0000000001
 40
0.0
 40
0.0
 40
0.0
 40
0.0
 40
1.0
 40
1.0
 40
1.0
 40
2.0
 40
2.0
 40
2.0
 40
2.0
 10
106.1191040039062
 20
197.3061306423611
 30
0.0
 10
105.6598727756076
 20
196.3106703016493
 30
0.0
 10
105.1236436631944
 20
195.3158989800347
 30
0.0
 10
104.8559597439236
 20
194.2053724500868
 30
0.0
 10
104.7793063693576
 20
194.0143419053819
 30
0.0
 10
104.6258273654514
 20
193.86103515625
 30
0.0
 10
104.5498630099826
 20
193.6700046115451
 30
0.0
  0
SPLINE
  5
7C
330
A
100
AcDbEntity
  8
LAYER_1
 62
     7
100
AcDbSpline
210
0.0
220
0.0
230
1.0
 70
     8
 71
     3
 72
    17
 73
    13
 74
     0
 42
0.0000000001
 43
0.0000000001
 40
0.0
 40
0.0
 40
0.0
 40
0.0
 40
1.0
 40
1.0
 40
1.0
 40
2.0
 40
2.0
 40
2.0
 40
3.0
 40
3.0
 40
3.0
 40
4.0
 40
4.0
 40
4.0
 40
4.0
 10
104.6258273654514
 20
198.0332180447049
 30
0.0
 10
104.5882758246528
 20
197.7657063802083
 30
0.0
 10
104.3963840060764
 20
197.5738145616319
 30
0.0
 10
104.2814900716146
 20
197.3061306423611
 30
0.0
 10
104.2048366970486
 20
197.0761705186632
 30
0.0
 10
103.9755655924479
 20
196.8851399739583
 30
0.0
 10
103.8604994032118
 20
196.6550075954861
 30
0.0
 10
103.592815483941
 20
196.1964653862847
 30
0.0
 10
103.3251315646701
 20
195.7753024631076
 30
0.0
 10
103.0565863715278
 20
195.3158989800347
 30
0.0
 10
102.9425537109375
 20
195.0859388563368
 30
0.0
 10
102.7890747070313
 20
194.8949083116319
 30
0.0
 10
102.7890747070313
 20
194.6265353732639
 30
0.0
  0
SPLINE
  5
7B
330
A
100
AcDbEntity
  8
LAYER_1
 62
     7
100
AcDbSpline
210
0.0
220
0.0
230
1.0
 70
     8
 71
     3
 72
    17
 73
    13
 74
     0
 42
0.0000000001
 43
0.0000000001
 40
0.0
 40
0.0
 40
0.0
 40
0.0
 40
1.0
 40
1.0
 40
1.0
 40
2.0
 40
2.0
 40
2.0
 40
3.0
 40
3.0
 40
3.0
 40
4.0
 40
4.0
 40
4.0
 40
4.0
 10
110.9799614800347
 20
195.4302761501736
 30
0.0
 10
111.0569593641493
 20
195.4302761501736
 30
0.0
 10
111.1709920247396
 20
195.3918633355034
 30
0.0
 10
111.2479899088542
 20
195.4302761501736
 30
0.0
 10
111.6688083224826
 20
195.6219957139757
 30
0.0
 10
112.0515584309896
 20
195.8130262586805
 30
0.0
 10
112.4344807942708
 20
196.0813991970486
 30
0.0
 10
113.1613959418403
 20
196.5783542209201
 30
0.0
 10
113.9658257378472
 20
196.9140787760417
 30
0.0
 10
114.692913140191
 20
197.2584160698785
 30
0.0
 10
114.8839436848958
 20
197.3727932400173
 30
0.0
 10
115.1233778211805
 20
197.5643405490451
 30
0.0
 10
115.3526489257812
 20
197.6027533637153
 30
0.0
  0
SPLINE
  5
7A
330
A
100
AcDbEntity
  8
LAYER_1
 62
     7
100
AcDbSpline
210
0.0
220
0.0
230
1.0
 70
     8
 71
     3
 72
    23
 73
    19
 74
     0
 42
0.0000000001
 43
0.0000000001
 40
0.0
 40
0.0
 40
0.0
 40
0.0
 40
1.0
 40
1.0
 40
1.0
 40
2.0
 40
2.0
 40
2.0
 40
3.0
 40
3.0
 40
3.0
 40
4.0
 40
4.0
 40
4.0
 40
5.0
 40
5.0
 40
5.0
 40
6.0
 40
6.0
 40
6.0
 40
6.0
 10
113.0856038411458
 20
194.512158203125
 30
0.0
 10
113.5064222547743
 20
194.7416015625
 30
0.0
 10
113.9275851779514
 20
195.033056640625
 30
0.0
 10
114.3485758463542
 20
195.2625
 30
0.0
 10
115.0756632486979
 20
195.6450778537326
 30
0.0
 10
115.7259250217014
 20
196.0429863823784
 30
0.0
 10
116.4531846788194
 20
196.3873236762153
 30
0.0
 10
116.9124159071181
 20
196.6550075954861
 30
0.0
 10
117.3148030598958
 20
196.7511257595486
 30
0.0
 10
117.7359659830729
 20
197.0573947482639
 30
0.0
 10
118.233782280816
 20
197.4017320421007
 30
0.0
 10
118.8270277235243
 20
197.5738145616319
 30
0.0
 10
119.3239827473958
 20
197.8806003146701
 30
0.0
 10
119.6683200412326
 20
198.1100436740451
 30
0.0
 10
120.013518608941
 20
198.3775553385416
 30
0.0
 10
120.4343370225694
 20
198.5308620876736
 30
0.0
 10
120.5871270073785
 20
198.5694471571181
 30
0.0
 10
120.7404337565104
 20
198.6836520724826
 30
0.0
 10
120.8556722005208
 20
198.8371310763889
 30
0.0
  0
SPLINE
  5
79
330
A
100
AcDbEntity
  8
LAYER_1
 62
     7
100
AcDbSpline
210
0.0
220
0.0
230
1.0
 70
     8
 71
     3
 72
    29
 73
    25
 74
     0
 42
0.0000000001
 43
0.0000000001
 40
0.0
 40
0.0
 40
0.0
 40
0.0
 40
1.0
 40
1.0
 40
1.0
 40
2.0
 40
2.0
 40
2.0
 40
3.0
 40
3.0
 40
3.0
 40
4.0
 40
4.0
 40
4.0
 40
5.0
 40
5.0
 40
5.0
 40
6.0
 40
6.0
 40
6.0
 40
7.0
 40
7.0
 40
7.0
 40
8.0
 40
8.0
 40
8.0
 40
8.0
 10
114.8079793294271
 20
193.5933512369792
 30
0.0
 10
114.845703125
 20
193.5933512369792
 30
0.0
 10
114.922356499566
 20
193.5933512369792
 30
0.0
 10
114.9607693142361
 20
193.5933512369792
 30
0.0
 10
115.1140760633681
 20
193.784381781684
 30
0.0
 10
115.3051066080729
 20
193.86103515625
 30
0.0
 10
115.4585856119792
 20
193.937688530816
 30
0.0
 10
115.9562296549479
 20
194.2053724500868
 30
0.0
 10
116.4531846788194
 20
194.435504828559
 30
0.0
 10
116.9510009765625
 20
194.6647759331597
 30
0.0
 10
117.4486450195312
 20
194.8949083116319
 30
0.0
 10
117.8315673828125
 20
195.3543117947048
 30
0.0
 10
118.3292114257812
 20
195.5453423394097
 30
0.0
 10
118.5967230902778
 20
195.6602362738715
 30
0.0
 10
118.9028198242187
 20
195.7370619032118
 30
0.0
 10
119.1713650173611
 20
195.8512668185764
 30
0.0
 10
120.3960964626736
 20
196.2724297417535
 30
0.0
 10
121.5443467881944
 20
196.9617933485243
 30
0.0
 10
122.7308376736111
 20
197.497161187066
 30
0.0
 10
123.0367621527778
 20
197.6506401909722
 30
0.0
 10
123.3051350911458
 20
197.8039469401041
 30
0.0
 10
123.6494723849826
 20
197.9183241102431
 30
0.0
 10
124.0706353081597
 20
198.0332180447049
 30
0.0
 10
124.4533854166667
 20
198.3393147786458
 30
0.0
 10
124.8359632703993
 20
198.6078599717882
 30
0.0
  0
SPLINE
  5
78
330
A
100
AcDbEntity
  8
LAYER_1
 62
     7
100
AcDbSpline
210
0.0
220
0.0
230
1.0
 70
     8
 71
     3
 72
    38
 73
    34
 74
     0
 42
0.0000000001
 43
0.0000000001
 40
0.0
 40
0.0
 40
0.0
 40
0.0
 40
1.0
 40
1.0
 40
1.0
 40
2.0
 40
2.0
 40
2.0
 40
3.0
 40
3.0
 40
3.0
 40
4.0
 40
4.0
 40
4.0
 40
5.0
 40
5.0
 40
5.0
 40
6.0
 40
6.0
 40
6.0
 40
7.0
 40
7.0
 40
7.0
 40
8.0
 40
8.0
 40
8.0
 40
9.0
 40
9.0
 40
9.0
 40
10.0
 40
10.0
 40
10.0
 40
11.0
 40
11.0
 40
11.0
 40
11.0
 10
116.3770480685764
 20
192.7511976453993
 30
0.0
 10
116.6064914279514
 20
192.8664360894097
 30
0.0
 10
116.8741753472222
 20
192.9046766493055
 30
0.0
 10
117.1043077256944
 20
193.0572943793403
 30
0.0
 10
117.3719916449653
 20
193.2107733832465
 30
0.0
 10
117.6021240234375
 20
193.4018039279514
 30
0.0
 10
117.8698079427083
 20
193.5551106770833
 30
0.0
 10
118.0231146918403
 20
193.6700046115451
 30
0.0
 10
118.2141452365451
 20
193.7466579861111
 30
0.0
 10
118.4056925455729
 20
193.8226223415798
 30
0.0
 10
118.7117892795139
 20
194.0529269748264
 30
0.0
 10
118.9794731987847
 20
194.3202663845486
 30
0.0
 10
119.3239827473958
 20
194.4737453884548
 30
0.0
 10
119.8216267903646
 20
194.6647759331597
 30
0.0
 10
120.3194430881076
 20
194.8180826822917
 30
0.0
 10
120.8170871310764
 20
195.0859388563368
 30
0.0
 10
120.9314643012153
 20
195.1624199761285
 30
0.0
 10
121.0465304904514
 20
195.239417860243
 30
0.0
 10
121.1615966796875
 20
195.2776584201389
 30
0.0
 10
121.5059339735243
 20
195.4302761501736
 30
0.0
 10
121.811858452691
 20
195.5453423394097
 30
0.0
 10
122.1570570203993
 20
195.6986490885417
 30
0.0
 10
122.615771484375
 20
195.8896796332465
 30
0.0
 10
123.0367621527778
 20
196.2340169270833
 30
0.0
 10
123.5345784505208
 20
196.3873236762153
 30
0.0
 10
123.7645385742187
 20
196.5023898654514
 30
0.0
 10
123.9555691189236
 20
196.5408026801215
 30
0.0
 10
124.1857014973958
 20
196.6174560546875
 30
0.0
 10
124.2616658528646
 20
196.6550075954861
 30
0.0
 10
124.3381469726562
 20
196.7318332248264
 30
0.0
 10
124.4151448567708
 20
196.7702460394965
 30
0.0
 10
125.2571261935764
 20
196.9617933485243
 30
0.0
 10
126.2141737196181
 20
197.2864935980903
 30
0.0
 10
126.9796739366319
 20
197.6310031467014
 30
0.0
  0
SPLINE
  5
77
330
A
100
AcDbEntity
  8
LAYER_1
 62
     7
100
AcDbSpline
210
0.0
220
0.0
230
1.0
 70
     8
 71
     3
 72
    29
 73
    25
 74
     0
 42
0.0000000001
 43
0.0000000001
 40
0.0
 40
0.0
 40
0.0
 40
0.0
 40
1.0
 40
1.0
 40
1.0
 40
2.0
 40
2.0
 40
2.0
 40
3.0
 40
3.0
 40
3.0
 40
4.0
 40
4.0
 40
4.0
 40
5.0
 40
5.0
 40
5.0
 40
6.0
 40
6.0
 40
6.0
 40
7.0
 40
7.0
 40
7.0
 40
8.0
 40
8.0
 40
8.0
 40
8.0
 10
117.6405368381076
 20
191.679945203993
 30
0.0
 10
117.9080485026042
 20
191.7174967447917
 30
0.0
 10
118.0989067925347
 20
191.9090440538194
 30
0.0
 10
118.3292114257812
 20
192.0242824978298
 30
0.0
 10
118.5202419704861
 20
192.0625230577257
 30
0.0
 10
118.7117892795139
 20
192.1391764322917
 30
0.0
 10
118.9028198242187
 20
192.2153130425347
 30
0.0
 10
119.4006361219618
 20
192.3686197916667
 30
0.0
 10
119.8982801649305
 20
192.5978908962673
 30
0.0
 10
120.3960964626736
 20
192.8278510199653
 30
0.0
 10
120.7021931966146
 20
192.98046875
 30
0.0
 10
120.9697048611111
 20
193.2107733832465
 30
0.0
 10
121.2764906141493
 20
193.3256673177083
 30
0.0
 10
122.1570570203993
 20
193.5933512369792
 30
0.0
 10
122.9983493381076
 20
193.8994479709201
 30
0.0
 10
123.8022623697917
 20
194.3972642686632
 30
0.0
 10
124.1088758680556
 20
194.6265353732639
 30
0.0
 10
124.5105740017361
 20
194.8087809244792
 30
0.0
 10
124.8556003146701
 20
194.9615709092882
 30
0.0
 10
125.6209282769097
 20
195.2297715928819
 30
0.0
 10
126.1757609049479
 20
195.5837551540799
 30
0.0
 10
126.9414333767361
 20
195.8512668185764
 30
0.0
 10
127.5916951497396
 20
196.0813991970486
 30
0.0
 10
128.4049099392361
 20
196.2441799587674
 30
0.0
 10
129.017620171441
 20
196.6267578125
 30
0.0
  0
SPLINE
  5
76
330
A
100
AcDbEntity
  8
LAYER_1
 62
     7
100
AcDbSpline
210
0.0
220
0.0
230
1.0
 70
     8
 71
     3
 72
    11
 73
     7
 74
     0
 42
0.0000000001
 43
0.0000000001
 40
0.0
 40
0.0
 40
0.0
 40
0.0
 40
1.0
 40
1.0
 40
1.0
 40
2.0
 40
2.0
 40
2.0
 40
2.0
 10
119.2096055772569
 20
190.1096706814236
 30
0.0
 10
119.132952202691
 20
190.0338785807292
 30
0.0
 10
119.132952202691
 20
189.9188123914931
 30
0.0
 10
119.132952202691
 20
189.8423312717014
 30
0.0
 10
119.0945393880208
 20
189.7653333875868
 30
0.0
 10
119.0180582682292
 20
189.727092827691
 30
0.0
 10
119.0180582682292
 20
189.6128879123264
 30
0.0
  0
SPLINE
  5
75
330
A
100
AcDbEntity
  8
LAYER_1
 62
     7
100
AcDbSpline
210
0.0
220
0.0
230
1.0
 70
     8
 71
     3
 72
     8
 73
     4
 74
     0
 42
0.0000000001
 43
0.0000000001
 40
0.0
 40
0.0
 40
0.0
 40
0.0
 40
1.0
 40
1.0
 40
1.0
 40
1.0
 10
120.5871270073785
 20
189.5360622829861
 30
0.0
 10
120.3960964626736
 20
189.0384182400173
 30
0.0
 10
120.0415961371528
 20
188.521826171875
 30
0.0
 10
120.0040445963542
 20
187.9855970594618
 30
0.0
  0
SPLINE
  5
74
330
A
100
AcDbEntity
  8
LAYER_1
 62
     7
100
AcDbSpline
210
0.0
220
0.0
230
1.0
 70
     8
 71
     3
 72
    29
 73
    25
 74
     0
 42
0.0000000001
 43
0.0000000001
 40
0.0
 40
0.0
 40
0.0
 40
0.0
 40
1.0
 40
1.0
 40
1.0
 40
2.0
 40
2.0
 40
2.0
 40
3.0
 40
3.0
 40
3.0
 40
4.0
 40
4.0
 40
4.0
 40
5.0
 40
5.0
 40
5.0
 40
6.0
 40
6.0
 40
6.0
 40
7.0
 40
7.0
 40
7.0
 40
8.0
 40
8.0
 40
8.0
 40
8.0
 10
120.9314643012153
 20
189.8037462022569
 30
0.0
 10
121.4675211588542
 20
190.148255750868
 30
0.0
 10
122.0421630859375
 20
190.4548692491319
 30
0.0
 10
122.6540120442708
 20
190.6458997938368
 30
0.0
 10
122.9601087782118
 20
190.7225531684028
 30
0.0
 10
123.1900689019097
 20
190.876032172309
 30
0.0
 10
123.4195122612847
 20
191.028822157118
 30
0.0
 10
124.3381469726562
 20
191.5264662000868
 30
0.0
 10
125.1803005642361
 20
192.0242824978298
 30
0.0
 10
126.1375203450521
 20
192.4068603515625
 30
0.0
 10
126.3285508897569
 20
192.4835137261285
 30
0.0
 10
126.5200981987847
 20
192.6361314561632
 30
0.0
 10
126.7111287434896
 20
192.7129570855035
 30
0.0
 10
127.0179144965278
 20
192.8278510199653
 30
0.0
 10
127.3622517903646
 20
192.9046766493055
 30
0.0
 10
127.6683485243055
 20
193.0188815646701
 30
0.0
 10
128.5105021158854
 20
193.2872545030382
 30
0.0
 10
129.3144151475694
 20
193.6700046115451
 30
0.0
 10
130.1948092990451
 20
193.937688530816
 30
0.0
 10
130.6157999674479
 20
194.0529269748264
 30
0.0
 10
131.036962890625
 20
194.129408094618
 30
0.0
 10
131.4195407443576
 20
194.2820258246528
 30
0.0
 10
131.9171847873264
 20
194.4737453884548
 30
0.0
 10
132.6733832465278
 20
194.6554741753472
 30
0.0
 10
133.2087510850694
 20
194.7321275499132
 30
0.0
  0
SPLINE
  5
73
330
A
100
AcDbEntity
  8
LAYER_1
 62
     7
100
AcDbSpline
210
0.0
220
0.0
230
1.0
 70
     8
 71
     3
 72
    26
 73
    22
 74
     0
 42
0.0000000001
 43
0.0000000001
 40
0.0
 40
0.0
 40
0.0
 40
0.0
 40
1.0
 40
1.0
 40
1.0
 40
2.0
 40
2.0
 40
2.0
 40
3.0
 40
3.0
 40
3.0
 40
4.0
 40
4.0
 40
4.0
 40
5.0
 40
5.0
 40
5.0
 40
6.0
 40
6.0
 40
6.0
 40
7.0
 40
7.0
 40
7.0
 40
7.0
 10
119.132952202691
 20
190.6074869791667
 30
0.0
 10
119.9751057942708
 20
190.8377916124132
 30
0.0
 10
120.5871270073785
 20
191.5264662000868
 30
0.0
 10
121.3910400390625
 20
191.7939778645833
 30
0.0
 10
121.6592407226562
 20
191.9090440538194
 30
0.0
 10
121.8886840820312
 20
192.0242824978298
 30
0.0
 10
122.1186442057292
 20
192.1391764322917
 30
0.0
 10
122.692424858941
 20
192.4068603515625
 30
0.0
 10
123.2286539713542
 20
192.7129570855035
 30
0.0
 10
123.8022623697917
 20
192.9422281901042
 30
0.0
 10
124.3765597873264
 20
193.1723605685764
 30
0.0
 10
124.9510294596354
 20
193.2872545030382
 30
0.0
 10
125.4863972981771
 20
193.5551106770833
 30
0.0
 10
125.7549424913194
 20
193.6700046115451
 30
0.0
 10
126.022454155816
 20
193.86103515625
 30
0.0
 10
126.2903103298611
 20
193.937688530816
 30
0.0
 10
126.903020562066
 20
194.1669596354167
 30
0.0
 10
127.5150417751736
 20
194.3202663845486
 30
0.0
 10
128.1661648220486
 20
194.5505710177951
 30
0.0
 10
129.1993489583333
 20
194.8564954969618
 30
0.0
 10
130.1948092990451
 20
195.2008327907986
 30
0.0
 10
131.1895806206597
 20
195.6219957139757
 30
0.0
  0
SPLINE
  5
72
330
A
100
AcDbEntity
  8
LAYER_1
 62
     7
100
AcDbSpline
210
0.0
220
0.0
230
1.0
 70
     8
 71
     3
 72
    11
 73
     7
 74
     0
 42
0.0000000001
 43
0.0000000001
 40
0.0
 40
0.0
 40
0.0
 40
0.0
 40
1.0
 40
1.0
 40
1.0
 40
2.0
 40
2.0
 40
2.0
 40
2.0
 10
141.792034233941
 20
105.165673828125
 30
0.0
 10
143.1702446831597
 20
105.2235514322917
 30
0.0
 10
144.5484551323785
 20
105.2235514322917
 30
0.0
 10
145.9259765625
 20
105.1375962999132
 30
0.0
 10
146.1848754882813
 20
105.1086574978299
 30
0.0
 10
146.442396375868
 20
105.1375962999132
 30
0.0
 10
146.7014675564236
 20
105.0227023654514
 30
0.0
  0
SPLINE
  5
71
330
A
100
AcDbEntity
  8
LAYER_1
 62
     7
100
AcDbSpline
210
0.0
220
0.0
230
1.0
 70
     8
 71
     3
 72
    20
 73
    16
 74
     0
 42
0.0000000001
 43
0.0000000001
 40
0.0
 40
0.0
 40
0.0
 40
0.0
 40
1.0
 40
1.0
 40
1.0
 40
2.0
 40
2.0
 40
2.0
 40
3.0
 40
3.0
 40
3.0
 40
4.0
 40
4.0
 40
4.0
 40
5.0
 40
5.0
 40
5.0
 40
5.0
 10
136.8261013454861
 20
103.1566663953993
 30
0.0
 10
137.3137546115451
 20
103.127727593316
 30
0.0
 10
137.8020968967014
 20
103.127727593316
 30
0.0
 10
138.2904391818576
 20
103.0705390082465
 30
0.0
 10
138.9212361653646
 20
102.984583875868
 30
0.0
 10
139.5246446397569
 20
103.0416002061632
 30
0.0
 10
140.1271918402778
 20
103.0987887912326
 30
0.0
 10
140.9021660698785
 20
103.1566663953993
 30
0.0
 10
141.6776570638021
 20
103.2140272352431
 30
0.0
 10
142.4526312934028
 20
103.3289211697049
 30
0.0
 10
142.7687188042535
 20
103.3569986979167
 30
0.0
 10
143.0551784939236
 20
103.4148763020833
 30
0.0
 10
143.3712660047743
 20
103.4431260850694
 30
0.0
 10
144.4621554904514
 20
103.5299424913194
 30
0.0
 10
145.5814670138889
 20
103.4431260850694
 30
0.0
 10
146.6725287543403
 20
103.4431260850694
 30
0.0
  0
SPLINE
  5
70
330
A
100
AcDbEntity
  8
LAYER_1
 62
     7
100
AcDbSpline
210
0.0
220
0.0
230
1.0
 70
     8
 71
     3
 72
    32
 73
    28
 74
     0
 42
0.0000000001
 43
0.0000000001
 40
0.0
 40
0.0
 40
0.0
 40
0.0
 40
1.0
 40
1.0
 40
1.0
 40
2.0
 40
2.0
 40
2.0
 40
3.0
 40
3.0
 40
3.0
 40
4.0
 40
4.0
 40
4.0
 40
5.0
 40
5.0
 40
5.0
 40
6.0
 40
6.0
 40
6.0
 40
7.0
 40
7.0
 40
7.0
 40
8.0
 40
8.0
 40
8.0
 40
9.0
 40
9.0
 40
9.0
 40
9.0
 10
133.6390435112847
 20
100.2571017795139
 30
0.0
 10
133.7542819552951
 20
100.2281629774305
 30
0.0
 10
133.8693481445312
 20
100.2571017795139
 30
0.0
 10
133.9835530598958
 20
100.3142903645833
 30
0.0
 10
134.5008341471354
 20
100.5725002712674
 30
0.0
 10
135.0744425455729
 20
100.7735215928819
 30
0.0
 10
135.6490844726562
 20
100.8313991970486
 30
0.0
 10
136.2805704752604
 20
100.8596489800347
 30
0.0
 10
136.8831176757813
 20
100.7735215928819
 30
0.0
 10
137.5147759331597
 20
100.8596489800347
 30
0.0
 10
137.7731580946181
 20
100.8885877821181
 30
0.0
 10
138.003118218316
 20
100.9175265842014
 30
0.0
 10
138.2615003797743
 20
100.9175265842014
 30
0.0
 10
138.9212361653646
 20
100.9747151692708
 30
0.0
 10
139.552894422743
 20
100.8885877821181
 30
0.0
 10
140.2133192274305
 20
101.0036539713542
 30
0.0
 10
141.0742485894097
 20
101.1180311414931
 30
0.0
 10
141.9069281684028
 20
101.0608425564236
 30
0.0
 10
142.7397800021701
 20
101.0897813585069
 30
0.0
 10
143.8306694878472
 20
101.1469699435764
 30
0.0
 10
144.9217312282986
 20
101.1759087456597
 30
0.0
 10
146.0121039496528
 20
101.0897813585069
 30
0.0
 10
146.212953016493
 20
101.0897813585069
 30
0.0
 10
146.4143188476562
 20
101.0608425564236
 30
0.0
 10
146.6153401692708
 20
101.0036539713542
 30
0.0
 10
146.6725287543403
 20
100.9457763671875
 30
0.0
 10
146.7875949435764
 20
100.9457763671875
 30
0.0
 10
146.8447835286458
 20
100.8885877821181
 30
0.0
  0
SPLINE
  5
6F
330
A
100
AcDbEntity
  8
LAYER_1
 62
     7
100
AcDbSpline
210
0.0
220
0.0
230
1.0
 70
     8
 71
     3
 72
    17
 73
    13
 74
     0
 42
0.0000000001
 43
0.0000000001
 40
0.0
 40
0.0
 40
0.0
 40
0.0
 40
1.0
 40
1.0
 40
1.0
 40
2.0
 40
2.0
 40
2.0
 40
3.0
 40
3.0
 40
3.0
 40
4.0
 40
4.0
 40
4.0
 40
4.0
 10
133.7253431532118
 20
98.30511067708332
 30
0.0
 10
134.1564968532986
 20
98.27617187499999
 30
0.0
 10
134.5581949869792
 20
98.36212700737846
 30
0.0
 10
134.9884874131944
 20
98.39106580946179
 30
0.0
 10
137.4005710177951
 20
98.62050916883679
 30
0.0
 10
139.7539157443576
 20
98.42000461154512
 30
0.0
 10
142.1372328016493
 20
98.47736545138888
 30
0.0
 10
143.5726318359375
 20
98.53455403645833
 30
0.0
 10
145.0078586154514
 20
98.59243164062499
 30
0.0
 10
146.4713351779514
 20
98.44842664930555
 30
0.0
 10
146.5574625651042
 20
98.44842664930555
 30
0.0
 10
146.6725287543403
 20
98.42000461154512
 30
0.0
 10
146.7586561414931
 20
98.33404947916665
 30
0.0
  0
SPLINE
  5
6E
330
A
100
AcDbEntity
  8
LAYER_1
 62
     7
100
AcDbSpline
210
0.0
220
0.0
230
1.0
 70
     8
 71
     3
 72
    23
 73
    19
 74
     0
 42
0.0000000001
 43
0.0000000001
 40
0.0
 40
0.0
 40
0.0
 40
0.0
 40
1.0
 40
1.0
 40
1.0
 40
2.0
 40
2.0
 40
2.0
 40
3.0
 40
3.0
 40
3.0
 40
4.0
 40
4.0
 40
4.0
 40
5.0
 40
5.0
 40
5.0
 40
6.0
 40
6.0
 40
6.0
 40
6.0
 10
133.4960720486111
 20
95.31941867404512
 30
0.0
 10
133.9835530598958
 20
95.31941867404512
 30
0.0
 10
134.4718953450521
 20
95.29047987196179
 30
0.0
 10
134.9604098849826
 20
95.34835747612847
 30
0.0
 10
135.8211669921875
 20
95.43431260850694
 30
0.0
 10
136.6538465711805
 20
95.4053738064236
 30
0.0
 10
137.5147759331597
 20
95.52043999565971
 30
0.0
 10
138.6917928059896
 20
95.66375596788194
 30
0.0
 10
139.8111043294271
 20
95.52043999565971
 30
0.0
 10
140.9600436740451
 20
95.63550618489583
 30
0.0
 10
142.0509331597222
 20
95.7216335720486
 30
0.0
 10
143.0841172960069
 20
95.77882215711804
 30
0.0
 10
144.1751790364583
 20
95.86477728949652
 30
0.0
 10
144.7487874348958
 20
95.89371609157985
 30
0.0
 10
145.2944905598958
 20
95.87425130208332
 30
0.0
 10
145.8686157226562
 20
95.9602064344618
 30
0.0
 10
146.1559366861979
 20
95.98862847222222
 30
0.0
 10
146.5864013671875
 20
96.15209825303819
 30
0.0
 10
146.7875949435764
 20
95.80776095920137
 30
0.0
  0
SPLINE
  5
6D
330
A
100
AcDbEntity
  8
LAYER_1
 62
     7
100
AcDbSpline
210
0.0
220
0.0
230
1.0
 70
     8
 71
     3
 72
    26
 73
    22
 74
     0
 42
0.0000000001
 43
0.0000000001
 40
0.0
 40
0.0
 40
0.0
 40
0.0
 40
1.0
 40
1.0
 40
1.0
 40
2.0
 40
2.0
 40
2.0
 40
3.0
 40
3.0
 40
3.0
 40
4.0
 40
4.0
 40
4.0
 40
5.0
 40
5.0
 40
5.0
 40
6.0
 40
6.0
 40
6.0
 40
7.0
 40
7.0
 40
7.0
 40
7.0
 10
133.7542819552951
 20
92.67858072916665
 30
0.0
 10
134.0703694661458
 20
92.67858072916665
 30
0.0
 10
134.356829155816
 20
92.64964192708332
 30
0.0
 10
134.673088921441
 20
92.67858072916665
 30
0.0
 10
134.7590440538194
 20
92.70683051215276
 30
0.0
 10
134.8451714409722
 20
92.70683051215276
 30
0.0
 10
134.9314710828993
 20
92.70683051215276
 30
0.0
 10
135.3336859809028
 20
92.73576931423611
 30
0.0
 10
135.7061008029514
 20
92.79313015407985
 30
0.0
 10
136.0795491536458
 20
92.90802408854165
 30
0.0
 10
137.4005710177951
 20
93.2813001844618
 30
0.0
 10
138.7491536458333
 20
92.87908528645832
 30
0.0
 10
140.0412367078993
 20
93.2813001844618
 30
0.0
 10
140.4715291341146
 20
93.3961941189236
 30
0.0
 10
140.9021660698785
 20
93.45355495876736
 30
0.0
 10
141.3333197699653
 20
93.45355495876736
 30
0.0
 10
142.9979899088542
 20
93.5107435438368
 30
0.0
 10
144.662660047743
 20
93.6256374782986
 30
0.0
 10
146.3281914605035
 20
93.59669867621527
 30
0.0
 10
146.5002739800347
 20
93.59669867621527
 30
0.0
 10
146.6725287543403
 20
93.45355495876736
 30
0.0
 10
146.8447835286458
 20
93.3961941189236
 30
0.0
  0
SPLINE
  5
6C
330
A
100
AcDbEntity
  8
LAYER_1
 62
     7
100
AcDbSpline
210
0.0
220
0.0
230
1.0
 70
     8
 71
     3
 72
    23
 73
    19
 74
     0
 42
0.0000000001
 43
0.0000000001
 40
0.0
 40
0.0
 40
0.0
 40
0.0
 40
1.0
 40
1.0
 40
1.0
 40
2.0
 40
2.0
 40
2.0
 40
3.0
 40
3.0
 40
3.0
 40
4.0
 40
4.0
 40
4.0
 40
5.0
 40
5.0
 40
5.0
 40
6.0
 40
6.0
 40
6.0
 40
6.0
 10
133.8114705403646
 20
88.11434597439235
 30
0.0
 10
134.2708740234375
 20
88.11434597439235
 30
0.0
 10
134.7590440538194
 20
88.08540717230902
 30
0.0
 10
135.1896809895833
 20
88.28642849392361
 30
0.0
 10
135.2468695746528
 20
88.31467827690972
 30
0.0
 10
135.3047471788194
 20
88.28642849392361
 30
0.0
 10
135.3617635091146
 20
88.28642849392361
 30
0.0
 10
136.3379313151042
 20
88.63093804253471
 30
0.0
 10
137.3716322157118
 20
88.48693305121527
 30
0.0
 10
138.4046440972222
 20
88.57306043836805
 30
0.0
 10
138.7207316080729
 20
88.60199924045138
 30
0.0
 10
139.0361300998264
 20
88.63093804253471
 30
0.0
 10
139.3523898654514
 20
88.65901557074652
 30
0.0
 10
139.4667670355903
 20
88.68795437282985
 30
0.0
 10
139.552894422743
 20
88.71689317491318
 30
0.0
 10
139.6679606119791
 20
88.74583197699651
 30
0.0
 10
139.9842203776042
 20
88.80302056206597
 30
0.0
 10
140.328557671441
 20
88.77408175998264
 30
0.0
 10
140.6439561631945
 20
88.77408175998264
 30
0.0
  0
SPLINE
  5
6B
330
A
100
AcDbEntity
  8
LAYER_1
 62
     7
100
AcDbSpline
210
0.0
220
0.0
230
1.0
 70
     8
 71
     3
 72
    26
 73
    22
 74
     0
 42
0.0000000001
 43
0.0000000001
 40
0.0
 40
0.0
 40
0.0
 40
0.0
 40
1.0
 40
1.0
 40
1.0
 40
2.0
 40
2.0
 40
2.0
 40
3.0
 40
3.0
 40
3.0
 40
4.0
 40
4.0
 40
4.0
 40
5.0
 40
5.0
 40
5.0
 40
6.0
 40
6.0
 40
6.0
 40
7.0
 40
7.0
 40
7.0
 40
7.0
 10
148.5094536675347
 20
107.0894151475694
 30
0.0
 10
148.7394137912326
 20
106.7161390516493
 30
0.0
 10
149.2561781141493
 20
106.7734998914931
 30
0.0
 10
149.6294542100694
 20
106.5151177300347
 30
0.0
 10
149.6864705403646
 20
106.4861789279514
 30
0.0
 10
149.7443481445312
 20
106.5151177300347
 30
0.0
 10
149.8013644748264
 20
106.5151177300347
 30
0.0
 10
150.1748128255208
 20
106.3718017578125
 30
0.0
 10
150.4902113172743
 20
106.1706081814236
 30
0.0
 10
150.8924262152778
 20
106.0557142469618
 30
0.0
 10
151.0648532443576
 20
105.9985256618923
 30
0.0
 10
151.2367635091146
 20
105.9122260199653
 30
0.0
 10
151.4091905381944
 20
105.7683932834201
 30
0.0
 10
151.5240844726562
 20
105.711376953125
 30
0.0
 10
151.6674004448785
 20
105.711376953125
 30
0.0
 10
151.7824666341146
 20
105.6541883680555
 30
0.0
 10
152.0978651258681
 20
105.4529947916667
 30
0.0
 10
152.3567640516493
 20
105.2235514322917
 30
0.0
 10
152.6721625434028
 20
105.0516411675347
 30
0.0
 10
152.873528374566
 20
104.9364027235243
 30
0.0
 10
153.13173828125
 20
104.907463921441
 30
0.0
 10
153.3327596028646
 20
104.8213365342882
 30
0.0
  0
SPLINE
  5
6A
330
A
100
AcDbEntity
  8
LAYER_1
 62
     7
100
AcDbSpline
210
0.0
220
0.0
230
1.0
 70
     8
 71
     3
 72
    26
 73
    22
 74
     0
 42
0.0000000001
 43
0.0000000001
 40
0.0
 40
0.0
 40
0.0
 40
0.0
 40
1.0
 40
1.0
 40
1.0
 40
2.0
 40
2.0
 40
2.0
 40
3.0
 40
3.0
 40
3.0
 40
4.0
 40
4.0
 40
4.0
 40
5.0
 40
5.0
 40
5.0
 40
6.0
 40
6.0
 40
6.0
 40
7.0
 40
7.0
 40
7.0
 40
7.0
 10
147.0747436523437
 20
103.127727593316
 30
0.0
 10
147.5053805881076
 20
102.6400743272569
 30
0.0
 10
148.1368665907118
 20
102.5532579210069
 30
0.0
 10
148.6823974609375
 20
102.1808430989583
 30
0.0
 10
148.7394137912326
 20
102.1229654947917
 30
0.0
 10
148.7966023763021
 20
102.0368381076389
 30
0.0
 10
148.8544799804687
 20
102.0078993055555
 30
0.0
 10
149.6005154079861
 20
101.7496893988715
 30
0.0
 10
150.4042561848958
 20
101.5202460394965
 30
0.0
 10
150.9206759982639
 20
100.8885877821181
 30
0.0
 10
151.3802517361111
 20
100.7445827907986
 30
0.0
 10
151.8394829644097
 20
100.5151394314236
 30
0.0
 10
152.2988864474826
 20
100.3432291666667
 30
0.0
 10
152.5002522786458
 20
100.2860405815972
 30
0.0
 10
152.7011013454861
 20
100.2571017795139
 30
0.0
 10
152.873528374566
 20
100.1708021375868
 30
0.0
 10
152.9884223090278
 20
100.1418633355035
 30
0.0
 10
153.1027994791667
 20
100.0848470052083
 30
0.0
 10
153.2468044704861
 20
100.1137858072917
 30
0.0
 10
153.2468044704861
 20
100.0848470052083
 30
0.0
 10
153.2468044704861
 20
100.0848470052083
 30
0.0
 10
153.2468044704861
 20
100.055908203125
 30
0.0
  0
SPLINE
  5
69
330
A
100
AcDbEntity
  8
LAYER_1
 62
     7
100
AcDbSpline
210
0.0
220
0.0
230
1.0
 70
     8
 71
     3
 72
    20
 73
    16
 74
     0
 42
0.0000000001
 43
0.0000000001
 40
0.0
 40
0.0
 40
0.0
 40
0.0
 40
1.0
 40
1.0
 40
1.0
 40
2.0
 40
2.0
 40
2.0
 40
3.0
 40
3.0
 40
3.0
 40
4.0
 40
4.0
 40
4.0
 40
5.0
 40
5.0
 40
5.0
 40
5.0
 10
147.0168660481771
 20
105.1946126302083
 30
0.0
 10
147.2750759548611
 20
104.9364027235243
 30
0.0
 10
147.5913357204861
 20
104.7353814019097
 30
0.0
 10
147.9356730143229
 20
104.6203152126736
 30
0.0
 10
148.5094536675347
 20
104.4480604383681
 30
0.0
 10
149.0548122829861
 20
104.2759779188368
 30
0.0
 10
149.6294542100694
 20
104.0465345594618
 30
0.0
 10
150.4621337890625
 20
103.7302747938368
 30
0.0
 10
151.2078247070313
 20
103.3289211697049
 30
0.0
 10
151.9834879557292
 20
102.8695176866319
 30
0.0
 10
152.1839925130208
 20
102.7544514973958
 30
0.0
 10
152.3567640516493
 20
102.6683241102431
 30
0.0
 10
152.5291910807292
 20
102.5532579210069
 30
0.0
 10
152.7582899305556
 20
102.4390530056424
 30
0.0
 10
153.0164998372396
 20
102.3811754014757
 30
0.0
 10
153.3038208007812
 20
102.410114203559
 30
0.0
  0
SPLINE
  5
68
330
A
100
AcDbEntity
  8
LAYER_1
 62
     7
100
AcDbSpline
210
0.0
220
0.0
230
1.0
 70
     8
 71
     3
 72
    23
 73
    19
 74
     0
 42
0.0000000001
 43
0.0000000001
 40
0.0
 40
0.0
 40
0.0
 40
0.0
 40
1.0
 40
1.0
 40
1.0
 40
2.0
 40
2.0
 40
2.0
 40
3.0
 40
3.0
 40
3.0
 40
4.0
 40
4.0
 40
4.0
 40
5.0
 40
5.0
 40
5.0
 40
6.0
 40
6.0
 40
6.0
 40
6.0
 10
147.0458048502604
 20
101.0897813585069
 30
0.0
 10
147.3901421440972
 20
100.8885877821181
 30
0.0
 10
147.7346516927083
 20
100.7445827907986
 30
0.0
 10
148.1079277886285
 20
100.5151394314236
 30
0.0
 10
148.1940551757812
 20
100.4581231011285
 30
0.0
 10
148.3089491102431
 20
100.4002454969618
 30
0.0
 10
148.4233262803819
 20
100.3142903645833
 30
0.0
 10
148.9407796223958
 20
100.0278306749132
 30
0.0
 10
149.4280883789062
 20
99.74050971137152
 30
0.0
 10
149.9455417209201
 20
99.45318874782986
 30
0.0
 10
150.2030626085069
 20
99.31004503038193
 30
0.0
 10
150.318128797743
 20
99.05097384982638
 30
0.0
 10
150.548088921441
 20
98.87889133029513
 30
0.0
 10
151.1508083767361
 20
98.33404947916665
 30
0.0
 10
151.9256103515625
 20
98.13285590277776
 30
0.0
 10
152.6721625434028
 20
97.78851860894096
 30
0.0
 10
152.8445895724826
 20
97.7306410047743
 30
0.0
 10
153.0454386393229
 20
97.75957980685763
 30
0.0
 10
153.2468044704861
 20
97.75957980685763
 30
0.0
  0
SPLINE
  5
67
330
A
100
AcDbEntity
  8
LAYER_1
 62
     7
100
AcDbSpline
210
0.0
220
0.0
230
1.0
 70
     8
 71
     3
 72
    20
 73
    16
 74
     0
 42
0.0000000001
 43
0.0000000001
 40
0.0
 40
0.0
 40
0.0
 40
0.0
 40
1.0
 40
1.0
 40
1.0
 40
2.0
 40
2.0
 40
2.0
 40
3.0
 40
3.0
 40
3.0
 40
4.0
 40
4.0
 40
4.0
 40
5.0
 40
5.0
 40
5.0
 40
5.0
 10
147.0168660481771
 20
98.53455403645833
 30
0.0
 10
147.447502983941
 20
98.30511067708332
 30
0.0
 10
147.8786566840278
 20
98.01778971354166
 30
0.0
 10
148.3371988932292
 20
97.78851860894096
 30
0.0
 10
148.6534586588542
 20
97.64451361762151
 30
0.0
 10
148.997795952691
 20
97.53030870225693
 30
0.0
 10
149.3131944444444
 20
97.3863037109375
 30
0.0
 10
149.4570271809896
 20
97.30017632378471
 30
0.0
 10
149.6005154079861
 20
97.1570326063368
 30
0.0
 10
149.7443481445312
 20
97.09915500217014
 30
0.0
 10
150.3760064019097
 20
96.78375651041665
 30
0.0
 10
150.9496148003472
 20
96.46749674479166
 30
0.0
 10
151.6100396050347
 20
96.26699218749999
 30
0.0
 10
152.1268039279514
 20
96.15209825303819
 30
0.0
 10
152.6721625434028
 20
96.12315945095486
 30
0.0
 10
153.1599880642361
 20
95.92196587456597
 30
0.0
  0
SPLINE
  5
66
330
A
100
AcDbEntity
  8
LAYER_1
 62
     7
100
AcDbSpline
210
0.0
220
0.0
230
1.0
 70
     8
 71
     3
 72
    20
 73
    16
 74
     0
 42
0.0000000001
 43
0.0000000001
 40
0.0
 40
0.0
 40
0.0
 40
0.0
 40
1.0
 40
1.0
 40
1.0
 40
2.0
 40
2.0
 40
2.0
 40
3.0
 40
3.0
 40
3.0
 40
4.0
 40
4.0
 40
4.0
 40
5.0
 40
5.0
 40
5.0
 40
5.0
 10
147.0747436523437
 20
96.06614312065972
 30
0.0
 10
147.5623969184028
 20
95.89371609157985
 30
0.0
 10
148.0216281467014
 20
95.66375596788194
 30
0.0
 10
148.4233262803819
 20
95.29047987196179
 30
0.0
 10
148.6534586588542
 20
95.08997531467013
 30
0.0
 10
148.9407796223958
 20
95.00402018229165
 30
0.0
 10
149.1988172743056
 20
94.88895399305555
 30
0.0
 10
149.3991495768229
 20
94.77371554904514
 30
0.0
 10
149.6005154079861
 20
94.65968288845485
 30
0.0
 10
149.8303032769097
 20
94.57338324652777
 30
0.0
 10
150.0027303059896
 20
94.51550564236111
 30
0.0
 10
150.1458740234375
 20
94.37236192491319
 30
0.0
 10
150.318128797743
 20
94.31448432074652
 30
0.0
 10
151.2657023111979
 20
93.94120822482638
 30
0.0
 10
152.1839925130208
 20
93.45355495876736
 30
0.0
 10
153.2178656684028
 20
93.45355495876736
 30
0.0
  0
SPLINE
  5
65
330
A
100
AcDbEntity
  8
LAYER_1
 62
     7
100
AcDbSpline
210
0.0
220
0.0
230
1.0
 70
     8
 71
     3
 72
    26
 73
    22
 74
     0
 42
0.0000000001
 43
0.0000000001
 40
0.0
 40
0.0
 40
0.0
 40
0.0
 40
1.0
 40
1.0
 40
1.0
 40
2.0
 40
2.0
 40
2.0
 40
3.0
 40
3.0
 40
3.0
 40
4.0
 40
4.0
 40
4.0
 40
5.0
 40
5.0
 40
5.0
 40
6.0
 40
6.0
 40
6.0
 40
7.0
 40
7.0
 40
7.0
 40
7.0
 10
147.0168660481771
 20
93.59669867621527
 30
0.0
 10
147.6194132486979
 20
93.13746744791666
 30
0.0
 10
148.3089491102431
 20
92.99397922092012
 30
0.0
 10
148.9688571506076
 20
92.59262559678818
 30
0.0
 10
149.1698784722222
 20
92.44879286024305
 30
0.0
 10
149.3421332465278
 20
92.27636583116319
 30
0.0
 10
149.572265625
 20
92.24742702907986
 30
0.0
 10
149.8876641167535
 20
92.16147189670139
 30
0.0
 10
150.1748128255208
 20
92.04709472656249
 30
0.0
 10
150.4902113172743
 20
91.9602783203125
 30
0.0
 10
150.6052775065104
 20
91.93202853732637
 30
0.0
 10
150.7205159505208
 20
91.90308973524304
 30
0.0
 10
150.8354098849826
 20
91.8459011501736
 30
0.0
 10
151.0359144422743
 20
91.70275743272569
 30
0.0
 10
151.2941243489583
 20
91.70275743272569
 30
0.0
 10
151.4951456705729
 20
91.61594102647568
 30
0.0
 10
151.6963392469618
 20
91.55858018663194
 30
0.0
 10
151.9256103515625
 20
91.61594102647568
 30
0.0
 10
152.1268039279514
 20
91.5296413845486
 30
0.0
 10
152.2699476453993
 20
91.44368625217012
 30
0.0
 10
152.4139526367187
 20
91.30054253472221
 30
0.0
 10
152.5002522786458
 20
91.15722656249999
 30
0.0
  0
SPLINE
  5
64
330
A
100
AcDbEntity
  8
LAYER_1
 62
     7
100
AcDbSpline
210
0.0
220
0.0
230
1.0
 70
     8
 71
     3
 72
    17
 73
    13
 74
     0
 42
0.0000000001
 43
0.0000000001
 40
0.0
 40
0.0
 40
0.0
 40
0.0
 40
1.0
 40
1.0
 40
1.0
 40
2.0
 40
2.0
 40
2.0
 40
3.0
 40
3.0
 40
3.0
 40
4.0
 40
4.0
 40
4.0
 40
4.0
 10
153.5911417643229
 20
97.01302761501735
 30
0.0
 10
153.9065402560764
 20
96.81183403862846
 30
0.0
 10
154.2226277669271
 20
96.63975151909722
 30
0.0
 10
154.5669650607639
 20
96.52537434895832
 30
0.0
 10
154.8251749674479
 20
96.43941921657985
 30
0.0
 10
155.1405734592014
 20
96.43941921657985
 30
0.0
 10
155.3998168945312
 20
96.35311957465277
 30
0.0
 10
155.5429606119791
 20
96.2952419704861
 30
0.0
 10
155.6862765842014
 20
96.18017578124999
 30
0.0
 10
155.8302815755208
 20
96.15209825303819
 30
0.0
 10
156.1456800672743
 20
96.09422064887151
 30
0.0
 10
156.3756401909722
 20
95.89371609157985
 30
0.0
 10
156.6622721354167
 20
95.83583848741318
 30
0.0
  0
SPLINE
  5
63
330
A
100
AcDbEntity
  8
LAYER_1
 62
     7
100
AcDbSpline
210
0.0
220
0.0
230
1.0
 70
     8
 71
     3
 72
    17
 73
    13
 74
     0
 42
0.0000000001
 43
0.0000000001
 40
0.0
 40
0.0
 40
0.0
 40
0.0
 40
1.0
 40
1.0
 40
1.0
 40
2.0
 40
2.0
 40
2.0
 40
3.0
 40
3.0
 40
3.0
 40
4.0
 40
4.0
 40
4.0
 40
4.0
 10
153.5332641601563
 20
99.36723361545138
 30
0.0
 10
153.5911417643229
 20
99.36723361545138
 30
0.0
 10
153.6770968967014
 20
99.36723361545138
 30
0.0
 10
153.7342854817708
 20
99.36723361545138
 30
0.0
 10
153.9354790581597
 20
99.2811062282986
 30
0.0
 10
154.1365003797743
 20
99.19497884114583
 30
0.0
 10
154.3659437391493
 20
99.13779025607639
 30
0.0
 10
154.9404134114583
 20
98.96484646267361
 30
0.0
 10
155.427894422743
 20
98.62050916883679
 30
0.0
 10
156.0307861328125
 20
98.44842664930555
 30
0.0
 10
156.2605740017361
 20
98.39106580946179
 30
0.0
 10
156.4900173611111
 20
98.27617187499999
 30
0.0
 10
156.7201497395833
 20
98.16127794053818
 30
0.0
  0
SPLINE
  5
62
330
A
100
AcDbEntity
  8
LAYER_1
 62
     7
100
AcDbSpline
210
0.0
220
0.0
230
1.0
 70
     8
 71
     3
 72
    23
 73
    19
 74
     0
 42
0.0000000001
 43
0.0000000001
 40
0.0
 40
0.0
 40
0.0
 40
0.0
 40
1.0
 40
1.0
 40
1.0
 40
2.0
 40
2.0
 40
2.0
 40
3.0
 40
3.0
 40
3.0
 40
4.0
 40
4.0
 40
4.0
 40
5.0
 40
5.0
 40
5.0
 40
6.0
 40
6.0
 40
6.0
 40
6.0
 10
153.5911417643229
 20
101.6923285590278
 30
0.0
 10
153.7914740668403
 20
101.6923285590278
 30
0.0
 10
153.9354790581597
 20
101.5491848415799
 30
0.0
 10
154.1075615776909
 20
101.4632297092014
 30
0.0
 10
154.4518988715278
 20
101.3190524631076
 30
0.0
 10
154.8251749674479
 20
101.2908026801215
 30
0.0
 10
155.1695122612847
 20
101.1469699435764
 30
0.0
 10
155.5140218098958
 20
101.0036539713542
 30
0.0
 10
155.8592203776042
 20
100.8885877821181
 30
0.0
 10
156.203557671441
 20
100.7165052625868
 30
0.0
 10
156.2605740017361
 20
100.6875664605035
 30
0.0
 10
156.3756401909722
 20
100.7445827907986
 30
0.0
 10
156.4330010308159
 20
100.7165052625868
 30
0.0
 10
156.4619398328993
 20
100.6875664605035
 30
0.0
 10
156.5189561631944
 20
100.6593166775174
 30
0.0
 10
156.5478949652778
 20
100.630377875434
 30
0.0
 10
156.5759724934896
 20
100.630377875434
 30
0.0
 10
156.6338500976562
 20
100.630377875434
 30
0.0
 10
156.6622721354167
 20
100.630377875434
 30
0.0
  0
SPLINE
  5
61
330
A
100
AcDbEntity
  8
LAYER_1
 62
     7
100
AcDbSpline
210
0.0
220
0.0
230
1.0
 70
     8
 71
     3
 72
    20
 73
    16
 74
     0
 42
0.0000000001
 43
0.0000000001
 40
0.0
 40
0.0
 40
0.0
 40
0.0
 40
1.0
 40
1.0
 40
1.0
 40
2.0
 40
2.0
 40
2.0
 40
3.0
 40
3.0
 40
3.0
 40
4.0
 40
4.0
 40
4.0
 40
5.0
 40
5.0
 40
5.0
 40
5.0
 10
153.5050143771701
 20
104.0175957573785
 30
0.0
 10
153.6192192925347
 20
104.0175957573785
 30
0.0
 10
153.7342854817708
 20
103.9886569552951
 30
0.0
 10
153.8493516710069
 20
103.9605794270833
 30
0.0
 10
153.9926676432291
 20
103.931640625
 30
0.0
 10
154.1365003797743
 20
103.8165744357639
 30
0.0
 10
154.2799886067708
 20
103.7881523980035
 30
0.0
 10
154.653264702691
 20
103.702197265625
 30
0.0
 10
154.9686631944444
 20
103.5873033311632
 30
0.0
 10
155.3136895073785
 20
103.4720648871528
 30
0.0
 10
155.3998168945312
 20
103.4431260850694
 30
0.0
 10
155.427894422743
 20
103.3569986979167
 30
0.0
 10
155.5140218098958
 20
103.3289211697049
 30
0.0
 10
155.9162367078993
 20
103.2429660373264
 30
0.0
 10
156.2895128038194
 20
103.0987887912326
 30
0.0
 10
156.6912109375
 20
103.0126614040799
 30
0.0
  0
SPLINE
  5
60
330
A
100
AcDbEntity
  8
LAYER_1
 62
     7
100
AcDbSpline
210
0.0
220
0.0
230
1.0
 70
     8
 71
     3
 72
    17
 73
    13
 74
     0
 42
0.0000000001
 43
0.0000000001
 40
0.0
 40
0.0
 40
0.0
 40
0.0
 40
1.0
 40
1.0
 40
1.0
 40
2.0
 40
2.0
 40
2.0
 40
3.0
 40
3.0
 40
3.0
 40
4.0
 40
4.0
 40
4.0
 40
4.0
 10
153.5622029622396
 20
106.0557142469618
 30
0.0
 10
153.9354790581597
 20
105.9985256618923
 30
0.0
 10
154.1936889648437
 20
105.711376953125
 30
0.0
 10
154.5380262586805
 20
105.6252495659722
 30
0.0
 10
154.7102810329861
 20
105.5678887261285
 30
0.0
 10
154.8541137695312
 20
105.48193359375
 30
0.0
 10
155.0265407986111
 20
105.4529947916667
 30
0.0
 10
155.3419392903646
 20
105.3670396592882
 30
0.0
 10
155.6290879991319
 20
105.2518012152778
 30
0.0
 10
155.9444864908854
 20
105.165673828125
 30
0.0
 10
156.2316351996528
 20
105.0797186957465
 30
0.0
 10
156.4619398328993
 20
104.907463921441
 30
0.0
 10
156.7490885416667
 20
104.907463921441
 30
0.0
  0
SPLINE
  5
5F
330
A
100
AcDbEntity
  8
LAYER_1
 62
     7
100
AcDbSpline
210
0.0
220
0.0
230
1.0
 70
     8
 71
     3
 72
    17
 73
    13
 74
     0
 42
0.0000000001
 43
0.0000000001
 40
0.0
 40
0.0
 40
0.0
 40
0.0
 40
1.0
 40
1.0
 40
1.0
 40
2.0
 40
2.0
 40
2.0
 40
3.0
 40
3.0
 40
3.0
 40
4.0
 40
4.0
 40
4.0
 40
4.0
 10
153.6192192925347
 20
108.1225992838542
 30
0.0
 10
153.7060356987847
 20
108.1225992838542
 30
0.0
 10
153.7914740668403
 20
108.0943495008681
 30
0.0
 10
153.8493516710069
 20
108.0654106987847
 30
0.0
 10
153.9637288411458
 20
108.0364718967014
 30
0.0
 10
154.0786227756076
 20
107.9503445095486
 30
0.0
 10
154.1936889648437
 20
107.8643893771701
 30
0.0
 10
154.3948825412326
 20
107.749323187934
 30
0.0
 10
154.6243259006076
 20
107.7782619900174
 30
0.0
 10
154.8251749674479
 20
107.6349460177951
 30
0.0
 10
155.427894422743
 20
107.261669921875
 30
0.0
 10
156.0597249348958
 20
107.1467759874132
 30
0.0
 10
156.6622721354167
 20
106.8313774956597
 30
0.0
  0
SPLINE
  5
5E
330
A
100
AcDbEntity
  8
LAYER_1
 62
     7
100
AcDbSpline
210
0.0
220
0.0
230
1.0
 70
     8
 71
     3
 72
    20
 73
    16
 74
     0
 42
0.0000000001
 43
0.0000000001
 40
0.0
 40
0.0
 40
0.0
 40
0.0
 40
1.0
 40
1.0
 40
1.0
 40
2.0
 40
2.0
 40
2.0
 40
3.0
 40
3.0
 40
3.0
 40
4.0
 40
4.0
 40
4.0
 40
5.0
 40
5.0
 40
5.0
 40
5.0
 10
153.13173828125
 20
110.2184231228299
 30
0.0
 10
153.2178656684028
 20
110.2184231228299
 30
0.0
 10
153.3038208007812
 20
110.2184231228299
 30
0.0
 10
153.3608371310764
 20
110.1894843207465
 30
0.0
 10
153.7342854817708
 20
109.9602132161458
 30
0.0
 10
154.1365003797743
 20
109.8162082248264
 30
0.0
 10
154.5097764756944
 20
109.615875922309
 30
0.0
 10
154.5959038628472
 20
109.5869371202257
 30
0.0
 10
154.7102810329861
 20
109.615875922309
 30
0.0
 10
154.7962361653646
 20
109.5579983181424
 30
0.0
 10
155.2558119032118
 20
109.4146823459201
 30
0.0
 10
155.7152153862847
 20
109.2715386284722
 30
0.0
 10
156.1456800672743
 20
109.0984225802951
 30
0.0
 10
156.3467013888889
 20
109.0124674479167
 30
0.0
 10
156.5478949652778
 20
108.9265123155382
 30
0.0
 10
156.7490885416667
 20
108.9554511176215
 30
0.0
  0
SPLINE
  5
5D
330
A
100
AcDbEntity
  8
LAYER_1
 62
     7
100
AcDbSpline
210
0.0
220
0.0
230
1.0
 70
     8
 71
     3
 72
    14
 73
    10
 74
     0
 42
0.0000000001
 43
0.0000000001
 40
0.0
 40
0.0
 40
0.0
 40
0.0
 40
1.0
 40
1.0
 40
1.0
 40
2.0
 40
2.0
 40
2.0
 40
3.0
 40
3.0
 40
3.0
 40
3.0
 10
154.1554484049479
 20
110.9737603081597
 30
0.0
 10
154.4997856987847
 20
110.8016777886285
 30
0.0
 10
154.8541137695312
 20
110.7003919813368
 30
0.0
 10
155.2268731011285
 20
110.6432033962674
 30
0.0
 10
155.6580268012153
 20
110.5569037543403
 30
0.0
 10
156.0597249348958
 20
110.4998874240451
 30
0.0
 10
156.4619398328993
 20
110.3849934895833
 30
0.0
 10
156.5478949652778
 20
110.3560546875
 30
0.0
 10
156.7201497395833
 20
110.246672905816
 30
0.0
 10
156.7773383246528
 20
110.103529188368
 30
0.0
  0
SPLINE
  5
5C
330
A
100
AcDbEntity
  8
LAYER_1
 62
     7
100
AcDbSpline
210
0.0
220
0.0
230
1.0
 70
     8
 71
     3
 72
    11
 73
     7
 74
     0
 42
0.0000000001
 43
0.0000000001
 40
0.0
 40
0.0
 40
0.0
 40
0.0
 40
1.0
 40
1.0
 40
1.0
 40
2.0
 40
2.0
 40
2.0
 40
2.0
 10
156.9492485894097
 20
95.87287326388888
 30
0.0
 10
157.3226969401042
 20
95.95900065104166
 30
0.0
 10
157.667034233941
 20
95.90232883029513
 30
0.0
 10
158.0403103298611
 20
95.98862847222222
 30
0.0
 10
158.3846476236979
 20
96.07475585937499
 30
0.0
 10
159.1024332682292
 20
96.17087402343749
 30
0.0
 10
159.4757093641493
 20
96.25700141059026
 30
0.0
  0
SPLINE
  5
5B
330
A
100
AcDbEntity
  8
LAYER_1
 62
     7
100
AcDbSpline
210
0.0
220
0.0
230
1.0
 70
     8
 71
     3
 72
    17
 73
    13
 74
     0
 42
0.0000000001
 43
0.0000000001
 40
0.0
 40
0.0
 40
0.0
 40
0.0
 40
1.0
 40
1.0
 40
1.0
 40
2.0
 40
2.0
 40
2.0
 40
3.0
 40
3.0
 40
3.0
 40
4.0
 40
4.0
 40
4.0
 40
4.0
 10
157.0071261935764
 20
98.0749782986111
 30
0.0
 10
157.4377631293403
 20
98.0749782986111
 30
0.0
 10
157.8394612630208
 20
98.0749782986111
 30
0.0
 10
158.2706149631076
 20
97.98885091145833
 30
0.0
 10
158.5570746527778
 20
97.93183458116319
 30
0.0
 10
158.8152845594618
 20
97.93183458116319
 30
0.0
 10
159.1024332682292
 20
97.90289577907986
 30
0.0
 10
160.1643839518229
 20
97.78851860894096
 30
0.0
 10
161.2273681640625
 20
97.92167154947916
 30
0.0
 10
162.2893188476562
 20
98.03604871961805
 30
0.0
 10
162.6047173394097
 20
98.06498752170138
 30
0.0
 10
163.3037272135417
 20
97.91305881076389
 30
0.0
 10
163.6480645073785
 20
97.94130859374999
 30
0.0
  0
SPLINE
  5
5A
330
A
100
AcDbEntity
  8
LAYER_1
 62
     7
100
AcDbSpline
210
0.0
220
0.0
230
1.0
 70
     8
 71
     3
 72
    20
 73
    16
 74
     0
 42
0.0000000001
 43
0.0000000001
 40
0.0
 40
0.0
 40
0.0
 40
0.0
 40
1.0
 40
1.0
 40
1.0
 40
2.0
 40
2.0
 40
2.0
 40
3.0
 40
3.0
 40
3.0
 40
4.0
 40
4.0
 40
4.0
 40
5.0
 40
5.0
 40
5.0
 40
5.0
 10
157.0071261935764
 20
100.6593166775174
 30
0.0
 10
159.446770562066
 20
100.5440782335069
 30
0.0
 10
161.4376912434896
 20
100.7445827907986
 30
0.0
 10
163.8773356119792
 20
100.6593166775174
 30
0.0
 10
163.8773356119792
 20
100.6593166775174
 30
0.0
 10
164.2702487521701
 20
100.5725002712674
 30
0.0
 10
164.3274373372396
 20
100.5725002712674
 30
0.0
 10
164.7579020182292
 20
100.4870619032118
 30
0.0
 10
165.0312703450521
 20
100.5151394314236
 30
0.0
 10
165.4329684787326
 20
100.6875664605035
 30
0.0
 10
165.7201171875
 20
100.7735215928819
 30
0.0
 10
166.1650512695312
 20
100.70703125
 30
0.0
 10
166.4515109592014
 20
100.6210761176215
 30
0.0
 10
166.6814710828993
 20
100.5637152777778
 30
0.0
 10
166.8819756401909
 20
100.4445149739583
 30
0.0
 10
167.1408745659722
 20
100.4725925021701
 30
0.0
  0
SPLINE
  5
59
330
A
100
AcDbEntity
  8
LAYER_1
 62
     7
100
AcDbSpline
210
0.0
220
0.0
230
1.0
 70
     8
 71
     3
 72
    23
 73
    19
 74
     0
 42
0.0000000001
 43
0.0000000001
 40
0.0
 40
0.0
 40
0.0
 40
0.0
 40
1.0
 40
1.0
 40
1.0
 40
2.0
 40
2.0
 40
2.0
 40
3.0
 40
3.0
 40
3.0
 40
4.0
 40
4.0
 40
4.0
 40
5.0
 40
5.0
 40
5.0
 40
6.0
 40
6.0
 40
6.0
 40
6.0
 10
157.0071261935764
 20
102.9556450737847
 30
0.0
 10
158.2416761610243
 20
102.984583875868
 30
0.0
 10
159.4757093641493
 20
102.8116400824653
 30
0.0
 10
160.7390258789062
 20
102.984583875868
 30
0.0
 10
160.9400472005208
 20
103.0126614040799
 30
0.0
 10
161.1123019748264
 20
103.0705390082465
 30
0.0
 10
161.313323296441
 20
103.0705390082465
 30
0.0
 10
162.2603800455729
 20
103.127727593316
 30
0.0
 10
163.1502482096354
 20
102.984583875868
 30
0.0
 10
164.0979939778646
 20
103.0987887912326
 30
0.0
 10
164.5856472439236
 20
103.127727593316
 30
0.0
 10
165.102239312066
 20
103.1566663953993
 30
0.0
 10
165.5904093424479
 20
103.1850884331597
 30
0.0
 10
165.9921074761285
 20
103.2429660373264
 30
0.0
 10
166.4232611762153
 20
103.2710435655382
 30
0.0
 10
166.8249593098958
 20
103.1566663953993
 30
0.0
 10
166.968792046441
 20
103.127727593316
 30
0.0
 10
167.1119357638889
 20
103.0705390082465
 30
0.0
 10
167.2552517361111
 20
103.0126614040799
 30
0.0
  0
SPLINE
  5
58
330
A
100
AcDbEntity
  8
LAYER_1
 62
     7
100
AcDbSpline
210
0.0
220
0.0
230
1.0
 70
     8
 71
     3
 72
    14
 73
    10
 74
     0
 42
0.0000000001
 43
0.0000000001
 40
0.0
 40
0.0
 40
0.0
 40
0.0
 40
1.0
 40
1.0
 40
1.0
 40
2.0
 40
2.0
 40
2.0
 40
3.0
 40
3.0
 40
3.0
 40
3.0
 10
157.0071261935764
 20
104.7923977322049
 30
0.0
 10
158.8152845594618
 20
104.7643202039931
 30
0.0
 10
160.5950208875868
 20
104.7643202039931
 30
0.0
 10
162.4036960177951
 20
104.6781928168403
 30
0.0
 10
163.0071044921875
 20
104.6492540147569
 30
0.0
 10
163.6098239474826
 20
104.7353814019097
 30
0.0
 10
164.2123711480035
 20
104.8213365342882
 30
0.0
 10
165.1881944444444
 20
104.907463921441
 30
0.0
 10
166.1650512695312
 20
104.8502753363715
 30
0.0
 10
167.1408745659722
 20
104.907463921441
 30
0.0
  0
SPLINE
  5
57
330
A
100
AcDbEntity
  8
LAYER_1
 62
     7
100
AcDbSpline
210
0.0
220
0.0
230
1.0
 70
     8
 71
     3
 72
    14
 73
    10
 74
     0
 42
0.0000000001
 43
0.0000000001
 40
0.0
 40
0.0
 40
0.0
 40
0.0
 40
1.0
 40
1.0
 40
1.0
 40
2.0
 40
2.0
 40
2.0
 40
3.0
 40
3.0
 40
3.0
 40
3.0
 10
157.0644870334201
 20
106.7450778537326
 30
0.0
 10
159.1885606553819
 20
106.5729953342014
 30
0.0
 10
161.3415730794271
 20
106.7161390516493
 30
0.0
 10
163.4656467013889
 20
106.6300116644965
 30
0.0
 10
164.5284586588542
 20
106.6010728624132
 30
0.0
 10
165.5614705403646
 20
106.7204454210069
 30
0.0
 10
166.6235934787326
 20
106.7493842230903
 30
0.0
 10
166.8249593098958
 20
106.7493842230903
 30
0.0
 10
167.0258083767361
 20
106.8313774956597
 30
0.0
 10
167.2552517361111
 20
106.8594550238715
 30
0.0
  0
SPLINE
  5
56
330
A
100
AcDbEntity
  8
LAYER_1
 62
     7
100
AcDbSpline
210
0.0
220
0.0
230
1.0
 70
     8
 71
     3
 72
    20
 73
    16
 74
     0
 42
0.0000000001
 43
0.0000000001
 40
0.0
 40
0.0
 40
0.0
 40
0.0
 40
1.0
 40
1.0
 40
1.0
 40
2.0
 40
2.0
 40
2.0
 40
3.0
 40
3.0
 40
3.0
 40
4.0
 40
4.0
 40
4.0
 40
5.0
 40
5.0
 40
5.0
 40
5.0
 10
157.0355482313368
 20
108.9265123155382
 30
0.0
 10
158.2416761610243
 20
109.0703450520833
 30
0.0
 10
159.4186930338541
 20
108.9265123155382
 30
0.0
 10
160.6239596896701
 20
109.0703450520833
 30
0.0
 10
161.2554456922743
 20
109.1563001844618
 30
0.0
 10
161.8871039496528
 20
109.1847222222222
 30
0.0
 10
162.5187622070312
 20
109.0984225802951
 30
0.0
 10
162.6047173394097
 20
109.0703450520833
 30
0.0
 10
164.7100151909722
 20
109.1563001844618
 30
0.0
 10
164.7963148328993
 20
109.1563001844618
 30
0.0
 10
166.088225640191
 20
109.0703450520833
 30
0.0
 10
165.3895602756076
 20
109.1563001844618
 30
0.0
 10
166.6814710828993
 20
109.0984225802951
 30
0.0
 10
166.8819756401909
 20
109.0984225802951
 30
0.0
 10
167.0829969618056
 20
108.9843899197049
 30
0.0
 10
167.3131293402778
 20
108.9843899197049
 30
0.0
  0
SPLINE
  5
55
330
A
100
AcDbEntity
  8
LAYER_1
 62
     7
100
AcDbSpline
210
0.0
220
0.0
230
1.0
 70
     8
 71
     3
 72
    26
 73
    22
 74
     0
 42
0.0000000001
 43
0.0000000001
 40
0.0
 40
0.0
 40
0.0
 40
0.0
 40
1.0
 40
1.0
 40
1.0
 40
2.0
 40
2.0
 40
2.0
 40
3.0
 40
3.0
 40
3.0
 40
4.0
 40
4.0
 40
4.0
 40
5.0
 40
5.0
 40
5.0
 40
6.0
 40
6.0
 40
6.0
 40
7.0
 40
7.0
 40
7.0
 40
7.0
 10
157.3705837673611
 20
110.8023668077257
 30
0.0
 10
158.1460747612847
 20
110.8306165907118
 30
0.0
 10
159.4186930338541
 20
110.8500813802083
 30
0.0
 10
160.2222615559896
 20
110.9070977105035
 30
0.0
 10
161.0261745876736
 20
110.9649753146701
 30
0.0
 10
161.8011488172743
 20
110.9933973524306
 30
0.0
 10
162.5757785373264
 20
110.9933973524306
 30
0.0
 10
162.6336561414931
 20
110.9933973524306
 30
0.0
 10
162.6908447265625
 20
111.0512749565972
 30
0.0
 10
162.7487223307292
 20
111.0512749565972
 30
0.0
 10
162.9781656901042
 20
111.0223361545139
 30
0.0
 10
163.1502482096354
 20
111.1084635416667
 30
0.0
 10
163.3803805881076
 20
111.13740234375
 30
0.0
 10
163.4367078993055
 20
111.1444647894965
 30
0.0
 10
163.4656467013889
 20
111.1944186740451
 30
0.0
 10
163.5235243055556
 20
111.1944186740451
 30
0.0
 10
164.1839491102431
 20
111.1084635416667
 30
0.0
 10
164.8438571506076
 20
111.0512749565972
 30
0.0
 10
165.5044542100694
 20
111.13740234375
 30
0.0
 10
166.1361124674479
 20
111.2233574761285
 30
0.0
 10
166.7386596679687
 20
111.1654798719618
 30
0.0
 10
167.3701456705729
 20
111.1944186740451
 30
0.0
  0
SPLINE
  5
54
330
A
100
AcDbEntity
  8
LAYER_1
 62
     7
100
AcDbSpline
210
0.0
220
0.0
230
1.0
 70
     8
 71
     3
 72
     8
 73
     4
 74
     0
 42
0.0000000001
 43
0.0000000001
 40
0.0
 40
0.0
 40
0.0
 40
0.0
 40
1.0
 40
1.0
 40
1.0
 40
1.0
 10
162.4326348198784
 20
112.6868340386285
 30
0.0
 10
164.010316297743
 20
112.6587565104167
 30
0.0
 10
165.5950602213542
 20
112.7831244574653
 30
0.0
 10
167.1692966037326
 20
112.8685628255208
 30
0.0
  0
SPLINE
  5
53
330
A
100
AcDbEntity
  8
LAYER_1
 62
     7
100
AcDbSpline
210
0.0
220
0.0
230
1.0
 70
     8
 71
     3
 72
    26
 73
    22
 74
     0
 42
0.0000000001
 43
0.0000000001
 40
0.0
 40
0.0
 40
0.0
 40
0.0
 40
1.0
 40
1.0
 40
1.0
 40
2.0
 40
2.0
 40
2.0
 40
3.0
 40
3.0
 40
3.0
 40
4.0
 40
4.0
 40
4.0
 40
5.0
 40
5.0
 40
5.0
 40
6.0
 40
6.0
 40
6.0
 40
7.0
 40
7.0
 40
7.0
 40
7.0
 10
101.6025838216146
 20
185.0577826605903
 30
0.0
 10
101.7174777560764
 20
185.0577826605903
 30
0.0
 10
101.8029161241319
 20
185.0288438585069
 30
0.0
 10
101.917982313368
 20
185.0577826605903
 30
0.0
 10
102.0900648328993
 20
185.1149712456597
 30
0.0
 10
102.2340698242187
 20
185.2438178168403
 30
0.0
 10
102.4063245985243
 20
185.2727566189236
 30
0.0
 10
102.8366170247396
 20
185.3588840060764
 30
0.0
 10
102.8939778645833
 20
185.2827473958333
 30
0.0
 10
103.3251315646701
 20
185.3688747829861
 30
0.0
 10
103.4972140842014
 20
185.3978135850694
 30
0.0
 10
103.9566175672743
 20
185.5743747287326
 30
0.0
 10
104.1290445963542
 20
185.5743747287326
 30
0.0
 10
104.2430772569444
 20
185.603313530816
 30
0.0
 10
104.3581434461806
 20
185.5895331488715
 30
0.0
 10
104.473381890191
 20
185.6177829318576
 30
0.0
 10
105.3630777994792
 20
185.7900377061632
 30
0.0
 10
106.1668185763889
 20
185.9765896267361
 30
0.0
 10
107.0277479383681
 20
186.1769219292535
 30
0.0
 10
107.6311564127604
 20
186.3210991753472
 30
0.0
 10
108.2047648111979
 20
186.3934461805555
 30
0.0
 10
108.7794067382812
 20
186.5655287000868
 30
0.0
  0
SPLINE
  5
52
330
A
100
AcDbEntity
  8
LAYER_1
 62
     7
100
AcDbSpline
210
0.0
220
0.0
230
1.0
 70
     8
 71
     3
 72
    11
 73
     7
 74
     0
 42
0.0000000001
 43
0.0000000001
 40
0.0
 40
0.0
 40
0.0
 40
0.0
 40
1.0
 40
1.0
 40
1.0
 40
2.0
 40
2.0
 40
2.0
 40
2.0
 10
134.7590440538194
 20
194.1004692925347
 30
0.0
 10
134.7590440538194
 20
194.1004692925347
 30
0.0
 10
135.3336859809028
 20
193.526171875
 30
0.0
 10
134.4718953450521
 20
193.2397121853298
 30
0.0
 10
134.4718953450521
 20
193.2397121853298
 30
0.0
 10
135.5340182834201
 20
193.5551106770833
 30
0.0
 10
135.5340182834201
 20
192.579115125868
 30
0.0
  0
INSERT
  5
4D
330
A
100
AcDbEntity
  8
LAYER_1
 62
     7
100
AcDbBlockReference
  2
AI9-BLK8
 10
105.2717827690972
 20
140.6951158311632
 30
0.0
  0
INSERT
  5
47
330
A
100
AcDbEntity
  8
LAYER_1
 62
     7
100
AcDbBlockReference
  2
AI9-BLK7
 10
112.9446994357639
 20
143.1645602756076
 30
0.0
  0
INSERT
  5
41
330
A
100
AcDbEntity
  8
LAYER_1
 62
     7
100
AcDbBlockReference
  2
AI9-BLK6
 10
96.64474690755208
 20
113.5974589029948
 30
0.0
  0
INSERT
  5
3B
330
A
100
AcDbEntity
  8
LAYER_1
 62
     7
100
AcDbBlockReference
  2
AI9-BLK5
 10
88.01323242187499
 20
123.7408535427517
 30
0.0
  0
INSERT
  5
35
330
A
100
AcDbEntity
  8
LAYER_1
 62
     7
100
AcDbBlockReference
  2
AI9-BLK4
 10
97.38768174913193
 20
119.9319559733073
 30
0.0
  0
INSERT
  5
2F
330
A
100
AcDbEntity
  8
LAYER_1
 62
     7
100
AcDbBlockReference
  2
AI9-BLK3
 10
84.35402425130208
 20
116.9919114854601
 30
0.0
  0
INSERT
  5
29
330
A
100
AcDbEntity
  8
LAYER_1
 62
     7
100
AcDbBlockReference
  2
AI9-BLK2
 10
109.593310546875
 20
134.7860880533854
 30
0.0
  0
INSERT
  5
23
330
A
100
AcDbEntity
  8
LAYER_1
 62
     7
100
AcDbBlockReference
  2
AI9-BLK1
 10
104.3867377387153
 20
127.7968505859375
 30
0.0
  0
ENDSEC
  0
SECTION
  2
OBJECTS
  0
DICTIONARY
  5
19
330
0
100
AcDbDictionary
281
     1
  3
ACAD_COLOR
350
11F
  3
ACAD_GROUP
350
1A
  3
ACAD_LAYOUT
350
EC
  3
ACAD_MATERIAL
350
121
  3
ACAD_MLINESTYLE
350
1B
  3
ACAD_PLOTSETTINGS
350
ED
  3
ACAD_PLOTSTYLENAME
350
EA
  3
ACDBHEADERROUNDTRIPXREC
350
11E
  0
DICTIONARY
  5
11F
102
{ACAD_REACTORS
330
19
102
}
330
19
100
AcDbDictionary
281
     1
  0
DICTIONARY
  5
1A
102
{ACAD_REACTORS
330
19
102
}
330
19
100
AcDbDictionary
281
     1
  0
DICTIONARY
  5
EC
102
{ACAD_REACTORS
330
19
102
}
330
19
100
AcDbDictionary
281
     1
  3
Layout1
350
EF
  3
Model
350
EE
  0
DICTIONARY
  5
121
102
{ACAD_REACTORS
330
19
102
}
330
19
100
AcDbDictionary
281
     1
  0
DICTIONARY
  5
1B
102
{ACAD_REACTORS
330
19
102
}
330
19
100
AcDbDictionary
281
     1
  3
STANDARD
350
1C
  0
DICTIONARY
  5
ED
102
{ACAD_REACTORS
330
19
102
}
330
19
100
AcDbDictionary
281
     1
  0
ACDBDICTIONARYWDFLT
  5
EA
102
{ACAD_REACTORS
330
19
102
}
330
19
100
AcDbDictionary
281
     1
  3
Normal
350
EB
100
AcDbDictionaryWithDefault
340
EB
  0
DICTIONARY
  5
11E
102
{ACAD_REACTORS
330
19
102
}
330
19
100
AcDbDictionary
281
     1
  3
COLORDICT
350
120
  3
MATERIALDICT
350
122
  0
LAYOUT
  5
EF
102
{ACAD_REACTORS
330
EC
102
}
102
{ACAD_XDICTIONARY
360
123
102
}
330
EC
100
AcDbPlotSettings
  1

  2
Support Center HP LaserJet 4
  4

  6

 40
0.0
 41
0.0
 42
0.0
 43
0.0
 44
0.0
 45
0.0
 46
0.0
 47
0.0
 48
0.0
 49
0.0
140
0.0
141
0.0
142
1.0
143
1.0
 70
   688
 72
     0
 73
     0
 74
     5
  7

 75
    16
147
1.0
148
0.0
149
0.0
100
AcDbLayout
  1
Layout1
 70
     0
 71
     1
 10
0.0
 20
0.0
 11
12.0
 21
9.0
 12
0.0
 22
0.0
 32
0.0
 14
1.000000000000000E+20
 24
1.000000000000000E+20
 34
1.000000000000000E+20
 15
-1.000000000000000E+20
 25
-1.000000000000000E+20
 35
-1.000000000000000E+20
146
0.0
 13
0.0
 23
0.0
 33
0.0
 16
1.0
 26
0.0
 36
0.0
 17
0.0
 27
1.0
 37
0.0
 76
     0
330
B
  0
LAYOUT
  5
EE
102
{ACAD_REACTORS
330
EC
102
}
102
{ACAD_XDICTIONARY
360
125
102
}
330
EC
100
AcDbPlotSettings
  1

  2
Support Center HP LaserJet 4
  4

  6

 40
0.0
 41
0.0
 42
0.0
 43
0.0
 44
0.0
 45
0.0
 46
0.0
 47
0.0
 48
0.0
 49
0.0
140
0.0
141
0.0
142
1.0
143
1.0
 70
  1712
 72
     0
 73
     0
 74
     0
  7

 75
     0
147
1.0
148
0.0
149
0.0
100
AcDbLayout
  1
Model
 70
     1
 71
     0
 10
0.0
 20
0.0
 11
12.0
 21
9.0
 12
0.0
 22
0.0
 32
0.0
 14
0.0
 24
0.0
 34
0.0
 15
0.0
 25
0.0
 35
0.0
146
0.0
 13
0.0
 23
0.0
 33
0.0
 16
1.0
 26
0.0
 36
0.0
 17
0.0
 27
1.0
 37
0.0
 76
     0
330
A
  0
MLINESTYLE
  5
1C
102
{ACAD_REACTORS
330
1B
102
}
330
1B
100
AcDbMlineStyle
  2
STANDARD
 70
     0
  3

 62
     0
 51
90.0000000000002
 52
90.0000000000002
 71
     2
 49
0.5
 62
   256
  6
BYLAYER
 49
-0.5
 62
   256
  6
BYLAYER
  0
ACDBPLACEHOLDER
  5
EB
102
{ACAD_REACTORS
330
EA
102
}
330
EA
  0
XRECORD
  5
120
102
{ACAD_REACTORS
330
11E
102
}
330
11E
100
AcDbXrecord
340
11F
  0
XRECORD
  5
122
102
{ACAD_REACTORS
330
11E
102
}
330
11E
100
AcDbXrecord
340
121
  0
DICTIONARY
  5
123
330
EF
100
AcDbDictionary
280
     1
281
     1
  3
ACAD_XREC_ROUNDTRIP
360
124
  0
DICTIONARY
  5
125
330
EE
100
AcDbDictionary
280
     1
281
     1
  3
ACAD_XREC_ROUNDTRIP
360
126
  0
XRECORD
  5
124
102
{ACAD_REACTORS
330
123
102
}
330
123
100
AcDbXrecord
102
SHADEPLOT
 70
 31552
102
SHADEPLOTRESLEVEL
 70
 30752
102
SHADEPLOTCUSTOMDPI
 70
 31608
  0
XRECORD
  5
126
102
{ACAD_REACTORS
330
125
102
}
330
125
100
AcDbXrecord
102
SHADEPLOT
 70
     0
102
SHADEPLOTRESLEVEL
 70
     0
102
SHADEPLOTCUSTOMDPI
 70
     0
  0
ENDSEC
  0
EOF
