  0
SECTION
  2
HEADER
  9
$ACADVER
  1
AC1015
  9
$ACADMAINTVER
 70
     6
  9
$DWGCODEPAGE
  3
ANSI_1252
  9
$INSBASE
 10
0.0
 20
0.0
 30
0.0
  9
$EXTMIN
 10
49.74676544141837
 20
104.2870500009856
 30
-0.0015258207003612
  9
$EXTMAX
 10
169.9620075675329
 20
204.4980646704739
 30
0.0000000349246008
  9
$LIMMIN
 10
49.62229410807291
 20
104.1521267361111
  9
$LIMMAX
 10
169.5831027560764
 20
204.6329874674479
  9
$ORTHOMODE
 70
     0
  9
$REGENMODE
 70
     1
  9
$FILLMODE
 70
     1
  9
$QTEXTMODE
 70
     0
  9
$MIRRTEXT
 70
     1
  9
$LTSCALE
 40
1.0
  9
$ATTMODE
 70
     1
  9
$TEXTSIZE
 40
0.2
  9
$TRACEWID
 40
0.05
  9
$TEXTSTYLE
  7
STANDARD
  9
$CLAYER
  8
0
  9
$CELTYPE
  6
CONTINUOUS
  9
$CECOLOR
 62
   256
  9
$CELTSCALE
 40
1.0
  9
$DISPSILH
 70
     0
  9
$DIMSCALE
 40
1.0
  9
$DIMASZ
 40
0.18
  9
$DIMEXO
 40
0.0625
  9
$DIMDLI
 40
0.38
  9
$DIMRND
 40
0.0
  9
$DIMDLE
 40
0.0
  9
$DIMEXE
 40
0.18
  9
$DIMTP
 40
0.0
  9
$DIMTM
 40
0.0
  9
$DIMTXT
 40
0.18
  9
$DIMCEN
 40
0.09
  9
$DIMTSZ
 40
0.0
  9
$DIMTOL
 70
     0
  9
$DIMLIM
 70
     0
  9
$DIMTIH
 70
     1
  9
$DIMTOH
 70
     1
  9
$DIMSE1
 70
     0
  9
$DIMSE2
 70
     0
  9
$DIMTAD
 70
     0
  9
$DIMZIN
 70
     0
  9
$DIMBLK
  1

  9
$DIMASO
 70
     1
  9
$DIMSHO
 70
     1
  9
$DIMPOST
  1

  9
$DIMAPOST
  1

  9
$DIMALT
 70
     0
  9
$DIMALTD
 70
     2
  9
$DIMALTF
 40
25.4
  9
$DIMLFAC
 40
1.0
  9
$DIMTOFL
 70
     0
  9
$DIMTVP
 40
0.0
  9
$DIMTIX
 70
     0
  9
$DIMSOXD
 70
     0
  9
$DIMSAH
 70
     0
  9
$DIMBLK1
  1

  9
$DIMBLK2
  1

  9
$DIMSTYLE
  2
STANDARD
  9
$DIMCLRD
 70
     0
  9
$DIMCLRE
 70
     0
  9
$DIMCLRT
 70
     0
  9
$DIMTFAC
 40
1.0
  9
$DIMGAP
 40
0.09
  9
$DIMJUST
 70
     0
  9
$DIMSD1
 70
     0
  9
$DIMSD2
 70
     0
  9
$DIMTOLJ
 70
     1
  9
$DIMTZIN
 70
     0
  9
$DIMALTZ
 70
     0
  9
$DIMALTTZ
 70
     0
  9
$DIMUPT
 70
     0
  9
$DIMDEC
 70
     4
  9
$DIMTDEC
 70
     4
  9
$DIMALTU
 70
     2
  9
$DIMALTTD
 70
     2
  9
$DIMTXSTY
  7
STANDARD
  9
$DIMAUNIT
 70
     0
  9
$DIMADEC
 70
     0
  9
$DIMALTRND
 40
0.0
  9
$DIMAZIN
 70
     0
  9
$DIMDSEP
 70
    46
  9
$DIMATFIT
 70
     3
  9
$DIMFRAC
 70
     0
  9
$DIMLDRBLK
  1

  9
$DIMLUNIT
 70
     2
  9
$DIMLWD
 70
    -2
  9
$DIMLWE
 70
    -2
  9
$DIMTMOVE
 70
     0
  9
$LUNITS
 70
     2
  9
$LUPREC
 70
     4
  9
$SKETCHINC
 40
0.1
  9
$FILLETRAD
 40
0.0
  9
$AUNITS
 70
     0
  9
$AUPREC
 70
     0
  9
$MENU
  1
acad
  9
$ELEVATION
 40
0.0
  9
$PELEVATION
 40
0.0
  9
$THICKNESS
 40
0.0
  9
$LIMCHECK
 70
     0
  9
$CHAMFERA
 40
0.0
  9
$CHAMFERB
 40
0.0
  9
$CHAMFERC
 40
0.0
  9
$CHAMFERD
 40
0.0
  9
$SKPOLY
 70
     0
  9
$TDCREATE
 40
2444971.666666667
  9
$TDUCREATE
 40
2444972.0
  9
$TDUPDATE
 40
2452215.545462847
  9
$TDUUPDATE
 40
2452215.878796181
  9
$TDINDWG
 40
0.0003585648
  9
$TDUSRTIMER
 40
0.0003585648
  9
$USRTIMER
 70
     1
  9
$ANGBASE
 50
0.0
  9
$ANGDIR
 70
     0
  9
$PDMODE
 70
     0
  9
$PDSIZE
 40
0.0
  9
$PLINEWID
 40
0.0
  9
$SPLFRAME
 70
     0
  9
$SPLINETYPE
 70
     6
  9
$SPLINESEGS
 70
     8
  9
$HANDSEED
  5
118
  9
$SURFTAB1
 70
     6
  9
$SURFTAB2
 70
     6
  9
$SURFTYPE
 70
     6
  9
$SURFU
 70
     6
  9
$SURFV
 70
     6
  9
$UCSBASE
  2

  9
$UCSNAME
  2

  9
$UCSORG
 10
0.0
 20
0.0
 30
0.0
  9
$UCSXDIR
 10
1.0
 20
0.0
 30
0.0
  9
$UCSYDIR
 10
0.0
 20
1.0
 30
0.0
  9
$UCSORTHOREF
  2

  9
$UCSORTHOVIEW
 70
     0
  9
$UCSORGTOP
 10
0.0
 20
0.0
 30
0.0
  9
$UCSORGBOTTOM
 10
0.0
 20
0.0
 30
0.0
  9
$UCSORGLEFT
 10
0.0
 20
0.0
 30
0.0
  9
$UCSORGRIGHT
 10
0.0
 20
0.0
 30
0.0
  9
$UCSORGFRONT
 10
0.0
 20
0.0
 30
0.0
  9
$UCSORGBACK
 10
0.0
 20
0.0
 30
0.0
  9
$PUCSBASE
  2

  9
$PUCSNAME
  2

  9
$PUCSORG
 10
0.0
 20
0.0
 30
0.0
  9
$PUCSXDIR
 10
1.0
 20
0.0
 30
0.0
  9
$PUCSYDIR
 10
0.0
 20
1.0
 30
0.0
  9
$PUCSORTHOREF
  2

  9
$PUCSORTHOVIEW
 70
     0
  9
$PUCSORGTOP
 10
0.0
 20
0.0
 30
0.0
  9
$PUCSORGBOTTOM
 10
0.0
 20
0.0
 30
0.0
  9
$PUCSORGLEFT
 10
0.0
 20
0.0
 30
0.0
  9
$PUCSORGRIGHT
 10
0.0
 20
0.0
 30
0.0
  9
$PUCSORGFRONT
 10
0.0
 20
0.0
 30
0.0
  9
$PUCSORGBACK
 10
0.0
 20
0.0
 30
0.0
  9
$USERI1
 70
     0
  9
$USERI2
 70
     0
  9
$USERI3
 70
     0
  9
$USERI4
 70
     0
  9
$USERI5
 70
     0
  9
$USERR1
 40
0.0
  9
$USERR2
 40
0.0
  9
$USERR3
 40
0.0
  9
$USERR4
 40
0.0
  9
$USERR5
 40
0.0
  9
$WORLDVIEW
 70
     1
  9
$SHADEDGE
 70
     3
  9
$SHADEDIF
 70
    70
  9
$TILEMODE
 70
     1
  9
$MAXACTVP
 70
    16
  9
$PINSBASE
 10
0.0
 20
0.0
 30
0.0
  9
$PLIMCHECK
 70
     0
  9
$PEXTMIN
 10
1.000000000000000E+20
 20
1.000000000000000E+20
 30
1.000000000000000E+20
  9
$PEXTMAX
 10
-1.000000000000000E+20
 20
-1.000000000000000E+20
 30
-1.000000000000000E+20
  9
$PLIMMIN
 10
0.0
 20
0.0
  9
$PLIMMAX
 10
12.0
 20
9.0
  9
$UNITMODE
 70
     0
  9
$VISRETAIN
 70
     0
  9
$PLINEGEN
 70
     1
  9
$PSLTSCALE
 70
     0
  9
$TREEDEPTH
 70
  3020
  9
$CMLSTYLE
  2
STANDARD
  9
$CMLJUST
 70
     0
  9
$CMLSCALE
 40
1.0
  9
$PROXYGRAPHICS
 70
     0
  9
$MEASUREMENT
 70
     0
  9
$CELWEIGHT
370
    -1
  9
$ENDCAPS
280
     0
  9
$JOINSTYLE
280
     0
  9
$LWDISPLAY
290
     0
  9
$INSUNITS
 70
     0
  9
$HYPERLINKBASE
  1

  9
$STYLESHEET
  1

  9
$XEDIT
290
     1
  9
$CEPSNTYPE
380
     0
  9
$PSTYLEMODE
290
     1
  9
$FINGERPRINTGUID
  2
{890B552B-CEC8-11D5-923F-00805F198AD5}
  9
$VERSIONGUID
  2
{890B552D-CEC8-11D5-923F-00805F198AD5}
  9
$EXTNAMES
290
     1
  9
$PSVPSCALE
 40
0.0
  9
$OLESTARTUP
290
     0
  0
ENDSEC
  0
SECTION
  2
CLASSES
  0
CLASS
  1
LWPOLYLINE
  2
AcDbPolyline
  3
AutoCAD 2000
 90
        0
280
     0
281
     1
  0
CLASS
  1
IMAGE
  2
AcDbRasterImage
  3
ISM
 90
      127
280
     0
281
     1
  0
CLASS
  1
OLE2FRAME
  2
AcDbOle2Frame
  3
AutoCAD 2000
 90
        0
280
     0
281
     1
  0
CLASS
  1
HATCH
  2
AcDbHatch
  3
AutoCAD 2000
 90
        0
280
     0
281
     1
  0
CLASS
  1
DICTIONARYVAR
  2
AcDbDictionaryVar
  3
AutoCAD 2000
 90
        0
280
     0
281
     0
  0
CLASS
  1
RASTERVARIABLES
  2
AcDbRasterVariables
  3
ISM
 90
        0
280
     0
281
     0
  0
CLASS
  1
IMAGEDEF
  2
AcDbRasterImageDef
  3
ISM
 90
        0
280
     0
281
     0
  0
CLASS
  1
IMAGEDEF_REACTOR
  2
AcDbRasterImageDefReactor
  3
ISM
 90
        1
280
     0
281
     0
  0
CLASS
  1
IDBUFFER
  2
AcDbIdBuffer
  3
AutoCAD 2000
 90
        0
280
     0
281
     0
  0
CLASS
  1
SPATIAL_FILTER
  2
AcDbSpatialFilter
  3
AutoCAD 2000
 90
        0
280
     0
281
     0
  0
CLASS
  1
XRECORD
  2
AcDbXrecord
  3
AutoCAD 2000
 90
        0
280
     0
281
     0
  0
CLASS
  1
SORTENTSTABLE
  2
AcDbSortentsTable
  3
AutoCAD 2000
 90
        0
280
     0
281
     0
  0
CLASS
  1
LAYER_INDEX
  2
AcDbLayerIndex
  3
AutoCAD 2000
 90
        0
280
     0
281
     0
  0
CLASS
  1
SPATIAL_INDEX
  2
AcDbSpatialIndex
  3
AutoCAD 2000
 90
        0
280
     0
281
     0
  0
CLASS
  1
OBJECT_PTR
  2
CAseDLPNTableRecord
  3
ASE-LPNTableRecord
 90
        1
280
     1
281
     0
  0
CLASS
  1
LAYOUT
  2
AcDbLayout
  3
ObjectDBX Classes
 90
        0
280
     0
281
     0
  0
CLASS
  1
PLOTSETTINGS
  2
AcDbPlotSettings
  3
AutoCAD 2000
 90
        0
280
     0
281
     0
  0
CLASS
  1
ACDBDICTIONARYWDFLT
  2
AcDbDictionaryWithDefault
  3
AutoCAD 2000
 90
        0
280
     0
281
     0
  0
CLASS
  1
ACDBPLACEHOLDER
  2
AcDbPlaceHolder
  3
ObjectDBX Classes
 90
        0
280
     0
281
     0
  0
CLASS
  1
VBAPROJECT
  2
AcDbVbaProject
  3
ObjectDBX Classes
 90
        0
280
     0
281
     0
  0
CLASS
  1
WIPEOUT
  2
AcDbWipeout
  3
WipeOut|AutoCAD Express Tool|expresstools@autodesk.com
 90
      127
280
     0
281
     1
  0
CLASS
  1
WIPEOUTVARIABLES
  2
AcDbWipeoutVariables
  3
WipeOut|AutoCAD Express Tool|expresstools@autodesk.com
 90
        0
280
     0
281
     0
  0
CLASS
  1
RTEXT
  2
RText
  3
RText|AutoCAD Express Tool|expresstools@autodesk.com
 90
        0
280
     0
281
     1
  0
CLASS
  1
ARCALIGNEDTEXT
  2
AcDbArcAlignedText
  3
ATEXT|AutoCAD Express Tool|expresstools@autodesk.com
 90
        0
280
     0
281
     1
  0
CLASS
  1
LONG_TRANSACTION
  2
AcDbLongTransaction
  3
AutoCAD 2000
 90
        0
280
     1
281
     0
  0
CLASS
  1
LWPOLYLINE
  2
AcDbPolyline
  3
AutoCAD 2000
 90
        0
280
     0
281
     1
  0
CLASS
  1
HATCH
  2
AcDbHatch
  3
AutoCAD 2000
 90
        0
280
     0
281
     1
  0
CLASS
  1
XRECORD
  2
AcDbXrecord
  3
AutoCAD 2000
 90
        0
280
     0
281
     0
  0
ENDSEC
  0
SECTION
  2
TABLES
  0
TABLE
  2
VPORT
  5
7
330
0
100
AcDbSymbolTable
 70
     2
  0
VPORT
  5
E4
330
7
100
AcDbSymbolTableRecord
100
AcDbViewportTableRecord
  2
*Active
 70
     0
 10
0.0
 20
0.0
 11
1.0
 21
1.0
 12
109.8543865044756
 22
154.3925573357298
 13
0.0
 23
0.0
 14
1.0
 24
1.0
 15
0.0
 25
0.0
 16
0.0
 26
0.0
 36
1.0
 17
0.0
 27
0.0
 37
0.0
 40
101.7891408847558
 41
1.836842105263158
 42
50.0
 43
0.0
 44
0.0
 50
0.0
 51
0.0
 71
     0
 72
   100
 73
     1
 74
     1
 75
     0
 76
     0
 77
     0
 78
     0
281
     0
 65
     1
110
0.0
120
0.0
130
0.0
111
1.0
121
0.0
131
0.0
112
0.0
122
1.0
132
0.0
 79
     0
146
0.0
  0
ENDTAB
  0
TABLE
  2
LTYPE
  5
4
330
0
100
AcDbSymbolTable
 70
     1
  0
LTYPE
  5
11
330
4
100
AcDbSymbolTableRecord
100
AcDbLinetypeTableRecord
  2
BYBLOCK
 70
     0
  3

 72
    65
 73
     0
 40
0.0
  0
LTYPE
  5
12
330
4
100
AcDbSymbolTableRecord
100
AcDbLinetypeTableRecord
  2
BYLAYER
 70
     0
  3

 72
    65
 73
     0
 40
0.0
  0
LTYPE
  5
13
330
4
100
AcDbSymbolTableRecord
100
AcDbLinetypeTableRecord
  2
CONTINUOUS
 70
     0
  3
Solid line
 72
    65
 73
     0
 40
0.0
  0
ENDTAB
  0
TABLE
  2
LAYER
  5
2
330
0
100
AcDbSymbolTable
 70
     2
  0
LAYER
  5
14
330
2
100
AcDbSymbolTableRecord
100
AcDbLayerTableRecord
  2
0
 70
     0
 62
     7
  6
CONTINUOUS
370
    -3
390
0
  0
LAYER
  5
21
330
2
100
AcDbSymbolTableRecord
100
AcDbLayerTableRecord
  2
H5A
 70
     0
 62
     3
  6
CONTINUOUS
370
    -3
390
0
  0
ENDTAB
  0
TABLE
  2
STYLE
  5
3
330
0
100
AcDbSymbolTable
 70
     5
  0
STYLE
  5
17
330
3
100
AcDbSymbolTableRecord
100
AcDbTextStyleTableRecord
  2
STANDARD
 70
     0
 40
0.0
 41
1.0
 50
0.0
 71
     0
 42
0.2
  3
txt
  4

  0
STYLE
  5
1D
330
3
100
AcDbSymbolTableRecord
100
AcDbTextStyleTableRecord
  2
STD
 70
     0
 40
0.0
 41
1.0
 50
0.0
 71
     0
 42
0.2
  3
txt
  4

  0
STYLE
  5
1E
330
3
100
AcDbSymbolTableRecord
100
AcDbTextStyleTableRecord
  2
TATESTD
 70
     4
 40
0.0
 41
1.0
 50
0.0
 71
     0
 42
0.2
  3
txt
  4

  0
STYLE
  5
1F
330
3
100
AcDbSymbolTableRecord
100
AcDbTextStyleTableRecord
  2
KANJISTD
 70
     0
 40
0.0
 41
1.0
 50
0.0
 71
     0
 42
0.2
  3
txt
  4
extfont
  0
STYLE
  5
20
330
3
100
AcDbSymbolTableRecord
100
AcDbTextStyleTableRecord
  2
KANJITATE
 70
     4
 40
0.0
 41
1.0
 50
0.0
 71
     0
 42
0.2
  3
txt
  4
extfont
  0
ENDTAB
  0
TABLE
  2
VIEW
  5
5
330
0
100
AcDbSymbolTable
 70
     0
  0
ENDTAB
  0
TABLE
  2
UCS
  5
6
330
0
100
AcDbSymbolTable
 70
     0
  0
ENDTAB
  0
TABLE
  2
APPID
  5
8
330
0
100
AcDbSymbolTable
 70
     1
  0
APPID
  5
16
330
8
100
AcDbSymbolTableRecord
100
AcDbRegAppTableRecord
  2
ACAD
 70
     0
  0
ENDTAB
  0
TABLE
  2
DIMSTYLE
  5
9
330
0
100
AcDbSymbolTable
 70
     1
100
AcDbDimStyleTable
  0
DIMSTYLE
105
18
330
9
100
AcDbSymbolTableRecord
100
AcDbDimStyleTableRecord
  2
STANDARD
 70
     0
  3

  4

289
     0
340
17
  0
ENDTAB
  0
TABLE
  2
BLOCK_RECORD
  5
1
330
0
100
AcDbSymbolTable
 70
     6
  0
BLOCK_RECORD
  5
A
330
1
100
AcDbSymbolTableRecord
100
AcDbBlockTableRecord
  2
*MODEL_SPACE
340
DF
  0
BLOCK_RECORD
  5
B
330
1
100
AcDbSymbolTableRecord
100
AcDbBlockTableRecord
  2
*PAPER_SPACE
340
E0
  0
BLOCK_RECORD
  5
22
330
1
100
AcDbSymbolTableRecord
100
AcDbBlockTableRecord
  2
AI9-BLK1
340
0
102
{BLKREFS
331
23
102
}
  0
BLOCK_RECORD
  5
28
330
1
100
AcDbSymbolTableRecord
100
AcDbBlockTableRecord
  2
AI9-BLK2
340
0
102
{BLKREFS
331
29
102
}
  0
BLOCK_RECORD
  5
2E
330
1
100
AcDbSymbolTableRecord
100
AcDbBlockTableRecord
  2
AI9-BLK3
340
0
102
{BLKREFS
331
2F
102
}
  0
BLOCK_RECORD
  5
34
330
1
100
AcDbSymbolTableRecord
100
AcDbBlockTableRecord
  2
AI9-BLK4
340
0
102
{BLKREFS
331
35
102
}
  0
BLOCK_RECORD
  5
3A
330
1
100
AcDbSymbolTableRecord
100
AcDbBlockTableRecord
  2
AI9-BLK5
340
0
102
{BLKREFS
331
3B
102
}
  0
BLOCK_RECORD
  5
40
330
1
100
AcDbSymbolTableRecord
100
AcDbBlockTableRecord
  2
AI9-BLK6
340
0
102
{BLKREFS
331
41
102
}
  0
ENDTAB
  0
ENDSEC
  0
SECTION
  2
BLOCKS
  0
BLOCK
  5
D
330
A
100
AcDbEntity
  8
0
100
AcDbBlockBegin
  2
*MODEL_SPACE
 70
     0
 10
0.0
 20
0.0
 30
0.0
  3
*MODEL_SPACE
  1

  4

  0
ENDBLK
  5
E
330
A
100
AcDbEntity
  8
0
100
AcDbBlockEnd
  0
BLOCK
  5
F
330
B
100
AcDbEntity
 67
     1
  8
0
100
AcDbBlockBegin
  2
*PAPER_SPACE
 70
     0
 10
0.0
 20
0.0
 30
0.0
  3
*PAPER_SPACE
  1

  4

  0
ENDBLK
  5
10
330
B
100
AcDbEntity
 67
     1
  8
0
100
AcDbBlockEnd
  0
BLOCK
  5
24
330
22
100
AcDbEntity
  8
H5A
 62
     7
100
AcDbBlockBegin
  2
AI9-BLK1
 70
     0
 10
0.0
 20
0.0
 30
0.0
  3
AI9-BLK1
  1

  4

  0
ELLIPSE
  5
26
330
22
100
AcDbEntity
  8
H5A
 62
     7
100
AcDbEllipse
 10
-0.1775946723090278
 20
-0.1407321506076389
 30
0.0
 11
0.2172132703993056
 21
-1.186146375868056
 31
0.0
210
0.0
220
0.0
230
1.0
 40
0.8064472907807645
 41
0.0
 42
6.283185307179586
  0
SPLINE
  5
25
330
22
100
AcDbEntity
  8
H5A
 62
     7
100
AcDbSpline
210
0.0
220
0.0
230
1.0
 70
    11
 71
     3
 72
    23
 73
    19
 74
     0
 42
0.0000000001
 43
0.0000000001
 40
0.0
 40
0.0
 40
0.0
 40
0.0
 40
1.0
 40
1.0
 40
1.0
 40
2.0
 40
2.0
 40
2.0
 40
3.0
 40
3.0
 40
3.0
 40
4.0
 40
4.0
 40
4.0
 40
5.0
 40
5.0
 40
5.0
 40
6.0
 40
6.0
 40
6.0
 40
6.0
 10
1.134814453125
 20
0.3164320203993055
 30
0.0
 10
1.014580620659722
 20
0.9710001627604166
 30
0.0
 10
0.4885145399305555
 20
1.423685709635417
 30
0.0
 10
-0.0392740885416667
 20
1.326534016927083
 30
0.0
 10
-0.2497694227430555
 20
1.287948947482639
 30
0.0
 10
-0.4268473307291666
 20
1.165303548177083
 30
0.0
 10
-0.5584499782986111
 20
0.9930487738715277
 30
0.0
 10
-0.9880533854166665
 20
0.8125257703993055
 30
0.0
 10
-1.240923394097222
 20
0.2671671549479167
 30
0.0
 10
-1.134125434027778
 20
-0.3160875108506944
 30
0.0
 10
-1.0138916015625
 20
-0.9713446723090277
 30
0.0
 10
-0.4878255208333333
 20
-1.423341200086806
 30
0.0
 10
0.0396185980902778
 20
-1.326878526475694
 30
0.0
 10
0.2504584418402778
 20
-1.28829345703125
 30
0.0
 10
0.4275363498263888
 20
-1.165648057725694
 30
0.0
 10
0.5594835069444444
 20
-0.9933932834201388
 30
0.0
 10
0.989431423611111
 20
-0.8125257703993055
 30
0.0
 10
1.241956922743055
 20
-0.2671671549479167
 30
0.0
 10
1.134814453125
 20
0.3164320203993055
 30
0.0
  0
ENDBLK
  5
27
330
22
100
AcDbEntity
  8
H5A
100
AcDbBlockEnd
  0
BLOCK
  5
2A
330
28
100
AcDbEntity
  8
H5A
 62
     7
100
AcDbBlockBegin
  2
AI9-BLK2
 70
     0
 10
0.0
 20
0.0
 30
0.0
  3
AI9-BLK2
  1

  4

  0
ELLIPSE
  5
2C
330
28
100
AcDbEntity
  8
H5A
 62
     7
100
AcDbEllipse
 10
-0.1831068250868055
 20
-0.1405598958333333
 30
0.0
 11
0.2172132703993056
 21
-1.186146375868056
 31
0.0
210
0.0
220
0.0
230
1.0
 40
0.8064472907807645
 41
0.0
 42
6.283185307179586
  0
SPLINE
  5
2B
330
28
100
AcDbEntity
  8
H5A
 62
     7
100
AcDbSpline
210
0.0
220
0.0
230
1.0
 70
    11
 71
     3
 72
    23
 73
    19
 74
     0
 42
0.0000000001
 43
0.0000000001
 40
0.0
 40
0.0
 40
0.0
 40
0.0
 40
1.0
 40
1.0
 40
1.0
 40
2.0
 40
2.0
 40
2.0
 40
3.0
 40
3.0
 40
3.0
 40
4.0
 40
4.0
 40
4.0
 40
5.0
 40
5.0
 40
5.0
 40
6.0
 40
6.0
 40
6.0
 40
6.0
 10
1.129302300347222
 20
0.3166042751736111
 30
0.0
 10
1.009068467881944
 20
0.9711724175347222
 30
0.0
 10
0.4830023871527777
 20
1.423857964409722
 30
0.0
 10
-0.0447862413194444
 20
1.326706271701389
 30
0.0
 10
-0.2552815755208333
 20
1.288121202256944
 30
0.0
 10
-0.4323594835069444
 20
1.165475802951389
 30
0.0
 10
-0.5639621310763888
 20
0.9932210286458333
 30
0.0
 10
-0.9935655381944444
 20
0.812698025173611
 30
0.0
 10
-1.246435546875
 20
0.2673394097222222
 30
0.0
 10
-1.139637586805556
 20
-0.3159152560763889
 30
0.0
 10
-1.019403754340278
 20
-0.9711724175347222
 30
0.0
 10
-0.4933376736111111
 20
-1.4231689453125
 30
0.0
 10
0.0341064453125
 20
-1.326706271701389
 30
0.0
 10
0.2449462890625
 20
-1.288121202256944
 30
0.0
 10
0.4220241970486111
 20
-1.165475802951389
 30
0.0
 10
0.5539713541666667
 20
-0.9932210286458333
 30
0.0
 10
0.9839192708333332
 20
-0.8123535156249999
 30
0.0
 10
1.236444769965278
 20
-0.2669949001736111
 30
0.0
 10
1.129302300347222
 20
0.3166042751736111
 30
0.0
  0
ENDBLK
  5
2D
330
28
100
AcDbEntity
  8
H5A
100
AcDbBlockEnd
  0
BLOCK
  5
30
330
2E
100
AcDbEntity
  8
H5A
 62
     7
100
AcDbBlockBegin
  2
AI9-BLK3
 70
     0
 10
0.0
 20
0.0
 30
0.0
  3
AI9-BLK3
  1

  4

  0
ELLIPSE
  5
32
330
2E
100
AcDbEntity
  8
H5A
 62
     7
100
AcDbEllipse
 10
-0.1828484429253472
 20
-0.1406460232204861
 30
0.0
 11
0.2172132703993056
 21
-1.186232503255208
 31
0.0
210
0.0
220
0.0
230
1.0
 40
0.8064035188273053
 41
0.0
 42
6.283185307179586
  0
SPLINE
  5
31
330
2E
100
AcDbEntity
  8
H5A
 62
     7
100
AcDbSpline
210
0.0
220
0.0
230
1.0
 70
    11
 71
     3
 72
    23
 73
    19
 74
     0
 42
0.0000000001
 43
0.0000000001
 40
0.0
 40
0.0
 40
0.0
 40
0.0
 40
1.0
 40
1.0
 40
1.0
 40
2.0
 40
2.0
 40
2.0
 40
3.0
 40
3.0
 40
3.0
 40
4.0
 40
4.0
 40
4.0
 40
5.0
 40
5.0
 40
5.0
 40
6.0
 40
6.0
 40
6.0
 40
6.0
 10
1.12956068250868
 20
0.3166042751736111
 30
0.0
 10
1.009326850043403
 20
0.9711724175347222
 30
0.0
 10
0.4832607693142361
 20
1.423685709635417
 30
0.0
 10
-0.0445278591579861
 20
1.326706271701389
 30
0.0
 10
-0.255023193359375
 20
1.288121202256944
 30
0.0
 10
-0.4321011013454861
 20
1.165475802951389
 30
0.0
 10
-0.5637037489149305
 20
0.9932210286458333
 30
0.0
 10
-0.993307156032986
 20
0.8125257703993055
 30
0.0
 10
-1.246177164713542
 20
0.2673394097222222
 30
0.0
 10
-1.139379204644097
 20
-0.3160875108506944
 30
0.0
 10
-1.019145372178819
 20
-0.9710001627604166
 30
0.0
 10
-0.4930792914496527
 20
-1.423341200086806
 30
0.0
 10
0.0343648274739583
 20
-1.326878526475694
 30
0.0
 10
0.2452046712239583
 20
-1.288121202256944
 30
0.0
 10
0.4222825792100694
 20
-1.165475802951389
 30
0.0
 10
0.554229736328125
 20
-0.9932210286458333
 30
0.0
 10
0.9841776529947915
 20
-0.8123535156249999
 30
0.0
 10
1.236703152126736
 20
-0.2671671549479167
 30
0.0
 10
1.12956068250868
 20
0.3166042751736111
 30
0.0
  0
ENDBLK
  5
33
330
2E
100
AcDbEntity
  8
H5A
100
AcDbBlockEnd
  0
BLOCK
  5
36
330
34
100
AcDbEntity
  8
H5A
 62
     7
100
AcDbBlockBegin
  2
AI9-BLK4
 70
     0
 10
0.0
 20
0.0
 30
0.0
  3
AI9-BLK4
  1

  4

  0
ELLIPSE
  5
38
330
34
100
AcDbEntity
  8
H5A
 62
     7
100
AcDbEllipse
 10
0.2473578559027778
 20
-0.0825961642795139
 30
0.0
 11
-0.3264227973090277
 21
-1.160738796657986
 31
0.0
210
0.0
220
0.0
230
1.0
 40
0.721121087299927
 41
0.0
 42
6.283185307179586
  0
SPLINE
  5
37
330
34
100
AcDbEntity
  8
H5A
 62
     7
100
AcDbSpline
210
0.0
220
0.0
230
1.0
 70
    11
 71
     3
 72
    29
 73
    25
 74
     0
 42
0.0000000001
 43
0.0000000001
 40
0.0
 40
0.0
 40
0.0
 40
0.0
 40
1.0
 40
1.0
 40
1.0
 40
2.0
 40
2.0
 40
2.0
 40
3.0
 40
3.0
 40
3.0
 40
4.0
 40
4.0
 40
4.0
 40
5.0
 40
5.0
 40
5.0
 40
6.0
 40
6.0
 40
6.0
 40
7.0
 40
7.0
 40
7.0
 40
8.0
 40
8.0
 40
8.0
 40
8.0
 10
0.5741251627604166
 20
1.077798122829861
 30
0.0
 10
0.4962660047743055
 20
1.099674479166667
 30
0.0
 10
0.4166842990451389
 20
1.101052517361111
 30
0.0
 10
0.3374471028645833
 20
1.093473307291667
 30
0.0
 10
0.26199951171875
 20
1.161513943142361
 30
0.0
 10
0.1769056532118055
 20
1.2154296875
 30
0.0
 10
0.0783759223090278
 20
1.243162706163194
 30
0.0
 10
-0.3836113823784722
 20
1.373215060763889
 30
0.0
 10
-0.9048543294270832
 20
0.9592868381076388
 30
0.0
 10
-1.085377332899306
 20
0.3183268229166666
 30
0.0
 10
-1.265555826822917
 20
-0.3224609375
 30
0.0
 10
-1.03714599609375
 20
-0.9479180230034722
 30
0.0
 10
-0.5748141818576389
 20
-1.077970377604167
 30
0.0
 10
-0.4969550238715277
 20
-1.099846733940972
 30
0.0
 10
-0.4173733181423611
 20
-1.101224772135417
 30
0.0
 10
-0.3381361219618055
 20
-1.093645562065972
 30
0.0
 10
-0.2626885308159722
 20
-1.161686197916667
 30
0.0
 10
-0.1775946723090278
 20
-1.215601942274305
 30
0.0
 10
-0.07906494140625
 20
-1.2433349609375
 30
0.0
 10
0.38292236328125
 20
-1.373387315538194
 30
0.0
 10
0.9038208007812499
 20
-0.9592868381076388
 30
0.0
 10
1.084343804253472
 20
-0.3181545681423611
 30
0.0
 10
1.264522298177083
 20
0.3222886827256944
 30
0.0
 10
1.036456976996528
 20
0.9477457682291666
 30
0.0
 10
0.5741251627604166
 20
1.077798122829861
 30
0.0
  0
ENDBLK
  5
39
330
34
100
AcDbEntity
  8
H5A
100
AcDbBlockEnd
  0
BLOCK
  5
3C
330
3A
100
AcDbEntity
  8
H5A
 62
     7
100
AcDbBlockBegin
  2
AI9-BLK5
 70
     0
 10
0.0
 20
0.0
 30
0.0
  3
AI9-BLK5
  1

  4

  0
ELLIPSE
  5
3E
330
3A
100
AcDbEntity
  8
H5A
 62
     7
100
AcDbEllipse
 10
0.2483052571614583
 20
-0.0714857313368056
 30
0.0
 11
-0.3264227973090277
 21
-1.160738796657986
 31
0.0
210
0.0
220
0.0
230
1.0
 40
0.721121087299927
 41
0.0
 42
6.283185307179586
  0
SPLINE
  5
3D
330
3A
100
AcDbEntity
  8
H5A
 62
     7
100
AcDbSpline
210
0.0
220
0.0
230
1.0
 70
    11
 71
     3
 72
    29
 73
    25
 74
     0
 42
0.0000000001
 43
0.0000000001
 40
0.0
 40
0.0
 40
0.0
 40
0.0
 40
1.0
 40
1.0
 40
1.0
 40
2.0
 40
2.0
 40
2.0
 40
3.0
 40
3.0
 40
3.0
 40
4.0
 40
4.0
 40
4.0
 40
5.0
 40
5.0
 40
5.0
 40
6.0
 40
6.0
 40
6.0
 40
7.0
 40
7.0
 40
7.0
 40
8.0
 40
8.0
 40
8.0
 40
8.0
 10
0.5750725640190971
 20
1.088908555772569
 30
0.0
 10
0.4972134060329861
 20
1.110784912109375
 30
0.0
 10
0.4176317003038194
 20
1.112162950303819
 30
0.0
 10
0.3383945041232639
 20
1.104583740234375
 30
0.0
 10
0.2629469129774306
 20
1.172624376085069
 30
0.0
 10
0.1778530544704861
 20
1.226540120442708
 30
0.0
 10
0.0793233235677083
 20
1.254273139105903
 30
0.0
 10
-0.3826639811197916
 20
1.384325493706597
 30
0.0
 10
-0.9039069281684027
 20
0.9703972710503471
 30
0.0
 10
-1.084429931640625
 20
0.3294372558593749
 30
0.0
 10
-1.264608425564236
 20
-0.3113505045572916
 30
0.0
 10
-1.036198594835069
 20
-0.9368075900607638
 30
0.0
 10
-0.5738667805989582
 20
-1.066859944661458
 30
0.0
 10
-0.4960076226128472
 20
-1.088736300998264
 30
0.0
 10
-0.4164259168836805
 20
-1.090114339192708
 30
0.0
 10
-0.3371887207031249
 20
-1.082535129123264
 30
0.0
 10
-0.2617411295572916
 20
-1.150575764973958
 30
0.0
 10
-0.1766472710503472
 20
-1.204491509331597
 30
0.0
 10
-0.0781175401475694
 20
-1.232224527994792
 30
0.0
 10
0.3838697645399306
 20
-1.362276882595486
 30
0.0
 10
0.9047682020399305
 20
-0.9481764051649305
 30
0.0
 10
1.085291205512153
 20
-0.3070441351996527
 30
0.0
 10
1.265469699435764
 20
0.3333991156684028
 30
0.0
 10
1.037404378255208
 20
0.9588562011718749
 30
0.0
 10
0.5750725640190971
 20
1.088908555772569
 30
0.0
  0
ENDBLK
  5
3F
330
3A
100
AcDbEntity
  8
H5A
100
AcDbBlockEnd
  0
BLOCK
  5
42
330
40
100
AcDbEntity
  8
H5A
 62
     7
100
AcDbBlockBegin
  2
AI9-BLK6
 70
     0
 10
0.0
 20
0.0
 30
0.0
  3
AI9-BLK6
  1

  4

  0
ELLIPSE
  5
44
330
40
100
AcDbEntity
  8
H5A
 62
     7
100
AcDbEllipse
 10
0.2483052571614583
 20
-0.0825961642795139
 30
0.0
 11
-0.3264227973090277
 21
-1.160738796657986
 31
0.0
210
0.0
220
0.0
230
1.0
 40
0.721121087299927
 41
0.0
 42
6.283185307179586
  0
SPLINE
  5
43
330
40
100
AcDbEntity
  8
H5A
 62
     7
100
AcDbSpline
210
0.0
220
0.0
230
1.0
 70
    11
 71
     3
 72
    29
 73
    25
 74
     0
 42
0.0000000001
 43
0.0000000001
 40
0.0
 40
0.0
 40
0.0
 40
0.0
 40
1.0
 40
1.0
 40
1.0
 40
2.0
 40
2.0
 40
2.0
 40
3.0
 40
3.0
 40
3.0
 40
4.0
 40
4.0
 40
4.0
 40
5.0
 40
5.0
 40
5.0
 40
6.0
 40
6.0
 40
6.0
 40
7.0
 40
7.0
 40
7.0
 40
8.0
 40
8.0
 40
8.0
 40
8.0
 10
0.5750725640190971
 20
1.077798122829861
 30
0.0
 10
0.4972134060329861
 20
1.099674479166667
 30
0.0
 10
0.4176317003038194
 20
1.101052517361111
 30
0.0
 10
0.3383945041232639
 20
1.093473307291667
 30
0.0
 10
0.2629469129774306
 20
1.161513943142361
 30
0.0
 10
0.1778530544704861
 20
1.2154296875
 30
0.0
 10
0.0793233235677083
 20
1.243162706163194
 30
0.0
 10
-0.3826639811197916
 20
1.373215060763889
 30
0.0
 10
-0.9039069281684027
 20
0.9592868381076388
 30
0.0
 10
-1.084429931640625
 20
0.3183268229166666
 30
0.0
 10
-1.264608425564236
 20
-0.3224609375
 30
0.0
 10
-1.036198594835069
 20
-0.9479180230034722
 30
0.0
 10
-0.5738667805989582
 20
-1.077970377604167
 30
0.0
 10
-0.4960076226128472
 20
-1.099846733940972
 30
0.0
 10
-0.4164259168836805
 20
-1.101224772135417
 30
0.0
 10
-0.3371887207031249
 20
-1.093645562065972
 30
0.0
 10
-0.2617411295572916
 20
-1.161686197916667
 30
0.0
 10
-0.1766472710503472
 20
-1.215601942274305
 30
0.0
 10
-0.0781175401475694
 20
-1.2433349609375
 30
0.0
 10
0.3838697645399306
 20
-1.373387315538194
 30
0.0
 10
0.9047682020399305
 20
-0.9592868381076388
 30
0.0
 10
1.085291205512153
 20
-0.3181545681423611
 30
0.0
 10
1.265469699435764
 20
0.3222886827256944
 30
0.0
 10
1.037404378255208
 20
0.9477457682291666
 30
0.0
 10
0.5750725640190971
 20
1.077798122829861
 30
0.0
  0
ENDBLK
  5
45
330
40
100
AcDbEntity
  8
H5A
100
AcDbBlockEnd
  0
ENDSEC
  0
SECTION
  2
ENTITIES
  0
LINE
  5
D9
330
A
100
AcDbEntity
  8
H5A
 62
     7
100
AcDbLine
 10
54.66505262586805
 20
150.5797837999132
 30
0.0
 11
54.66505262586805
 21
157.5745334201389
 31
0.0
  0
LINE
  5
D8
330
A
100
AcDbEntity
  8
H5A
 62
     7
100
AcDbLine
 10
60.9423611111111
 20
163.9534722222222
 30
0.0
 11
63.146533203125
 21
164.9251614040799
 31
0.0
  0
LINE
  5
D7
330
A
100
AcDbEntity
  8
H5A
 62
     7
100
AcDbLine
 10
69.14444444444443
 20
166.5993055555555
 30
0.0
 11
72.23124999999999
 21
166.6861219618056
 31
0.0
  0
LINE
  5
D6
330
A
100
AcDbEntity
  8
H5A
 62
     7
100
AcDbLine
 10
61.47152777777777
 20
166.1583333333333
 30
0.0
 11
63.146533203125
 21
164.9251614040799
 31
0.0
  0
LINE
  5
D5
330
A
100
AcDbEntity
  8
H5A
 62
     7
100
AcDbLine
 10
70.55555555555554
 20
168.0986111111111
 30
0.0
 11
72.23124999999999
 21
166.6861219618056
 31
0.0
  0
LWPOLYLINE
  5
BA
330
A
100
AcDbEntity
  8
H5A
 62
     7
100
AcDbPolyline
 90
       25
 70
     1
 43
0.0
 10
131.6443332248264
 20
159.3105170355903
 10
141.9451687282986
 20
172.1367797851562
 10
137.3542344835069
 20
184.8154201931423
 10
138.8128879123264
 20
188.581598578559
 10
134.4407172309028
 20
189.7563761393229
 10
135.0846055772569
 20
191.0830824110243
 10
130.7210476345486
 20
203.134026421441
 10
119.8269666883681
 20
204.4934611002604
 10
85.12314181857639
 20
168.6822102864583
 10
76.19999999999999
 20
170.4798611111111
 10
70.56382378472222
 20
168.0793185763889
 10
70.4673611111111
 20
166.5979275173611
 10
61.29513888888889
 20
166.2465277777778
 10
61.29444986979166
 20
164.1314114040798
 10
54.66505262586805
 20
161.3076388888889
 10
54.66505262586805
 20
153.9573554144965
 10
49.75458577473958
 20
151.7835001627604
 10
49.75458577473958
 20
140.6668660481771
 10
76.09630262586805
 20
133.8440266927083
 10
76.09630262586805
 20
107.6537217881944
 10
87.37123887803818
 20
104.3047444661458
 10
104.6268608940972
 20
126.5617838541667
 10
151.1494303385417
 20
114.3881944444444
 10
169.4508110894097
 20
128.5285888671875
 10
169.4508110894097
 20
151.6944444444444
  0
LINE
  5
B9
330
A
100
AcDbEntity
  8
H5A
 62
     7
100
AcDbLine
 10
133.6576470269097
 20
188.1900634765625
 30
0.0
 11
134.497216796875
 21
189.7779079861111
 31
0.0
  0
LINE
  5
B8
330
A
100
AcDbEntity
  8
H5A
 62
     7
100
AcDbLine
 10
104.6268608940972
 20
126.5617838541667
 30
0.0
 11
112.5988118489583
 21
136.4919270833333
 31
0.0
  0
LINE
  5
B7
330
A
100
AcDbEntity
  8
H5A
 62
     7
100
AcDbLine
 10
85.98699951171874
 20
169.6514879014757
 30
0.0
 11
76.09630262586805
 21
159.0200954861111
 31
0.0
  0
LINE
  5
B6
330
A
100
AcDbEntity
  8
H5A
 62
     7
100
AcDbLine
 10
76.09630262586805
 20
159.0200954861111
 30
0.0
 11
76.09630262586805
 21
132.8297905815972
 31
0.0
  0
LWPOLYLINE
  5
B1
330
A
100
AcDbEntity
  8
H5A
 62
     7
100
AcDbPolyline
 90
        3
 70
     0
 43
0.0
 10
122.8183430989583
 20
145.8291693793403
 10
151.1056776258681
 20
139.3918362087674
 10
151.1056776258681
 20
114.5824978298611
  0
LINE
  5
B0
330
A
100
AcDbEntity
  8
H5A
 62
     7
100
AcDbLine
 10
54.66505262586805
 20
161.3076388888889
 30
0.0
 11
76.05909559461804
 21
156.4460923936632
 31
0.0
  0
LINE
  5
AF
330
A
100
AcDbEntity
  8
H5A
 62
     7
100
AcDbLine
 10
151.1056776258681
 20
139.3918362087674
 30
0.0
 11
169.4508110894097
 21
151.6944444444444
 31
0.0
  0
LINE
  5
AE
330
A
100
AcDbEntity
  8
H5A
 62
     7
100
AcDbLine
 10
75.97865261501735
 20
145.3711439344618
 30
0.0
 11
49.79661593967013
 21
151.6734293619792
 31
0.0
  0
LINE
  5
AD
330
A
100
AcDbEntity
  8
H5A
 62
     7
100
AcDbLine
 10
114.7327039930556
 20
136.0426866319444
 30
0.0
 11
112.4885687934028
 21
136.5828776041666
 31
0.0
  0
LWPOLYLINE
  5
A8
330
A
100
AcDbEntity
  8
H5A
 62
     7
100
AcDbPolyline
 90
        3
 70
     0
 43
0.0
 10
169.4508110894097
 20
140.3016859266493
 10
151.1056776258681
 20
127.2880099826389
 10
129.1845350477431
 20
132.5379909939236
  0
LWPOLYLINE
  5
A3
330
A
100
AcDbEntity
  8
H5A
 62
     7
100
AcDbPolyline
 90
        3
 70
     0
 43
0.0
 10
130.7713460286458
 20
203.3000800238715
 10
87.31852891710069
 20
156.3372273763021
 10
87.31852891710069
 20
104.2906195746528
  0
LINE
  5
A2
330
A
100
AcDbEntity
  8
H5A
 62
     7
100
AcDbLine
 10
76.06202392578125
 20
158.9999416775173
 30
0.0
 11
87.31852891710069
 21
156.3372273763021
 31
0.0
  0
LINE
  5
A1
330
A
100
AcDbEntity
  8
H5A
 62
     7
100
AcDbLine
 10
112.6153483072917
 20
137.8992485894097
 30
0.0
 11
112.6153483072917
 21
136.456787109375
 31
0.0
  0
LINE
  5
A0
330
A
100
AcDbEntity
  8
H5A
 62
     7
100
AcDbLine
 10
119.4676432291667
 20
152.3071546766493
 30
0.0
 11
131.6443332248264
 21
159.3105170355903
 31
0.0
  0
LINE
  5
9F
330
A
100
AcDbEntity
  8
H5A
 62
     7
100
AcDbLine
 10
133.6576470269097
 20
188.1900634765625
 30
0.0
 11
138.6172064887153
 21
188.4512017144097
 31
0.0
  0
LINE
  5
9E
330
A
100
AcDbEntity
  8
H5A
 62
     7
100
AcDbLine
 10
151.0770833333333
 20
138.0243055555555
 30
0.0
 11
158.2208333333333
 21
144.1097222222222
 31
0.0
  0
LWPOLYLINE
  5
98
330
A
100
AcDbEntity
  8
H5A
 62
     7
100
AcDbPolyline
 90
        4
 70
     0
 43
0.0
 10
151.0770833333333
 20
135.9958333333333
 10
159.0145833333333
 20
142.1694444444444
 10
161.0430555555556
 20
143.9333333333333
 10
169.3333333333333
 20
149.4895833333333
  0
LINE
  5
97
330
A
100
AcDbEntity
  8
H5A
 62
     7
100
AcDbLine
 10
163.6006944444444
 20
147.7256944444444
 30
0.0
 11
169.3333333333333
 21
150.7243055555555
 31
0.0
  0
SPLINE
  5
96
330
A
100
AcDbEntity
  8
H5A
 62
     7
100
AcDbSpline
210
0.0
220
0.0
230
1.0
 70
     8
 71
     3
 72
    14
 73
    10
 74
     0
 42
0.0000000001
 43
0.0000000001
 40
0.0
 40
0.0
 40
0.0
 40
0.0
 40
1.0
 40
1.0
 40
1.0
 40
2.0
 40
2.0
 40
2.0
 40
3.0
 40
3.0
 40
3.0
 40
3.0
 10
151.0770833333333
 20
134.3201388888889
 30
0.0
 10
151.3416666666666
 20
134.4083333333333
 30
0.0
 10
160.0729166666667
 20
140.3173611111111
 30
0.0
 10
160.0729166666667
 20
140.3173611111111
 30
0.0
 10
160.0729166666667
 20
140.3173611111111
 30
0.0
 10
162.2777777777778
 20
142.9631944444444
 30
0.0
 10
162.2777777777778
 20
142.9631944444444
 30
0.0
 10
162.2777777777778
 20
142.9631944444444
 30
0.0
 10
169.3333333333333
 20
147.2847222222222
 30
0.0
 10
169.3333333333333
 20
147.2847222222222
 30
0.0
  0
SPLINE
  5
95
330
A
100
AcDbEntity
  8
H5A
 62
     7
100
AcDbSpline
210
0.0
220
0.0
230
1.0
 70
     8
 71
     3
 72
    14
 73
    10
 74
     0
 42
0.0000000001
 43
0.0000000001
 40
0.0
 40
0.0
 40
0.0
 40
0.0
 40
1.0
 40
1.0
 40
1.0
 40
2.0
 40
2.0
 40
2.0
 40
3.0
 40
3.0
 40
3.0
 40
3.0
 10
151.0770833333333
 20
132.8208333333333
 30
0.0
 10
151.0770833333333
 20
132.8208333333333
 30
0.0
 10
162.9833333333333
 20
140.6701388888889
 30
0.0
 10
163.2479166666666
 20
140.7583333333333
 30
0.0
 10
163.5125
 20
140.8465277777778
 30
0.0
 10
166.2465277777778
 20
141.9930555555555
 30
0.0
 10
166.2465277777778
 20
141.9930555555555
 30
0.0
 10
166.2465277777778
 20
141.9930555555555
 30
0.0
 10
169.4215277777778
 20
144.7270833333333
 30
0.0
 10
169.4215277777778
 20
144.7270833333333
 30
0.0
  0
SPLINE
  5
94
330
A
100
AcDbEntity
  8
H5A
 62
     7
100
AcDbSpline
210
0.0
220
0.0
230
1.0
 70
     8
 71
     3
 72
    14
 73
    10
 74
     0
 42
0.0000000001
 43
0.0000000001
 40
0.0
 40
0.0
 40
0.0
 40
0.0
 40
1.0
 40
1.0
 40
1.0
 40
2.0
 40
2.0
 40
2.0
 40
3.0
 40
3.0
 40
3.0
 40
3.0
 10
151.0770833333333
 20
130.7923611111111
 30
0.0
 10
151.0770833333333
 20
130.7923611111111
 30
0.0
 10
160.6902777777778
 20
137.5833333333333
 30
0.0
 10
161.13125
 20
137.6715277777778
 30
0.0
 10
161.5722222222222
 20
137.7597222222222
 30
0.0
 10
166.0701388888889
 20
139.9645833333333
 30
0.0
 10
166.0701388888889
 20
139.9645833333333
 30
0.0
 10
166.0701388888889
 20
139.9645833333333
 30
0.0
 10
169.3333333333333
 20
142.1694444444444
 30
0.0
 10
169.3333333333333
 20
142.1694444444444
 30
0.0
  0
SPLINE
  5
93
330
A
100
AcDbEntity
  8
H5A
 62
     7
100
AcDbSpline
210
0.0
220
0.0
230
1.0
 70
     8
 71
     3
 72
    11
 73
     7
 74
     0
 42
0.0000000001
 43
0.0000000001
 40
0.0
 40
0.0
 40
0.0
 40
0.0
 40
1.0
 40
1.0
 40
1.0
 40
2.0
 40
2.0
 40
2.0
 40
2.0
 10
151.0770833333333
 20
128.3229166666667
 30
0.0
 10
151.0770833333333
 20
128.3229166666667
 30
0.0
 10
157.8680555555555
 20
133.35
 30
0.0
 10
158.1326388888889
 20
133.35
 30
0.0
 10
158.3972222222222
 20
133.35
 30
0.0
 10
166.0701388888889
 20
137.9361111111111
 30
0.0
 10
166.0701388888889
 20
137.9361111111111
 30
0.0
  0
LWPOLYLINE
  5
8D
330
A
100
AcDbEntity
  8
H5A
 62
     7
100
AcDbPolyline
 90
        4
 70
     0
 43
0.0
 10
151.1652777777778
 20
126.2944444444444
 10
159.4555555555556
 20
132.2916666666667
 10
163.0715277777778
 20
134.4965277777778
 10
169.3333333333333
 20
136.6131944444445
  0
LINE
  5
8C
330
A
100
AcDbEntity
  8
H5A
 62
     7
100
AcDbLine
 10
162.0131944444444
 20
135.0256944444444
 30
0.0
 11
169.4215277777778
 21
138.5534722222222
 31
0.0
  0
LWPOLYLINE
  5
85
330
A
100
AcDbEntity
  8
H5A
 62
     7
100
AcDbPolyline
 90
        5
 70
     0
 43
0.0
 10
151.1652777777778
 20
124.7951388888889
 10
156.36875
 20
128.2347222222222
 10
160.7784722222222
 20
131.1451388888889
 10
162.1013888888889
 20
132.3798611111111
 10
169.3333333333333
 20
134.7611111111111
  0
SPLINE
  5
84
330
A
100
AcDbEntity
  8
H5A
 62
     7
100
AcDbSpline
210
0.0
220
0.0
230
1.0
 70
     8
 71
     3
 72
    17
 73
    13
 74
     0
 42
0.0000000001
 43
0.0000000001
 40
0.0
 40
0.0
 40
0.0
 40
0.0
 40
1.0
 40
1.0
 40
1.0
 40
2.0
 40
2.0
 40
2.0
 40
3.0
 40
3.0
 40
3.0
 40
4.0
 40
4.0
 40
4.0
 40
4.0
 10
151.1652777777778
 20
123.3840277777778
 30
0.0
 10
151.60625
 20
123.5604166666667
 30
0.0
 10
157.3388888888889
 20
127.4409722222222
 30
0.0
 10
157.6034722222222
 20
127.6173611111111
 30
0.0
 10
157.8680555555555
 20
127.79375
 30
0.0
 10
159.54375
 20
129.4694444444444
 30
0.0
 10
159.8083333333333
 20
129.5576388888889
 30
0.0
 10
160.0729166666667
 20
129.6458333333333
 30
0.0
 10
167.6576388888889
 20
132.2916666666667
 30
0.0
 10
167.6576388888889
 20
132.2916666666667
 30
0.0
 10
167.6576388888889
 20
132.2916666666667
 30
0.0
 10
169.4215277777778
 20
133.1736111111111
 30
0.0
 10
169.4215277777778
 20
133.1736111111111
 30
0.0
  0
LWPOLYLINE
  5
7D
330
A
100
AcDbEntity
  8
H5A
 62
     7
100
AcDbPolyline
 90
        5
 70
     0
 43
0.0
 10
151.0770833333333
 20
121.2673611111111
 10
156.8097222222222
 20
125.5888888888889
 10
158.2208333333333
 20
126.6472222222222
 10
166.8638888888889
 20
130.3513888888889
 10
169.4215277777778
 20
131.4097222222222
  0
SPLINE
  5
7C
330
A
100
AcDbEntity
  8
H5A
 62
     7
100
AcDbSpline
210
0.0
220
0.0
230
1.0
 70
     8
 71
     3
 72
    17
 73
    13
 74
     0
 42
0.0000000001
 43
0.0000000001
 40
0.0
 40
0.0
 40
0.0
 40
0.0
 40
1.0
 40
1.0
 40
1.0
 40
2.0
 40
2.0
 40
2.0
 40
3.0
 40
3.0
 40
3.0
 40
4.0
 40
4.0
 40
4.0
 40
4.0
 10
151.0770833333333
 20
119.3270833333333
 30
0.0
 10
151.4298611111111
 20
119.5034722222222
 30
0.0
 10
155.575
 20
122.6784722222222
 30
0.0
 10
155.8395833333333
 20
122.8548611111111
 30
0.0
 10
156.1041666666667
 20
123.03125
 30
0.0
 10
157.3388888888889
 20
124.4423611111111
 30
0.0
 10
157.3388888888889
 20
124.4423611111111
 30
0.0
 10
157.3388888888889
 20
124.4423611111111
 30
0.0
 10
165.1
 20
127.3527777777778
 30
0.0
 10
165.1
 20
127.3527777777778
 30
0.0
 10
165.1
 20
127.3527777777778
 30
0.0
 10
169.3333333333333
 20
129.4694444444444
 30
0.0
 10
169.3333333333333
 20
129.4694444444444
 30
0.0
  0
LWPOLYLINE
  5
76
330
A
100
AcDbEntity
  8
H5A
 62
     7
100
AcDbPolyline
 90
        4
 70
     0
 43
0.0
 10
151.0770833333333
 20
117.9159722222222
 10
154.6930555555555
 20
120.4736111111111
 10
156.1041666666667
 20
122.1493055555555
 10
165.2763888888889
 20
125.4125
  0
SPLINE
  5
75
330
A
100
AcDbEntity
  8
H5A
 62
     7
100
AcDbSpline
210
0.0
220
0.0
230
1.0
 70
     8
 71
     3
 72
    11
 73
     7
 74
     0
 42
0.0000000001
 43
0.0000000001
 40
0.0
 40
0.0
 40
0.0
 40
0.0
 40
1.0
 40
1.0
 40
1.0
 40
2.0
 40
2.0
 40
2.0
 40
2.0
 10
151.0770833333333
 20
116.5048611111111
 30
0.0
 10
151.3416666666666
 20
116.5930555555556
 30
0.0
 10
156.5451388888889
 20
120.0326388888889
 30
0.0
 10
156.5451388888889
 20
120.0326388888889
 30
0.0
 10
156.5451388888889
 20
120.0326388888889
 30
0.0
 10
161.2194444444444
 20
122.2375
 30
0.0
 10
161.2194444444444
 20
122.2375
 30
0.0
  0
LWPOLYLINE
  5
6B
330
A
100
AcDbEntity
  8
H5A
 62
     7
100
AcDbPolyline
 90
        8
 70
     0
 43
0.0
 10
77.2667738172743
 20
158.6602552625868
 10
77.049560546875
 20
154.535442437066
 10
78.3521511501736
 20
146.1772962782118
 10
78.2436306423611
 20
144.1148898654514
 10
77.4838148328993
 20
139.2300889756944
 10
77.5923353407118
 20
137.8189778645833
 10
76.5069580078125
 20
132.6089599609375
 10
76.07270372178819
 20
129.2437906901042
  0
LWPOLYLINE
  5
62
330
A
100
AcDbEntity
  8
H5A
 62
     7
100
AcDbPolyline
 90
        7
 70
     0
 43
0.0
 10
78.67788492838541
 20
158.4430419921875
 10
78.67788492838541
 20
152.2558227539062
 10
79.87178276909721
 20
148.1310099283854
 10
80.08899603949652
 20
135.2137966579861
 10
78.3521511501736
 20
126.5300889756944
 10
77.049560546875
 20
121.2112060546875
 10
76.07270372178819
 20
116.4352701822917
  0
LWPOLYLINE
  5
59
330
A
100
AcDbEntity
  8
H5A
 62
     7
100
AcDbPolyline
 90
        7
 70
     0
 43
0.0
 10
80.41455756293402
 20
158.0089599609375
 10
80.41455756293402
 20
153.3413723415798
 10
81.50010715060763
 20
146.7198988172743
 10
82.47696397569443
 20
125.4445393880208
 10
79.54622124565971
 20
118.4975043402778
 10
79.22048746744791
 20
113.2874864366319
 10
78.5691921657986
 20
106.8830539279514
  0
SPLINE
  5
58
330
A
100
AcDbEntity
  8
H5A
 62
     7
100
AcDbSpline
210
0.0
220
0.0
230
1.0
 70
     8
 71
     3
 72
    26
 73
    22
 74
     0
 42
0.0000000001
 43
0.0000000001
 40
0.0
 40
0.0
 40
0.0
 40
0.0
 40
1.0
 40
1.0
 40
1.0
 40
2.0
 40
2.0
 40
2.0
 40
3.0
 40
3.0
 40
3.0
 40
4.0
 40
4.0
 40
4.0
 40
5.0
 40
5.0
 40
5.0
 40
6.0
 40
6.0
 40
6.0
 40
7.0
 40
7.0
 40
7.0
 40
7.0
 10
82.36844346788193
 20
157.5747056749132
 30
0.0
 10
82.36844346788193
 20
157.5747056749132
 30
0.0
 10
82.58548448350693
 20
151.1704454210069
 30
0.0
 10
82.58548448350693
 20
151.1704454210069
 30
0.0
 10
82.58548448350693
 20
151.1704454210069
 30
0.0
 10
83.12825927734374
 20
148.7823052300347
 30
0.0
 10
83.12825927734374
 20
148.7823052300347
 30
0.0
 10
83.12825927734374
 20
148.7823052300347
 30
0.0
 10
83.77955457899304
 20
134.7797146267361
 30
0.0
 10
83.77955457899304
 20
134.7797146267361
 30
0.0
 10
83.77955457899304
 20
134.7797146267361
 30
0.0
 10
83.67103407118054
 20
129.6782172309028
 30
0.0
 10
83.67103407118054
 20
129.6782172309028
 30
0.0
 10
83.67103407118054
 20
129.6782172309028
 30
0.0
 10
84.86510416666665
 20
124.3593343098958
 30
0.0
 10
84.86510416666665
 20
124.3593343098958
 30
0.0
 10
84.86510416666665
 20
124.3593343098958
 30
0.0
 10
84.32232937282986
 20
115.1326795789931
 30
0.0
 10
84.32232937282986
 20
115.1326795789931
 30
0.0
 10
84.32232937282986
 20
115.1326795789931
 30
0.0
 10
81.71732042100693
 20
108.9459771050347
 30
0.0
 10
82.15140245225693
 20
106.0148898654514
 30
0.0
  0
SPLINE
  5
57
330
A
100
AcDbEntity
  8
H5A
 62
     7
100
AcDbSpline
210
0.0
220
0.0
230
1.0
 70
     8
 71
     3
 72
    17
 73
    13
 74
     0
 42
0.0000000001
 43
0.0000000001
 40
0.0
 40
0.0
 40
0.0
 40
0.0
 40
1.0
 40
1.0
 40
1.0
 40
2.0
 40
2.0
 40
2.0
 40
3.0
 40
3.0
 40
3.0
 40
4.0
 40
4.0
 40
4.0
 40
4.0
 10
83.99659559461804
 20
157.1404513888889
 30
0.0
 10
83.99659559461804
 20
157.1404513888889
 30
0.0
 10
84.53937038845486
 20
152.581556532118
 30
0.0
 10
84.53937038845486
 20
152.581556532118
 30
0.0
 10
84.53937038845486
 20
152.581556532118
 30
0.0
 10
85.08214518229165
 20
142.9208197699653
 30
0.0
 10
85.08214518229165
 20
142.9208197699653
 30
0.0
 10
85.08214518229165
 20
142.9208197699653
 30
0.0
 10
85.08197292751736
 20
131.5234103732639
 30
0.0
 10
86.16752251519097
 20
128.8097086588542
 30
0.0
 10
86.16752251519097
 20
128.8097086588542
 30
0.0
 10
87.36159261067708
 20
120.88564453125
 30
0.0
 10
87.36159261067708
 20
120.88564453125
 30
0.0
  0
SPLINE
  5
56
330
A
100
AcDbEntity
  8
H5A
 62
     7
100
AcDbSpline
210
0.0
220
0.0
230
1.0
 70
     8
 71
     3
 72
     8
 73
     4
 74
     0
 42
0.0000000001
 43
0.0000000001
 40
0.0
 40
0.0
 40
0.0
 40
0.0
 40
1.0
 40
1.0
 40
1.0
 40
1.0
 10
87.25307210286458
 20
109.5967556423611
 30
0.0
 10
87.25307210286458
 20
109.5967556423611
 30
0.0
 10
85.51639946831597
 20
106.3404513888889
 30
0.0
 10
85.62491997612847
 20
104.8208197699653
 30
0.0
  0
LWPOLYLINE
  5
51
330
A
100
AcDbEntity
  8
H5A
 62
     7
100
AcDbPolyline
 90
        3
 70
     0
 43
0.0
 10
85.84196099175347
 20
156.7063693576389
 10
86.38473578559027
 20
149.433600531684
 10
87.25307210286458
 20
138.1448838975694
  0
SPLINE
  5
50
330
A
100
AcDbEntity
  8
H5A
 62
     7
100
AcDbSpline
210
0.0
220
0.0
230
1.0
 70
    11
 71
     3
 72
    62
 73
    58
 74
     0
 42
0.0000000001
 43
0.0000000001
 40
0.0
 40
0.0
 40
0.0
 40
0.0
 40
1.0
 40
1.0
 40
1.0
 40
2.0
 40
2.0
 40
2.0
 40
3.0
 40
3.0
 40
3.0
 40
4.0
 40
4.0
 40
4.0
 40
5.0
 40
5.0
 40
5.0
 40
6.0
 40
6.0
 40
6.0
 40
7.0
 40
7.0
 40
7.0
 40
8.0
 40
8.0
 40
8.0
 40
9.0
 40
9.0
 40
9.0
 40
10.0
 40
10.0
 40
10.0
 40
11.0
 40
11.0
 40
11.0
 40
12.0
 40
12.0
 40
12.0
 40
13.0
 40
13.0
 40
13.0
 40
14.0
 40
14.0
 40
14.0
 40
15.0
 40
15.0
 40
15.0
 40
16.0
 40
16.0
 40
16.0
 40
17.0
 40
17.0
 40
17.0
 40
18.0
 40
18.0
 40
18.0
 40
19.0
 40
19.0
 40
19.0
 40
19.0
 10
112.162318250868
 20
138.6354654947917
 30
0.0
 10
112.162318250868
 20
138.6354654947917
 30
0.0
 10
112.162318250868
 20
147.2354573567708
 30
0.0
 10
112.162318250868
 20
147.2354573567708
 30
0.0
 10
112.162318250868
 20
147.2354573567708
 30
0.0
 10
111.8729302300347
 20
147.2809326171875
 30
0.0
 10
111.5377224392361
 20
147.1693115234375
 30
0.0
 10
111.5377224392361
 20
147.1693115234375
 30
0.0
 10
108.8570936414931
 20
145.8291693793403
 30
0.0
 10
108.8570936414931
 20
145.8291693793403
 30
0.0
 10
108.8570936414931
 20
145.8291693793403
 30
0.0
 10
107.9637803819444
 20
146.0524115668403
 30
0.0
 10
107.9637803819444
 20
146.0524115668403
 30
0.0
 10
107.9637803819444
 20
146.0524115668403
 30
0.0
 10
102.3997789171007
 20
154.875990125868
 30
0.0
 10
102.3997789171007
 20
154.875990125868
 30
0.0
 10
102.3997789171007
 20
154.875990125868
 30
0.0
 10
103.6739474826389
 20
158.1148966471354
 30
0.0
 10
103.6739474826389
 20
158.1148966471354
 30
0.0
 10
103.6739474826389
 20
158.1148966471354
 30
0.0
 10
111.6493435329861
 20
162.0240464952257
 30
0.0
 10
111.6493435329861
 20
162.0240464952257
 30
0.0
 10
111.6493435329861
 20
162.0240464952257
 30
0.0
 10
112.5433458116319
 20
162.1354953342014
 30
0.0
 10
112.9898301866319
 20
161.9122531467014
 30
0.0
 10
112.9898301866319
 20
161.9122531467014
 30
0.0
 10
115.893701171875
 20
159.3434176974826
 30
0.0
 10
115.893701171875
 20
159.3434176974826
 30
0.0
 10
115.893701171875
 20
159.3434176974826
 30
0.0
 10
122.9992106119792
 20
145.4314331054687
 30
0.0
 10
122.9992106119792
 20
145.4314331054687
 30
0.0
 10
122.9992106119792
 20
145.4314331054687
 30
0.0
 10
122.6832953559028
 20
145.2407470703125
 30
0.0
 10
122.6832953559028
 20
145.2407470703125
 30
0.0
 10
122.6832953559028
 20
145.2407470703125
 30
0.0
 10
126.7877821180556
 20
137.1864583333333
 30
0.0
 10
126.7877821180556
 20
137.1864583333333
 30
0.0
 10
126.7877821180556
 20
137.1864583333333
 30
0.0
 10
127.1443495008681
 20
137.3149603949653
 30
0.0
 10
127.1443495008681
 20
137.3149603949653
 30
0.0
 10
127.1443495008681
 20
137.3149603949653
 30
0.0
 10
129.1845350477431
 20
133.3200276692708
 30
0.0
 10
129.1845350477431
 20
133.3200276692708
 30
0.0
 10
129.1845350477431
 20
133.3200276692708
 30
0.0
 10
129.1845350477431
 20
126.6186279296875
 30
0.0
 10
129.1845350477431
 20
126.6186279296875
 30
0.0
 10
129.1845350477431
 20
126.6186279296875
 30
0.0
 10
128.4028428819444
 20
126.2834201388889
 30
0.0
 10
128.4028428819444
 20
126.2834201388889
 30
0.0
 10
128.4028428819444
 20
126.2834201388889
 30
0.0
 10
114.3299723307292
 20
129.7457411024305
 30
0.0
 10
114.3299723307292
 20
129.7457411024305
 30
0.0
 10
114.3299723307292
 20
129.7457411024305
 30
0.0
 10
114.3299723307292
 20
136.0006564670139
 30
0.0
 10
114.3299723307292
 20
136.0006564670139
 30
0.0
 10
114.3299723307292
 20
136.0006564670139
 30
0.0
 10
112.162318250868
 20
138.6354654947917
 30
0.0
 10
112.162318250868
 20
138.6354654947917
 30
0.0
  0
LINE
  5
4F
330
A
100
AcDbEntity
  8
H5A
 62
     7
100
AcDbLine
 10
126.0164252387153
 20
136.8777777777778
 30
0.0
 11
127.2814643012153
 21
137.4644775390625
 31
0.0
  0
LINE
  5
4E
330
A
100
AcDbEntity
  8
H5A
 62
     7
100
AcDbLine
 10
122.9992106119792
 20
145.4314331054687
 30
0.0
 11
121.8812771267361
 21
144.7470648871528
 31
0.0
  0
SPLINE
  5
4D
330
A
100
AcDbEntity
  8
H5A
 62
     7
100
AcDbSpline
210
0.0
220
0.0
230
1.0
 70
     8
 71
     3
 72
    38
 73
    34
 74
     0
 42
0.0000000001
 43
0.0000000001
 40
0.0
 40
0.0
 40
0.0
 40
0.0
 40
1.0
 40
1.0
 40
1.0
 40
2.0
 40
2.0
 40
2.0
 40
3.0
 40
3.0
 40
3.0
 40
4.0
 40
4.0
 40
4.0
 40
5.0
 40
5.0
 40
5.0
 40
6.0
 40
6.0
 40
6.0
 40
7.0
 40
7.0
 40
7.0
 40
8.0
 40
8.0
 40
8.0
 40
9.0
 40
9.0
 40
9.0
 40
10.0
 40
10.0
 40
10.0
 40
11.0
 40
11.0
 40
11.0
 40
11.0
 10
108.7044759114583
 20
145.8579359266493
 30
0.0
 10
108.7044759114583
 20
145.8579359266493
 30
0.0
 10
103.1611450195313
 20
154.875990125868
 30
0.0
 10
103.1611450195313
 20
154.875990125868
 30
0.0
 10
103.1611450195313
 20
154.875990125868
 30
0.0
 10
104.2780449761285
 20
157.7798611111111
 30
0.0
 10
104.2780449761285
 20
157.7798611111111
 30
0.0
 10
104.2780449761285
 20
157.7798611111111
 30
0.0
 10
111.6493435329861
 20
161.3994506835937
 30
0.0
 10
111.6493435329861
 20
161.3994506835937
 30
0.0
 10
111.6493435329861
 20
161.3994506835937
 30
0.0
 10
112.0961724175347
 20
161.6890109592014
 30
0.0
 10
112.6546223958333
 20
161.2421820746528
 30
0.0
 10
112.6546223958333
 20
161.2421820746528
 30
0.0
 10
115.2236300998264
 20
159.0083821614583
 30
0.0
 10
115.2236300998264
 20
159.0083821614583
 30
0.0
 10
115.2236300998264
 20
159.0083821614583
 30
0.0
 10
122.3432644314236
 20
145.0083753797743
 30
0.0
 10
122.3432644314236
 20
145.0083753797743
 30
0.0
 10
122.3432644314236
 20
145.0083753797743
 30
0.0
 10
122.0662787543403
 20
144.7470648871528
 30
0.0
 10
122.0662787543403
 20
144.7470648871528
 30
0.0
 10
122.0662787543403
 20
144.7470648871528
 30
0.0
 10
126.0470865885417
 20
136.8781222873264
 30
0.0
 10
126.0470865885417
 20
136.8781222873264
 30
0.0
 10
126.0470865885417
 20
136.8781222873264
 30
0.0
 10
126.3967637803819
 20
137.0372856987847
 30
0.0
 10
126.3967637803819
 20
137.0372856987847
 30
0.0
 10
126.3967637803819
 20
137.0372856987847
 30
0.0
 10
128.5144639756944
 20
132.8731987847222
 30
0.0
 10
128.5144639756944
 20
132.8731987847222
 30
0.0
 10
128.5144639756944
 20
132.8731987847222
 30
0.0
 10
128.5144639756944
 20
126.2789415147569
 30
0.0
 10
128.5144639756944
 20
126.2789415147569
 30
0.0
  0
LINE
  5
4C
330
A
100
AcDbEntity
  8
H5A
 62
     7
100
AcDbLine
 10
102.4819444444444
 20
154.9576388888889
 30
0.0
 11
103.1875
 21
154.6930555555555
 31
0.0
  0
LINE
  5
4B
330
A
100
AcDbEntity
  8
H5A
 62
     7
100
AcDbLine
 10
103.5871310763889
 20
158.0253241644965
 30
0.0
 11
104.2926866319444
 21
157.7607408311632
 31
0.0
  0
LINE
  5
4A
330
A
100
AcDbEntity
  8
H5A
 62
     7
100
AcDbLine
 10
115.2763400607639
 20
158.9024454752604
 30
0.0
 11
115.893701171875
 21
159.3434176974826
 31
0.0
  0
LINE
  5
49
330
A
100
AcDbEntity
  8
H5A
 62
     7
100
AcDbLine
 10
128.4173122829861
 20
132.7967176649306
 30
0.0
 11
129.0346733940972
 21
133.2376898871528
 31
0.0
  0
LINE
  5
48
330
A
100
AcDbEntity
  8
H5A
 62
     7
100
AcDbLine
 10
112.0951388888889
 20
148.8723944769965
 30
0.0
 11
112.0951388888889
 21
148.0784722222222
 31
0.0
  0
LINE
  5
47
330
A
100
AcDbEntity
  8
H5A
 62
     7
100
AcDbLine
 10
112.0951388888889
 20
159.6321166992187
 30
0.0
 11
112.0951388888889
 21
149.4895833333333
 31
0.0
  0
LINE
  5
46
330
A
100
AcDbEntity
  8
H5A
 62
     7
100
AcDbLine
 10
112.0951388888889
 20
160.8666666666667
 30
0.0
 11
112.0951388888889
 21
160.2493055555555
 31
0.0
  0
INSERT
  5
41
330
A
100
AcDbEntity
  8
H5A
 62
     7
100
AcDbBlockReference
  2
AI9-BLK6
 10
105.9968892415365
 20
156.1158799913194
 30
0.0
  0
INSERT
  5
3B
330
A
100
AcDbEntity
  8
H5A
 62
     7
100
AcDbBlockReference
  2
AI9-BLK5
 10
108.9365892198351
 20
157.5158806694878
 30
0.0
  0
INSERT
  5
35
330
A
100
AcDbEntity
  8
H5A
 62
     7
100
AcDbBlockReference
  2
AI9-BLK4
 10
109.8783921983507
 20
151.4122911241319
 30
0.0
  0
INSERT
  5
2F
330
A
100
AcDbEntity
  8
H5A
 62
     7
100
AcDbBlockReference
  2
AI9-BLK3
 10
115.206490749783
 20
143.1435451931424
 30
0.0
  0
INSERT
  5
29
330
A
100
AcDbEntity
  8
H5A
 62
     7
100
AcDbBlockReference
  2
AI9-BLK2
 10
116.8035508897569
 20
131.5209988064236
 30
0.0
  0
INSERT
  5
23
330
A
100
AcDbEntity
  8
H5A
 62
     7
100
AcDbBlockReference
  2
AI9-BLK1
 10
126.2052164713542
 20
129.4045043945312
 30
0.0
  0
ENDSEC
  0
SECTION
  2
OBJECTS
  0
DICTIONARY
  5
19
330
0
100
AcDbDictionary
281
     1
  3
ACAD_COLOR
350
110
  3
ACAD_GROUP
350
1A
  3
ACAD_LAYOUT
350
DD
  3
ACAD_MATERIAL
350
112
  3
ACAD_MLINESTYLE
350
1B
  3
ACAD_PLOTSETTINGS
350
DE
  3
ACAD_PLOTSTYLENAME
350
DB
  3
ACDBHEADERROUNDTRIPXREC
350
10F
  0
DICTIONARY
  5
110
102
{ACAD_REACTORS
330
19
102
}
330
19
100
AcDbDictionary
281
     1
  0
DICTIONARY
  5
1A
102
{ACAD_REACTORS
330
19
102
}
330
19
100
AcDbDictionary
281
     1
  0
DICTIONARY
  5
DD
102
{ACAD_REACTORS
330
19
102
}
330
19
100
AcDbDictionary
281
     1
  3
Layout1
350
E0
  3
Model
350
DF
  0
DICTIONARY
  5
112
102
{ACAD_REACTORS
330
19
102
}
330
19
100
AcDbDictionary
281
     1
  0
DICTIONARY
  5
1B
102
{ACAD_REACTORS
330
19
102
}
330
19
100
AcDbDictionary
281
     1
  3
STANDARD
350
1C
  0
DICTIONARY
  5
DE
102
{ACAD_REACTORS
330
19
102
}
330
19
100
AcDbDictionary
281
     1
  0
ACDBDICTIONARYWDFLT
  5
DB
102
{ACAD_REACTORS
330
19
102
}
330
19
100
AcDbDictionary
281
     1
  3
Normal
350
DC
100
AcDbDictionaryWithDefault
340
DC
  0
DICTIONARY
  5
10F
102
{ACAD_REACTORS
330
19
102
}
330
19
100
AcDbDictionary
281
     1
  3
COLORDICT
350
111
  3
MATERIALDICT
350
113
  0
LAYOUT
  5
E0
102
{ACAD_REACTORS
330
DD
102
}
102
{ACAD_XDICTIONARY
360
114
102
}
330
DD
100
AcDbPlotSettings
  1

  2
Support Center HP LaserJet 4
  4

  6

 40
0.0
 41
0.0
 42
0.0
 43
0.0
 44
0.0
 45
0.0
 46
0.0
 47
0.0
 48
0.0
 49
0.0
140
0.0
141
0.0
142
1.0
143
1.0
 70
   688
 72
     0
 73
     0
 74
     5
  7

 75
    16
147
1.0
148
0.0
149
0.0
100
AcDbLayout
  1
Layout1
 70
     0
 71
     1
 10
0.0
 20
0.0
 11
12.0
 21
9.0
 12
0.0
 22
0.0
 32
0.0
 14
1.000000000000000E+20
 24
1.000000000000000E+20
 34
1.000000000000000E+20
 15
-1.000000000000000E+20
 25
-1.000000000000000E+20
 35
-1.000000000000000E+20
146
0.0
 13
0.0
 23
0.0
 33
0.0
 16
1.0
 26
0.0
 36
0.0
 17
0.0
 27
1.0
 37
0.0
 76
     0
330
B
  0
LAYOUT
  5
DF
102
{ACAD_REACTORS
330
DD
102
}
102
{ACAD_XDICTIONARY
360
116
102
}
330
DD
100
AcDbPlotSettings
  1

  2
Support Center HP LaserJet 4
  4

  6

 40
0.0
 41
0.0
 42
0.0
 43
0.0
 44
0.0
 45
0.0
 46
0.0
 47
0.0
 48
0.0
 49
0.0
140
0.0
141
0.0
142
1.0
143
1.0
 70
  1712
 72
     0
 73
     0
 74
     0
  7

 75
     0
147
1.0
148
0.0
149
0.0
100
AcDbLayout
  1
Model
 70
     1
 71
     0
 10
0.0
 20
0.0
 11
12.0
 21
9.0
 12
0.0
 22
0.0
 32
0.0
 14
0.0
 24
0.0
 34
0.0
 15
0.0
 25
0.0
 35
0.0
146
0.0
 13
0.0
 23
0.0
 33
0.0
 16
1.0
 26
0.0
 36
0.0
 17
0.0
 27
1.0
 37
0.0
 76
     0
330
A
  0
MLINESTYLE
  5
1C
102
{ACAD_REACTORS
330
1B
102
}
330
1B
100
AcDbMlineStyle
  2
STANDARD
 70
     0
  3

 62
     0
 51
90.0000000000002
 52
90.0000000000002
 71
     2
 49
0.5
 62
   256
  6
BYLAYER
 49
-0.5
 62
   256
  6
BYLAYER
  0
ACDBPLACEHOLDER
  5
DC
102
{ACAD_REACTORS
330
DB
102
}
330
DB
  0
XRECORD
  5
111
102
{ACAD_REACTORS
330
10F
102
}
330
10F
100
AcDbXrecord
340
110
  0
XRECORD
  5
113
102
{ACAD_REACTORS
330
10F
102
}
330
10F
100
AcDbXrecord
340
112
  0
DICTIONARY
  5
114
330
E0
100
AcDbDictionary
280
     1
281
     1
  3
ACAD_XREC_ROUNDTRIP
360
115
  0
DICTIONARY
  5
116
330
DF
100
AcDbDictionary
280
     1
281
     1
  3
ACAD_XREC_ROUNDTRIP
360
117
  0
XRECORD
  5
115
102
{ACAD_REACTORS
330
114
102
}
330
114
100
AcDbXrecord
102
SHADEPLOT
 70
 31552
102
SHADEPLOTRESLEVEL
 70
 30752
102
SHADEPLOTCUSTOMDPI
 70
 31608
  0
XRECORD
  5
117
102
{ACAD_REACTORS
330
116
102
}
330
116
100
AcDbXrecord
102
SHADEPLOT
 70
     0
102
SHADEPLOTRESLEVEL
 70
     0
102
SHADEPLOTCUSTOMDPI
 70
     0
  0
ENDSEC
  0
EOF
