  0
SECTION
  2
HEADER
  9
$ACADVER
  1
AC1015
  9
$ACADMAINTVER
 70
     6
  9
$DWGCODEPAGE
  3
ANSI_1252
  9
$INSBASE
 10
0.0
 20
0.0
 30
0.0
  9
$EXTMIN
 10
0.5870000000000001
 20
0.35
 30
0.0
  9
$EXTMAX
 10
6.627000000000001
 20
7.571000000000001
 30
0.0
  9
$LIMMIN
 10
0.0
 20
0.0
  9
$LIMMAX
 10
15.0
 20
12.0
  9
$ORTHOMODE
 70
     1
  9
$REGENMODE
 70
     1
  9
$FILLMODE
 70
     1
  9
$QTEXTMODE
 70
     0
  9
$MIRRTEXT
 70
     1
  9
$LTSCALE
 40
0.25
  9
$ATTMODE
 70
     1
  9
$TEXTSIZE
 40
0.125
  9
$TRACEWID
 40
0.05
  9
$TEXTSTYLE
  7
STANDARD
  9
$CLAYER
  8
0
  9
$CELTYPE
  6
ByLayer
  9
$CECOLOR
 62
   256
  9
$CELTSCALE
 40
1.0
  9
$DISPSILH
 70
     0
  9
$DIMSCALE
 40
1.0
  9
$DIMASZ
 40
0.125
  9
$DIMEXO
 40
0.063
  9
$DIMDLI
 40
0.38
  9
$DIMRND
 40
0.0
  9
$DIMDLE
 40
0.0
  9
$DIMEXE
 40
0.18
  9
$DIMTP
 40
0.0
  9
$DIMTM
 40
0.0
  9
$DIMTXT
 40
0.125
  9
$DIMCEN
 40
0.09
  9
$DIMTSZ
 40
0.0
  9
$DIMTOL
 70
     0
  9
$DIMLIM
 70
     0
  9
$DIMTIH
 70
     1
  9
$DIMTOH
 70
     1
  9
$DIMSE1
 70
     0
  9
$DIMSE2
 70
     0
  9
$DIMTAD
 70
     0
  9
$DIMZIN
 70
     0
  9
$DIMBLK
  1

  9
$DIMASO
 70
     0
  9
$DIMSHO
 70
     0
  9
$DIMPOST
  1

  9
$DIMAPOST
  1

  9
$DIMALT
 70
     0
  9
$DIMALTD
 70
     2
  9
$DIMALTF
 40
25.4
  9
$DIMLFAC
 40
1.0
  9
$DIMTOFL
 70
     0
  9
$DIMTVP
 40
0.0
  9
$DIMTIX
 70
     0
  9
$DIMSOXD
 70
     0
  9
$DIMSAH
 70
     0
  9
$DIMBLK1
  1

  9
$DIMBLK2
  1

  9
$DIMSTYLE
  2
Standard
  9
$DIMCLRD
 70
     0
  9
$DIMCLRE
 70
     0
  9
$DIMCLRT
 70
     0
  9
$DIMTFAC
 40
1.0
  9
$DIMGAP
 40
0.09
  9
$DIMJUST
 70
     0
  9
$DIMSD1
 70
     0
  9
$DIMSD2
 70
     0
  9
$DIMTOLJ
 70
     1
  9
$DIMTZIN
 70
     0
  9
$DIMALTZ
 70
     0
  9
$DIMALTTZ
 70
     0
  9
$DIMUPT
 70
     0
  9
$DIMDEC
 70
     4
  9
$DIMTDEC
 70
     4
  9
$DIMALTU
 70
     2
  9
$DIMALTTD
 70
     2
  9
$DIMTXSTY
  7
STANDARD
  9
$DIMAUNIT
 70
     0
  9
$DIMADEC
 70
     0
  9
$DIMALTRND
 40
0.0
  9
$DIMAZIN
 70
     0
  9
$DIMDSEP
 70
    46
  9
$DIMATFIT
 70
     3
  9
$DIMFRAC
 70
     0
  9
$DIMLDRBLK
  1

  9
$DIMLUNIT
 70
     2
  9
$DIMLWD
 70
    -2
  9
$DIMLWE
 70
    -2
  9
$DIMTMOVE
 70
     0
  9
$LUNITS
 70
     2
  9
$LUPREC
 70
     4
  9
$SKETCHINC
 40
0.1
  9
$FILLETRAD
 40
0.04
  9
$AUNITS
 70
     0
  9
$AUPREC
 70
     0
  9
$MENU
  1
acad
  9
$ELEVATION
 40
0.0
  9
$PELEVATION
 40
0.0
  9
$THICKNESS
 40
0.0
  9
$LIMCHECK
 70
     0
  9
$CHAMFERA
 40
0.0
  9
$CHAMFERB
 40
0.0
  9
$CHAMFERC
 40
1.0
  9
$CHAMFERD
 40
0.0
  9
$SKPOLY
 70
     0
  9
$TDCREATE
 40
2453955.561798461
  9
$TDUCREATE
 40
2453955.895131794
  9
$TDUPDATE
 40
2453955.603465139
  9
$TDUUPDATE
 40
2453955.895131805
  9
$TDINDWG
 40
0.0000000116
  9
$TDUSRTIMER
 40
0.0000000116
  9
$USRTIMER
 70
     1
  9
$ANGBASE
 50
0.0
  9
$ANGDIR
 70
     0
  9
$PDMODE
 70
     0
  9
$PDSIZE
 40
0.0
  9
$PLINEWID
 40
0.0
  9
$SPLFRAME
 70
     0
  9
$SPLINETYPE
 70
     6
  9
$SPLINESEGS
 70
     8
  9
$HANDSEED
  5
35D
  9
$SURFTAB1
 70
     6
  9
$SURFTAB2
 70
     6
  9
$SURFTYPE
 70
     6
  9
$SURFU
 70
     6
  9
$SURFV
 70
     6
  9
$UCSBASE
  2

  9
$UCSNAME
  2

  9
$UCSORG
 10
0.0
 20
0.0
 30
0.0
  9
$UCSXDIR
 10
1.0
 20
0.0
 30
0.0
  9
$UCSYDIR
 10
0.0
 20
1.0
 30
0.0
  9
$UCSORTHOREF
  2

  9
$UCSORTHOVIEW
 70
     0
  9
$UCSORGTOP
 10
0.0
 20
0.0
 30
0.0
  9
$UCSORGBOTTOM
 10
0.0
 20
0.0
 30
0.0
  9
$UCSORGLEFT
 10
0.0
 20
0.0
 30
0.0
  9
$UCSORGRIGHT
 10
0.0
 20
0.0
 30
0.0
  9
$UCSORGFRONT
 10
0.0
 20
0.0
 30
0.0
  9
$UCSORGBACK
 10
0.0
 20
0.0
 30
0.0
  9
$PUCSBASE
  2

  9
$PUCSNAME
  2

  9
$PUCSORG
 10
0.0
 20
0.0
 30
0.0
  9
$PUCSXDIR
 10
1.0
 20
0.0
 30
0.0
  9
$PUCSYDIR
 10
0.0
 20
1.0
 30
0.0
  9
$PUCSORTHOREF
  2

  9
$PUCSORTHOVIEW
 70
     0
  9
$PUCSORGTOP
 10
0.0
 20
0.0
 30
0.0
  9
$PUCSORGBOTTOM
 10
0.0
 20
0.0
 30
0.0
  9
$PUCSORGLEFT
 10
0.0
 20
0.0
 30
0.0
  9
$PUCSORGRIGHT
 10
0.0
 20
0.0
 30
0.0
  9
$PUCSORGFRONT
 10
0.0
 20
0.0
 30
0.0
  9
$PUCSORGBACK
 10
0.0
 20
0.0
 30
0.0
  9
$USERI1
 70
     0
  9
$USERI2
 70
     0
  9
$USERI3
 70
     0
  9
$USERI4
 70
     0
  9
$USERI5
 70
     0
  9
$USERR1
 40
0.0
  9
$USERR2
 40
0.0
  9
$USERR3
 40
0.0
  9
$USERR4
 40
0.0
  9
$USERR5
 40
0.0
  9
$WORLDVIEW
 70
     1
  9
$SHADEDGE
 70
     3
  9
$SHADEDIF
 70
    70
  9
$TILEMODE
 70
     1
  9
$MAXACTVP
 70
    16
  9
$PINSBASE
 10
0.0
 20
0.0
 30
0.0
  9
$PLIMCHECK
 70
     0
  9
$PEXTMIN
 10
1.000000000000000E+20
 20
1.000000000000000E+20
 30
1.000000000000000E+20
  9
$PEXTMAX
 10
-1.000000000000000E+20
 20
-1.000000000000000E+20
 30
-1.000000000000000E+20
  9
$PLIMMIN
 10
0.0
 20
0.0
  9
$PLIMMAX
 10
12.0
 20
9.0
  9
$UNITMODE
 70
     0
  9
$VISRETAIN
 70
     0
  9
$PLINEGEN
 70
     0
  9
$PSLTSCALE
 70
     0
  9
$TREEDEPTH
 70
  3020
  9
$CMLSTYLE
  2
Standard
  9
$CMLJUST
 70
     0
  9
$CMLSCALE
 40
1.0
  9
$PROXYGRAPHICS
 70
     1
  9
$MEASUREMENT
 70
     0
  9
$CELWEIGHT
370
    -1
  9
$ENDCAPS
280
     0
  9
$JOINSTYLE
280
     0
  9
$LWDISPLAY
290
     0
  9
$INSUNITS
 70
     1
  9
$HYPERLINKBASE
  1

  9
$STYLESHEET
  1

  9
$XEDIT
290
     1
  9
$CEPSNTYPE
380
     0
  9
$PSTYLEMODE
290
     0
  9
$FINGERPRINTGUID
  2
{FAEB1C30-E019-11D5-929B-00C0DF256EC4}
  9
$VERSIONGUID
  2
{FAEB1C32-E019-11D5-929B-00C0DF256EC4}
  9
$EXTNAMES
290
     1
  9
$PSVPSCALE
 40
0.0
  9
$OLESTARTUP
290
     0
  0
ENDSEC
  0
SECTION
  2
CLASSES
  0
CLASS
  1
ACDBDICTIONARYWDFLT
  2
AcDbDictionaryWithDefault
  3
AutoCAD 2000
 90
        0
280
     0
281
     0
  0
CLASS
  1
ACDBPLACEHOLDER
  2
AcDbPlaceHolder
  3
ObjectDBX Classes
 90
        0
280
     0
281
     0
  0
CLASS
  1
LAYOUT
  2
AcDbLayout
  3
ObjectDBX Classes
 90
        0
280
     0
281
     0
  0
ENDSEC
  0
SECTION
  2
TABLES
  0
TABLE
  2
VPORT
  5
8
330
0
100
AcDbSymbolTable
 70
     2
  0
VPORT
  5
1E
330
8
100
AcDbSymbolTableRecord
100
AcDbViewportTableRecord
  2
*ACTIVE
 70
     0
 10
0.0
 20
0.0
 11
1.0
 21
1.0
 12
8.324455205811137
 22
6.0
 13
0.0
 23
0.0
 14
1.0
 24
1.0
 15
0.0
 25
0.0
 16
0.0
 26
0.0
 36
1.0
 17
0.0
 27
0.0
 37
0.0
 40
12.0
 41
0.7207678883071553
 42
50.0
 43
0.0
 44
0.0
 50
0.0
 51
0.0
 71
     0
 72
  2000
 73
     1
 74
     0
 75
     0
 76
     0
 77
     0
 78
     0
281
     0
 65
     1
110
0.0
120
0.0
130
0.0
111
1.0
121
0.0
131
0.0
112
0.0
122
1.0
132
0.0
 79
     0
146
0.0
  0
ENDTAB
  0
TABLE
  2
LTYPE
  5
5
330
0
100
AcDbSymbolTable
 70
     1
  0
LTYPE
  5
10
330
5
100
AcDbSymbolTableRecord
100
AcDbLinetypeTableRecord
  2
ByBlock
 70
     0
  3

 72
    65
 73
     0
 40
0.0
  0
LTYPE
  5
11
330
5
100
AcDbSymbolTableRecord
100
AcDbLinetypeTableRecord
  2
ByLayer
 70
     0
  3

 72
    65
 73
     0
 40
0.0
  0
LTYPE
  5
1B
330
5
100
AcDbSymbolTableRecord
100
AcDbLinetypeTableRecord
  2
CONTINUOUS
 70
     0
  3
Solid line
 72
    65
 73
     0
 40
0.0
  0
ENDTAB
  0
TABLE
  2
LAYER
  5
2
330
0
100
AcDbSymbolTable
 70
     1
  0
LAYER
  5
1C
330
2
100
AcDbSymbolTableRecord
100
AcDbLayerTableRecord
  2
0
 70
     0
 62
     7
  6
CONTINUOUS
370
    -3
390
F
  0
ENDTAB
  0
TABLE
  2
STYLE
  5
3
330
0
100
AcDbSymbolTable
 70
     1
  0
STYLE
  5
20
330
3
100
AcDbSymbolTableRecord
100
AcDbTextStyleTableRecord
  2
STANDARD
 70
     0
 40
0.0
 41
1.0
 50
0.0
 71
     0
 42
0.125
  3
ROMANS
  4

  0
ENDTAB
  0
TABLE
  2
VIEW
  5
6
330
0
100
AcDbSymbolTable
 70
     0
  0
ENDTAB
  0
TABLE
  2
UCS
  5
7
330
0
100
AcDbSymbolTable
 70
     0
  0
ENDTAB
  0
TABLE
  2
APPID
  5
9
330
0
100
AcDbSymbolTable
 70
     1
  0
APPID
  5
1F
330
9
100
AcDbSymbolTableRecord
100
AcDbRegAppTableRecord
  2
ACAD
 70
     0
  0
ENDTAB
  0
TABLE
  2
DIMSTYLE
  5
A
330
0
100
AcDbSymbolTable
 70
     1
100
AcDbDimStyleTable
  0
DIMSTYLE
105
21
330
A
100
AcDbSymbolTableRecord
100
AcDbDimStyleTableRecord
  2
Standard
 70
     0
  3

  4

340
20
  0
ENDTAB
  0
TABLE
  2
BLOCK_RECORD
  5
1
330
0
100
AcDbSymbolTable
 70
     0
  0
BLOCK_RECORD
  5
18
330
1
100
AcDbSymbolTableRecord
100
AcDbBlockTableRecord
  2
*Model_Space
340
19
  0
BLOCK_RECORD
  5
16
330
1
100
AcDbSymbolTableRecord
100
AcDbBlockTableRecord
  2
*Paper_Space
340
17
  0
ENDTAB
  0
ENDSEC
  0
SECTION
  2
BLOCKS
  0
BLOCK
  5
352
330
18
100
AcDbEntity
  8
0
100
AcDbBlockBegin
  2
*Model_Space
 70
     0
 10
0.0
 20
0.0
 30
0.0
  3
*Model_Space
  1

  4

  0
ENDBLK
  5
353
330
18
100
AcDbEntity
  8
0
100
AcDbBlockEnd
  0
BLOCK
  5
350
330
16
100
AcDbEntity
 67
     1
  8
0
100
AcDbBlockBegin
  2
*Paper_Space
 70
     0
 10
0.0
 20
0.0
 30
0.0
  3
*Paper_Space
  1

  4

  0
ENDBLK
  5
351
330
16
100
AcDbEntity
 67
     1
  8
0
100
AcDbBlockEnd
  0
ENDSEC
  0
SECTION
  2
ENTITIES
  0
ARC
  5
22
330
18
100
AcDbEntity
  8
0
100
AcDbCircle
 10
3.412
 20
2.964
 30
0.0
 40
0.017
100
AcDbArc
 50
54.54699999999999
 51
90.0
  0
ARC
  5
23
330
18
100
AcDbEntity
  8
0
100
AcDbCircle
 10
3.401
 20
2.949
 30
0.0
 40
0.035
100
AcDbArc
 50
30.187
 51
54.54699999999999
  0
ARC
  5
24
330
18
100
AcDbEntity
  8
0
100
AcDbCircle
 10
3.384
 20
2.94
 30
0.0
 40
0.055
100
AcDbArc
 50
13.547
 51
30.187
  0
ARC
  5
25
330
18
100
AcDbEntity
  8
0
100
AcDbCircle
 10
3.357
 20
2.933
 30
0.0
 40
0.083
100
AcDbArc
 50
0.0
 51
13.547
  0
ARC
  5
26
330
18
100
AcDbEntity
  8
0
100
AcDbCircle
 10
3.357
 20
2.933
 30
0.0
 40
0.083
100
AcDbArc
 50
346.453
 51
0.0
  0
ARC
  5
27
330
18
100
AcDbEntity
  8
0
100
AcDbCircle
 10
3.384
 20
2.927
 30
0.0
 40
0.055
100
AcDbArc
 50
329.8130000000001
 51
346.453
  0
ARC
  5
28
330
18
100
AcDbEntity
  8
0
100
AcDbCircle
 10
3.401
 20
2.917
 30
0.0
 40
0.035
100
AcDbArc
 50
305.453
 51
329.8130000000001
  0
ARC
  5
29
330
18
100
AcDbEntity
  8
0
100
AcDbCircle
 10
3.412
 20
2.902
 30
0.0
 40
0.017
100
AcDbArc
 50
270.0
 51
305.453
  0
ARC
  5
2A
330
18
100
AcDbEntity
  8
0
100
AcDbCircle
 10
3.412
 20
2.902
 30
0.0
 40
0.017
100
AcDbArc
 50
234.547
 51
270.0
  0
ARC
  5
2B
330
18
100
AcDbEntity
  8
0
100
AcDbCircle
 10
3.422
 20
2.917
 30
0.0
 40
0.035
100
AcDbArc
 50
210.187
 51
234.547
  0
ARC
  5
2C
330
18
100
AcDbEntity
  8
0
100
AcDbCircle
 10
3.44
 20
2.927
 30
0.0
 40
0.055
100
AcDbArc
 50
193.547
 51
210.187
  0
ARC
  5
2D
330
18
100
AcDbEntity
  8
0
100
AcDbCircle
 10
3.467
 20
2.933
 30
0.0
 40
0.083
100
AcDbArc
 50
180.0
 51
193.547
  0
ARC
  5
2E
330
18
100
AcDbEntity
  8
0
100
AcDbCircle
 10
3.467
 20
2.933
 30
0.0
 40
0.083
100
AcDbArc
 50
166.453
 51
180.0
  0
ARC
  5
2F
330
18
100
AcDbEntity
  8
0
100
AcDbCircle
 10
3.44
 20
2.94
 30
0.0
 40
0.055
100
AcDbArc
 50
149.813
 51
166.453
  0
ARC
  5
30
330
18
100
AcDbEntity
  8
0
100
AcDbCircle
 10
3.422
 20
2.949
 30
0.0
 40
0.035
100
AcDbArc
 50
125.453
 51
149.813
  0
ARC
  5
31
330
18
100
AcDbEntity
  8
0
100
AcDbCircle
 10
3.412
 20
2.964
 30
0.0
 40
0.017
100
AcDbArc
 50
90.0
 51
125.453
  0
ARC
  5
32
330
18
100
AcDbEntity
  8
0
100
AcDbCircle
 10
3.399
 20
2.902
 30
0.0
 40
0.017
100
AcDbArc
 50
270.0
 51
291.267
  0
ARC
  5
33
330
18
100
AcDbEntity
  8
0
100
AcDbCircle
 10
3.399
 20
2.902
 30
0.0
 40
0.017
100
AcDbArc
 50
234.547
 51
270.0
  0
ARC
  5
34
330
18
100
AcDbEntity
  8
0
100
AcDbCircle
 10
3.41
 20
2.917
 30
0.0
 40
0.035
100
AcDbArc
 50
210.187
 51
234.547
  0
ARC
  5
35
330
18
100
AcDbEntity
  8
0
100
AcDbCircle
 10
3.427
 20
2.927
 30
0.0
 40
0.055
100
AcDbArc
 50
193.547
 51
210.187
  0
ARC
  5
36
330
18
100
AcDbEntity
  8
0
100
AcDbCircle
 10
3.454
 20
2.933
 30
0.0
 40
0.083
100
AcDbArc
 50
180.0
 51
193.547
  0
ARC
  5
37
330
18
100
AcDbEntity
  8
0
100
AcDbCircle
 10
3.454
 20
2.933
 30
0.0
 40
0.083
100
AcDbArc
 50
166.453
 51
180.0
  0
ARC
  5
38
330
18
100
AcDbEntity
  8
0
100
AcDbCircle
 10
3.427
 20
2.94
 30
0.0
 40
0.055
100
AcDbArc
 50
149.813
 51
166.453
  0
ARC
  5
39
330
18
100
AcDbEntity
  8
0
100
AcDbCircle
 10
3.41
 20
2.949
 30
0.0
 40
0.035
100
AcDbArc
 50
125.453
 51
149.813
  0
ARC
  5
3A
330
18
100
AcDbEntity
  8
0
100
AcDbCircle
 10
3.399
 20
2.964
 30
0.0
 40
0.017
100
AcDbArc
 50
90.0
 51
125.453
  0
ARC
  5
3B
330
18
100
AcDbEntity
  8
0
100
AcDbCircle
 10
3.399
 20
2.964
 30
0.0
 40
0.017
100
AcDbArc
 50
68.733
 51
90.0
  0
ARC
  5
3C
330
18
100
AcDbEntity
  8
0
100
AcDbCircle
 10
3.34
 20
2.473
 30
0.0
 40
0.017
100
AcDbArc
 50
68.733
 51
90.0
  0
ARC
  5
3D
330
18
100
AcDbEntity
  8
0
100
AcDbCircle
 10
3.34
 20
2.411
 30
0.0
 40
0.017
100
AcDbArc
 50
270.0
 51
291.267
  0
ARC
  5
3E
330
18
100
AcDbEntity
  8
0
100
AcDbCircle
 10
3.34
 20
2.411
 30
0.0
 40
0.017
100
AcDbArc
 50
234.547
 51
270.0
  0
ARC
  5
3F
330
18
100
AcDbEntity
  8
0
100
AcDbCircle
 10
3.35
 20
2.426
 30
0.0
 40
0.035
100
AcDbArc
 50
210.187
 51
234.547
  0
ARC
  5
40
330
18
100
AcDbEntity
  8
0
100
AcDbCircle
 10
3.367
 20
2.436
 30
0.0
 40
0.055
100
AcDbArc
 50
193.547
 51
210.187
  0
ARC
  5
41
330
18
100
AcDbEntity
  8
0
100
AcDbCircle
 10
3.394
 20
2.442
 30
0.0
 40
0.083
100
AcDbArc
 50
180.0
 51
193.547
  0
ARC
  5
42
330
18
100
AcDbEntity
  8
0
100
AcDbCircle
 10
3.394
 20
2.442
 30
0.0
 40
0.083
100
AcDbArc
 50
166.453
 51
180.0
  0
ARC
  5
43
330
18
100
AcDbEntity
  8
0
100
AcDbCircle
 10
3.367
 20
2.449
 30
0.0
 40
0.055
100
AcDbArc
 50
149.813
 51
166.453
  0
ARC
  5
44
330
18
100
AcDbEntity
  8
0
100
AcDbCircle
 10
3.35
 20
2.459
 30
0.0
 40
0.035
100
AcDbArc
 50
125.453
 51
149.813
  0
ARC
  5
45
330
18
100
AcDbEntity
  8
0
100
AcDbCircle
 10
3.34
 20
2.473
 30
0.0
 40
0.017
100
AcDbArc
 50
90.0
 51
125.453
  0
ARC
  5
46
330
18
100
AcDbEntity
  8
0
100
AcDbCircle
 10
3.352
 20
2.473
 30
0.0
 40
0.017
100
AcDbArc
 50
54.54699999999999
 51
90.0
  0
ARC
  5
47
330
18
100
AcDbEntity
  8
0
100
AcDbCircle
 10
3.341
 20
2.459
 30
0.0
 40
0.035
100
AcDbArc
 50
30.187
 51
54.54699999999999
  0
ARC
  5
48
330
18
100
AcDbEntity
  8
0
100
AcDbCircle
 10
3.324
 20
2.449
 30
0.0
 40
0.055
100
AcDbArc
 50
13.547
 51
30.187
  0
ARC
  5
49
330
18
100
AcDbEntity
  8
0
100
AcDbCircle
 10
3.297
 20
2.442
 30
0.0
 40
0.083
100
AcDbArc
 50
0.0
 51
13.547
  0
ARC
  5
4A
330
18
100
AcDbEntity
  8
0
100
AcDbCircle
 10
3.297
 20
2.442
 30
0.0
 40
0.083
100
AcDbArc
 50
346.453
 51
0.0
  0
ARC
  5
4B
330
18
100
AcDbEntity
  8
0
100
AcDbCircle
 10
3.324
 20
2.436
 30
0.0
 40
0.055
100
AcDbArc
 50
329.8130000000001
 51
346.453
  0
ARC
  5
4C
330
18
100
AcDbEntity
  8
0
100
AcDbCircle
 10
3.341
 20
2.426
 30
0.0
 40
0.035
100
AcDbArc
 50
305.453
 51
329.8130000000001
  0
ARC
  5
4D
330
18
100
AcDbEntity
  8
0
100
AcDbCircle
 10
3.352
 20
2.411
 30
0.0
 40
0.017
100
AcDbArc
 50
270.0
 51
305.453
  0
ARC
  5
4E
330
18
100
AcDbEntity
  8
0
100
AcDbCircle
 10
3.352
 20
2.411
 30
0.0
 40
0.017
100
AcDbArc
 50
234.547
 51
270.0
  0
ARC
  5
4F
330
18
100
AcDbEntity
  8
0
100
AcDbCircle
 10
3.363
 20
2.426
 30
0.0
 40
0.035
100
AcDbArc
 50
210.187
 51
234.547
  0
ARC
  5
50
330
18
100
AcDbEntity
  8
0
100
AcDbCircle
 10
3.38
 20
2.436
 30
0.0
 40
0.055
100
AcDbArc
 50
193.547
 51
210.187
  0
ARC
  5
51
330
18
100
AcDbEntity
  8
0
100
AcDbCircle
 10
3.407
 20
2.442
 30
0.0
 40
0.083
100
AcDbArc
 50
180.0
 51
193.547
  0
ARC
  5
52
330
18
100
AcDbEntity
  8
0
100
AcDbCircle
 10
3.407
 20
2.442
 30
0.0
 40
0.083
100
AcDbArc
 50
166.453
 51
180.0
  0
ARC
  5
53
330
18
100
AcDbEntity
  8
0
100
AcDbCircle
 10
3.38
 20
2.449
 30
0.0
 40
0.055
100
AcDbArc
 50
149.813
 51
166.453
  0
ARC
  5
54
330
18
100
AcDbEntity
  8
0
100
AcDbCircle
 10
3.363
 20
2.459
 30
0.0
 40
0.035
100
AcDbArc
 50
125.453
 51
149.813
  0
ARC
  5
55
330
18
100
AcDbEntity
  8
0
100
AcDbCircle
 10
3.352
 20
2.473
 30
0.0
 40
0.017
100
AcDbArc
 50
90.0
 51
125.453
  0
ARC
  5
56
330
18
100
AcDbEntity
  8
0
100
AcDbCircle
 10
3.584
 20
2.956
 30
0.0
 40
0.017
100
AcDbArc
 50
68.733
 51
90.0
  0
ARC
  5
57
330
18
100
AcDbEntity
  8
0
100
AcDbCircle
 10
3.584
 20
2.893
 30
0.0
 40
0.017
100
AcDbArc
 50
270.0
 51
291.267
  0
ARC
  5
58
330
18
100
AcDbEntity
  8
0
100
AcDbCircle
 10
3.584
 20
2.893
 30
0.0
 40
0.017
100
AcDbArc
 50
234.547
 51
270.0
  0
ARC
  5
59
330
18
100
AcDbEntity
  8
0
100
AcDbCircle
 10
3.595
 20
2.908
 30
0.0
 40
0.035
100
AcDbArc
 50
210.187
 51
234.547
  0
ARC
  5
5A
330
18
100
AcDbEntity
  8
0
100
AcDbCircle
 10
3.612
 20
2.918
 30
0.0
 40
0.055
100
AcDbArc
 50
193.547
 51
210.187
  0
ARC
  5
5B
330
18
100
AcDbEntity
  8
0
100
AcDbCircle
 10
3.639
 20
2.924
 30
0.0
 40
0.083
100
AcDbArc
 50
180.0
 51
193.547
  0
ARC
  5
5C
330
18
100
AcDbEntity
  8
0
100
AcDbCircle
 10
3.639
 20
2.924
 30
0.0
 40
0.083
100
AcDbArc
 50
166.453
 51
180.0
  0
ARC
  5
5D
330
18
100
AcDbEntity
  8
0
100
AcDbCircle
 10
3.612
 20
2.931
 30
0.0
 40
0.055
100
AcDbArc
 50
149.813
 51
166.453
  0
ARC
  5
5E
330
18
100
AcDbEntity
  8
0
100
AcDbCircle
 10
3.595
 20
2.941
 30
0.0
 40
0.035
100
AcDbArc
 50
125.453
 51
149.813
  0
ARC
  5
5F
330
18
100
AcDbEntity
  8
0
100
AcDbCircle
 10
3.584
 20
2.956
 30
0.0
 40
0.017
100
AcDbArc
 50
90.0
 51
125.453
  0
ARC
  5
60
330
18
100
AcDbEntity
  8
0
100
AcDbCircle
 10
3.597
 20
2.956
 30
0.0
 40
0.017
100
AcDbArc
 50
54.54699999999999
 51
90.0
  0
ARC
  5
61
330
18
100
AcDbEntity
  8
0
100
AcDbCircle
 10
3.586
 20
2.941
 30
0.0
 40
0.035
100
AcDbArc
 50
30.187
 51
54.54699999999999
  0
ARC
  5
62
330
18
100
AcDbEntity
  8
0
100
AcDbCircle
 10
3.569
 20
2.931
 30
0.0
 40
0.055
100
AcDbArc
 50
13.547
 51
30.187
  0
ARC
  5
63
330
18
100
AcDbEntity
  8
0
100
AcDbCircle
 10
3.542
 20
2.924
 30
0.0
 40
0.083
100
AcDbArc
 50
0.0
 51
13.547
  0
ARC
  5
64
330
18
100
AcDbEntity
  8
0
100
AcDbCircle
 10
3.542
 20
2.924
 30
0.0
 40
0.083
100
AcDbArc
 50
346.453
 51
0.0
  0
ARC
  5
65
330
18
100
AcDbEntity
  8
0
100
AcDbCircle
 10
3.569
 20
2.918
 30
0.0
 40
0.055
100
AcDbArc
 50
329.8130000000001
 51
346.453
  0
ARC
  5
66
330
18
100
AcDbEntity
  8
0
100
AcDbCircle
 10
3.586
 20
2.908
 30
0.0
 40
0.035
100
AcDbArc
 50
305.453
 51
329.8130000000001
  0
ARC
  5
67
330
18
100
AcDbEntity
  8
0
100
AcDbCircle
 10
3.597
 20
2.893
 30
0.0
 40
0.017
100
AcDbArc
 50
270.0
 51
305.453
  0
ARC
  5
68
330
18
100
AcDbEntity
  8
0
100
AcDbCircle
 10
3.597
 20
2.893
 30
0.0
 40
0.017
100
AcDbArc
 50
234.547
 51
270.0
  0
ARC
  5
69
330
18
100
AcDbEntity
  8
0
100
AcDbCircle
 10
3.607
 20
2.908
 30
0.0
 40
0.035
100
AcDbArc
 50
210.187
 51
234.547
  0
ARC
  5
6A
330
18
100
AcDbEntity
  8
0
100
AcDbCircle
 10
3.624
 20
2.918
 30
0.0
 40
0.055
100
AcDbArc
 50
193.547
 51
210.187
  0
ARC
  5
6B
330
18
100
AcDbEntity
  8
0
100
AcDbCircle
 10
3.651
 20
2.924
 30
0.0
 40
0.083
100
AcDbArc
 50
180.0
 51
193.547
  0
ARC
  5
6C
330
18
100
AcDbEntity
  8
0
100
AcDbCircle
 10
3.651
 20
2.924
 30
0.0
 40
0.083
100
AcDbArc
 50
166.453
 51
180.0
  0
ARC
  5
6D
330
18
100
AcDbEntity
  8
0
100
AcDbCircle
 10
3.624
 20
2.931
 30
0.0
 40
0.055
100
AcDbArc
 50
149.813
 51
166.453
  0
ARC
  5
6E
330
18
100
AcDbEntity
  8
0
100
AcDbCircle
 10
3.607
 20
2.941
 30
0.0
 40
0.035
100
AcDbArc
 50
125.453
 51
149.813
  0
ARC
  5
6F
330
18
100
AcDbEntity
  8
0
100
AcDbCircle
 10
3.597
 20
2.956
 30
0.0
 40
0.017
100
AcDbArc
 50
90.0
 51
125.453
  0
ARC
  5
70
330
18
100
AcDbEntity
  8
0
100
AcDbCircle
 10
3.558
 20
2.577
 30
0.0
 40
0.017
100
AcDbArc
 50
54.54699999999999
 51
90.0
  0
ARC
  5
71
330
18
100
AcDbEntity
  8
0
100
AcDbCircle
 10
3.547
 20
2.562
 30
0.0
 40
0.035
100
AcDbArc
 50
30.187
 51
54.54699999999999
  0
ARC
  5
72
330
18
100
AcDbEntity
  8
0
100
AcDbCircle
 10
3.53
 20
2.552
 30
0.0
 40
0.055
100
AcDbArc
 50
13.547
 51
30.187
  0
ARC
  5
73
330
18
100
AcDbEntity
  8
0
100
AcDbCircle
 10
3.503
 20
2.546
 30
0.0
 40
0.083
100
AcDbArc
 50
0.0
 51
13.547
  0
ARC
  5
74
330
18
100
AcDbEntity
  8
0
100
AcDbCircle
 10
3.503
 20
2.546
 30
0.0
 40
0.083
100
AcDbArc
 50
346.453
 51
0.0
  0
ARC
  5
75
330
18
100
AcDbEntity
  8
0
100
AcDbCircle
 10
3.53
 20
2.539
 30
0.0
 40
0.055
100
AcDbArc
 50
329.8130000000001
 51
346.453
  0
ARC
  5
76
330
18
100
AcDbEntity
  8
0
100
AcDbCircle
 10
3.547
 20
2.529
 30
0.0
 40
0.035
100
AcDbArc
 50
305.453
 51
329.8130000000001
  0
ARC
  5
77
330
18
100
AcDbEntity
  8
0
100
AcDbCircle
 10
3.558
 20
2.515
 30
0.0
 40
0.017
100
AcDbArc
 50
270.0
 51
305.453
  0
ARC
  5
78
330
18
100
AcDbEntity
  8
0
100
AcDbCircle
 10
3.558
 20
2.515
 30
0.0
 40
0.017
100
AcDbArc
 50
234.547
 51
270.0
  0
ARC
  5
79
330
18
100
AcDbEntity
  8
0
100
AcDbCircle
 10
3.569
 20
2.529
 30
0.0
 40
0.035
100
AcDbArc
 50
210.187
 51
234.547
  0
ARC
  5
7A
330
18
100
AcDbEntity
  8
0
100
AcDbCircle
 10
3.586
 20
2.539
 30
0.0
 40
0.055
100
AcDbArc
 50
193.547
 51
210.187
  0
ARC
  5
7B
330
18
100
AcDbEntity
  8
0
100
AcDbCircle
 10
3.613
 20
2.546
 30
0.0
 40
0.083
100
AcDbArc
 50
180.0
 51
193.547
  0
ARC
  5
7C
330
18
100
AcDbEntity
  8
0
100
AcDbCircle
 10
3.613
 20
2.546
 30
0.0
 40
0.083
100
AcDbArc
 50
166.453
 51
180.0
  0
ARC
  5
7D
330
18
100
AcDbEntity
  8
0
100
AcDbCircle
 10
3.586
 20
2.552
 30
0.0
 40
0.055
100
AcDbArc
 50
149.813
 51
166.453
  0
ARC
  5
7E
330
18
100
AcDbEntity
  8
0
100
AcDbCircle
 10
3.569
 20
2.562
 30
0.0
 40
0.035
100
AcDbArc
 50
125.453
 51
149.813
  0
ARC
  5
7F
330
18
100
AcDbEntity
  8
0
100
AcDbCircle
 10
3.558
 20
2.577
 30
0.0
 40
0.017
100
AcDbArc
 50
90.0
 51
125.453
  0
ARC
  5
80
330
18
100
AcDbEntity
  8
0
100
AcDbCircle
 10
3.546
 20
2.515
 30
0.0
 40
0.017
100
AcDbArc
 50
270.0
 51
291.267
  0
ARC
  5
81
330
18
100
AcDbEntity
  8
0
100
AcDbCircle
 10
3.546
 20
2.515
 30
0.0
 40
0.017
100
AcDbArc
 50
234.547
 51
270.0
  0
ARC
  5
82
330
18
100
AcDbEntity
  8
0
100
AcDbCircle
 10
3.556
 20
2.529
 30
0.0
 40
0.035
100
AcDbArc
 50
210.187
 51
234.547
  0
ARC
  5
83
330
18
100
AcDbEntity
  8
0
100
AcDbCircle
 10
3.573
 20
2.539
 30
0.0
 40
0.055
100
AcDbArc
 50
193.547
 51
210.187
  0
ARC
  5
84
330
18
100
AcDbEntity
  8
0
100
AcDbCircle
 10
3.6
 20
2.546
 30
0.0
 40
0.083
100
AcDbArc
 50
180.0
 51
193.547
  0
ARC
  5
85
330
18
100
AcDbEntity
  8
0
100
AcDbCircle
 10
3.6
 20
2.546
 30
0.0
 40
0.083
100
AcDbArc
 50
166.453
 51
180.0
  0
ARC
  5
86
330
18
100
AcDbEntity
  8
0
100
AcDbCircle
 10
3.573
 20
2.552
 30
0.0
 40
0.055
100
AcDbArc
 50
149.813
 51
166.453
  0
ARC
  5
87
330
18
100
AcDbEntity
  8
0
100
AcDbCircle
 10
3.556
 20
2.562
 30
0.0
 40
0.035
100
AcDbArc
 50
125.453
 51
149.813
  0
ARC
  5
88
330
18
100
AcDbEntity
  8
0
100
AcDbCircle
 10
3.546
 20
2.577
 30
0.0
 40
0.017
100
AcDbArc
 50
90.0
 51
125.453
  0
ARC
  5
89
330
18
100
AcDbEntity
  8
0
100
AcDbCircle
 10
3.546
 20
2.577
 30
0.0
 40
0.017
100
AcDbArc
 50
68.733
 51
90.0
  0
ARC
  5
8A
330
18
100
AcDbEntity
  8
0
100
AcDbCircle
 10
3.79
 20
3.739
 30
0.0
 40
0.036
100
AcDbArc
 50
134.116
 51
157.486
  0
ARC
  5
8B
330
18
100
AcDbEntity
  8
0
100
AcDbCircle
 10
3.791
 20
3.737
 30
0.0
 40
0.038
100
AcDbArc
 50
111.274
 51
134.116
  0
ARC
  5
8C
330
18
100
AcDbEntity
  8
0
100
AcDbCircle
 10
3.791
 20
3.736
 30
0.0
 40
0.039
100
AcDbArc
 50
89.14100000000001
 51
111.274
  0
ARC
  5
8D
330
18
100
AcDbEntity
  8
0
100
AcDbCircle
 10
3.791
 20
3.734
 30
0.0
 40
0.041
100
AcDbArc
 50
67.486
 51
89.14100000000001
  0
ARC
  5
8E
330
18
100
AcDbEntity
  8
0
100
AcDbCircle
 10
3.791
 20
3.734
 30
0.0
 40
0.041
100
AcDbArc
 50
45.83200000000001
 51
67.486
  0
ARC
  5
8F
330
18
100
AcDbEntity
  8
0
100
AcDbCircle
 10
3.793
 20
3.736
 30
0.0
 40
0.039
100
AcDbArc
 50
23.699
 51
45.83200000000001
  0
ARC
  5
90
330
18
100
AcDbEntity
  8
0
100
AcDbCircle
 10
3.794
 20
3.736
 30
0.0
 40
0.038
100
AcDbArc
 50
0.857
 51
23.699
  0
ARC
  5
91
330
18
100
AcDbEntity
  8
0
100
AcDbCircle
 10
3.796
 20
3.736
 30
0.0
 40
0.036
100
AcDbArc
 50
337.486
 51
0.857
  0
ARC
  5
92
330
18
100
AcDbEntity
  8
0
100
AcDbCircle
 10
3.796
 20
3.736
 30
0.0
 40
0.036
100
AcDbArc
 50
314.116
 51
337.486
  0
ARC
  5
93
330
18
100
AcDbEntity
  8
0
100
AcDbCircle
 10
3.794
 20
3.737
 30
0.0
 40
0.038
100
AcDbArc
 50
291.274
 51
314.116
  0
ARC
  5
94
330
18
100
AcDbEntity
  8
0
100
AcDbCircle
 10
3.794
 20
3.739
 30
0.0
 40
0.039
100
AcDbArc
 50
269.141
 51
291.274
  0
ARC
  5
95
330
18
100
AcDbEntity
  8
0
100
AcDbCircle
 10
3.794
 20
3.74
 30
0.0
 40
0.041
100
AcDbArc
 50
247.486
 51
269.141
  0
ARC
  5
96
330
18
100
AcDbEntity
  8
0
100
AcDbCircle
 10
3.794
 20
3.74
 30
0.0
 40
0.041
100
AcDbArc
 50
225.832
 51
247.486
  0
ARC
  5
97
330
18
100
AcDbEntity
  8
0
100
AcDbCircle
 10
3.793
 20
3.739
 30
0.0
 40
0.039
100
AcDbArc
 50
203.699
 51
225.832
  0
ARC
  5
98
330
18
100
AcDbEntity
  8
0
100
AcDbCircle
 10
3.791
 20
3.739
 30
0.0
 40
0.038
100
AcDbArc
 50
180.857
 51
203.699
  0
ARC
  5
99
330
18
100
AcDbEntity
  8
0
100
AcDbCircle
 10
3.79
 20
3.739
 30
0.0
 40
0.036
100
AcDbArc
 50
157.486
 51
180.857
  0
ARC
  5
9A
330
18
100
AcDbEntity
  8
0
100
AcDbCircle
 10
3.8
 20
3.747
 30
0.0
 40
0.036
100
AcDbArc
 50
134.116
 51
140.596
  0
ARC
  5
9B
330
18
100
AcDbEntity
  8
0
100
AcDbCircle
 10
3.802
 20
3.746
 30
0.0
 40
0.038
100
AcDbArc
 50
111.274
 51
134.116
  0
ARC
  5
9C
330
18
100
AcDbEntity
  8
0
100
AcDbCircle
 10
3.802
 20
3.745
 30
0.0
 40
0.039
100
AcDbArc
 50
89.14100000000001
 51
111.274
  0
ARC
  5
9D
330
18
100
AcDbEntity
  8
0
100
AcDbCircle
 10
3.802
 20
3.743
 30
0.0
 40
0.041
100
AcDbArc
 50
67.486
 51
89.14100000000001
  0
ARC
  5
9E
330
18
100
AcDbEntity
  8
0
100
AcDbCircle
 10
3.802
 20
3.743
 30
0.0
 40
0.041
100
AcDbArc
 50
45.83200000000001
 51
67.486
  0
ARC
  5
9F
330
18
100
AcDbEntity
  8
0
100
AcDbCircle
 10
3.803
 20
3.744
 30
0.0
 40
0.039
100
AcDbArc
 50
23.699
 51
45.83200000000001
  0
ARC
  5
A0
330
18
100
AcDbEntity
  8
0
100
AcDbCircle
 10
3.804
 20
3.745
 30
0.0
 40
0.038
100
AcDbArc
 50
0.857
 51
23.699
  0
ARC
  5
A1
330
18
100
AcDbEntity
  8
0
100
AcDbCircle
 10
3.806
 20
3.745
 30
0.0
 40
0.036
100
AcDbArc
 50
337.486
 51
0.857
  0
ARC
  5
A2
330
18
100
AcDbEntity
  8
0
100
AcDbCircle
 10
3.806
 20
3.745
 30
0.0
 40
0.036
100
AcDbArc
 50
314.116
 51
337.486
  0
ARC
  5
A3
330
18
100
AcDbEntity
  8
0
100
AcDbCircle
 10
3.805
 20
3.746
 30
0.0
 40
0.038
100
AcDbArc
 50
299.232
 51
314.116
  0
ARC
  5
A4
330
18
100
AcDbEntity
  8
0
100
AcDbCircle
 10
3.792
 20
3.592
 30
0.0
 40
0.036
100
AcDbArc
 50
134.116
 51
140.596
  0
ARC
  5
A5
330
18
100
AcDbEntity
  8
0
100
AcDbCircle
 10
3.793
 20
3.591
 30
0.0
 40
0.038
100
AcDbArc
 50
111.274
 51
134.116
  0
ARC
  5
A6
330
18
100
AcDbEntity
  8
0
100
AcDbCircle
 10
3.793
 20
3.59
 30
0.0
 40
0.039
100
AcDbArc
 50
89.14100000000001
 51
111.274
  0
ARC
  5
A7
330
18
100
AcDbEntity
  8
0
100
AcDbCircle
 10
3.793
 20
3.588
 30
0.0
 40
0.041
100
AcDbArc
 50
67.486
 51
89.14100000000001
  0
ARC
  5
A8
330
18
100
AcDbEntity
  8
0
100
AcDbCircle
 10
3.793
 20
3.588
 30
0.0
 40
0.041
100
AcDbArc
 50
45.83200000000001
 51
67.486
  0
ARC
  5
A9
330
18
100
AcDbEntity
  8
0
100
AcDbCircle
 10
3.794
 20
3.589
 30
0.0
 40
0.039
100
AcDbArc
 50
23.699
 51
45.83200000000001
  0
ARC
  5
AA
330
18
100
AcDbEntity
  8
0
100
AcDbCircle
 10
3.796
 20
3.59
 30
0.0
 40
0.038
100
AcDbArc
 50
0.857
 51
23.699
  0
ARC
  5
AB
330
18
100
AcDbEntity
  8
0
100
AcDbCircle
 10
3.797
 20
3.59
 30
0.0
 40
0.036
100
AcDbArc
 50
337.486
 51
0.857
  0
ARC
  5
AC
330
18
100
AcDbEntity
  8
0
100
AcDbCircle
 10
3.797
 20
3.59
 30
0.0
 40
0.036
100
AcDbArc
 50
314.116
 51
337.486
  0
ARC
  5
AD
330
18
100
AcDbEntity
  8
0
100
AcDbCircle
 10
3.796
 20
3.591
 30
0.0
 40
0.038
100
AcDbArc
 50
299.232
 51
314.116
  0
ARC
  5
AE
330
18
100
AcDbEntity
  8
0
100
AcDbCircle
 10
3.781
 20
3.584
 30
0.0
 40
0.036
100
AcDbArc
 50
134.116
 51
157.486
  0
ARC
  5
AF
330
18
100
AcDbEntity
  8
0
100
AcDbCircle
 10
3.782
 20
3.582
 30
0.0
 40
0.038
100
AcDbArc
 50
111.274
 51
134.116
  0
ARC
  5
B0
330
18
100
AcDbEntity
  8
0
100
AcDbCircle
 10
3.783
 20
3.581
 30
0.0
 40
0.039
100
AcDbArc
 50
89.14100000000001
 51
111.274
  0
ARC
  5
B1
330
18
100
AcDbEntity
  8
0
100
AcDbCircle
 10
3.783
 20
3.579
 30
0.0
 40
0.041
100
AcDbArc
 50
67.486
 51
89.14100000000001
  0
ARC
  5
B2
330
18
100
AcDbEntity
  8
0
100
AcDbCircle
 10
3.783
 20
3.579
 30
0.0
 40
0.041
100
AcDbArc
 50
45.83200000000001
 51
67.486
  0
ARC
  5
B3
330
18
100
AcDbEntity
  8
0
100
AcDbCircle
 10
3.784
 20
3.581
 30
0.0
 40
0.039
100
AcDbArc
 50
23.699
 51
45.83200000000001
  0
ARC
  5
B4
330
18
100
AcDbEntity
  8
0
100
AcDbCircle
 10
3.785
 20
3.581
 30
0.0
 40
0.038
100
AcDbArc
 50
0.857
 51
23.699
  0
ARC
  5
B5
330
18
100
AcDbEntity
  8
0
100
AcDbCircle
 10
3.787
 20
3.581
 30
0.0
 40
0.036
100
AcDbArc
 50
337.486
 51
0.857
  0
ARC
  5
B6
330
18
100
AcDbEntity
  8
0
100
AcDbCircle
 10
3.787
 20
3.581
 30
0.0
 40
0.036
100
AcDbArc
 50
314.116
 51
337.486
  0
ARC
  5
B7
330
18
100
AcDbEntity
  8
0
100
AcDbCircle
 10
3.786
 20
3.582
 30
0.0
 40
0.038
100
AcDbArc
 50
291.274
 51
314.116
  0
ARC
  5
B8
330
18
100
AcDbEntity
  8
0
100
AcDbCircle
 10
3.785
 20
3.584
 30
0.0
 40
0.039
100
AcDbArc
 50
269.141
 51
291.274
  0
ARC
  5
B9
330
18
100
AcDbEntity
  8
0
100
AcDbCircle
 10
3.785
 20
3.585
 30
0.0
 40
0.041
100
AcDbArc
 50
247.486
 51
269.141
  0
ARC
  5
BA
330
18
100
AcDbEntity
  8
0
100
AcDbCircle
 10
3.785
 20
3.585
 30
0.0
 40
0.041
100
AcDbArc
 50
225.832
 51
247.486
  0
ARC
  5
BB
330
18
100
AcDbEntity
  8
0
100
AcDbCircle
 10
3.784
 20
3.584
 30
0.0
 40
0.039
100
AcDbArc
 50
203.699
 51
225.832
  0
ARC
  5
BC
330
18
100
AcDbEntity
  8
0
100
AcDbCircle
 10
3.783
 20
3.584
 30
0.0
 40
0.038
100
AcDbArc
 50
180.857
 51
203.699
  0
ARC
  5
BD
330
18
100
AcDbEntity
  8
0
100
AcDbCircle
 10
3.781
 20
3.584
 30
0.0
 40
0.036
100
AcDbArc
 50
157.486
 51
180.857
  0
ARC
  5
BE
330
18
100
AcDbEntity
  8
0
100
AcDbCircle
 10
3.755
 20
3.427
 30
0.0
 40
0.036
100
AcDbArc
 50
134.116
 51
140.596
  0
ARC
  5
BF
330
18
100
AcDbEntity
  8
0
100
AcDbCircle
 10
3.756
 20
3.426
 30
0.0
 40
0.038
100
AcDbArc
 50
111.274
 51
134.116
  0
ARC
  5
C0
330
18
100
AcDbEntity
  8
0
100
AcDbCircle
 10
3.756
 20
3.425
 30
0.0
 40
0.039
100
AcDbArc
 50
89.14100000000001
 51
111.274
  0
ARC
  5
C1
330
18
100
AcDbEntity
  8
0
100
AcDbCircle
 10
3.756
 20
3.423
 30
0.0
 40
0.041
100
AcDbArc
 50
67.486
 51
89.14100000000001
  0
ARC
  5
C2
330
18
100
AcDbEntity
  8
0
100
AcDbCircle
 10
3.756
 20
3.423
 30
0.0
 40
0.041
100
AcDbArc
 50
45.83200000000001
 51
67.486
  0
ARC
  5
C3
330
18
100
AcDbEntity
  8
0
100
AcDbCircle
 10
3.757
 20
3.424
 30
0.0
 40
0.039
100
AcDbArc
 50
23.699
 51
45.83200000000001
  0
ARC
  5
C4
330
18
100
AcDbEntity
  8
0
100
AcDbCircle
 10
3.759
 20
3.425
 30
0.0
 40
0.038
100
AcDbArc
 50
0.857
 51
23.699
  0
ARC
  5
C5
330
18
100
AcDbEntity
  8
0
100
AcDbCircle
 10
3.76
 20
3.425
 30
0.0
 40
0.036
100
AcDbArc
 50
337.486
 51
0.857
  0
ARC
  5
C6
330
18
100
AcDbEntity
  8
0
100
AcDbCircle
 10
3.76
 20
3.425
 30
0.0
 40
0.036
100
AcDbArc
 50
314.116
 51
337.486
  0
ARC
  5
C7
330
18
100
AcDbEntity
  8
0
100
AcDbCircle
 10
3.759
 20
3.426
 30
0.0
 40
0.038
100
AcDbArc
 50
299.232
 51
314.116
  0
ARC
  5
C8
330
18
100
AcDbEntity
  8
0
100
AcDbCircle
 10
3.744
 20
3.418
 30
0.0
 40
0.036
100
AcDbArc
 50
134.116
 51
157.486
  0
ARC
  5
C9
330
18
100
AcDbEntity
  8
0
100
AcDbCircle
 10
3.745
 20
3.417
 30
0.0
 40
0.038
100
AcDbArc
 50
111.274
 51
134.116
  0
ARC
  5
CA
330
18
100
AcDbEntity
  8
0
100
AcDbCircle
 10
3.746
 20
3.416
 30
0.0
 40
0.039
100
AcDbArc
 50
89.14100000000001
 51
111.274
  0
ARC
  5
CB
330
18
100
AcDbEntity
  8
0
100
AcDbCircle
 10
3.746
 20
3.414
 30
0.0
 40
0.041
100
AcDbArc
 50
67.486
 51
89.14100000000001
  0
ARC
  5
CC
330
18
100
AcDbEntity
  8
0
100
AcDbCircle
 10
3.746
 20
3.414
 30
0.0
 40
0.041
100
AcDbArc
 50
45.83200000000001
 51
67.486
  0
ARC
  5
CD
330
18
100
AcDbEntity
  8
0
100
AcDbCircle
 10
3.747
 20
3.415
 30
0.0
 40
0.039
100
AcDbArc
 50
23.699
 51
45.83200000000001
  0
ARC
  5
CE
330
18
100
AcDbEntity
  8
0
100
AcDbCircle
 10
3.748
 20
3.416
 30
0.0
 40
0.038
100
AcDbArc
 50
0.857
 51
23.699
  0
ARC
  5
CF
330
18
100
AcDbEntity
  8
0
100
AcDbCircle
 10
3.75
 20
3.416
 30
0.0
 40
0.036
100
AcDbArc
 50
337.486
 51
0.857
  0
ARC
  5
D0
330
18
100
AcDbEntity
  8
0
100
AcDbCircle
 10
3.75
 20
3.416
 30
0.0
 40
0.036
100
AcDbArc
 50
314.116
 51
337.486
  0
ARC
  5
D1
330
18
100
AcDbEntity
  8
0
100
AcDbCircle
 10
3.749
 20
3.417
 30
0.0
 40
0.038
100
AcDbArc
 50
291.274
 51
314.116
  0
ARC
  5
D2
330
18
100
AcDbEntity
  8
0
100
AcDbCircle
 10
3.748
 20
3.418
 30
0.0
 40
0.039
100
AcDbArc
 50
269.141
 51
291.274
  0
ARC
  5
D3
330
18
100
AcDbEntity
  8
0
100
AcDbCircle
 10
3.748
 20
3.42
 30
0.0
 40
0.041
100
AcDbArc
 50
247.486
 51
269.141
  0
ARC
  5
D4
330
18
100
AcDbEntity
  8
0
100
AcDbCircle
 10
3.748
 20
3.42
 30
0.0
 40
0.041
100
AcDbArc
 50
225.832
 51
247.486
  0
ARC
  5
D5
330
18
100
AcDbEntity
  8
0
100
AcDbCircle
 10
3.747
 20
3.419
 30
0.0
 40
0.039
100
AcDbArc
 50
203.699
 51
225.832
  0
ARC
  5
D6
330
18
100
AcDbEntity
  8
0
100
AcDbCircle
 10
3.746
 20
3.418
 30
0.0
 40
0.038
100
AcDbArc
 50
180.857
 51
203.699
  0
ARC
  5
D7
330
18
100
AcDbEntity
  8
0
100
AcDbCircle
 10
3.744
 20
3.418
 30
0.0
 40
0.036
100
AcDbArc
 50
157.486
 51
180.857
  0
ARC
  5
D8
330
18
100
AcDbEntity
  8
0
100
AcDbCircle
 10
4.038
 20
3.726
 30
0.0
 40
0.036
100
AcDbArc
 50
134.116
 51
140.596
  0
ARC
  5
D9
330
18
100
AcDbEntity
  8
0
100
AcDbCircle
 10
4.039
 20
3.725
 30
0.0
 40
0.038
100
AcDbArc
 50
111.274
 51
134.116
  0
ARC
  5
DA
330
18
100
AcDbEntity
  8
0
100
AcDbCircle
 10
4.04
 20
3.724
 30
0.0
 40
0.039
100
AcDbArc
 50
89.14100000000001
 51
111.274
  0
ARC
  5
DB
330
18
100
AcDbEntity
  8
0
100
AcDbCircle
 10
4.04
 20
3.722
 30
0.0
 40
0.041
100
AcDbArc
 50
67.486
 51
89.14100000000001
  0
ARC
  5
DC
330
18
100
AcDbEntity
  8
0
100
AcDbCircle
 10
4.04
 20
3.722
 30
0.0
 40
0.041
100
AcDbArc
 50
45.83200000000001
 51
67.486
  0
ARC
  5
DD
330
18
100
AcDbEntity
  8
0
100
AcDbCircle
 10
4.041
 20
3.723
 30
0.0
 40
0.039
100
AcDbArc
 50
23.699
 51
45.83200000000001
  0
ARC
  5
DE
330
18
100
AcDbEntity
  8
0
100
AcDbCircle
 10
4.042
 20
3.724
 30
0.0
 40
0.038
100
AcDbArc
 50
0.857
 51
23.699
  0
ARC
  5
DF
330
18
100
AcDbEntity
  8
0
100
AcDbCircle
 10
4.044
 20
3.724
 30
0.0
 40
0.036
100
AcDbArc
 50
337.486
 51
0.857
  0
ARC
  5
E0
330
18
100
AcDbEntity
  8
0
100
AcDbCircle
 10
4.044
 20
3.724
 30
0.0
 40
0.036
100
AcDbArc
 50
314.116
 51
337.486
  0
ARC
  5
E1
330
18
100
AcDbEntity
  8
0
100
AcDbCircle
 10
4.043
 20
3.725
 30
0.0
 40
0.038
100
AcDbArc
 50
299.232
 51
314.116
  0
ARC
  5
E2
330
18
100
AcDbEntity
  8
0
100
AcDbCircle
 10
4.027
 20
3.717
 30
0.0
 40
0.036
100
AcDbArc
 50
134.116
 51
157.486
  0
ARC
  5
E3
330
18
100
AcDbEntity
  8
0
100
AcDbCircle
 10
4.029
 20
3.716
 30
0.0
 40
0.038
100
AcDbArc
 50
111.274
 51
134.116
  0
ARC
  5
E4
330
18
100
AcDbEntity
  8
0
100
AcDbCircle
 10
4.029
 20
3.715
 30
0.0
 40
0.039
100
AcDbArc
 50
89.14100000000001
 51
111.274
  0
ARC
  5
E5
330
18
100
AcDbEntity
  8
0
100
AcDbCircle
 10
4.029
 20
3.713
 30
0.0
 40
0.041
100
AcDbArc
 50
67.486
 51
89.14100000000001
  0
ARC
  5
E6
330
18
100
AcDbEntity
  8
0
100
AcDbCircle
 10
4.029
 20
3.713
 30
0.0
 40
0.041
100
AcDbArc
 50
45.83200000000001
 51
67.486
  0
ARC
  5
E7
330
18
100
AcDbEntity
  8
0
100
AcDbCircle
 10
4.03
 20
3.714
 30
0.0
 40
0.039
100
AcDbArc
 50
23.699
 51
45.83200000000001
  0
ARC
  5
E8
330
18
100
AcDbEntity
  8
0
100
AcDbCircle
 10
4.032
 20
3.715
 30
0.0
 40
0.038
100
AcDbArc
 50
0.857
 51
23.699
  0
ARC
  5
E9
330
18
100
AcDbEntity
  8
0
100
AcDbCircle
 10
4.033
 20
3.715
 30
0.0
 40
0.036
100
AcDbArc
 50
337.486
 51
0.857
  0
ARC
  5
EA
330
18
100
AcDbEntity
  8
0
100
AcDbCircle
 10
4.033
 20
3.715
 30
0.0
 40
0.036
100
AcDbArc
 50
314.116
 51
337.486
  0
ARC
  5
EB
330
18
100
AcDbEntity
  8
0
100
AcDbCircle
 10
4.032
 20
3.716
 30
0.0
 40
0.038
100
AcDbArc
 50
291.274
 51
314.116
  0
ARC
  5
EC
330
18
100
AcDbEntity
  8
0
100
AcDbCircle
 10
4.031000000000001
 20
3.718
 30
0.0
 40
0.039
100
AcDbArc
 50
269.141
 51
291.274
  0
ARC
  5
ED
330
18
100
AcDbEntity
  8
0
100
AcDbCircle
 10
4.032
 20
3.719
 30
0.0
 40
0.041
100
AcDbArc
 50
247.486
 51
269.141
  0
ARC
  5
EE
330
18
100
AcDbEntity
  8
0
100
AcDbCircle
 10
4.032
 20
3.719
 30
0.0
 40
0.041
100
AcDbArc
 50
225.832
 51
247.486
  0
ARC
  5
EF
330
18
100
AcDbEntity
  8
0
100
AcDbCircle
 10
4.03
 20
3.718
 30
0.0
 40
0.039
100
AcDbArc
 50
203.699
 51
225.832
  0
ARC
  5
F0
330
18
100
AcDbEntity
  8
0
100
AcDbCircle
 10
4.029
 20
3.717
 30
0.0
 40
0.038
100
AcDbArc
 50
180.857
 51
203.699
  0
ARC
  5
F1
330
18
100
AcDbEntity
  8
0
100
AcDbCircle
 10
4.027
 20
3.717
 30
0.0
 40
0.036
100
AcDbArc
 50
157.486
 51
180.857
  0
LINE
  5
F2
330
18
100
AcDbEntity
  8
0
100
AcDbLine
 10
1.581
 20
1.806
 30
0.0
 11
1.746
 21
1.81
 31
0.0
  0
LINE
  5
F3
330
18
100
AcDbEntity
  8
0
100
AcDbLine
 10
1.562
 20
1.799
 30
0.0
 11
1.581
 21
1.806
 31
0.0
  0
LINE
  5
F4
330
18
100
AcDbEntity
  8
0
100
AcDbLine
 10
1.471
 20
1.779
 30
0.0
 11
1.562
 21
1.799
 31
0.0
  0
LINE
  5
F5
330
18
100
AcDbEntity
  8
0
100
AcDbLine
 10
1.58
 20
1.878
 30
0.0
 11
1.745
 21
1.888
 31
0.0
  0
LINE
  5
F6
330
18
100
AcDbEntity
  8
0
100
AcDbLine
 10
1.432
 20
1.837
 30
0.0
 11
1.58
 21
1.878
 31
0.0
  0
LINE
  5
F7
330
18
100
AcDbEntity
  8
0
100
AcDbLine
 10
1.314
 20
1.811
 30
0.0
 11
1.432
 21
1.837
 31
0.0
  0
LINE
  5
F8
330
18
100
AcDbEntity
  8
0
100
AcDbLine
 10
1.579
 20
1.976
 30
0.0
 11
1.745
 21
1.992
 31
0.0
  0
LINE
  5
F9
330
18
100
AcDbEntity
  8
0
100
AcDbLine
 10
1.517
 20
1.946
 30
0.0
 11
1.579
 21
1.976
 31
0.0
  0
LINE
  5
FA
330
18
100
AcDbEntity
  8
0
100
AcDbLine
 10
1.452
 20
1.931
 30
0.0
 11
1.517
 21
1.946
 31
0.0
  0
LINE
  5
FB
330
18
100
AcDbEntity
  8
0
100
AcDbLine
 10
1.33
 20
1.892
 30
0.0
 11
1.452
 21
1.931
 31
0.0
  0
LINE
  5
FC
330
18
100
AcDbEntity
  8
0
100
AcDbLine
 10
1.198
 20
1.863
 30
0.0
 11
1.33
 21
1.892
 31
0.0
  0
LINE
  5
FD
330
18
100
AcDbEntity
  8
0
100
AcDbLine
 10
1.578
 20
2.094
 30
0.0
 11
1.744
 21
2.096
 31
0.0
  0
LINE
  5
FE
330
18
100
AcDbEntity
  8
0
100
AcDbLine
 10
1.51
 20
2.068
 30
0.0
 11
1.578
 21
2.094
 31
0.0
  0
LINE
  5
FF
330
18
100
AcDbEntity
  8
0
100
AcDbLine
 10
1.416
 20
2.027
 30
0.0
 11
1.51
 21
2.068
 31
0.0
  0
LINE
  5
100
330
18
100
AcDbEntity
  8
0
100
AcDbLine
 10
1.284
 20
1.985
 30
0.0
 11
1.416
 21
2.027
 31
0.0
  0
LINE
  5
101
330
18
100
AcDbEntity
  8
0
100
AcDbLine
 10
1.198
 20
1.973
 30
0.0
 11
1.284
 21
1.985
 31
0.0
  0
LINE
  5
102
330
18
100
AcDbEntity
  8
0
100
AcDbLine
 10
1.577
 20
2.186
 30
0.0
 11
1.754
 21
2.199
 31
0.0
  0
LINE
  5
103
330
18
100
AcDbEntity
  8
0
100
AcDbLine
 10
1.559
 20
2.173
 30
0.0
 11
1.577
 21
2.186
 31
0.0
  0
LINE
  5
104
330
18
100
AcDbEntity
  8
0
100
AcDbLine
 10
1.46
 20
2.128
 30
0.0
 11
1.559
 21
2.173
 31
0.0
  0
LINE
  5
105
330
18
100
AcDbEntity
  8
0
100
AcDbLine
 10
1.357
 20
2.096
 30
0.0
 11
1.46
 21
2.128
 31
0.0
  0
LINE
  5
106
330
18
100
AcDbEntity
  8
0
100
AcDbLine
 10
1.198
 20
2.06
 30
0.0
 11
1.357
 21
2.096
 31
0.0
  0
LINE
  5
107
330
18
100
AcDbEntity
  8
0
100
AcDbLine
 10
1.349
 20
2.247
 30
0.0
 11
1.445
 21
2.284
 31
0.0
  0
LINE
  5
108
330
18
100
AcDbEntity
  8
0
100
AcDbLine
 10
1.198
 20
2.231
 30
0.0
 11
1.349
 21
2.247
 31
0.0
  0
LINE
  5
109
330
18
100
AcDbEntity
  8
0
100
AcDbLine
 10
1.293
 20
2.3
 30
0.0
 11
1.315
 21
2.306
 31
0.0
  0
LINE
  5
10A
330
18
100
AcDbEntity
  8
0
100
AcDbLine
 10
1.198
 20
2.286
 30
0.0
 11
1.293
 21
2.3
 31
0.0
  0
LINE
  5
10B
330
18
100
AcDbEntity
  8
0
100
AcDbLine
 10
1.469
 20
2.209
 30
0.0
 11
1.576
 21
2.261
 31
0.0
  0
LINE
  5
10C
330
18
100
AcDbEntity
  8
0
100
AcDbLine
 10
1.337
 20
2.181
 30
0.0
 11
1.469
 21
2.209
 31
0.0
  0
LINE
  5
10D
330
18
100
AcDbEntity
  8
0
100
AcDbLine
 10
1.198
 20
2.158
 30
0.0
 11
1.337
 21
2.181
 31
0.0
  0
LINE
  5
10E
330
18
100
AcDbEntity
  8
0
100
AcDbLine
 10
2.117
 20
1.67
 30
0.0
 11
2.161
 21
1.64
 31
0.0
  0
LINE
  5
10F
330
18
100
AcDbEntity
  8
0
100
AcDbLine
 10
2.064
 20
1.688
 30
0.0
 11
2.117
 21
1.67
 31
0.0
  0
LINE
  5
110
330
18
100
AcDbEntity
  8
0
100
AcDbLine
 10
1.981
 20
1.714
 30
0.0
 11
2.064
 21
1.688
 31
0.0
  0
LINE
  5
111
330
18
100
AcDbEntity
  8
0
100
AcDbLine
 10
1.747
 20
1.643
 30
0.0
 11
1.981
 21
1.714
 31
0.0
  0
LINE
  5
112
330
18
100
AcDbEntity
  8
0
100
AcDbLine
 10
2.333
 20
1.623
 30
0.0
 11
2.354
 21
1.601
 31
0.0
  0
LINE
  5
113
330
18
100
AcDbEntity
  8
0
100
AcDbLine
 10
2.287
 20
1.676
 30
0.0
 11
2.333
 21
1.623
 31
0.0
  0
LINE
  5
114
330
18
100
AcDbEntity
  8
0
100
AcDbLine
 10
2.224
 20
1.716
 30
0.0
 11
2.287
 21
1.676
 31
0.0
  0
LINE
  5
115
330
18
100
AcDbEntity
  8
0
100
AcDbLine
 10
2.133
 20
1.749
 30
0.0
 11
2.224
 21
1.716
 31
0.0
  0
LINE
  5
116
330
18
100
AcDbEntity
  8
0
100
AcDbLine
 10
2.076
 20
1.771
 30
0.0
 11
2.133
 21
1.749
 31
0.0
  0
LINE
  5
117
330
18
100
AcDbEntity
  8
0
100
AcDbLine
 10
1.987
 20
1.788
 30
0.0
 11
2.076
 21
1.771
 31
0.0
  0
LINE
  5
118
330
18
100
AcDbEntity
  8
0
100
AcDbLine
 10
1.746
 20
1.739
 30
0.0
 11
1.987
 21
1.788
 31
0.0
  0
LINE
  5
119
330
18
100
AcDbEntity
  8
0
100
AcDbLine
 10
2.384
 20
1.697
 30
0.0
 11
2.386
 21
1.695
 31
0.0
  0
LINE
  5
11A
330
18
100
AcDbEntity
  8
0
100
AcDbLine
 10
2.331
 20
1.751
 30
0.0
 11
2.384
 21
1.697
 31
0.0
  0
LINE
  5
11B
330
18
100
AcDbEntity
  8
0
100
AcDbLine
 10
2.289
 20
1.792
 30
0.0
 11
2.331
 21
1.751
 31
0.0
  0
LINE
  5
11C
330
18
100
AcDbEntity
  8
0
100
AcDbLine
 10
2.201
 20
1.839
 30
0.0
 11
2.289
 21
1.792
 31
0.0
  0
LINE
  5
11D
330
18
100
AcDbEntity
  8
0
100
AcDbLine
 10
2.119
 20
1.864
 30
0.0
 11
2.201
 21
1.839
 31
0.0
  0
LINE
  5
11E
330
18
100
AcDbEntity
  8
0
100
AcDbLine
 10
1.978
 20
1.896
 30
0.0
 11
2.119
 21
1.864
 31
0.0
  0
LINE
  5
11F
330
18
100
AcDbEntity
  8
0
100
AcDbLine
 10
1.746
 20
1.836
 30
0.0
 11
1.978
 21
1.896
 31
0.0
  0
LINE
  5
120
330
18
100
AcDbEntity
  8
0
100
AcDbLine
 10
2.282
 20
1.889
 30
0.0
 11
2.386
 21
1.809
 31
0.0
  0
LINE
  5
121
330
18
100
AcDbEntity
  8
0
100
AcDbLine
 10
2.217
 20
1.927
 30
0.0
 11
2.282
 21
1.889
 31
0.0
  0
LINE
  5
122
330
18
100
AcDbEntity
  8
0
100
AcDbLine
 10
2.087
 20
1.971
 30
0.0
 11
2.217
 21
1.927
 31
0.0
  0
LINE
  5
123
330
18
100
AcDbEntity
  8
0
100
AcDbLine
 10
1.976
 20
2.006
 30
0.0
 11
2.087
 21
1.971
 31
0.0
  0
LINE
  5
124
330
18
100
AcDbEntity
  8
0
100
AcDbLine
 10
1.745
 20
1.937
 30
0.0
 11
1.976
 21
2.006
 31
0.0
  0
LINE
  5
125
330
18
100
AcDbEntity
  8
0
100
AcDbLine
 10
2.263
 20
2.024
 30
0.0
 11
2.386
 21
1.944
 31
0.0
  0
LINE
  5
126
330
18
100
AcDbEntity
  8
0
100
AcDbLine
 10
2.184
 20
2.068
 30
0.0
 11
2.263
 21
2.024
 31
0.0
  0
LINE
  5
127
330
18
100
AcDbEntity
  8
0
100
AcDbLine
 10
1.972
 20
2.116
 30
0.0
 11
2.184
 21
2.068
 31
0.0
  0
LINE
  5
128
330
18
100
AcDbEntity
  8
0
100
AcDbLine
 10
1.818
 20
2.063
 30
0.0
 11
1.972
 21
2.116
 31
0.0
  0
LINE
  5
129
330
18
100
AcDbEntity
  8
0
100
AcDbLine
 10
1.744
 20
2.042
 30
0.0
 11
1.818
 21
2.063
 31
0.0
  0
LINE
  5
12A
330
18
100
AcDbEntity
  8
0
100
AcDbLine
 10
2.374
 20
2.049
 30
0.0
 11
2.386
 21
2.038
 31
0.0
  0
LINE
  5
12B
330
18
100
AcDbEntity
  8
0
100
AcDbLine
 10
2.27
 20
2.114
 30
0.0
 11
2.374
 21
2.049
 31
0.0
  0
LINE
  5
12C
330
18
100
AcDbEntity
  8
0
100
AcDbLine
 10
2.227
 20
2.148
 30
0.0
 11
2.27
 21
2.114
 31
0.0
  0
LINE
  5
12D
330
18
100
AcDbEntity
  8
0
100
AcDbLine
 10
1.885
 20
2.506
 30
0.0
 11
2.073
 21
2.512
 31
0.0
  0
LINE
  5
12E
330
18
100
AcDbEntity
  8
0
100
AcDbLine
 10
1.812
 20
2.473
 30
0.0
 11
1.885
 21
2.506
 31
0.0
  0
LINE
  5
12F
330
18
100
AcDbEntity
  8
0
100
AcDbLine
 10
1.743
 20
2.455
 30
0.0
 11
1.812
 21
2.473
 31
0.0
  0
LINE
  5
130
330
18
100
AcDbEntity
  8
0
100
AcDbLine
 10
1.887
 20
2.585
 30
0.0
 11
2.073
 21
2.6
 31
0.0
  0
LINE
  5
131
330
18
100
AcDbEntity
  8
0
100
AcDbLine
 10
1.74
 20
2.524
 30
0.0
 11
1.887
 21
2.585
 31
0.0
  0
LINE
  5
132
330
18
100
AcDbEntity
  8
0
100
AcDbLine
 10
1.608
 20
2.478
 30
0.0
 11
1.74
 21
2.524
 31
0.0
  0
LINE
  5
133
330
18
100
AcDbEntity
  8
0
100
AcDbLine
 10
1.89
 20
2.7
 30
0.0
 11
2.074
 21
2.728
 31
0.0
  0
LINE
  5
134
330
18
100
AcDbEntity
  8
0
100
AcDbLine
 10
1.782
 20
2.65
 30
0.0
 11
1.89
 21
2.7
 31
0.0
  0
LINE
  5
135
330
18
100
AcDbEntity
  8
0
100
AcDbLine
 10
1.506
 20
2.53
 30
0.0
 11
1.782
 21
2.65
 31
0.0
  0
LINE
  5
136
330
18
100
AcDbEntity
  8
0
100
AcDbLine
 10
1.893
 20
2.816
 30
0.0
 11
2.067
 21
2.835
 31
0.0
  0
LINE
  5
137
330
18
100
AcDbEntity
  8
0
100
AcDbLine
 10
1.765
 20
2.745
 30
0.0
 11
1.893
 21
2.816
 31
0.0
  0
LINE
  5
138
330
18
100
AcDbEntity
  8
0
100
AcDbLine
 10
1.619
 20
2.664
 30
0.0
 11
1.765
 21
2.745
 31
0.0
  0
LINE
  5
139
330
18
100
AcDbEntity
  8
0
100
AcDbLine
 10
1.506
 20
2.612
 30
0.0
 11
1.619
 21
2.664
 31
0.0
  0
LINE
  5
13A
330
18
100
AcDbEntity
  8
0
100
AcDbLine
 10
1.874
 20
2.895
 30
0.0
 11
1.889
 21
2.907
 31
0.0
  0
LINE
  5
13B
330
18
100
AcDbEntity
  8
0
100
AcDbLine
 10
1.782
 20
2.835
 30
0.0
 11
1.874
 21
2.895
 31
0.0
  0
LINE
  5
13C
330
18
100
AcDbEntity
  8
0
100
AcDbLine
 10
1.649
 20
2.765
 30
0.0
 11
1.782
 21
2.835
 31
0.0
  0
LINE
  5
13D
330
18
100
AcDbEntity
  8
0
100
AcDbLine
 10
1.506
 20
2.697
 30
0.0
 11
1.649
 21
2.765
 31
0.0
  0
LINE
  5
13E
330
18
100
AcDbEntity
  8
0
100
AcDbLine
 10
1.751
 20
2.877
 30
0.0
 11
1.804
 21
2.922
 31
0.0
  0
LINE
  5
13F
330
18
100
AcDbEntity
  8
0
100
AcDbLine
 10
1.654
 20
2.828
 30
0.0
 11
1.751
 21
2.877
 31
0.0
  0
LINE
  5
140
330
18
100
AcDbEntity
  8
0
100
AcDbLine
 10
1.506
 20
2.772
 30
0.0
 11
1.654
 21
2.828
 31
0.0
  0
LINE
  5
141
330
18
100
AcDbEntity
  8
0
100
AcDbLine
 10
1.703
 20
2.913
 30
0.0
 11
1.739
 21
2.933
 31
0.0
  0
LINE
  5
142
330
18
100
AcDbEntity
  8
0
100
AcDbLine
 10
1.622
 20
2.879
 30
0.0
 11
1.703
 21
2.913
 31
0.0
  0
LINE
  5
143
330
18
100
AcDbEntity
  8
0
100
AcDbLine
 10
1.506
 20
2.846
 30
0.0
 11
1.622
 21
2.879
 31
0.0
  0
LINE
  5
144
330
18
100
AcDbEntity
  8
0
100
AcDbLine
 10
1.506
 20
2.898
 30
0.0
 11
1.607
 21
2.956
 31
0.0
  0
LINE
  5
145
330
18
100
AcDbEntity
  8
0
100
AcDbLine
 10
2.666
 20
2.726
 30
0.0
 11
2.694
 21
2.713
 31
0.0
  0
LINE
  5
146
330
18
100
AcDbEntity
  8
0
100
AcDbLine
 10
2.551
 20
2.779
 30
0.0
 11
2.666
 21
2.726
 31
0.0
  0
LINE
  5
147
330
18
100
AcDbEntity
  8
0
100
AcDbLine
 10
2.53
 20
2.791
 30
0.0
 11
2.551
 21
2.779
 31
0.0
  0
LINE
  5
148
330
18
100
AcDbEntity
  8
0
100
AcDbLine
 10
2.636
 20
2.309
 30
0.0
 11
2.648
 21
2.299
 31
0.0
  0
LINE
  5
149
330
18
100
AcDbEntity
  8
0
100
AcDbLine
 10
2.567
 20
2.351
 30
0.0
 11
2.636
 21
2.309
 31
0.0
  0
LINE
  5
14A
330
18
100
AcDbEntity
  8
0
100
AcDbLine
 10
2.469
 20
2.383
 30
0.0
 11
2.567
 21
2.351
 31
0.0
  0
LINE
  5
14B
330
18
100
AcDbEntity
  8
0
100
AcDbLine
 10
2.395
 20
2.416
 30
0.0
 11
2.469
 21
2.383
 31
0.0
  0
LINE
  5
14C
330
18
100
AcDbEntity
  8
0
100
AcDbLine
 10
2.275
 20
2.431
 30
0.0
 11
2.395
 21
2.416
 31
0.0
  0
LINE
  5
14D
330
18
100
AcDbEntity
  8
0
100
AcDbLine
 10
2.072
 20
2.379
 30
0.0
 11
2.275
 21
2.431
 31
0.0
  0
LINE
  5
14E
330
18
100
AcDbEntity
  8
0
100
AcDbLine
 10
2.625
 20
2.402
 30
0.0
 11
2.694
 21
2.363
 31
0.0
  0
LINE
  5
14F
330
18
100
AcDbEntity
  8
0
100
AcDbLine
 10
2.572
 20
2.424
 30
0.0
 11
2.625
 21
2.402
 31
0.0
  0
LINE
  5
150
330
18
100
AcDbEntity
  8
0
100
AcDbLine
 10
2.463
 20
2.469
 30
0.0
 11
2.572
 21
2.424
 31
0.0
  0
LINE
  5
151
330
18
100
AcDbEntity
  8
0
100
AcDbLine
 10
2.279
 20
2.513
 30
0.0
 11
2.463
 21
2.469
 31
0.0
  0
LINE
  5
152
330
18
100
AcDbEntity
  8
0
100
AcDbLine
 10
2.072
 20
2.477
 30
0.0
 11
2.279
 21
2.513
 31
0.0
  0
LINE
  5
153
330
18
100
AcDbEntity
  8
0
100
AcDbLine
 10
2.641
 20
2.469
 30
0.0
 11
2.694
 21
2.443
 31
0.0
  0
LINE
  5
154
330
18
100
AcDbEntity
  8
0
100
AcDbLine
 10
2.595
 20
2.494
 30
0.0
 11
2.641
 21
2.469
 31
0.0
  0
LINE
  5
155
330
18
100
AcDbEntity
  8
0
100
AcDbLine
 10
2.528
 20
2.527
 30
0.0
 11
2.595
 21
2.494
 31
0.0
  0
LINE
  5
156
330
18
100
AcDbEntity
  8
0
100
AcDbLine
 10
2.414
 20
2.564
 30
0.0
 11
2.528
 21
2.527
 31
0.0
  0
LINE
  5
157
330
18
100
AcDbEntity
  8
0
100
AcDbLine
 10
2.279
 20
2.601
 30
0.0
 11
2.414
 21
2.564
 31
0.0
  0
LINE
  5
158
330
18
100
AcDbEntity
  8
0
100
AcDbLine
 10
2.073
 20
2.56
 30
0.0
 11
2.279
 21
2.601
 31
0.0
  0
LINE
  5
159
330
18
100
AcDbEntity
  8
0
100
AcDbLine
 10
2.673
 20
2.526
 30
0.0
 11
2.694
 21
2.515
 31
0.0
  0
LINE
  5
15A
330
18
100
AcDbEntity
  8
0
100
AcDbLine
 10
2.553
 20
2.592
 30
0.0
 11
2.673
 21
2.526
 31
0.0
  0
LINE
  5
15B
330
18
100
AcDbEntity
  8
0
100
AcDbLine
 10
2.361
 20
2.677
 30
0.0
 11
2.553
 21
2.592
 31
0.0
  0
LINE
  5
15C
330
18
100
AcDbEntity
  8
0
100
AcDbLine
 10
2.275
 20
2.705
 30
0.0
 11
2.361
 21
2.677
 31
0.0
  0
LINE
  5
15D
330
18
100
AcDbEntity
  8
0
100
AcDbLine
 10
2.074
 20
2.674
 30
0.0
 11
2.275
 21
2.705
 31
0.0
  0
LINE
  5
15E
330
18
100
AcDbEntity
  8
0
100
AcDbLine
 10
2.631
 20
2.64
 30
0.0
 11
2.694
 21
2.604
 31
0.0
  0
LINE
  5
15F
330
18
100
AcDbEntity
  8
0
100
AcDbLine
 10
2.491
 20
2.705
 30
0.0
 11
2.631
 21
2.64
 31
0.0
  0
LINE
  5
160
330
18
100
AcDbEntity
  8
0
100
AcDbLine
 10
2.407
 20
2.751
 30
0.0
 11
2.491
 21
2.705
 31
0.0
  0
LINE
  5
161
330
18
100
AcDbEntity
  8
0
100
AcDbLine
 10
2.275
 20
2.789
 30
0.0
 11
2.407
 21
2.751
 31
0.0
  0
LINE
  5
162
330
18
100
AcDbEntity
  8
0
100
AcDbLine
 10
2.074
 20
2.763
 30
0.0
 11
2.275
 21
2.789
 31
0.0
  0
LINE
  5
163
330
18
100
AcDbEntity
  8
0
100
AcDbLine
 10
5.843999999999999
 20
2.318
 30
0.0
 11
5.875
 21
2.365
 31
0.0
  0
LINE
  5
164
330
18
100
AcDbEntity
  8
0
100
AcDbLine
 10
5.734
 20
2.15
 30
0.0
 11
5.843999999999999
 21
2.318
 31
0.0
  0
LINE
  5
165
330
18
100
AcDbEntity
  8
0
100
AcDbLine
 10
5.819
 20
2.621
 30
0.0
 11
5.875
 21
2.727
 31
0.0
  0
LINE
  5
166
330
18
100
AcDbEntity
  8
0
100
AcDbLine
 10
5.754
 20
2.48
 30
0.0
 11
5.819
 21
2.621
 31
0.0
  0
LINE
  5
167
330
18
100
AcDbEntity
  8
0
100
AcDbLine
 10
5.507999999999999
 20
2.131
 30
0.0
 11
5.754
 21
2.48
 31
0.0
  0
LINE
  5
168
330
18
100
AcDbEntity
  8
0
100
AcDbLine
 10
5.795
 20
2.394
 30
0.0
 11
5.875
 21
2.536
 31
0.0
  0
LINE
  5
169
330
18
100
AcDbEntity
  8
0
100
AcDbLine
 10
5.556
 20
2.047
 30
0.0
 11
5.795
 21
2.394
 31
0.0
  0
LINE
  5
16A
330
18
100
AcDbEntity
  8
0
100
AcDbLine
 10
5.761
 20
2.718
 30
0.0
 11
5.875
 21
2.964
 31
0.0
  0
LINE
  5
16B
330
18
100
AcDbEntity
  8
0
100
AcDbLine
 10
5.656000000000001
 20
2.5
 30
0.0
 11
5.761
 21
2.718
 31
0.0
  0
LINE
  5
16C
330
18
100
AcDbEntity
  8
0
100
AcDbLine
 10
5.507999999999999
 20
2.294
 30
0.0
 11
5.656000000000001
 21
2.5
 31
0.0
  0
LINE
  5
16D
330
18
100
AcDbEntity
  8
0
100
AcDbLine
 10
5.867999999999999
 20
3.548
 30
0.0
 11
5.875
 21
3.621
 31
0.0
  0
LINE
  5
16E
330
18
100
AcDbEntity
  8
0
100
AcDbLine
 10
5.856
 20
3.369
 30
0.0
 11
5.867999999999999
 21
3.548
 31
0.0
  0
LINE
  5
16F
330
18
100
AcDbEntity
  8
0
100
AcDbLine
 10
5.827999999999999
 20
3.191
 30
0.0
 11
5.856
 21
3.369
 31
0.0
  0
LINE
  5
170
330
18
100
AcDbEntity
  8
0
100
AcDbLine
 10
5.754
 20
2.961
 30
0.0
 11
5.827999999999999
 21
3.191
 31
0.0
  0
LINE
  5
171
330
18
100
AcDbEntity
  8
0
100
AcDbLine
 10
5.678
 20
2.793
 30
0.0
 11
5.754
 21
2.961
 31
0.0
  0
LINE
  5
172
330
18
100
AcDbEntity
  8
0
100
AcDbLine
 10
5.582000000000001
 20
2.602
 30
0.0
 11
5.678
 21
2.793
 31
0.0
  0
LINE
  5
173
330
18
100
AcDbEntity
  8
0
100
AcDbLine
 10
5.507999999999999
 20
2.496
 30
0.0
 11
5.582000000000001
 21
2.602
 31
0.0
  0
LINE
  5
174
330
18
100
AcDbEntity
  8
0
100
AcDbLine
 10
5.752000000000001
 20
3.612
 30
0.0
 11
5.747999999999999
 21
3.773
 31
0.0
  0
LINE
  5
175
330
18
100
AcDbEntity
  8
0
100
AcDbLine
 10
5.759
 20
3.467
 30
0.0
 11
5.752000000000001
 21
3.612
 31
0.0
  0
LINE
  5
176
330
18
100
AcDbEntity
  8
0
100
AcDbLine
 10
5.747000000000001
 20
3.302
 30
0.0
 11
5.759
 21
3.467
 31
0.0
  0
LINE
  5
177
330
18
100
AcDbEntity
  8
0
100
AcDbLine
 10
5.702999999999999
 20
3.114
 30
0.0
 11
5.747000000000001
 21
3.302
 31
0.0
  0
LINE
  5
178
330
18
100
AcDbEntity
  8
0
100
AcDbLine
 10
5.627000000000001
 20
2.938
 30
0.0
 11
5.702999999999999
 21
3.114
 31
0.0
  0
LINE
  5
179
330
18
100
AcDbEntity
  8
0
100
AcDbLine
 10
5.507999999999999
 20
2.699
 30
0.0
 11
5.627000000000001
 21
2.938
 31
0.0
  0
LINE
  5
17A
330
18
100
AcDbEntity
  8
0
100
AcDbLine
 10
5.661000000000001
 20
3.635
 30
0.0
 11
5.666
 21
3.726
 31
0.0
  0
LINE
  5
17B
330
18
100
AcDbEntity
  8
0
100
AcDbLine
 10
5.64
 20
3.452
 30
0.0
 11
5.661000000000001
 21
3.635
 31
0.0
  0
LINE
  5
17C
330
18
100
AcDbEntity
  8
0
100
AcDbLine
 10
5.622000000000001
 20
3.297
 30
0.0
 11
5.64
 21
3.452
 31
0.0
  0
LINE
  5
17D
330
18
100
AcDbEntity
  8
0
100
AcDbLine
 10
5.603
 20
3.126
 30
0.0
 11
5.622000000000001
 21
3.297
 31
0.0
  0
LINE
  5
17E
330
18
100
AcDbEntity
  8
0
100
AcDbLine
 10
5.507999999999999
 20
2.877
 30
0.0
 11
5.603
 21
3.126
 31
0.0
  0
LINE
  5
17F
330
18
100
AcDbEntity
  8
0
100
AcDbLine
 10
5.518
 20
3.313
 30
0.0
 11
5.507999999999999
 21
3.269
 31
0.0
  0
LINE
  5
180
330
18
100
AcDbEntity
  8
0
100
AcDbLine
 10
5.539
 20
3.455
 30
0.0
 11
5.518
 21
3.313
 31
0.0
  0
LINE
  5
181
330
18
100
AcDbEntity
  8
0
100
AcDbLine
 10
5.552000000000001
 20
3.552
 30
0.0
 11
5.539
 21
3.455
 31
0.0
  0
LINE
  5
182
330
18
100
AcDbEntity
  8
0
100
AcDbLine
 10
5.563
 20
3.668
 30
0.0
 11
5.552000000000001
 21
3.552
 31
0.0
  0
ARC
  5
183
330
18
100
AcDbEntity
  8
0
100
AcDbCircle
 10
3.308
 20
2.762
 30
0.0
 40
0.04
100
AcDbArc
 50
161.181
 51
180.0
  0
ARC
  5
184
330
18
100
AcDbEntity
  8
0
100
AcDbCircle
 10
3.279
 20
2.762
 30
0.0
 40
0.04
100
AcDbArc
 50
161.181
 51
180.0
  0
ARC
  5
185
330
18
100
AcDbEntity
  8
0
100
AcDbCircle
 10
3.539
 20
3.688
 30
0.0
 40
0.04
100
AcDbArc
 50
341.181
 51
0.0
  0
ARC
  5
186
330
18
100
AcDbEntity
  8
0
100
AcDbCircle
 10
3.511
 20
3.688
 30
0.0
 40
0.04
100
AcDbArc
 50
341.181
 51
0.0
  0
LINE
  5
187
330
18
100
AcDbEntity
  8
0
100
AcDbLine
 10
1.117
 20
5.187
 30
0.0
 11
0.5870000000000001
 21
5.569
 31
0.0
  0
LINE
  5
188
330
18
100
AcDbEntity
  8
0
100
AcDbLine
 10
0.5870000000000001
 20
7.571000000000001
 30
0.0
 11
0.5870000000000001
 21
1.232
 31
0.0
  0
LINE
  5
189
330
18
100
AcDbEntity
  8
0
100
AcDbLine
 10
0.5870000000000001
 20
1.232
 30
0.0
 11
4.072
 21
1.232
 31
0.0
  0
LINE
  5
18A
330
18
100
AcDbEntity
  8
0
100
AcDbLine
 10
4.072
 20
1.232
 30
0.0
 11
4.072
 21
2.566
 31
0.0
  0
LINE
  5
18B
330
18
100
AcDbEntity
  8
0
100
AcDbLine
 10
3.646
 20
1.232
 30
0.0
 11
3.646
 21
2.318
 31
0.0
  0
LINE
  5
18C
330
18
100
AcDbEntity
  8
0
100
AcDbLine
 10
2.386
 20
1.595
 30
0.0
 11
4.444
 21
2.786
 31
0.0
  0
LINE
  5
18D
330
18
100
AcDbEntity
  8
0
100
AcDbLine
 10
6.627000000000001
 20
4.05
 30
0.0
 11
6.627000000000001
 21
4.472
 31
0.0
  0
LINE
  5
18E
330
18
100
AcDbEntity
  8
0
100
AcDbLine
 10
2.386
 20
1.595
 30
0.0
 11
2.386
 21
2.121
 31
0.0
  0
LINE
  5
18F
330
18
100
AcDbEntity
  8
0
100
AcDbLine
 10
2.386
 20
2.121
 30
0.0
 11
3.239
 21
2.594
 31
0.0
  0
LINE
  5
190
330
18
100
AcDbEntity
  8
0
100
AcDbLine
 10
2.386
 20
2.121
 30
0.0
 11
1.971
 21
2.193
 31
0.0
  0
LINE
  5
191
330
18
100
AcDbEntity
  8
0
100
AcDbLine
 10
1.198
 20
2.327
 30
0.0
 11
1.198
 21
1.834
 31
0.0
  0
LINE
  5
192
330
18
100
AcDbEntity
  8
0
100
AcDbLine
 10
1.198
 20
1.834
 30
0.0
 11
1.581
 21
1.757
 31
0.0
  0
LINE
  5
193
330
18
100
AcDbEntity
  8
0
100
AcDbLine
 10
1.198
 20
2.327
 30
0.0
 11
1.506
 21
2.496
 31
0.0
  0
LINE
  5
194
330
18
100
AcDbEntity
  8
0
100
AcDbLine
 10
1.506
 20
2.496
 30
0.0
 11
1.506
 21
2.974
 31
0.0
  0
LINE
  5
195
330
18
100
AcDbEntity
  8
0
100
AcDbLine
 10
1.506
 20
2.974
 30
0.0
 11
1.895
 21
2.906
 31
0.0
  0
LINE
  5
196
330
18
100
AcDbEntity
  8
0
100
AcDbLine
 10
2.694
 20
2.765
 30
0.0
 11
2.694
 21
2.291
 31
0.0
  0
LINE
  5
197
330
18
100
AcDbEntity
  8
0
100
AcDbLine
 10
2.694
 20
2.291
 30
0.0
 11
2.271
 21
2.364
 31
0.0
  0
LINE
  5
198
330
18
100
AcDbEntity
  8
0
100
AcDbLine
 10
2.694
 20
2.765
 30
0.0
 11
3.36
 21
3.123
 31
0.0
  0
LINE
  5
199
330
18
100
AcDbEntity
  8
0
100
AcDbLine
 10
6.306
 20
4.706
 30
0.0
 11
6.306
 21
4.295
 31
0.0
  0
LINE
  5
19A
330
18
100
AcDbEntity
  8
0
100
AcDbLine
 10
1.506
 20
2.974
 30
0.0
 11
2.448
 21
3.446
 31
0.0
  0
LINE
  5
19B
330
18
100
AcDbEntity
  8
0
100
AcDbLine
 10
5.231
 20
4.84
 30
0.0
 11
5.589
 21
4.796
 31
0.0
  0
LINE
  5
19C
330
18
100
AcDbEntity
  8
0
100
AcDbLine
 10
6.627000000000001
 20
4.472
 30
0.0
 11
6.306
 21
4.502
 31
0.0
  0
LINE
  5
19D
330
18
100
AcDbEntity
  8
0
100
AcDbLine
 10
5.507999999999999
 20
3.636
 30
0.0
 11
5.507999999999999
 21
2.019
 31
0.0
  0
LINE
  5
19E
330
18
100
AcDbEntity
  8
0
100
AcDbLine
 10
5.507999999999999
 20
2.019
 30
0.0
 11
5.875
 21
2.233
 31
0.0
  0
LINE
  5
19F
330
18
100
AcDbEntity
  8
0
100
AcDbLine
 10
5.875
 20
2.233
 30
0.0
 11
5.875
 21
3.846
 31
0.0
  0
LINE
  5
1A0
330
18
100
AcDbEntity
  8
0
100
AcDbLine
 10
5.875
 20
3.846
 30
0.0
 11
0.5870000000000001
 21
7.571000000000001
 31
0.0
  0
LINE
  5
1A1
330
18
100
AcDbEntity
  8
0
100
AcDbLine
 10
5.507999999999999
 20
3.636
 30
0.0
 11
0.5870000000000001
 21
7.138
 31
0.0
  0
LINE
  5
1A2
330
18
100
AcDbEntity
  8
0
100
AcDbLine
 10
5.507999999999999
 20
3.636
 30
0.0
 11
5.875
 21
3.846
 31
0.0
  0
LINE
  5
1A3
330
18
100
AcDbEntity
  8
0
100
AcDbLine
 10
5.507999999999999
 20
2.019
 30
0.0
 11
3.858
 21
3.209
 31
0.0
  0
LINE
  5
1A4
330
18
100
AcDbEntity
  8
0
100
AcDbLine
 10
5.875
 20
3.615
 30
0.0
 11
6.627000000000001
 21
4.05
 31
0.0
  0
LINE
  5
1A5
330
18
100
AcDbEntity
  8
0
100
AcDbLine
 10
5.709
 20
3.963
 30
0.0
 11
6.627000000000001
 21
4.472
 31
0.0
  0
LINE
  5
1A6
330
18
100
AcDbEntity
  8
0
100
AcDbLine
 10
4.783
 20
4.615
 30
0.0
 11
5.231
 21
4.84
 31
0.0
  0
LINE
  5
1A7
330
18
100
AcDbEntity
  8
0
100
AcDbLine
 10
5.369
 20
4.203
 30
0.0
 11
6.306
 21
4.706
 31
0.0
  0
LINE
  5
1A8
330
18
100
AcDbEntity
  8
0
100
AcDbLine
 10
0.5870000000000001
 20
3.722
 30
0.0
 11
3.421
 21
3.301
 31
0.0
  0
LINE
  5
1A9
330
18
100
AcDbEntity
  8
0
100
AcDbLine
 10
0.5870000000000001
 20
4.755
 30
0.0
 11
1.116
 21
4.698
 31
0.0
  0
LINE
  5
1AA
330
18
100
AcDbEntity
  8
0
100
AcDbLine
 10
0.5870000000000001
 20
4.98
 30
0.0
 11
1.116
 21
4.926
 31
0.0
  0
LINE
  5
1AB
330
18
100
AcDbEntity
  8
0
100
AcDbLine
 10
1.117
 20
5.267
 30
0.0
 11
1.115
 21
3.75
 31
0.0
  0
LINE
  5
1AC
330
18
100
AcDbEntity
  8
0
100
AcDbLine
 10
1.115
 20
3.75
 30
0.0
 11
3.46
 21
3.417
 31
0.0
  0
LINE
  5
1AD
330
18
100
AcDbEntity
  8
0
100
AcDbLine
 10
1.117
 20
5.267
 30
0.0
 11
3.508
 21
4.974
 31
0.0
  0
LINE
  5
1AE
330
18
100
AcDbEntity
  8
0
100
AcDbLine
 10
3.508
 20
4.974
 30
0.0
 11
3.508
 21
3.558
 31
0.0
  0
LINE
  5
1AF
330
18
100
AcDbEntity
  8
0
100
AcDbLine
 10
1.117
 20
5.267
 30
0.0
 11
1.159
 21
5.287000000000001
 31
0.0
  0
LINE
  5
1B0
330
18
100
AcDbEntity
  8
0
100
AcDbLine
 10
3.508
 20
4.974
 30
0.0
 11
3.551
 21
4.993
 31
0.0
  0
LINE
  5
1B1
330
18
100
AcDbEntity
  8
0
100
AcDbLine
 10
3.268
 20
2.276
 30
0.0
 11
3.268
 21
2.762
 31
0.0
  0
LINE
  5
1B2
330
18
100
AcDbEntity
  8
0
100
AcDbLine
 10
3.27
 20
2.775
 30
0.0
 11
3.577
 21
3.675
 31
0.0
  0
LINE
  5
1B3
330
18
100
AcDbEntity
  8
0
100
AcDbLine
 10
3.239
 20
2.276
 30
0.0
 11
3.239
 21
2.762
 31
0.0
  0
LINE
  5
1B4
330
18
100
AcDbEntity
  8
0
100
AcDbLine
 10
3.268
 20
2.276
 30
0.0
 11
3.239
 21
2.276
 31
0.0
  0
LINE
  5
1B5
330
18
100
AcDbEntity
  8
0
100
AcDbLine
 10
3.242
 20
2.775
 30
0.0
 11
3.548
 21
3.675
 31
0.0
  0
LINE
  5
1B6
330
18
100
AcDbEntity
  8
0
100
AcDbLine
 10
3.551
 20
4.993
 30
0.0
 11
3.551
 21
3.688
 31
0.0
  0
LINE
  5
1B7
330
18
100
AcDbEntity
  8
0
100
AcDbLine
 10
1.159
 20
5.287000000000001
 30
0.0
 11
3.551
 21
4.993
 31
0.0
  0
LINE
  5
1B8
330
18
100
AcDbEntity
  8
0
100
AcDbLine
 10
3.551
 20
3.838
 30
0.0
 11
3.676
 21
3.923
 31
0.0
  0
LINE
  5
1B9
330
18
100
AcDbEntity
  8
0
100
AcDbLine
 10
3.579
 20
3.838
 30
0.0
 11
3.579
 21
3.688
 31
0.0
  0
LINE
  5
1BA
330
18
100
AcDbEntity
  8
0
100
AcDbLine
 10
3.551
 20
3.838
 30
0.0
 11
3.579
 21
3.838
 31
0.0
  0
LINE
  5
1BB
330
18
100
AcDbEntity
  8
0
100
AcDbLine
 10
3.579
 20
3.838
 30
0.0
 11
3.676
 21
3.904
 31
0.0
  0
LINE
  5
1BC
330
18
100
AcDbEntity
  8
0
100
AcDbLine
 10
3.676
 20
3.923
 30
0.0
 11
3.676
 21
3.904
 31
0.0
  0
LINE
  5
1BD
330
18
100
AcDbEntity
  8
0
100
AcDbLine
 10
3.676
 20
3.904
 30
0.0
 11
4.146
 21
3.805
 31
0.0
  0
LINE
  5
1BE
330
18
100
AcDbEntity
  8
0
100
AcDbLine
 10
4.146
 20
3.805
 30
0.0
 11
4.146
 21
3.677
 31
0.0
  0
LINE
  5
1BF
330
18
100
AcDbEntity
  8
0
100
AcDbLine
 10
3.676
 20
3.923
 30
0.0
 11
4.166
 21
3.82
 31
0.0
  0
LINE
  5
1C0
330
18
100
AcDbEntity
  8
0
100
AcDbLine
 10
3.873
 20
3.205
 30
0.0
 11
4.166
 21
3.711
 31
0.0
  0
LINE
  5
1C1
330
18
100
AcDbEntity
  8
0
100
AcDbLine
 10
4.166
 20
3.82
 30
0.0
 11
4.166
 21
3.711
 31
0.0
  0
LINE
  5
1C2
330
18
100
AcDbEntity
  8
0
100
AcDbLine
 10
4.146
 20
3.805
 30
0.0
 11
4.166
 21
3.82
 31
0.0
  0
LINE
  5
1C3
330
18
100
AcDbEntity
  8
0
100
AcDbLine
 10
3.268
 20
2.276
 30
0.0
 11
3.618
 21
2.489
 31
0.0
  0
LINE
  5
1C4
330
18
100
AcDbEntity
  8
0
100
AcDbLine
 10
3.618
 20
2.489
 30
0.0
 11
3.618
 21
2.816
 31
0.0
  0
LINE
  5
1C5
330
18
100
AcDbEntity
  8
0
100
AcDbLine
 10
3.618
 20
2.816
 30
0.0
 11
3.669
 21
2.895
 31
0.0
  0
LINE
  5
1C6
330
18
100
AcDbEntity
  8
0
100
AcDbLine
 10
3.669
 20
2.895
 30
0.0
 11
3.669
 21
3.195
 31
0.0
  0
LINE
  5
1C7
330
18
100
AcDbEntity
  8
0
100
AcDbLine
 10
3.873
 20
3.205
 30
0.0
 11
3.732
 21
3.243
 31
0.0
  0
ARC
  5
1C8
330
18
100
AcDbEntity
  8
0
100
AcDbCircle
 10
3.719
 20
3.195
 30
0.0
 40
0.05
100
AcDbArc
 50
74.98899999999999
 51
180.0
  0
LINE
  5
1C9
330
18
100
AcDbEntity
  8
0
100
AcDbLine
 10
2.271
 20
2.832
 30
0.0
 11
2.271
 21
2.364
 31
0.0
  0
LINE
  5
1CA
330
18
100
AcDbEntity
  8
0
100
AcDbLine
 10
1.895
 20
2.906
 30
0.0
 11
1.883
 21
2.431
 31
0.0
  0
LINE
  5
1CB
330
18
100
AcDbEntity
  8
0
100
AcDbLine
 10
1.895
 20
2.906
 30
0.0
 11
2.053
 21
2.909
 31
0.0
  0
LINE
  5
1CC
330
18
100
AcDbEntity
  8
0
100
AcDbLine
 10
2.053
 20
2.909
 30
0.0
 11
2.074
 21
2.793
 31
0.0
  0
LINE
  5
1CD
330
18
100
AcDbEntity
  8
0
100
AcDbLine
 10
2.074
 20
2.793
 30
0.0
 11
2.271
 21
2.832
 31
0.0
  0
LINE
  5
1CE
330
18
100
AcDbEntity
  8
0
100
AcDbLine
 10
2.074
 20
2.793
 30
0.0
 11
2.071
 21
2.283
 31
0.0
  0
LINE
  5
1CF
330
18
100
AcDbEntity
  8
0
100
AcDbLine
 10
2.071
 20
2.283
 30
0.0
 11
2.271
 21
2.364
 31
0.0
  0
LINE
  5
1D0
330
18
100
AcDbEntity
  8
0
100
AcDbLine
 10
1.883
 20
2.431
 30
0.0
 11
2.073
 21
2.441
 31
0.0
  0
LINE
  5
1D1
330
18
100
AcDbEntity
  8
0
100
AcDbLine
 10
1.883
 20
2.431
 30
0.0
 11
1.506
 21
2.496
 31
0.0
  0
LINE
  5
1D2
330
18
100
AcDbEntity
  8
0
100
AcDbLine
 10
2.271
 20
2.832
 30
0.0
 11
2.694
 21
2.765
 31
0.0
  0
LINE
  5
1D3
330
18
100
AcDbEntity
  8
0
100
AcDbLine
 10
1.577
 20
2.261
 30
0.0
 11
1.581
 21
1.757
 31
0.0
  0
LINE
  5
1D4
330
18
100
AcDbEntity
  8
0
100
AcDbLine
 10
1.971
 20
2.193
 30
0.0
 11
1.982
 21
1.676
 31
0.0
  0
LINE
  5
1D5
330
18
100
AcDbEntity
  8
0
100
AcDbLine
 10
1.744
 20
2.126
 30
0.0
 11
1.747
 21
1.586
 31
0.0
  0
LINE
  5
1D6
330
18
100
AcDbEntity
  8
0
100
AcDbLine
 10
1.744
 20
2.126
 30
0.0
 11
1.971
 21
2.193
 31
0.0
  0
LINE
  5
1D7
330
18
100
AcDbEntity
  8
0
100
AcDbLine
 10
1.747
 20
1.586
 30
0.0
 11
1.982
 21
1.676
 31
0.0
  0
LINE
  5
1D8
330
18
100
AcDbEntity
  8
0
100
AcDbLine
 10
1.577
 20
2.261
 30
0.0
 11
1.763
 21
2.267
 31
0.0
  0
LINE
  5
1D9
330
18
100
AcDbEntity
  8
0
100
AcDbLine
 10
1.763
 20
2.267
 30
0.0
 11
1.744
 21
2.126
 31
0.0
  0
LINE
  5
1DA
330
18
100
AcDbEntity
  8
0
100
AcDbLine
 10
1.581
 20
1.757
 30
0.0
 11
1.746
 21
1.765
 31
0.0
  0
LINE
  5
1DB
330
18
100
AcDbEntity
  8
0
100
AcDbLine
 10
1.577
 20
2.261
 30
0.0
 11
1.198
 21
2.327
 31
0.0
  0
LINE
  5
1DC
330
18
100
AcDbEntity
  8
0
100
AcDbLine
 10
1.982
 20
1.676
 30
0.0
 11
2.386
 21
1.595
 31
0.0
  0
LINE
  5
1DD
330
18
100
AcDbEntity
  8
0
100
AcDbLine
 10
2.269
 20
1.618
 30
0.0
 11
2.269
 21
1.232
 31
0.0
  0
LINE
  5
1DE
330
18
100
AcDbEntity
  8
0
100
AcDbLine
 10
3.649
 20
3.803
 30
0.0
 11
3.651
 21
3.298
 31
0.0
  0
LINE
  5
1DF
330
18
100
AcDbEntity
  8
0
100
AcDbLine
 10
5.589
 20
4.796
 30
0.0
 11
5.831
 21
4.829
 31
0.0
  0
LINE
  5
1E0
330
18
100
AcDbEntity
  8
0
100
AcDbLine
 10
5.831
 20
4.829
 30
0.0
 11
5.717000000000001
 21
4.697
 31
0.0
  0
LINE
  5
1E1
330
18
100
AcDbEntity
  8
0
100
AcDbLine
 10
5.717000000000001
 20
4.697
 30
0.0
 11
5.922000000000001
 21
4.754
 31
0.0
  0
LINE
  5
1E2
330
18
100
AcDbEntity
  8
0
100
AcDbLine
 10
5.922000000000001
 20
4.754
 30
0.0
 11
6.306
 21
4.706
 31
0.0
  0
LINE
  5
1E3
330
18
100
AcDbEntity
  8
0
100
AcDbLine
 10
5.831
 20
4.829
 30
0.0
 11
5.83
 21
4.729
 31
0.0
  0
LINE
  5
1E4
330
18
100
AcDbEntity
  8
0
100
AcDbLine
 10
5.787000000000001
 20
4.779
 30
0.0
 11
5.831
 21
4.766
 31
0.0
  0
LINE
  5
1E5
330
18
100
AcDbEntity
  8
0
100
AcDbLine
 10
5.756
 20
4.742
 30
0.0
 11
5.814
 21
4.724
 31
0.0
  0
LINE
  5
1E6
330
18
100
AcDbEntity
  8
0
100
AcDbLine
 10
1.295
 20
5.186
 30
0.0
 11
1.171
 21
5.206
 31
0.0
  0
LINE
  5
1E7
330
18
100
AcDbEntity
  8
0
100
AcDbLine
 10
1.171
 20
5.206
 30
0.0
 11
1.171
 21
5.165
 31
0.0
  0
LINE
  5
1E8
330
18
100
AcDbEntity
  8
0
100
AcDbLine
 10
1.171
 20
5.165
 30
0.0
 11
1.293
 21
5.14
 31
0.0
  0
LINE
  5
1E9
330
18
100
AcDbEntity
  8
0
100
AcDbLine
 10
1.171
 20
5.165
 30
0.0
 11
1.191
 21
5.202000000000001
 31
0.0
  0
LINE
  5
1EA
330
18
100
AcDbEntity
  8
0
100
AcDbLine
 10
1.171
 20
4.912
 30
0.0
 11
1.191
 21
4.949
 31
0.0
  0
LINE
  5
1EB
330
18
100
AcDbEntity
  8
0
100
AcDbLine
 10
1.171
 20
4.912
 30
0.0
 11
1.293
 21
4.887
 31
0.0
  0
LINE
  5
1EC
330
18
100
AcDbEntity
  8
0
100
AcDbLine
 10
1.171
 20
4.952
 30
0.0
 11
1.171
 21
4.912
 31
0.0
  0
LINE
  5
1ED
330
18
100
AcDbEntity
  8
0
100
AcDbLine
 10
1.295
 20
4.933
 30
0.0
 11
1.171
 21
4.952
 31
0.0
  0
LINE
  5
1EE
330
18
100
AcDbEntity
  8
0
100
AcDbLine
 10
1.295
 20
4.681
 30
0.0
 11
1.171
 21
4.7
 31
0.0
  0
LINE
  5
1EF
330
18
100
AcDbEntity
  8
0
100
AcDbLine
 10
1.171
 20
4.7
 30
0.0
 11
1.171
 21
4.66
 31
0.0
  0
LINE
  5
1F0
330
18
100
AcDbEntity
  8
0
100
AcDbLine
 10
1.171
 20
4.66
 30
0.0
 11
1.293
 21
4.635
 31
0.0
  0
LINE
  5
1F1
330
18
100
AcDbEntity
  8
0
100
AcDbLine
 10
1.171
 20
4.66
 30
0.0
 11
1.191
 21
4.697
 31
0.0
  0
LINE
  5
1F2
330
18
100
AcDbEntity
  8
0
100
AcDbLine
 10
1.295
 20
4.41
 30
0.0
 11
1.171
 21
4.428999999999999
 31
0.0
  0
LINE
  5
1F3
330
18
100
AcDbEntity
  8
0
100
AcDbLine
 10
1.171
 20
4.428999999999999
 30
0.0
 11
1.171
 21
4.388999999999999
 31
0.0
  0
LINE
  5
1F4
330
18
100
AcDbEntity
  8
0
100
AcDbLine
 10
1.171
 20
4.388999999999999
 30
0.0
 11
1.293
 21
4.364
 31
0.0
  0
LINE
  5
1F5
330
18
100
AcDbEntity
  8
0
100
AcDbLine
 10
1.171
 20
4.388999999999999
 30
0.0
 11
1.191
 21
4.426
 31
0.0
  0
LINE
  5
1F6
330
18
100
AcDbEntity
  8
0
100
AcDbLine
 10
1.295
 20
4.148
 30
0.0
 11
1.171
 21
4.167
 31
0.0
  0
LINE
  5
1F7
330
18
100
AcDbEntity
  8
0
100
AcDbLine
 10
1.171
 20
4.167
 30
0.0
 11
1.171
 21
4.127
 31
0.0
  0
LINE
  5
1F8
330
18
100
AcDbEntity
  8
0
100
AcDbLine
 10
1.171
 20
4.127
 30
0.0
 11
1.293
 21
4.102
 31
0.0
  0
LINE
  5
1F9
330
18
100
AcDbEntity
  8
0
100
AcDbLine
 10
1.171
 20
4.127
 30
0.0
 11
1.191
 21
4.164
 31
0.0
  0
LINE
  5
1FA
330
18
100
AcDbEntity
  8
0
100
AcDbLine
 10
1.295
 20
3.91
 30
0.0
 11
1.171
 21
3.93
 31
0.0
  0
LINE
  5
1FB
330
18
100
AcDbEntity
  8
0
100
AcDbLine
 10
1.171
 20
3.93
 30
0.0
 11
1.171
 21
3.889
 31
0.0
  0
LINE
  5
1FC
330
18
100
AcDbEntity
  8
0
100
AcDbLine
 10
1.171
 20
3.889
 30
0.0
 11
1.293
 21
3.865
 31
0.0
  0
LINE
  5
1FD
330
18
100
AcDbEntity
  8
0
100
AcDbLine
 10
1.171
 20
3.889
 30
0.0
 11
1.191
 21
3.927
 31
0.0
  0
LINE
  5
1FE
330
18
100
AcDbEntity
  8
0
100
AcDbLine
 10
1.332
 20
3.745
 30
0.0
 11
1.351
 21
3.782
 31
0.0
  0
LINE
  5
1FF
330
18
100
AcDbEntity
  8
0
100
AcDbLine
 10
1.332
 20
3.745
 30
0.0
 11
1.453
 21
3.72
 31
0.0
  0
LINE
  5
200
330
18
100
AcDbEntity
  8
0
100
AcDbLine
 10
1.332
 20
3.785
 30
0.0
 11
1.332
 21
3.745
 31
0.0
  0
LINE
  5
201
330
18
100
AcDbEntity
  8
0
100
AcDbLine
 10
1.455
 20
3.766
 30
0.0
 11
1.332
 21
3.785
 31
0.0
  0
LINE
  5
202
330
18
100
AcDbEntity
  8
0
100
AcDbLine
 10
1.332
 20
3.982
 30
0.0
 11
1.351
 21
4.02
 31
0.0
  0
LINE
  5
203
330
18
100
AcDbEntity
  8
0
100
AcDbLine
 10
1.332
 20
3.982
 30
0.0
 11
1.453
 21
3.958
 31
0.0
  0
LINE
  5
204
330
18
100
AcDbEntity
  8
0
100
AcDbLine
 10
1.332
 20
4.023
 30
0.0
 11
1.332
 21
3.982
 31
0.0
  0
LINE
  5
205
330
18
100
AcDbEntity
  8
0
100
AcDbLine
 10
1.455
 20
4.004
 30
0.0
 11
1.332
 21
4.023
 31
0.0
  0
LINE
  5
206
330
18
100
AcDbEntity
  8
0
100
AcDbLine
 10
1.332
 20
4.245
 30
0.0
 11
1.351
 21
4.282
 31
0.0
  0
LINE
  5
207
330
18
100
AcDbEntity
  8
0
100
AcDbLine
 10
1.332
 20
4.245
 30
0.0
 11
1.453
 21
4.22
 31
0.0
  0
LINE
  5
208
330
18
100
AcDbEntity
  8
0
100
AcDbLine
 10
1.332
 20
4.285
 30
0.0
 11
1.332
 21
4.245
 31
0.0
  0
LINE
  5
209
330
18
100
AcDbEntity
  8
0
100
AcDbLine
 10
1.455
 20
4.266
 30
0.0
 11
1.332
 21
4.285
 31
0.0
  0
LINE
  5
20A
330
18
100
AcDbEntity
  8
0
100
AcDbLine
 10
1.332
 20
4.516
 30
0.0
 11
1.351
 21
4.553
 31
0.0
  0
LINE
  5
20B
330
18
100
AcDbEntity
  8
0
100
AcDbLine
 10
1.332
 20
4.516
 30
0.0
 11
1.453
 21
4.491000000000001
 31
0.0
  0
LINE
  5
20C
330
18
100
AcDbEntity
  8
0
100
AcDbLine
 10
1.332
 20
4.556
 30
0.0
 11
1.332
 21
4.516
 31
0.0
  0
LINE
  5
20D
330
18
100
AcDbEntity
  8
0
100
AcDbLine
 10
1.455
 20
4.537
 30
0.0
 11
1.332
 21
4.556
 31
0.0
  0
LINE
  5
20E
330
18
100
AcDbEntity
  8
0
100
AcDbLine
 10
1.455
 20
4.788
 30
0.0
 11
1.332
 21
4.808
 31
0.0
  0
LINE
  5
20F
330
18
100
AcDbEntity
  8
0
100
AcDbLine
 10
1.332
 20
4.808
 30
0.0
 11
1.332
 21
4.767
 31
0.0
  0
LINE
  5
210
330
18
100
AcDbEntity
  8
0
100
AcDbLine
 10
1.332
 20
4.767
 30
0.0
 11
1.453
 21
4.743
 31
0.0
  0
LINE
  5
211
330
18
100
AcDbEntity
  8
0
100
AcDbLine
 10
1.332
 20
4.767
 30
0.0
 11
1.351
 21
4.805
 31
0.0
  0
LINE
  5
212
330
18
100
AcDbEntity
  8
0
100
AcDbLine
 10
1.332
 20
5.021
 30
0.0
 11
1.351
 21
5.058
 31
0.0
  0
LINE
  5
213
330
18
100
AcDbEntity
  8
0
100
AcDbLine
 10
1.332
 20
5.021
 30
0.0
 11
1.453
 21
4.996
 31
0.0
  0
LINE
  5
214
330
18
100
AcDbEntity
  8
0
100
AcDbLine
 10
1.332
 20
5.061
 30
0.0
 11
1.332
 21
5.021
 31
0.0
  0
LINE
  5
215
330
18
100
AcDbEntity
  8
0
100
AcDbLine
 10
1.455
 20
5.042
 30
0.0
 11
1.332
 21
5.061
 31
0.0
  0
LINE
  5
216
330
18
100
AcDbEntity
  8
0
100
AcDbLine
 10
1.814
 20
5.005
 30
0.0
 11
1.691
 21
5.024
 31
0.0
  0
LINE
  5
217
330
18
100
AcDbEntity
  8
0
100
AcDbLine
 10
1.691
 20
5.024
 30
0.0
 11
1.691
 21
4.984
 31
0.0
  0
LINE
  5
218
330
18
100
AcDbEntity
  8
0
100
AcDbLine
 10
1.691
 20
4.984
 30
0.0
 11
1.812
 21
4.959
 31
0.0
  0
LINE
  5
219
330
18
100
AcDbEntity
  8
0
100
AcDbLine
 10
1.691
 20
4.984
 30
0.0
 11
1.71
 21
5.021
 31
0.0
  0
LINE
  5
21A
330
18
100
AcDbEntity
  8
0
100
AcDbLine
 10
1.691
 20
4.73
 30
0.0
 11
1.71
 21
4.768
 31
0.0
  0
LINE
  5
21B
330
18
100
AcDbEntity
  8
0
100
AcDbLine
 10
1.691
 20
4.73
 30
0.0
 11
1.812
 21
4.706
 31
0.0
  0
LINE
  5
21C
330
18
100
AcDbEntity
  8
0
100
AcDbLine
 10
1.691
 20
4.771
 30
0.0
 11
1.691
 21
4.73
 31
0.0
  0
LINE
  5
21D
330
18
100
AcDbEntity
  8
0
100
AcDbLine
 10
1.814
 20
4.752
 30
0.0
 11
1.691
 21
4.771
 31
0.0
  0
LINE
  5
21E
330
18
100
AcDbEntity
  8
0
100
AcDbLine
 10
1.814
 20
4.5
 30
0.0
 11
1.691
 21
4.519
 31
0.0
  0
LINE
  5
21F
330
18
100
AcDbEntity
  8
0
100
AcDbLine
 10
1.691
 20
4.519
 30
0.0
 11
1.691
 21
4.479
 31
0.0
  0
LINE
  5
220
330
18
100
AcDbEntity
  8
0
100
AcDbLine
 10
1.691
 20
4.479
 30
0.0
 11
1.812
 21
4.454
 31
0.0
  0
LINE
  5
221
330
18
100
AcDbEntity
  8
0
100
AcDbLine
 10
1.691
 20
4.479
 30
0.0
 11
1.71
 21
4.516
 31
0.0
  0
LINE
  5
222
330
18
100
AcDbEntity
  8
0
100
AcDbLine
 10
1.814
 20
4.229
 30
0.0
 11
1.691
 21
4.248
 31
0.0
  0
LINE
  5
223
330
18
100
AcDbEntity
  8
0
100
AcDbLine
 10
1.691
 20
4.248
 30
0.0
 11
1.691
 21
4.208
 31
0.0
  0
LINE
  5
224
330
18
100
AcDbEntity
  8
0
100
AcDbLine
 10
1.691
 20
4.208
 30
0.0
 11
1.812
 21
4.183
 31
0.0
  0
LINE
  5
225
330
18
100
AcDbEntity
  8
0
100
AcDbLine
 10
1.691
 20
4.208
 30
0.0
 11
1.71
 21
4.245
 31
0.0
  0
LINE
  5
226
330
18
100
AcDbEntity
  8
0
100
AcDbLine
 10
1.814
 20
3.967
 30
0.0
 11
1.691
 21
3.986
 31
0.0
  0
LINE
  5
227
330
18
100
AcDbEntity
  8
0
100
AcDbLine
 10
1.691
 20
3.986
 30
0.0
 11
1.691
 21
3.946
 31
0.0
  0
LINE
  5
228
330
18
100
AcDbEntity
  8
0
100
AcDbLine
 10
1.691
 20
3.946
 30
0.0
 11
1.812
 21
3.921
 31
0.0
  0
LINE
  5
229
330
18
100
AcDbEntity
  8
0
100
AcDbLine
 10
1.691
 20
3.946
 30
0.0
 11
1.71
 21
3.983
 31
0.0
  0
LINE
  5
22A
330
18
100
AcDbEntity
  8
0
100
AcDbLine
 10
1.814
 20
3.729
 30
0.0
 11
1.691
 21
3.748
 31
0.0
  0
LINE
  5
22B
330
18
100
AcDbEntity
  8
0
100
AcDbLine
 10
1.691
 20
3.748
 30
0.0
 11
1.691
 21
3.708
 31
0.0
  0
LINE
  5
22C
330
18
100
AcDbEntity
  8
0
100
AcDbLine
 10
1.691
 20
3.708
 30
0.0
 11
1.812
 21
3.683
 31
0.0
  0
LINE
  5
22D
330
18
100
AcDbEntity
  8
0
100
AcDbLine
 10
1.691
 20
3.708
 30
0.0
 11
1.71
 21
3.745
 31
0.0
  0
LINE
  5
22E
330
18
100
AcDbEntity
  8
0
100
AcDbLine
 10
1.53
 20
3.852
 30
0.0
 11
1.55
 21
3.89
 31
0.0
  0
LINE
  5
22F
330
18
100
AcDbEntity
  8
0
100
AcDbLine
 10
1.53
 20
3.852
 30
0.0
 11
1.652
 21
3.828
 31
0.0
  0
LINE
  5
230
330
18
100
AcDbEntity
  8
0
100
AcDbLine
 10
1.53
 20
3.893
 30
0.0
 11
1.53
 21
3.852
 31
0.0
  0
LINE
  5
231
330
18
100
AcDbEntity
  8
0
100
AcDbLine
 10
1.654
 20
3.873
 30
0.0
 11
1.53
 21
3.893
 31
0.0
  0
LINE
  5
232
330
18
100
AcDbEntity
  8
0
100
AcDbLine
 10
1.53
 20
4.09
 30
0.0
 11
1.55
 21
4.127
 31
0.0
  0
LINE
  5
233
330
18
100
AcDbEntity
  8
0
100
AcDbLine
 10
1.53
 20
4.09
 30
0.0
 11
1.652
 21
4.065
 31
0.0
  0
LINE
  5
234
330
18
100
AcDbEntity
  8
0
100
AcDbLine
 10
1.53
 20
4.13
 30
0.0
 11
1.53
 21
4.09
 31
0.0
  0
LINE
  5
235
330
18
100
AcDbEntity
  8
0
100
AcDbLine
 10
1.654
 20
4.111000000000001
 30
0.0
 11
1.53
 21
4.13
 31
0.0
  0
LINE
  5
236
330
18
100
AcDbEntity
  8
0
100
AcDbLine
 10
1.53
 20
4.352
 30
0.0
 11
1.55
 21
4.388999999999999
 31
0.0
  0
LINE
  5
237
330
18
100
AcDbEntity
  8
0
100
AcDbLine
 10
1.53
 20
4.352
 30
0.0
 11
1.652
 21
4.327
 31
0.0
  0
LINE
  5
238
330
18
100
AcDbEntity
  8
0
100
AcDbLine
 10
1.53
 20
4.393
 30
0.0
 11
1.53
 21
4.352
 31
0.0
  0
LINE
  5
239
330
18
100
AcDbEntity
  8
0
100
AcDbLine
 10
1.654
 20
4.373
 30
0.0
 11
1.53
 21
4.393
 31
0.0
  0
LINE
  5
23A
330
18
100
AcDbEntity
  8
0
100
AcDbLine
 10
1.53
 20
4.623
 30
0.0
 11
1.55
 21
4.66
 31
0.0
  0
LINE
  5
23B
330
18
100
AcDbEntity
  8
0
100
AcDbLine
 10
1.53
 20
4.623
 30
0.0
 11
1.652
 21
4.598
 31
0.0
  0
LINE
  5
23C
330
18
100
AcDbEntity
  8
0
100
AcDbLine
 10
1.53
 20
4.664
 30
0.0
 11
1.53
 21
4.623
 31
0.0
  0
LINE
  5
23D
330
18
100
AcDbEntity
  8
0
100
AcDbLine
 10
1.654
 20
4.644
 30
0.0
 11
1.53
 21
4.664
 31
0.0
  0
LINE
  5
23E
330
18
100
AcDbEntity
  8
0
100
AcDbLine
 10
1.654
 20
4.896
 30
0.0
 11
1.53
 21
4.915
 31
0.0
  0
LINE
  5
23F
330
18
100
AcDbEntity
  8
0
100
AcDbLine
 10
1.53
 20
4.915
 30
0.0
 11
1.53
 21
4.875
 31
0.0
  0
LINE
  5
240
330
18
100
AcDbEntity
  8
0
100
AcDbLine
 10
1.53
 20
4.875
 30
0.0
 11
1.652
 21
4.85
 31
0.0
  0
LINE
  5
241
330
18
100
AcDbEntity
  8
0
100
AcDbLine
 10
1.53
 20
4.875
 30
0.0
 11
1.55
 21
4.912
 31
0.0
  0
LINE
  5
242
330
18
100
AcDbEntity
  8
0
100
AcDbLine
 10
1.53
 20
5.127999999999999
 30
0.0
 11
1.55
 21
5.166
 31
0.0
  0
LINE
  5
243
330
18
100
AcDbEntity
  8
0
100
AcDbLine
 10
1.53
 20
5.127999999999999
 30
0.0
 11
1.652
 21
5.104
 31
0.0
  0
LINE
  5
244
330
18
100
AcDbEntity
  8
0
100
AcDbLine
 10
1.53
 20
5.169
 30
0.0
 11
1.53
 21
5.127999999999999
 31
0.0
  0
LINE
  5
245
330
18
100
AcDbEntity
  8
0
100
AcDbLine
 10
1.654
 20
5.149
 30
0.0
 11
1.53
 21
5.169
 31
0.0
  0
LINE
  5
246
330
18
100
AcDbEntity
  8
0
100
AcDbLine
 10
2.083
 20
4.963
 30
0.0
 11
1.96
 21
4.982
 31
0.0
  0
LINE
  5
247
330
18
100
AcDbEntity
  8
0
100
AcDbLine
 10
1.96
 20
4.982
 30
0.0
 11
1.96
 21
4.942
 31
0.0
  0
LINE
  5
248
330
18
100
AcDbEntity
  8
0
100
AcDbLine
 10
1.96
 20
4.942
 30
0.0
 11
2.081
 21
4.917
 31
0.0
  0
LINE
  5
249
330
18
100
AcDbEntity
  8
0
100
AcDbLine
 10
1.96
 20
4.942
 30
0.0
 11
1.979
 21
4.979
 31
0.0
  0
LINE
  5
24A
330
18
100
AcDbEntity
  8
0
100
AcDbLine
 10
1.96
 20
4.688
 30
0.0
 11
1.979
 21
4.726
 31
0.0
  0
LINE
  5
24B
330
18
100
AcDbEntity
  8
0
100
AcDbLine
 10
1.96
 20
4.688
 30
0.0
 11
2.081
 21
4.664
 31
0.0
  0
LINE
  5
24C
330
18
100
AcDbEntity
  8
0
100
AcDbLine
 10
1.96
 20
4.729
 30
0.0
 11
1.96
 21
4.688
 31
0.0
  0
LINE
  5
24D
330
18
100
AcDbEntity
  8
0
100
AcDbLine
 10
2.083
 20
4.709
 30
0.0
 11
1.96
 21
4.729
 31
0.0
  0
LINE
  5
24E
330
18
100
AcDbEntity
  8
0
100
AcDbLine
 10
2.083
 20
4.458
 30
0.0
 11
1.96
 21
4.477
 31
0.0
  0
LINE
  5
24F
330
18
100
AcDbEntity
  8
0
100
AcDbLine
 10
1.96
 20
4.477
 30
0.0
 11
1.96
 21
4.437
 31
0.0
  0
LINE
  5
250
330
18
100
AcDbEntity
  8
0
100
AcDbLine
 10
1.96
 20
4.437
 30
0.0
 11
2.081
 21
4.412
 31
0.0
  0
LINE
  5
251
330
18
100
AcDbEntity
  8
0
100
AcDbLine
 10
1.96
 20
4.437
 30
0.0
 11
1.979
 21
4.474
 31
0.0
  0
LINE
  5
252
330
18
100
AcDbEntity
  8
0
100
AcDbLine
 10
2.083
 20
4.187
 30
0.0
 11
1.96
 21
4.206
 31
0.0
  0
LINE
  5
253
330
18
100
AcDbEntity
  8
0
100
AcDbLine
 10
1.96
 20
4.206
 30
0.0
 11
1.96
 21
4.166
 31
0.0
  0
LINE
  5
254
330
18
100
AcDbEntity
  8
0
100
AcDbLine
 10
1.96
 20
4.166
 30
0.0
 11
2.081
 21
4.141
 31
0.0
  0
LINE
  5
255
330
18
100
AcDbEntity
  8
0
100
AcDbLine
 10
1.96
 20
4.166
 30
0.0
 11
1.979
 21
4.203
 31
0.0
  0
LINE
  5
256
330
18
100
AcDbEntity
  8
0
100
AcDbLine
 10
2.083
 20
3.925
 30
0.0
 11
1.96
 21
3.944
 31
0.0
  0
LINE
  5
257
330
18
100
AcDbEntity
  8
0
100
AcDbLine
 10
1.96
 20
3.944
 30
0.0
 11
1.96
 21
3.903
 31
0.0
  0
LINE
  5
258
330
18
100
AcDbEntity
  8
0
100
AcDbLine
 10
1.96
 20
3.903
 30
0.0
 11
2.081
 21
3.879
 31
0.0
  0
LINE
  5
259
330
18
100
AcDbEntity
  8
0
100
AcDbLine
 10
1.96
 20
3.903
 30
0.0
 11
1.979
 21
3.941
 31
0.0
  0
LINE
  5
25A
330
18
100
AcDbEntity
  8
0
100
AcDbLine
 10
2.083
 20
3.687
 30
0.0
 11
1.96
 21
3.706
 31
0.0
  0
LINE
  5
25B
330
18
100
AcDbEntity
  8
0
100
AcDbLine
 10
1.96
 20
3.706
 30
0.0
 11
1.96
 21
3.666
 31
0.0
  0
LINE
  5
25C
330
18
100
AcDbEntity
  8
0
100
AcDbLine
 10
1.96
 20
3.666
 30
0.0
 11
2.081
 21
3.641
 31
0.0
  0
LINE
  5
25D
330
18
100
AcDbEntity
  8
0
100
AcDbLine
 10
1.96
 20
3.666
 30
0.0
 11
1.979
 21
3.703
 31
0.0
  0
LINE
  5
25E
330
18
100
AcDbEntity
  8
0
100
AcDbLine
 10
1.8
 20
3.81
 30
0.0
 11
1.819
 21
3.848
 31
0.0
  0
LINE
  5
25F
330
18
100
AcDbEntity
  8
0
100
AcDbLine
 10
1.8
 20
3.81
 30
0.0
 11
1.921
 21
3.785
 31
0.0
  0
LINE
  5
260
330
18
100
AcDbEntity
  8
0
100
AcDbLine
 10
1.8
 20
3.851
 30
0.0
 11
1.8
 21
3.81
 31
0.0
  0
LINE
  5
261
330
18
100
AcDbEntity
  8
0
100
AcDbLine
 10
1.923
 20
3.831
 30
0.0
 11
1.8
 21
3.851
 31
0.0
  0
LINE
  5
262
330
18
100
AcDbEntity
  8
0
100
AcDbLine
 10
1.8
 20
4.048
 30
0.0
 11
1.819
 21
4.085
 31
0.0
  0
LINE
  5
263
330
18
100
AcDbEntity
  8
0
100
AcDbLine
 10
1.8
 20
4.048
 30
0.0
 11
1.921
 21
4.023
 31
0.0
  0
LINE
  5
264
330
18
100
AcDbEntity
  8
0
100
AcDbLine
 10
1.8
 20
4.088
 30
0.0
 11
1.8
 21
4.048
 31
0.0
  0
LINE
  5
265
330
18
100
AcDbEntity
  8
0
100
AcDbLine
 10
1.923
 20
4.069
 30
0.0
 11
1.8
 21
4.088
 31
0.0
  0
LINE
  5
266
330
18
100
AcDbEntity
  8
0
100
AcDbLine
 10
1.8
 20
4.31
 30
0.0
 11
1.819
 21
4.347
 31
0.0
  0
LINE
  5
267
330
18
100
AcDbEntity
  8
0
100
AcDbLine
 10
1.8
 20
4.31
 30
0.0
 11
1.921
 21
4.285
 31
0.0
  0
LINE
  5
268
330
18
100
AcDbEntity
  8
0
100
AcDbLine
 10
1.8
 20
4.35
 30
0.0
 11
1.8
 21
4.31
 31
0.0
  0
LINE
  5
269
330
18
100
AcDbEntity
  8
0
100
AcDbLine
 10
1.923
 20
4.331
 30
0.0
 11
1.8
 21
4.35
 31
0.0
  0
LINE
  5
26A
330
18
100
AcDbEntity
  8
0
100
AcDbLine
 10
1.8
 20
4.581
 30
0.0
 11
1.819
 21
4.618
 31
0.0
  0
LINE
  5
26B
330
18
100
AcDbEntity
  8
0
100
AcDbLine
 10
1.8
 20
4.581
 30
0.0
 11
1.921
 21
4.556
 31
0.0
  0
LINE
  5
26C
330
18
100
AcDbEntity
  8
0
100
AcDbLine
 10
1.8
 20
4.621
 30
0.0
 11
1.8
 21
4.581
 31
0.0
  0
LINE
  5
26D
330
18
100
AcDbEntity
  8
0
100
AcDbLine
 10
1.923
 20
4.602
 30
0.0
 11
1.8
 21
4.621
 31
0.0
  0
LINE
  5
26E
330
18
100
AcDbEntity
  8
0
100
AcDbLine
 10
1.923
 20
4.854
 30
0.0
 11
1.8
 21
4.873
 31
0.0
  0
LINE
  5
26F
330
18
100
AcDbEntity
  8
0
100
AcDbLine
 10
1.8
 20
4.873
 30
0.0
 11
1.8
 21
4.833
 31
0.0
  0
LINE
  5
270
330
18
100
AcDbEntity
  8
0
100
AcDbLine
 10
1.8
 20
4.833
 30
0.0
 11
1.921
 21
4.808
 31
0.0
  0
LINE
  5
271
330
18
100
AcDbEntity
  8
0
100
AcDbLine
 10
1.8
 20
4.833
 30
0.0
 11
1.819
 21
4.87
 31
0.0
  0
LINE
  5
272
330
18
100
AcDbEntity
  8
0
100
AcDbLine
 10
1.8
 20
5.086
 30
0.0
 11
1.819
 21
5.122999999999999
 31
0.0
  0
LINE
  5
273
330
18
100
AcDbEntity
  8
0
100
AcDbLine
 10
1.8
 20
5.086
 30
0.0
 11
1.921
 21
5.061
 31
0.0
  0
LINE
  5
274
330
18
100
AcDbEntity
  8
0
100
AcDbLine
 10
1.8
 20
5.126
 30
0.0
 11
1.8
 21
5.086
 31
0.0
  0
LINE
  5
275
330
18
100
AcDbEntity
  8
0
100
AcDbLine
 10
1.923
 20
5.107
 30
0.0
 11
1.8
 21
5.126
 31
0.0
  0
LINE
  5
276
330
18
100
AcDbEntity
  8
0
100
AcDbLine
 10
2.424
 20
4.917
 30
0.0
 11
2.301
 21
4.936
 31
0.0
  0
LINE
  5
277
330
18
100
AcDbEntity
  8
0
100
AcDbLine
 10
2.301
 20
4.936
 30
0.0
 11
2.301
 21
4.896
 31
0.0
  0
LINE
  5
278
330
18
100
AcDbEntity
  8
0
100
AcDbLine
 10
2.301
 20
4.896
 30
0.0
 11
2.423
 21
4.871
 31
0.0
  0
LINE
  5
279
330
18
100
AcDbEntity
  8
0
100
AcDbLine
 10
2.301
 20
4.896
 30
0.0
 11
2.321
 21
4.933
 31
0.0
  0
LINE
  5
27A
330
18
100
AcDbEntity
  8
0
100
AcDbLine
 10
2.301
 20
4.643
 30
0.0
 11
2.321
 21
4.68
 31
0.0
  0
LINE
  5
27B
330
18
100
AcDbEntity
  8
0
100
AcDbLine
 10
2.301
 20
4.643
 30
0.0
 11
2.423
 21
4.618
 31
0.0
  0
LINE
  5
27C
330
18
100
AcDbEntity
  8
0
100
AcDbLine
 10
2.301
 20
4.683
 30
0.0
 11
2.301
 21
4.643
 31
0.0
  0
LINE
  5
27D
330
18
100
AcDbEntity
  8
0
100
AcDbLine
 10
2.424
 20
4.664
 30
0.0
 11
2.301
 21
4.683
 31
0.0
  0
LINE
  5
27E
330
18
100
AcDbEntity
  8
0
100
AcDbLine
 10
2.424
 20
4.412
 30
0.0
 11
2.301
 21
4.431
 31
0.0
  0
LINE
  5
27F
330
18
100
AcDbEntity
  8
0
100
AcDbLine
 10
2.301
 20
4.431
 30
0.0
 11
2.301
 21
4.391
 31
0.0
  0
LINE
  5
280
330
18
100
AcDbEntity
  8
0
100
AcDbLine
 10
2.301
 20
4.391
 30
0.0
 11
2.423
 21
4.366000000000001
 31
0.0
  0
LINE
  5
281
330
18
100
AcDbEntity
  8
0
100
AcDbLine
 10
2.301
 20
4.391
 30
0.0
 11
2.321
 21
4.428
 31
0.0
  0
LINE
  5
282
330
18
100
AcDbEntity
  8
0
100
AcDbLine
 10
2.424
 20
4.141
 30
0.0
 11
2.301
 21
4.16
 31
0.0
  0
LINE
  5
283
330
18
100
AcDbEntity
  8
0
100
AcDbLine
 10
2.301
 20
4.16
 30
0.0
 11
2.301
 21
4.12
 31
0.0
  0
LINE
  5
284
330
18
100
AcDbEntity
  8
0
100
AcDbLine
 10
2.301
 20
4.12
 30
0.0
 11
2.423
 21
4.095
 31
0.0
  0
LINE
  5
285
330
18
100
AcDbEntity
  8
0
100
AcDbLine
 10
2.301
 20
4.12
 30
0.0
 11
2.321
 21
4.157
 31
0.0
  0
LINE
  5
286
330
18
100
AcDbEntity
  8
0
100
AcDbLine
 10
2.424
 20
3.879
 30
0.0
 11
2.301
 21
3.898
 31
0.0
  0
LINE
  5
287
330
18
100
AcDbEntity
  8
0
100
AcDbLine
 10
2.301
 20
3.898
 30
0.0
 11
2.301
 21
3.858
 31
0.0
  0
LINE
  5
288
330
18
100
AcDbEntity
  8
0
100
AcDbLine
 10
2.301
 20
3.858
 30
0.0
 11
2.423
 21
3.833
 31
0.0
  0
LINE
  5
289
330
18
100
AcDbEntity
  8
0
100
AcDbLine
 10
2.301
 20
3.858
 30
0.0
 11
2.321
 21
3.895
 31
0.0
  0
LINE
  5
28A
330
18
100
AcDbEntity
  8
0
100
AcDbLine
 10
2.424
 20
3.641
 30
0.0
 11
2.301
 21
3.661
 31
0.0
  0
LINE
  5
28B
330
18
100
AcDbEntity
  8
0
100
AcDbLine
 10
2.301
 20
3.661
 30
0.0
 11
2.301
 21
3.62
 31
0.0
  0
LINE
  5
28C
330
18
100
AcDbEntity
  8
0
100
AcDbLine
 10
2.301
 20
3.62
 30
0.0
 11
2.423
 21
3.595
 31
0.0
  0
LINE
  5
28D
330
18
100
AcDbEntity
  8
0
100
AcDbLine
 10
2.301
 20
3.62
 30
0.0
 11
2.321
 21
3.658
 31
0.0
  0
LINE
  5
28E
330
18
100
AcDbEntity
  8
0
100
AcDbLine
 10
2.141
 20
3.764
 30
0.0
 11
2.161
 21
3.802
 31
0.0
  0
LINE
  5
28F
330
18
100
AcDbEntity
  8
0
100
AcDbLine
 10
2.141
 20
3.764
 30
0.0
 11
2.262
 21
3.74
 31
0.0
  0
LINE
  5
290
330
18
100
AcDbEntity
  8
0
100
AcDbLine
 10
2.141
 20
3.805
 30
0.0
 11
2.141
 21
3.764
 31
0.0
  0
LINE
  5
291
330
18
100
AcDbEntity
  8
0
100
AcDbLine
 10
2.264
 20
3.786
 30
0.0
 11
2.141
 21
3.805
 31
0.0
  0
LINE
  5
292
330
18
100
AcDbEntity
  8
0
100
AcDbLine
 10
2.141
 20
4.002
 30
0.0
 11
2.161
 21
4.039
 31
0.0
  0
LINE
  5
293
330
18
100
AcDbEntity
  8
0
100
AcDbLine
 10
2.141
 20
4.002
 30
0.0
 11
2.262
 21
3.977
 31
0.0
  0
LINE
  5
294
330
18
100
AcDbEntity
  8
0
100
AcDbLine
 10
2.141
 20
4.042
 30
0.0
 11
2.141
 21
4.002
 31
0.0
  0
LINE
  5
295
330
18
100
AcDbEntity
  8
0
100
AcDbLine
 10
2.264
 20
4.023
 30
0.0
 11
2.141
 21
4.042
 31
0.0
  0
LINE
  5
296
330
18
100
AcDbEntity
  8
0
100
AcDbLine
 10
2.141
 20
4.263999999999999
 30
0.0
 11
2.161
 21
4.302
 31
0.0
  0
LINE
  5
297
330
18
100
AcDbEntity
  8
0
100
AcDbLine
 10
2.141
 20
4.263999999999999
 30
0.0
 11
2.262
 21
4.24
 31
0.0
  0
LINE
  5
298
330
18
100
AcDbEntity
  8
0
100
AcDbLine
 10
2.141
 20
4.305
 30
0.0
 11
2.141
 21
4.263999999999999
 31
0.0
  0
LINE
  5
299
330
18
100
AcDbEntity
  8
0
100
AcDbLine
 10
2.264
 20
4.285
 30
0.0
 11
2.141
 21
4.305
 31
0.0
  0
LINE
  5
29A
330
18
100
AcDbEntity
  8
0
100
AcDbLine
 10
2.141
 20
4.535
 30
0.0
 11
2.161
 21
4.573
 31
0.0
  0
LINE
  5
29B
330
18
100
AcDbEntity
  8
0
100
AcDbLine
 10
2.141
 20
4.535
 30
0.0
 11
2.262
 21
4.511
 31
0.0
  0
LINE
  5
29C
330
18
100
AcDbEntity
  8
0
100
AcDbLine
 10
2.141
 20
4.576000000000001
 30
0.0
 11
2.141
 21
4.535
 31
0.0
  0
LINE
  5
29D
330
18
100
AcDbEntity
  8
0
100
AcDbLine
 10
2.264
 20
4.556
 30
0.0
 11
2.141
 21
4.576000000000001
 31
0.0
  0
LINE
  5
29E
330
18
100
AcDbEntity
  8
0
100
AcDbLine
 10
2.264
 20
4.808
 30
0.0
 11
2.141
 21
4.827
 31
0.0
  0
LINE
  5
29F
330
18
100
AcDbEntity
  8
0
100
AcDbLine
 10
2.141
 20
4.827
 30
0.0
 11
2.141
 21
4.787
 31
0.0
  0
LINE
  5
2A0
330
18
100
AcDbEntity
  8
0
100
AcDbLine
 10
2.141
 20
4.787
 30
0.0
 11
2.262
 21
4.762
 31
0.0
  0
LINE
  5
2A1
330
18
100
AcDbEntity
  8
0
100
AcDbLine
 10
2.141
 20
4.787
 30
0.0
 11
2.161
 21
4.824
 31
0.0
  0
LINE
  5
2A2
330
18
100
AcDbEntity
  8
0
100
AcDbLine
 10
2.141
 20
5.04
 30
0.0
 11
2.161
 21
5.078
 31
0.0
  0
LINE
  5
2A3
330
18
100
AcDbEntity
  8
0
100
AcDbLine
 10
2.141
 20
5.04
 30
0.0
 11
2.262
 21
5.016
 31
0.0
  0
LINE
  5
2A4
330
18
100
AcDbEntity
  8
0
100
AcDbLine
 10
2.141
 20
5.081
 30
0.0
 11
2.141
 21
5.04
 31
0.0
  0
LINE
  5
2A5
330
18
100
AcDbEntity
  8
0
100
AcDbLine
 10
2.264
 20
5.061
 30
0.0
 11
2.141
 21
5.081
 31
0.0
  0
LINE
  5
2A6
330
18
100
AcDbEntity
  8
0
100
AcDbLine
 10
2.75
 20
4.877
 30
0.0
 11
2.627
 21
4.896
 31
0.0
  0
LINE
  5
2A7
330
18
100
AcDbEntity
  8
0
100
AcDbLine
 10
2.627
 20
4.896
 30
0.0
 11
2.627
 21
4.855
 31
0.0
  0
LINE
  5
2A8
330
18
100
AcDbEntity
  8
0
100
AcDbLine
 10
2.627
 20
4.855
 30
0.0
 11
2.748
 21
4.831
 31
0.0
  0
LINE
  5
2A9
330
18
100
AcDbEntity
  8
0
100
AcDbLine
 10
2.627
 20
4.855
 30
0.0
 11
2.646
 21
4.893
 31
0.0
  0
LINE
  5
2AA
330
18
100
AcDbEntity
  8
0
100
AcDbLine
 10
2.627
 20
4.602
 30
0.0
 11
2.646
 21
4.64
 31
0.0
  0
LINE
  5
2AB
330
18
100
AcDbEntity
  8
0
100
AcDbLine
 10
2.627
 20
4.602
 30
0.0
 11
2.748
 21
4.577
 31
0.0
  0
LINE
  5
2AC
330
18
100
AcDbEntity
  8
0
100
AcDbLine
 10
2.627
 20
4.643
 30
0.0
 11
2.627
 21
4.602
 31
0.0
  0
LINE
  5
2AD
330
18
100
AcDbEntity
  8
0
100
AcDbLine
 10
2.75
 20
4.623
 30
0.0
 11
2.627
 21
4.643
 31
0.0
  0
LINE
  5
2AE
330
18
100
AcDbEntity
  8
0
100
AcDbLine
 10
2.75
 20
4.372
 30
0.0
 11
2.627
 21
4.391
 31
0.0
  0
LINE
  5
2AF
330
18
100
AcDbEntity
  8
0
100
AcDbLine
 10
2.627
 20
4.391
 30
0.0
 11
2.627
 21
4.35
 31
0.0
  0
LINE
  5
2B0
330
18
100
AcDbEntity
  8
0
100
AcDbLine
 10
2.627
 20
4.35
 30
0.0
 11
2.748
 21
4.326000000000001
 31
0.0
  0
LINE
  5
2B1
330
18
100
AcDbEntity
  8
0
100
AcDbLine
 10
2.627
 20
4.35
 30
0.0
 11
2.646
 21
4.388
 31
0.0
  0
LINE
  5
2B2
330
18
100
AcDbEntity
  8
0
100
AcDbLine
 10
2.75
 20
4.101
 30
0.0
 11
2.627
 21
4.12
 31
0.0
  0
LINE
  5
2B3
330
18
100
AcDbEntity
  8
0
100
AcDbLine
 10
2.627
 20
4.12
 30
0.0
 11
2.627
 21
4.079
 31
0.0
  0
LINE
  5
2B4
330
18
100
AcDbEntity
  8
0
100
AcDbLine
 10
2.627
 20
4.079
 30
0.0
 11
2.748
 21
4.055
 31
0.0
  0
LINE
  5
2B5
330
18
100
AcDbEntity
  8
0
100
AcDbLine
 10
2.627
 20
4.079
 30
0.0
 11
2.646
 21
4.117
 31
0.0
  0
LINE
  5
2B6
330
18
100
AcDbEntity
  8
0
100
AcDbLine
 10
2.75
 20
3.838
 30
0.0
 11
2.627
 21
3.858
 31
0.0
  0
LINE
  5
2B7
330
18
100
AcDbEntity
  8
0
100
AcDbLine
 10
2.627
 20
3.858
 30
0.0
 11
2.627
 21
3.817
 31
0.0
  0
LINE
  5
2B8
330
18
100
AcDbEntity
  8
0
100
AcDbLine
 10
2.627
 20
3.817
 30
0.0
 11
2.748
 21
3.793
 31
0.0
  0
LINE
  5
2B9
330
18
100
AcDbEntity
  8
0
100
AcDbLine
 10
2.627
 20
3.817
 30
0.0
 11
2.646
 21
3.855
 31
0.0
  0
LINE
  5
2BA
330
18
100
AcDbEntity
  8
0
100
AcDbLine
 10
2.75
 20
3.601
 30
0.0
 11
2.627
 21
3.62
 31
0.0
  0
LINE
  5
2BB
330
18
100
AcDbEntity
  8
0
100
AcDbLine
 10
2.627
 20
3.62
 30
0.0
 11
2.627
 21
3.58
 31
0.0
  0
LINE
  5
2BC
330
18
100
AcDbEntity
  8
0
100
AcDbLine
 10
2.627
 20
3.58
 30
0.0
 11
2.748
 21
3.555
 31
0.0
  0
LINE
  5
2BD
330
18
100
AcDbEntity
  8
0
100
AcDbLine
 10
2.627
 20
3.58
 30
0.0
 11
2.646
 21
3.617
 31
0.0
  0
LINE
  5
2BE
330
18
100
AcDbEntity
  8
0
100
AcDbLine
 10
2.467
 20
3.724
 30
0.0
 11
2.486
 21
3.761
 31
0.0
  0
LINE
  5
2BF
330
18
100
AcDbEntity
  8
0
100
AcDbLine
 10
2.467
 20
3.724
 30
0.0
 11
2.588
 21
3.699
 31
0.0
  0
LINE
  5
2C0
330
18
100
AcDbEntity
  8
0
100
AcDbLine
 10
2.467
 20
3.764
 30
0.0
 11
2.467
 21
3.724
 31
0.0
  0
LINE
  5
2C1
330
18
100
AcDbEntity
  8
0
100
AcDbLine
 10
2.59
 20
3.745
 30
0.0
 11
2.467
 21
3.764
 31
0.0
  0
LINE
  5
2C2
330
18
100
AcDbEntity
  8
0
100
AcDbLine
 10
2.467
 20
3.962
 30
0.0
 11
2.486
 21
3.999
 31
0.0
  0
LINE
  5
2C3
330
18
100
AcDbEntity
  8
0
100
AcDbLine
 10
2.467
 20
3.962
 30
0.0
 11
2.588
 21
3.937
 31
0.0
  0
LINE
  5
2C4
330
18
100
AcDbEntity
  8
0
100
AcDbLine
 10
2.467
 20
4.002
 30
0.0
 11
2.467
 21
3.962
 31
0.0
  0
LINE
  5
2C5
330
18
100
AcDbEntity
  8
0
100
AcDbLine
 10
2.59
 20
3.983
 30
0.0
 11
2.467
 21
4.002
 31
0.0
  0
LINE
  5
2C6
330
18
100
AcDbEntity
  8
0
100
AcDbLine
 10
2.467
 20
4.224
 30
0.0
 11
2.486
 21
4.261
 31
0.0
  0
LINE
  5
2C7
330
18
100
AcDbEntity
  8
0
100
AcDbLine
 10
2.467
 20
4.224
 30
0.0
 11
2.588
 21
4.199
 31
0.0
  0
LINE
  5
2C8
330
18
100
AcDbEntity
  8
0
100
AcDbLine
 10
2.467
 20
4.263999999999999
 30
0.0
 11
2.467
 21
4.224
 31
0.0
  0
LINE
  5
2C9
330
18
100
AcDbEntity
  8
0
100
AcDbLine
 10
2.59
 20
4.245
 30
0.0
 11
2.467
 21
4.263999999999999
 31
0.0
  0
LINE
  5
2CA
330
18
100
AcDbEntity
  8
0
100
AcDbLine
 10
2.467
 20
4.495
 30
0.0
 11
2.486
 21
4.532
 31
0.0
  0
LINE
  5
2CB
330
18
100
AcDbEntity
  8
0
100
AcDbLine
 10
2.467
 20
4.495
 30
0.0
 11
2.588
 21
4.47
 31
0.0
  0
LINE
  5
2CC
330
18
100
AcDbEntity
  8
0
100
AcDbLine
 10
2.467
 20
4.535
 30
0.0
 11
2.467
 21
4.495
 31
0.0
  0
LINE
  5
2CD
330
18
100
AcDbEntity
  8
0
100
AcDbLine
 10
2.59
 20
4.516
 30
0.0
 11
2.467
 21
4.535
 31
0.0
  0
LINE
  5
2CE
330
18
100
AcDbEntity
  8
0
100
AcDbLine
 10
2.59
 20
4.768
 30
0.0
 11
2.467
 21
4.787
 31
0.0
  0
LINE
  5
2CF
330
18
100
AcDbEntity
  8
0
100
AcDbLine
 10
2.467
 20
4.787
 30
0.0
 11
2.467
 21
4.746
 31
0.0
  0
LINE
  5
2D0
330
18
100
AcDbEntity
  8
0
100
AcDbLine
 10
2.467
 20
4.746
 30
0.0
 11
2.588
 21
4.722
 31
0.0
  0
LINE
  5
2D1
330
18
100
AcDbEntity
  8
0
100
AcDbLine
 10
2.467
 20
4.746
 30
0.0
 11
2.486
 21
4.784
 31
0.0
  0
LINE
  5
2D2
330
18
100
AcDbEntity
  8
0
100
AcDbLine
 10
2.467
 20
5.0
 30
0.0
 11
2.486
 21
5.037
 31
0.0
  0
LINE
  5
2D3
330
18
100
AcDbEntity
  8
0
100
AcDbLine
 10
2.467
 20
5.0
 30
0.0
 11
2.588
 21
4.975
 31
0.0
  0
LINE
  5
2D4
330
18
100
AcDbEntity
  8
0
100
AcDbLine
 10
2.467
 20
5.04
 30
0.0
 11
2.467
 21
5.0
 31
0.0
  0
LINE
  5
2D5
330
18
100
AcDbEntity
  8
0
100
AcDbLine
 10
2.59
 20
5.021
 30
0.0
 11
2.467
 21
5.04
 31
0.0
  0
LINE
  5
2D6
330
18
100
AcDbEntity
  8
0
100
AcDbLine
 10
3.072
 20
4.854
 30
0.0
 11
2.949
 21
4.873
 31
0.0
  0
LINE
  5
2D7
330
18
100
AcDbEntity
  8
0
100
AcDbLine
 10
2.949
 20
4.873
 30
0.0
 11
2.949
 21
4.833
 31
0.0
  0
LINE
  5
2D8
330
18
100
AcDbEntity
  8
0
100
AcDbLine
 10
2.949
 20
4.833
 30
0.0
 11
3.07
 21
4.808
 31
0.0
  0
LINE
  5
2D9
330
18
100
AcDbEntity
  8
0
100
AcDbLine
 10
2.949
 20
4.833
 30
0.0
 11
2.968
 21
4.87
 31
0.0
  0
LINE
  5
2DA
330
18
100
AcDbEntity
  8
0
100
AcDbLine
 10
2.949
 20
4.579
 30
0.0
 11
2.968
 21
4.617
 31
0.0
  0
LINE
  5
2DB
330
18
100
AcDbEntity
  8
0
100
AcDbLine
 10
2.949
 20
4.579
 30
0.0
 11
3.07
 21
4.555
 31
0.0
  0
LINE
  5
2DC
330
18
100
AcDbEntity
  8
0
100
AcDbLine
 10
2.949
 20
4.62
 30
0.0
 11
2.949
 21
4.579
 31
0.0
  0
LINE
  5
2DD
330
18
100
AcDbEntity
  8
0
100
AcDbLine
 10
3.072
 20
4.6
 30
0.0
 11
2.949
 21
4.62
 31
0.0
  0
LINE
  5
2DE
330
18
100
AcDbEntity
  8
0
100
AcDbLine
 10
3.072
 20
4.349
 30
0.0
 11
2.949
 21
4.368
 31
0.0
  0
LINE
  5
2DF
330
18
100
AcDbEntity
  8
0
100
AcDbLine
 10
2.949
 20
4.368
 30
0.0
 11
2.949
 21
4.328
 31
0.0
  0
LINE
  5
2E0
330
18
100
AcDbEntity
  8
0
100
AcDbLine
 10
2.949
 20
4.328
 30
0.0
 11
3.07
 21
4.303
 31
0.0
  0
LINE
  5
2E1
330
18
100
AcDbEntity
  8
0
100
AcDbLine
 10
2.949
 20
4.328
 30
0.0
 11
2.968
 21
4.365
 31
0.0
  0
LINE
  5
2E2
330
18
100
AcDbEntity
  8
0
100
AcDbLine
 10
3.072
 20
4.078
 30
0.0
 11
2.949
 21
4.097
 31
0.0
  0
LINE
  5
2E3
330
18
100
AcDbEntity
  8
0
100
AcDbLine
 10
2.949
 20
4.097
 30
0.0
 11
2.949
 21
4.057
 31
0.0
  0
LINE
  5
2E4
330
18
100
AcDbEntity
  8
0
100
AcDbLine
 10
2.949
 20
4.057
 30
0.0
 11
3.07
 21
4.032
 31
0.0
  0
LINE
  5
2E5
330
18
100
AcDbEntity
  8
0
100
AcDbLine
 10
2.949
 20
4.057
 30
0.0
 11
2.968
 21
4.093999999999999
 31
0.0
  0
LINE
  5
2E6
330
18
100
AcDbEntity
  8
0
100
AcDbLine
 10
3.072
 20
3.816
 30
0.0
 11
2.949
 21
3.835
 31
0.0
  0
LINE
  5
2E7
330
18
100
AcDbEntity
  8
0
100
AcDbLine
 10
2.949
 20
3.835
 30
0.0
 11
2.949
 21
3.794
 31
0.0
  0
LINE
  5
2E8
330
18
100
AcDbEntity
  8
0
100
AcDbLine
 10
2.949
 20
3.794
 30
0.0
 11
3.07
 21
3.77
 31
0.0
  0
LINE
  5
2E9
330
18
100
AcDbEntity
  8
0
100
AcDbLine
 10
2.949
 20
3.794
 30
0.0
 11
2.968
 21
3.832
 31
0.0
  0
LINE
  5
2EA
330
18
100
AcDbEntity
  8
0
100
AcDbLine
 10
3.072
 20
3.578
 30
0.0
 11
2.949
 21
3.597
 31
0.0
  0
LINE
  5
2EB
330
18
100
AcDbEntity
  8
0
100
AcDbLine
 10
2.949
 20
3.597
 30
0.0
 11
2.949
 21
3.557
 31
0.0
  0
LINE
  5
2EC
330
18
100
AcDbEntity
  8
0
100
AcDbLine
 10
2.949
 20
3.557
 30
0.0
 11
3.07
 21
3.532
 31
0.0
  0
LINE
  5
2ED
330
18
100
AcDbEntity
  8
0
100
AcDbLine
 10
2.949
 20
3.557
 30
0.0
 11
2.968
 21
3.594
 31
0.0
  0
LINE
  5
2EE
330
18
100
AcDbEntity
  8
0
100
AcDbLine
 10
2.789
 20
3.701
 30
0.0
 11
2.808
 21
3.739
 31
0.0
  0
LINE
  5
2EF
330
18
100
AcDbEntity
  8
0
100
AcDbLine
 10
2.789
 20
3.701
 30
0.0
 11
2.91
 21
3.676
 31
0.0
  0
LINE
  5
2F0
330
18
100
AcDbEntity
  8
0
100
AcDbLine
 10
2.789
 20
3.742
 30
0.0
 11
2.789
 21
3.701
 31
0.0
  0
LINE
  5
2F1
330
18
100
AcDbEntity
  8
0
100
AcDbLine
 10
2.912
 20
3.722
 30
0.0
 11
2.789
 21
3.742
 31
0.0
  0
LINE
  5
2F2
330
18
100
AcDbEntity
  8
0
100
AcDbLine
 10
2.789
 20
3.939
 30
0.0
 11
2.808
 21
3.976
 31
0.0
  0
LINE
  5
2F3
330
18
100
AcDbEntity
  8
0
100
AcDbLine
 10
2.789
 20
3.939
 30
0.0
 11
2.91
 21
3.914
 31
0.0
  0
LINE
  5
2F4
330
18
100
AcDbEntity
  8
0
100
AcDbLine
 10
2.789
 20
3.979
 30
0.0
 11
2.789
 21
3.939
 31
0.0
  0
LINE
  5
2F5
330
18
100
AcDbEntity
  8
0
100
AcDbLine
 10
2.912
 20
3.96
 30
0.0
 11
2.789
 21
3.979
 31
0.0
  0
LINE
  5
2F6
330
18
100
AcDbEntity
  8
0
100
AcDbLine
 10
2.789
 20
4.201000000000001
 30
0.0
 11
2.808
 21
4.238
 31
0.0
  0
LINE
  5
2F7
330
18
100
AcDbEntity
  8
0
100
AcDbLine
 10
2.789
 20
4.201000000000001
 30
0.0
 11
2.91
 21
4.176
 31
0.0
  0
LINE
  5
2F8
330
18
100
AcDbEntity
  8
0
100
AcDbLine
 10
2.789
 20
4.241000000000001
 30
0.0
 11
2.789
 21
4.201000000000001
 31
0.0
  0
LINE
  5
2F9
330
18
100
AcDbEntity
  8
0
100
AcDbLine
 10
2.912
 20
4.222
 30
0.0
 11
2.789
 21
4.241000000000001
 31
0.0
  0
LINE
  5
2FA
330
18
100
AcDbEntity
  8
0
100
AcDbLine
 10
2.789
 20
4.472
 30
0.0
 11
2.808
 21
4.509
 31
0.0
  0
LINE
  5
2FB
330
18
100
AcDbEntity
  8
0
100
AcDbLine
 10
2.789
 20
4.472
 30
0.0
 11
2.91
 21
4.447
 31
0.0
  0
LINE
  5
2FC
330
18
100
AcDbEntity
  8
0
100
AcDbLine
 10
2.789
 20
4.512
 30
0.0
 11
2.789
 21
4.472
 31
0.0
  0
LINE
  5
2FD
330
18
100
AcDbEntity
  8
0
100
AcDbLine
 10
2.912
 20
4.493
 30
0.0
 11
2.789
 21
4.512
 31
0.0
  0
LINE
  5
2FE
330
18
100
AcDbEntity
  8
0
100
AcDbLine
 10
2.912
 20
4.745
 30
0.0
 11
2.789
 21
4.763999999999999
 31
0.0
  0
LINE
  5
2FF
330
18
100
AcDbEntity
  8
0
100
AcDbLine
 10
2.789
 20
4.763999999999999
 30
0.0
 11
2.789
 21
4.724
 31
0.0
  0
LINE
  5
300
330
18
100
AcDbEntity
  8
0
100
AcDbLine
 10
2.789
 20
4.724
 30
0.0
 11
2.91
 21
4.699
 31
0.0
  0
LINE
  5
301
330
18
100
AcDbEntity
  8
0
100
AcDbLine
 10
2.789
 20
4.724
 30
0.0
 11
2.808
 21
4.761
 31
0.0
  0
LINE
  5
302
330
18
100
AcDbEntity
  8
0
100
AcDbLine
 10
2.789
 20
4.977
 30
0.0
 11
2.808
 21
5.013999999999999
 31
0.0
  0
LINE
  5
303
330
18
100
AcDbEntity
  8
0
100
AcDbLine
 10
2.789
 20
4.977
 30
0.0
 11
2.91
 21
4.952
 31
0.0
  0
LINE
  5
304
330
18
100
AcDbEntity
  8
0
100
AcDbLine
 10
2.789
 20
5.017
 30
0.0
 11
2.789
 21
4.977
 31
0.0
  0
LINE
  5
305
330
18
100
AcDbEntity
  8
0
100
AcDbLine
 10
2.912
 20
4.998
 30
0.0
 11
2.789
 21
5.017
 31
0.0
  0
LINE
  5
306
330
18
100
AcDbEntity
  8
0
100
AcDbLine
 10
3.331
 20
4.82
 30
0.0
 11
3.207
 21
4.84
 31
0.0
  0
LINE
  5
307
330
18
100
AcDbEntity
  8
0
100
AcDbLine
 10
3.207
 20
4.84
 30
0.0
 11
3.207
 21
4.799
 31
0.0
  0
LINE
  5
308
330
18
100
AcDbEntity
  8
0
100
AcDbLine
 10
3.207
 20
4.799
 30
0.0
 11
3.329
 21
4.775
 31
0.0
  0
LINE
  5
309
330
18
100
AcDbEntity
  8
0
100
AcDbLine
 10
3.207
 20
4.799
 30
0.0
 11
3.227
 21
4.837
 31
0.0
  0
LINE
  5
30A
330
18
100
AcDbEntity
  8
0
100
AcDbLine
 10
3.207
 20
4.546
 30
0.0
 11
3.227
 21
4.583
 31
0.0
  0
LINE
  5
30B
330
18
100
AcDbEntity
  8
0
100
AcDbLine
 10
3.207
 20
4.546
 30
0.0
 11
3.329
 21
4.521
 31
0.0
  0
LINE
  5
30C
330
18
100
AcDbEntity
  8
0
100
AcDbLine
 10
3.207
 20
4.586
 30
0.0
 11
3.207
 21
4.546
 31
0.0
  0
LINE
  5
30D
330
18
100
AcDbEntity
  8
0
100
AcDbLine
 10
3.331
 20
4.567
 30
0.0
 11
3.207
 21
4.586
 31
0.0
  0
LINE
  5
30E
330
18
100
AcDbEntity
  8
0
100
AcDbLine
 10
3.331
 20
4.315
 30
0.0
 11
3.207
 21
4.335
 31
0.0
  0
LINE
  5
30F
330
18
100
AcDbEntity
  8
0
100
AcDbLine
 10
3.207
 20
4.335
 30
0.0
 11
3.207
 21
4.294
 31
0.0
  0
LINE
  5
310
330
18
100
AcDbEntity
  8
0
100
AcDbLine
 10
3.207
 20
4.294
 30
0.0
 11
3.329
 21
4.27
 31
0.0
  0
LINE
  5
311
330
18
100
AcDbEntity
  8
0
100
AcDbLine
 10
3.207
 20
4.294
 30
0.0
 11
3.227
 21
4.332
 31
0.0
  0
LINE
  5
312
330
18
100
AcDbEntity
  8
0
100
AcDbLine
 10
3.331
 20
4.044
 30
0.0
 11
3.207
 21
4.064
 31
0.0
  0
LINE
  5
313
330
18
100
AcDbEntity
  8
0
100
AcDbLine
 10
3.207
 20
4.064
 30
0.0
 11
3.207
 21
4.023
 31
0.0
  0
LINE
  5
314
330
18
100
AcDbEntity
  8
0
100
AcDbLine
 10
3.207
 20
4.023
 30
0.0
 11
3.329
 21
3.999
 31
0.0
  0
LINE
  5
315
330
18
100
AcDbEntity
  8
0
100
AcDbLine
 10
3.207
 20
4.023
 30
0.0
 11
3.227
 21
4.061
 31
0.0
  0
LINE
  5
316
330
18
100
AcDbEntity
  8
0
100
AcDbLine
 10
3.331
 20
3.782
 30
0.0
 11
3.207
 21
3.801
 31
0.0
  0
LINE
  5
317
330
18
100
AcDbEntity
  8
0
100
AcDbLine
 10
3.207
 20
3.801
 30
0.0
 11
3.207
 21
3.761
 31
0.0
  0
LINE
  5
318
330
18
100
AcDbEntity
  8
0
100
AcDbLine
 10
3.207
 20
3.761
 30
0.0
 11
3.329
 21
3.736
 31
0.0
  0
LINE
  5
319
330
18
100
AcDbEntity
  8
0
100
AcDbLine
 10
3.207
 20
3.761
 30
0.0
 11
3.227
 21
3.798
 31
0.0
  0
LINE
  5
31A
330
18
100
AcDbEntity
  8
0
100
AcDbLine
 10
3.331
 20
3.545
 30
0.0
 11
3.207
 21
3.564
 31
0.0
  0
LINE
  5
31B
330
18
100
AcDbEntity
  8
0
100
AcDbLine
 10
3.207
 20
3.564
 30
0.0
 11
3.207
 21
3.523
 31
0.0
  0
LINE
  5
31C
330
18
100
AcDbEntity
  8
0
100
AcDbLine
 10
3.207
 20
3.523
 30
0.0
 11
3.329
 21
3.499
 31
0.0
  0
LINE
  5
31D
330
18
100
AcDbEntity
  8
0
100
AcDbLine
 10
3.207
 20
3.523
 30
0.0
 11
3.227
 21
3.561
 31
0.0
  0
LINE
  5
31E
330
18
100
AcDbEntity
  8
0
100
AcDbLine
 10
3.047
 20
3.668
 30
0.0
 11
3.067
 21
3.705
 31
0.0
  0
LINE
  5
31F
330
18
100
AcDbEntity
  8
0
100
AcDbLine
 10
3.047
 20
3.668
 30
0.0
 11
3.169
 21
3.643
 31
0.0
  0
LINE
  5
320
330
18
100
AcDbEntity
  8
0
100
AcDbLine
 10
3.047
 20
3.708
 30
0.0
 11
3.047
 21
3.668
 31
0.0
  0
LINE
  5
321
330
18
100
AcDbEntity
  8
0
100
AcDbLine
 10
3.17
 20
3.689
 30
0.0
 11
3.047
 21
3.708
 31
0.0
  0
LINE
  5
322
330
18
100
AcDbEntity
  8
0
100
AcDbLine
 10
3.047
 20
3.905
 30
0.0
 11
3.067
 21
3.943
 31
0.0
  0
LINE
  5
323
330
18
100
AcDbEntity
  8
0
100
AcDbLine
 10
3.047
 20
3.905
 30
0.0
 11
3.169
 21
3.881
 31
0.0
  0
LINE
  5
324
330
18
100
AcDbEntity
  8
0
100
AcDbLine
 10
3.047
 20
3.946
 30
0.0
 11
3.047
 21
3.905
 31
0.0
  0
LINE
  5
325
330
18
100
AcDbEntity
  8
0
100
AcDbLine
 10
3.17
 20
3.926
 30
0.0
 11
3.047
 21
3.946
 31
0.0
  0
LINE
  5
326
330
18
100
AcDbEntity
  8
0
100
AcDbLine
 10
3.047
 20
4.167
 30
0.0
 11
3.067
 21
4.205
 31
0.0
  0
LINE
  5
327
330
18
100
AcDbEntity
  8
0
100
AcDbLine
 10
3.047
 20
4.167
 30
0.0
 11
3.169
 21
4.143
 31
0.0
  0
LINE
  5
328
330
18
100
AcDbEntity
  8
0
100
AcDbLine
 10
3.047
 20
4.208
 30
0.0
 11
3.047
 21
4.167
 31
0.0
  0
LINE
  5
329
330
18
100
AcDbEntity
  8
0
100
AcDbLine
 10
3.17
 20
4.189
 30
0.0
 11
3.047
 21
4.208
 31
0.0
  0
LINE
  5
32A
330
18
100
AcDbEntity
  8
0
100
AcDbLine
 10
3.047
 20
4.438
 30
0.0
 11
3.067
 21
4.476
 31
0.0
  0
LINE
  5
32B
330
18
100
AcDbEntity
  8
0
100
AcDbLine
 10
3.047
 20
4.438
 30
0.0
 11
3.169
 21
4.414
 31
0.0
  0
LINE
  5
32C
330
18
100
AcDbEntity
  8
0
100
AcDbLine
 10
3.047
 20
4.479
 30
0.0
 11
3.047
 21
4.438
 31
0.0
  0
LINE
  5
32D
330
18
100
AcDbEntity
  8
0
100
AcDbLine
 10
3.17
 20
4.46
 30
0.0
 11
3.047
 21
4.479
 31
0.0
  0
LINE
  5
32E
330
18
100
AcDbEntity
  8
0
100
AcDbLine
 10
3.17
 20
4.711
 30
0.0
 11
3.047
 21
4.731
 31
0.0
  0
LINE
  5
32F
330
18
100
AcDbEntity
  8
0
100
AcDbLine
 10
3.047
 20
4.731
 30
0.0
 11
3.047
 21
4.69
 31
0.0
  0
LINE
  5
330
330
18
100
AcDbEntity
  8
0
100
AcDbLine
 10
3.047
 20
4.69
 30
0.0
 11
3.169
 21
4.666
 31
0.0
  0
LINE
  5
331
330
18
100
AcDbEntity
  8
0
100
AcDbLine
 10
3.047
 20
4.69
 30
0.0
 11
3.067
 21
4.728
 31
0.0
  0
LINE
  5
332
330
18
100
AcDbEntity
  8
0
100
AcDbLine
 10
3.047
 20
4.944
 30
0.0
 11
3.067
 21
4.981
 31
0.0
  0
LINE
  5
333
330
18
100
AcDbEntity
  8
0
100
AcDbLine
 10
3.047
 20
4.944
 30
0.0
 11
3.169
 21
4.919
 31
0.0
  0
LINE
  5
334
330
18
100
AcDbEntity
  8
0
100
AcDbLine
 10
3.047
 20
4.984
 30
0.0
 11
3.047
 21
4.944
 31
0.0
  0
LINE
  5
335
330
18
100
AcDbEntity
  8
0
100
AcDbLine
 10
3.17
 20
4.965
 30
0.0
 11
3.047
 21
4.984
 31
0.0
  0
LINE
  5
336
330
18
100
AcDbEntity
  8
0
100
AcDbLine
 10
3.339
 20
3.626
 30
0.0
 11
3.359
 21
3.663
 31
0.0
  0
LINE
  5
337
330
18
100
AcDbEntity
  8
0
100
AcDbLine
 10
3.339
 20
3.626
 30
0.0
 11
3.461
 21
3.601
 31
0.0
  0
LINE
  5
338
330
18
100
AcDbEntity
  8
0
100
AcDbLine
 10
3.339
 20
3.666
 30
0.0
 11
3.339
 21
3.626
 31
0.0
  0
LINE
  5
339
330
18
100
AcDbEntity
  8
0
100
AcDbLine
 10
3.463
 20
3.647
 30
0.0
 11
3.339
 21
3.666
 31
0.0
  0
LINE
  5
33A
330
18
100
AcDbEntity
  8
0
100
AcDbLine
 10
3.339
 20
3.863
 30
0.0
 11
3.359
 21
3.9
 31
0.0
  0
LINE
  5
33B
330
18
100
AcDbEntity
  8
0
100
AcDbLine
 10
3.339
 20
3.863
 30
0.0
 11
3.461
 21
3.838
 31
0.0
  0
LINE
  5
33C
330
18
100
AcDbEntity
  8
0
100
AcDbLine
 10
3.339
 20
3.904
 30
0.0
 11
3.339
 21
3.863
 31
0.0
  0
LINE
  5
33D
330
18
100
AcDbEntity
  8
0
100
AcDbLine
 10
3.463
 20
3.884
 30
0.0
 11
3.339
 21
3.904
 31
0.0
  0
LINE
  5
33E
330
18
100
AcDbEntity
  8
0
100
AcDbLine
 10
3.339
 20
4.125
 30
0.0
 11
3.359
 21
4.163
 31
0.0
  0
LINE
  5
33F
330
18
100
AcDbEntity
  8
0
100
AcDbLine
 10
3.339
 20
4.125
 30
0.0
 11
3.461
 21
4.101
 31
0.0
  0
LINE
  5
340
330
18
100
AcDbEntity
  8
0
100
AcDbLine
 10
3.339
 20
4.166
 30
0.0
 11
3.339
 21
4.125
 31
0.0
  0
LINE
  5
341
330
18
100
AcDbEntity
  8
0
100
AcDbLine
 10
3.463
 20
4.146
 30
0.0
 11
3.339
 21
4.166
 31
0.0
  0
LINE
  5
342
330
18
100
AcDbEntity
  8
0
100
AcDbLine
 10
3.339
 20
4.396
 30
0.0
 11
3.359
 21
4.434
 31
0.0
  0
LINE
  5
343
330
18
100
AcDbEntity
  8
0
100
AcDbLine
 10
3.339
 20
4.396
 30
0.0
 11
3.461
 21
4.372
 31
0.0
  0
LINE
  5
344
330
18
100
AcDbEntity
  8
0
100
AcDbLine
 10
3.339
 20
4.437
 30
0.0
 11
3.339
 21
4.396
 31
0.0
  0
LINE
  5
345
330
18
100
AcDbEntity
  8
0
100
AcDbLine
 10
3.463
 20
4.417
 30
0.0
 11
3.339
 21
4.437
 31
0.0
  0
LINE
  5
346
330
18
100
AcDbEntity
  8
0
100
AcDbLine
 10
3.463
 20
4.669
 30
0.0
 11
3.339
 21
4.688
 31
0.0
  0
LINE
  5
347
330
18
100
AcDbEntity
  8
0
100
AcDbLine
 10
3.339
 20
4.688
 30
0.0
 11
3.339
 21
4.648
 31
0.0
  0
LINE
  5
348
330
18
100
AcDbEntity
  8
0
100
AcDbLine
 10
3.339
 20
4.648
 30
0.0
 11
3.461
 21
4.623
 31
0.0
  0
LINE
  5
349
330
18
100
AcDbEntity
  8
0
100
AcDbLine
 10
3.339
 20
4.648
 30
0.0
 11
3.359
 21
4.685
 31
0.0
  0
LINE
  5
34A
330
18
100
AcDbEntity
  8
0
100
AcDbLine
 10
3.339
 20
4.901
 30
0.0
 11
3.359
 21
4.939
 31
0.0
  0
LINE
  5
34B
330
18
100
AcDbEntity
  8
0
100
AcDbLine
 10
3.339
 20
4.901
 30
0.0
 11
3.461
 21
4.877
 31
0.0
  0
LINE
  5
34C
330
18
100
AcDbEntity
  8
0
100
AcDbLine
 10
3.339
 20
4.942
 30
0.0
 11
3.339
 21
4.901
 31
0.0
  0
LINE
  5
34D
330
18
100
AcDbEntity
  8
0
100
AcDbLine
 10
3.463
 20
4.922
 30
0.0
 11
3.339
 21
4.942
 31
0.0
  0
TEXT
  5
34E
330
18
100
AcDbEntity
  8
0
100
AcDbText
 10
1.427
 20
0.5579999999999999
 30
0.0
 40
0.125
  1
Simpson Strong-Tie
100
AcDbText
  0
TEXT
  5
34F
330
18
100
AcDbEntity
  8
0
100
AcDbText
 10
1.427
 20
0.35
 30
0.0
 40
0.125
  1
H5
100
AcDbText
  0
ENDSEC
  0
SECTION
  2
OBJECTS
  0
DICTIONARY
  5
C
330
0
100
AcDbDictionary
281
     1
  3
ACAD_COLOR
350
355
  3
ACAD_GROUP
350
D
  3
ACAD_LAYOUT
350
15
  3
ACAD_MATERIAL
350
357
  3
ACAD_MLINESTYLE
350
12
  3
ACAD_PLOTSETTINGS
350
14
  3
ACAD_PLOTSTYLENAME
350
E
  3
ACDBHEADERROUNDTRIPXREC
350
354
  0
DICTIONARY
  5
355
102
{ACAD_REACTORS
330
C
102
}
330
C
100
AcDbDictionary
281
     1
  0
DICTIONARY
  5
D
102
{ACAD_REACTORS
330
C
102
}
330
C
100
AcDbDictionary
281
     1
  0
DICTIONARY
  5
15
102
{ACAD_REACTORS
330
C
102
}
330
C
100
AcDbDictionary
281
     1
  3
Layout1
350
17
  3
Model
350
19
  0
DICTIONARY
  5
357
102
{ACAD_REACTORS
330
C
102
}
330
C
100
AcDbDictionary
281
     1
  0
DICTIONARY
  5
12
102
{ACAD_REACTORS
330
C
102
}
330
C
100
AcDbDictionary
281
     1
  3
Standard
350
13
  0
DICTIONARY
  5
14
102
{ACAD_REACTORS
330
C
102
}
330
C
100
AcDbDictionary
281
     1
  0
ACDBDICTIONARYWDFLT
  5
E
102
{ACAD_REACTORS
330
C
102
}
330
C
100
AcDbDictionary
281
     1
  3
Normal
350
F
100
AcDbDictionaryWithDefault
340
F
  0
DICTIONARY
  5
354
102
{ACAD_REACTORS
330
C
102
}
330
C
100
AcDbDictionary
281
     1
  3
COLORDICT
350
356
  3
MATERIALDICT
350
358
  0
LAYOUT
  5
17
102
{ACAD_REACTORS
330
15
102
}
102
{ACAD_XDICTIONARY
360
359
102
}
330
15
100
AcDbPlotSettings
  1

  2

  4

  6

 40
0.0
 41
0.0
 42
0.0
 43
0.0
 44
0.0
 45
0.0
 46
0.0
 47
0.0
 48
0.0
 49
0.0
140
0.0
141
0.0
142
1.0
143
1.0
 70
   688
 72
     0
 73
     0
 74
     5
  7

 75
    16
147
1.0
148
0.0
149
0.0
100
AcDbLayout
  1
Layout1
 70
     1
 71
     1
 10
0.0
 20
0.0
 11
12.0
 21
9.0
 12
0.0
 22
0.0
 32
0.0
 14
1.000000000000000E+20
 24
1.000000000000000E+20
 34
1.000000000000000E+20
 15
-1.000000000000000E+20
 25
-1.000000000000000E+20
 35
-1.000000000000000E+20
146
0.0
 13
0.0
 23
0.0
 33
0.0
 16
1.0
 26
0.0
 36
0.0
 17
0.0
 27
1.0
 37
0.0
 76
     0
330
16
  0
LAYOUT
  5
19
102
{ACAD_REACTORS
330
15
102
}
102
{ACAD_XDICTIONARY
360
35B
102
}
330
15
100
AcDbPlotSettings
  1

  2

  4

  6

 40
0.0
 41
0.0
 42
0.0
 43
0.0
 44
0.0
 45
0.0
 46
0.0
 47
0.0
 48
0.0
 49
0.0
140
0.0
141
0.0
142
1.0
143
1.0
 70
  1712
 72
     0
 73
     0
 74
     0
  7

 75
     0
147
1.0
148
0.0
149
0.0
100
AcDbLayout
  1
Model
 70
     1
 71
     0
 10
0.0
 20
0.0
 11
0.0
 21
0.0
 12
0.0
 22
0.0
 32
0.0
 14
0.0
 24
0.0
 34
0.0
 15
0.0
 25
0.0
 35
0.0
146
0.0
 13
0.0
 23
0.0
 33
0.0
 16
1.0
 26
0.0
 36
0.0
 17
0.0
 27
1.0
 37
0.0
 76
     0
330
18
  0
MLINESTYLE
  5
13
102
{ACAD_REACTORS
330
12
102
}
330
12
100
AcDbMlineStyle
  2
Standard
 70
     0
  3

 62
   256
 51
90.0
 52
90.0
 71
     2
 49
0.5
 62
   256
  6
BYLAYER
 49
-0.5
 62
   256
  6
BYLAYER
  0
ACDBPLACEHOLDER
  5
F
102
{ACAD_REACTORS
330
E
102
}
330
E
  0
XRECORD
  5
356
102
{ACAD_REACTORS
330
354
102
}
330
354
100
AcDbXrecord
340
355
  0
XRECORD
  5
358
102
{ACAD_REACTORS
330
354
102
}
330
354
100
AcDbXrecord
340
357
  0
DICTIONARY
  5
359
330
17
100
AcDbDictionary
280
     1
281
     1
  3
ACAD_XREC_ROUNDTRIP
360
35A
  0
DICTIONARY
  5
35B
330
19
100
AcDbDictionary
280
     1
281
     1
  3
ACAD_XREC_ROUNDTRIP
360
35C
  0
XRECORD
  5
35A
102
{ACAD_REACTORS
330
359
102
}
330
359
100
AcDbXrecord
102
SHADEPLOT
 70
 31552
102
SHADEPLOTRESLEVEL
 70
 30752
102
SHADEPLOTCUSTOMDPI
 70
 31608
  0
XRECORD
  5
35C
102
{ACAD_REACTORS
330
35B
102
}
330
35B
100
AcDbXrecord
102
SHADEPLOT
 70
     0
102
SHADEPLOTRESLEVEL
 70
     0
102
SHADEPLOTCUSTOMDPI
 70
     0
  0
ENDSEC
  0
EOF
