  0
SECTION
  2
HEADER
  9
$ACADVER
  1
AC1015
  9
$ACADMAINTVER
 70
     6
  9
$DWGCODEPAGE
  3
ANSI_1252
  9
$INSBASE
 10
0.0
 20
0.0
 30
0.0
  9
$EXTMIN
 10
7.544704562787487
 20
1.349032523504416
 30
-0.0000000000085188
  9
$EXTMAX
 10
14.56210415771115
 20
9.372007530550516
 30
0.0000000000003626
  9
$LIMMIN
 10
0.0
 20
0.0
  9
$LIMMAX
 10
12.0
 20
9.0
  9
$ORTHOMODE
 70
     1
  9
$REGENMODE
 70
     0
  9
$FILLMODE
 70
     1
  9
$QTEXTMODE
 70
     0
  9
$MIRRTEXT
 70
     1
  9
$LTSCALE
 40
0.25
  9
$ATTMODE
 70
     1
  9
$TEXTSIZE
 40
0.2
  9
$TRACEWID
 40
0.05
  9
$TEXTSTYLE
  7
STANDARD
  9
$CLAYER
  8
0
  9
$CELTYPE
  6
BYLAYER
  9
$CECOLOR
 62
   256
  9
$CELTSCALE
 40
1.0
  9
$DISPSILH
 70
     0
  9
$DIMSCALE
 40
1.0
  9
$DIMASZ
 40
0.18
  9
$DIMEXO
 40
0.0625
  9
$DIMDLI
 40
0.38
  9
$DIMRND
 40
0.0
  9
$DIMDLE
 40
0.0
  9
$DIMEXE
 40
0.18
  9
$DIMTP
 40
0.0
  9
$DIMTM
 40
0.0
  9
$DIMTXT
 40
0.18
  9
$DIMCEN
 40
0.09
  9
$DIMTSZ
 40
0.0
  9
$DIMTOL
 70
     0
  9
$DIMLIM
 70
     0
  9
$DIMTIH
 70
     1
  9
$DIMTOH
 70
     1
  9
$DIMSE1
 70
     0
  9
$DIMSE2
 70
     0
  9
$DIMTAD
 70
     0
  9
$DIMZIN
 70
     0
  9
$DIMBLK
  1

  9
$DIMASO
 70
     1
  9
$DIMSHO
 70
     1
  9
$DIMPOST
  1

  9
$DIMAPOST
  1

  9
$DIMALT
 70
     0
  9
$DIMALTD
 70
     2
  9
$DIMALTF
 40
25.4
  9
$DIMLFAC
 40
1.0
  9
$DIMTOFL
 70
     0
  9
$DIMTVP
 40
0.0
  9
$DIMTIX
 70
     0
  9
$DIMSOXD
 70
     0
  9
$DIMSAH
 70
     0
  9
$DIMBLK1
  1

  9
$DIMBLK2
  1

  9
$DIMSTYLE
  2
STANDARD
  9
$DIMCLRD
 70
     0
  9
$DIMCLRE
 70
     0
  9
$DIMCLRT
 70
     0
  9
$DIMTFAC
 40
1.0
  9
$DIMGAP
 40
0.09
  9
$DIMJUST
 70
     0
  9
$DIMSD1
 70
     0
  9
$DIMSD2
 70
     0
  9
$DIMTOLJ
 70
     1
  9
$DIMTZIN
 70
     0
  9
$DIMALTZ
 70
     0
  9
$DIMALTTZ
 70
     0
  9
$DIMUPT
 70
     0
  9
$DIMDEC
 70
     4
  9
$DIMTDEC
 70
     4
  9
$DIMALTU
 70
     2
  9
$DIMALTTD
 70
     2
  9
$DIMTXSTY
  7
STANDARD
  9
$DIMAUNIT
 70
     0
  9
$DIMADEC
 70
     0
  9
$DIMALTRND
 40
0.0
  9
$DIMAZIN
 70
     0
  9
$DIMDSEP
 70
    46
  9
$DIMATFIT
 70
     3
  9
$DIMFRAC
 70
     0
  9
$DIMLDRBLK
  1

  9
$DIMLUNIT
 70
     2
  9
$DIMLWD
 70
    -2
  9
$DIMLWE
 70
    -2
  9
$DIMTMOVE
 70
     0
  9
$LUNITS
 70
     2
  9
$LUPREC
 70
     4
  9
$SKETCHINC
 40
0.1
  9
$FILLETRAD
 40
0.0
  9
$AUNITS
 70
     0
  9
$AUPREC
 70
     0
  9
$MENU
  1
.
  9
$ELEVATION
 40
0.0
  9
$PELEVATION
 40
0.0
  9
$THICKNESS
 40
0.0
  9
$LIMCHECK
 70
     0
  9
$CHAMFERA
 40
0.5
  9
$CHAMFERB
 40
0.5
  9
$CHAMFERC
 40
1.0
  9
$CHAMFERD
 40
0.0
  9
$SKPOLY
 70
     1
  9
$TDCREATE
 40
2451890.587386782
  9
$TDUCREATE
 40
2451890.920720116
  9
$TDUPDATE
 40
2451893.674870637
  9
$TDUUPDATE
 40
2451894.00820397
  9
$TDINDWG
 40
0.7760251273
  9
$TDUSRTIMER
 40
0.7760251273
  9
$USRTIMER
 70
     1
  9
$ANGBASE
 50
0.0
  9
$ANGDIR
 70
     0
  9
$PDMODE
 70
     0
  9
$PDSIZE
 40
0.0
  9
$PLINEWID
 40
0.0
  9
$SPLFRAME
 70
     0
  9
$SPLINETYPE
 70
     6
  9
$SPLINESEGS
 70
     8
  9
$HANDSEED
  5
9C9
  9
$SURFTAB1
 70
     6
  9
$SURFTAB2
 70
     6
  9
$SURFTYPE
 70
     6
  9
$SURFU
 70
     6
  9
$SURFV
 70
     6
  9
$UCSBASE
  2

  9
$UCSNAME
  2

  9
$UCSORG
 10
0.0
 20
0.0
 30
0.0
  9
$UCSXDIR
 10
1.0
 20
0.0
 30
0.0
  9
$UCSYDIR
 10
0.0
 20
1.0
 30
0.0
  9
$UCSORTHOREF
  2

  9
$UCSORTHOVIEW
 70
     0
  9
$UCSORGTOP
 10
0.0
 20
0.0
 30
0.0
  9
$UCSORGBOTTOM
 10
0.0
 20
0.0
 30
0.0
  9
$UCSORGLEFT
 10
0.0
 20
0.0
 30
0.0
  9
$UCSORGRIGHT
 10
0.0
 20
0.0
 30
0.0
  9
$UCSORGFRONT
 10
0.0
 20
0.0
 30
0.0
  9
$UCSORGBACK
 10
0.0
 20
0.0
 30
0.0
  9
$PUCSBASE
  2

  9
$PUCSNAME
  2

  9
$PUCSORG
 10
0.0
 20
0.0
 30
0.0
  9
$PUCSXDIR
 10
1.0
 20
0.0
 30
0.0
  9
$PUCSYDIR
 10
0.0
 20
1.0
 30
0.0
  9
$PUCSORTHOREF
  2

  9
$PUCSORTHOVIEW
 70
     0
  9
$PUCSORGTOP
 10
0.0
 20
0.0
 30
0.0
  9
$PUCSORGBOTTOM
 10
0.0
 20
0.0
 30
0.0
  9
$PUCSORGLEFT
 10
0.0
 20
0.0
 30
0.0
  9
$PUCSORGRIGHT
 10
0.0
 20
0.0
 30
0.0
  9
$PUCSORGFRONT
 10
0.0
 20
0.0
 30
0.0
  9
$PUCSORGBACK
 10
0.0
 20
0.0
 30
0.0
  9
$USERI1
 70
     0
  9
$USERI2
 70
     0
  9
$USERI3
 70
     0
  9
$USERI4
 70
     0
  9
$USERI5
 70
     0
  9
$USERR1
 40
0.0
  9
$USERR2
 40
0.0
  9
$USERR3
 40
0.0
  9
$USERR4
 40
0.0
  9
$USERR5
 40
0.0
  9
$WORLDVIEW
 70
     1
  9
$SHADEDGE
 70
     3
  9
$SHADEDIF
 70
    70
  9
$TILEMODE
 70
     1
  9
$MAXACTVP
 70
    48
  9
$PINSBASE
 10
0.0
 20
0.0
 30
0.0
  9
$PLIMCHECK
 70
     0
  9
$PEXTMIN
 10
1.000000000000000E+20
 20
1.000000000000000E+20
 30
1.000000000000000E+20
  9
$PEXTMAX
 10
-1.000000000000000E+20
 20
-1.000000000000000E+20
 30
-1.000000000000000E+20
  9
$PLIMMIN
 10
0.0
 20
0.0
  9
$PLIMMAX
 10
12.0
 20
9.0
  9
$UNITMODE
 70
     0
  9
$VISRETAIN
 70
     1
  9
$PLINEGEN
 70
     0
  9
$PSLTSCALE
 70
     1
  9
$TREEDEPTH
 70
  3020
  9
$CMLSTYLE
  2
STANDARD
  9
$CMLJUST
 70
     0
  9
$CMLSCALE
 40
1.0
  9
$PROXYGRAPHICS
 70
     1
  9
$MEASUREMENT
 70
     0
  9
$CELWEIGHT
370
    -1
  9
$ENDCAPS
280
     0
  9
$JOINSTYLE
280
     0
  9
$LWDISPLAY
290
     0
  9
$INSUNITS
 70
     1
  9
$HYPERLINKBASE
  1

  9
$STYLESHEET
  1

  9
$XEDIT
290
     1
  9
$CEPSNTYPE
380
     0
  9
$PSTYLEMODE
290
     0
  9
$FINGERPRINTGUID
  2
{FAEB1C30-E019-11D5-929B-00C0DF256EC4}
  9
$VERSIONGUID
  2
{FAEB1C32-E019-11D5-929B-00C0DF256EC4}
  9
$EXTNAMES
290
     1
  9
$PSVPSCALE
 40
0.0
  9
$OLESTARTUP
290
     0
  0
ENDSEC
  0
SECTION
  2
CLASSES
  0
CLASS
  1
LWPOLYLINE
  2
AcDbPolyline
  3
AutoCAD 2000
 90
        0
280
     0
281
     1
  0
CLASS
  1
DICTIONARYVAR
  2
AcDbDictionaryVar
  3
AutoCAD 2000
 90
        0
280
     0
281
     0
  0
CLASS
  1
HATCH
  2
AcDbHatch
  3
AutoCAD 2000
 90
        0
280
     0
281
     1
  0
CLASS
  1
ACDBPLACEHOLDER
  2
AcDbPlaceHolder
  3
ObjectDBX Classes
 90
        0
280
     0
281
     0
  0
CLASS
  1
LAYOUT
  2
AcDbLayout
  3
ObjectDBX Classes
 90
        0
280
     0
281
     0
  0
ENDSEC
  0
SECTION
  2
TABLES
  0
TABLE
  2
VPORT
  5
8
330
0
100
AcDbSymbolTable
 70
     2
  0
VPORT
  5
9BB
330
8
100
AcDbSymbolTableRecord
100
AcDbViewportTableRecord
  2
*ACTIVE
 70
     0
 10
0.0
 20
0.0
 11
1.0
 21
1.0
 12
11.05340436024932
 22
5.360520027027467
 13
0.0
 23
0.0
 14
0.5
 24
0.5
 15
0.5
 25
0.5
 16
0.0
 26
0.0
 36
1.0
 17
0.0
 27
0.0
 37
0.0
 40
8.095581115707152
 41
1.519637462235649
 42
50.0
 43
0.0
 44
0.0
 50
0.0
 51
0.0
 71
     0
 72
  2000
 73
     1
 74
     0
 75
     0
 76
     0
 77
     0
 78
     0
281
     0
 65
     1
110
0.0
120
0.0
130
0.0
111
1.0
121
0.0
131
0.0
112
0.0
122
1.0
132
0.0
 79
     0
146
0.0
  0
ENDTAB
  0
TABLE
  2
LTYPE
  5
5
330
0
100
AcDbSymbolTable
 70
     2
  0
LTYPE
  5
13
330
5
100
AcDbSymbolTableRecord
100
AcDbLinetypeTableRecord
  2
BYBLOCK
 70
     0
  3

 72
    65
 73
     0
 40
0.0
  0
LTYPE
  5
14
330
5
100
AcDbSymbolTableRecord
100
AcDbLinetypeTableRecord
  2
BYLAYER
 70
     0
  3

 72
    65
 73
     0
 40
0.0
  0
LTYPE
  5
15
330
5
100
AcDbSymbolTableRecord
100
AcDbLinetypeTableRecord
  2
CONTINUOUS
 70
     0
  3
Solid line
 72
    65
 73
     0
 40
0.0
  0
ENDTAB
  0
TABLE
  2
LAYER
  5
2
330
0
100
AcDbSymbolTable
 70
     3
  0
LAYER
  5
F
330
2
100
AcDbSymbolTableRecord
100
AcDbLayerTableRecord
  2
0
 70
     0
 62
     7
  6
CONTINUOUS
370
    -3
390
0
  0
ENDTAB
  0
TABLE
  2
STYLE
  5
3
330
0
100
AcDbSymbolTable
 70
     1
  0
STYLE
  5
10
330
3
100
AcDbSymbolTableRecord
100
AcDbTextStyleTableRecord
  2
STANDARD
 70
     0
 40
0.0
 41
1.0
 50
0.0
 71
     0
 42
0.2
  3
txt
  4

  0
ENDTAB
  0
TABLE
  2
VIEW
  5
6
330
0
100
AcDbSymbolTable
 70
     1
  0
VIEW
  5
9BA
330
6
100
AcDbSymbolTableRecord
100
AcDbViewTableRecord
  2
INITIAL
 70
     0
 40
8.095581115707152
 10
11.05340436024932
 20
5.360520027027467
 41
12.30234834199606
 11
0.0
 21
0.0
 31
1.0
 12
0.0
 22
0.0
 32
0.0
 42
50.0
 43
0.0
 44
0.0
 50
0.0
 71
     0
281
     0
 72
     0
  0
ENDTAB
  0
TABLE
  2
UCS
  5
7
330
0
100
AcDbSymbolTable
 70
     0
  0
ENDTAB
  0
TABLE
  2
APPID
  5
9
330
0
100
AcDbSymbolTable
 70
     1
  0
APPID
  5
11
330
9
100
AcDbSymbolTableRecord
100
AcDbRegAppTableRecord
  2
ACAD
 70
     0
  0
ENDTAB
  0
TABLE
  2
DIMSTYLE
  5
A
330
0
100
AcDbSymbolTable
 70
     1
100
AcDbDimStyleTable
  0
DIMSTYLE
105
1D
330
A
100
AcDbSymbolTableRecord
100
AcDbDimStyleTableRecord
  2
STANDARD
 70
     0
  3

  4

340
10
  0
ENDTAB
  0
TABLE
  2
BLOCK_RECORD
  5
1
330
0
100
AcDbSymbolTable
 70
     0
  0
BLOCK_RECORD
  5
19
330
1
100
AcDbSymbolTableRecord
100
AcDbBlockTableRecord
  2
*MODEL_SPACE
340
9BD
  0
BLOCK_RECORD
  5
16
330
1
100
AcDbSymbolTableRecord
100
AcDbBlockTableRecord
  2
*PAPER_SPACE
340
9BE
  0
ENDTAB
  0
ENDSEC
  0
SECTION
  2
BLOCKS
  0
BLOCK
  5
1A
330
19
100
AcDbEntity
  8
0
100
AcDbBlockBegin
  2
*MODEL_SPACE
 70
     0
 10
0.0
 20
0.0
 30
0.0
  3
*MODEL_SPACE
  1

  4

  0
ENDBLK
  5
1B
330
19
100
AcDbEntity
  8
0
100
AcDbBlockEnd
  0
BLOCK
  5
17
330
16
100
AcDbEntity
 67
     1
  8
0
100
AcDbBlockBegin
  2
*PAPER_SPACE
 70
     0
 10
0.0
 20
0.0
 30
0.0
  3
*PAPER_SPACE
  1

  4

  0
ENDBLK
  5
18
330
16
100
AcDbEntity
 67
     1
  8
0
100
AcDbBlockEnd
  0
ENDSEC
  0
SECTION
  2
ENTITIES
  0
LINE
  5
8A8
330
19
100
AcDbEntity
  8
0
100
AcDbLine
 10
9.103845921209771
 20
4.08619797234814
 30
0.0
 11
9.103845921209771
 21
3.066177674994916
 31
0.0
  0
LINE
  5
8A9
330
19
100
AcDbEntity
  8
0
100
AcDbLine
 10
9.103845921209771
 20
1.349467553218109
 30
0.0
 11
14.27088169106544
 21
4.351357555828017
 31
0.0
  0
LINE
  5
8AA
330
19
100
AcDbEntity
  8
0
100
AcDbLine
 10
14.27088169106544
 20
4.351357555828017
 30
0.0
 11
14.27088169106545
 21
5.123129976865588
 31
0.0
  0
LINE
  5
8AB
330
19
100
AcDbEntity
  8
0
100
AcDbLine
 10
14.27088169106544
 20
6.670676029420386
 30
0.0
 11
13.98945121042728
 21
6.529908491861622
 31
0.0
  0
LINE
  5
8AC
330
19
100
AcDbEntity
  8
0
100
AcDbLine
 10
9.103845921209771
 20
4.08619797234814
 30
0.0
 11
8.601165145464702
 21
4.401232555812466
 31
0.0
  0
LINE
  5
8AD
330
19
100
AcDbEntity
  8
0
100
AcDbLine
 10
8.601165145464702
 20
4.401232555812466
 30
0.0
 11
10.20967065163944
 21
5.187108678779651
 31
0.0
  0
LINE
  5
8AE
330
19
100
AcDbEntity
  8
0
100
AcDbLine
 10
13.72090117629285
 20
6.902609322679151
 30
0.0
 11
14.27088169106544
 21
6.670676029420386
 31
0.0
  0
LINE
  5
8AF
330
19
100
AcDbEntity
  8
0
100
AcDbLine
 10
9.103845921209771
 20
1.349467553218109
 30
0.0
 11
8.601165145464702
 21
1.664502136682434
 31
0.0
  0
LINE
  5
8B0
330
19
100
AcDbEntity
  8
0
100
AcDbLine
 10
8.601165145464702
 20
1.664502136682434
 30
0.0
 11
8.601165145464702
 21
2.850000131497165
 31
0.0
  0
LINE
  5
8B1
330
19
100
AcDbEntity
  8
0
100
AcDbLine
 10
9.103845921209771
 20
3.066177674994916
 30
0.0
 11
9.289641048129948
 21
2.999211407766084
 31
0.0
  0
LINE
  5
8B2
330
19
100
AcDbEntity
  8
0
100
AcDbLine
 10
9.289641048129948
 20
2.999211407766084
 30
0.0
 11
8.965527287771023
 21
2.621651085203312
 31
0.0
  0
LINE
  5
8B3
330
19
100
AcDbEntity
  8
0
100
AcDbLine
 10
8.965527287771023
 20
2.621651085203312
 30
0.0
 11
9.103845921209771
 21
2.565681273009209
 31
0.0
  0
LINE
  5
8B4
330
19
100
AcDbEntity
  8
0
100
AcDbLine
 10
8.759346435287508
 20
3.282078615090215
 30
0.0
 11
8.462846512025953
 21
2.936685668667638
 31
0.0
  0
LINE
  5
8B7
330
19
100
AcDbEntity
  8
0
100
AcDbLine
 10
8.462846512025953
 20
2.936685668667638
 30
0.0
 11
8.965527287771023
 21
2.621651085203312
 31
0.0
  0
LINE
  5
8B8
330
19
100
AcDbEntity
  8
0
100
AcDbLine
 10
9.103845921209771
 20
3.066177674994916
 30
0.0
 11
8.601165145464702
 21
3.381212258459241
 31
0.0
  0
LINE
  5
8B9
330
19
100
AcDbEntity
  8
0
100
AcDbLine
 10
8.601165145464702
 20
3.381212258459242
 30
0.0
 11
8.601165145464702
 21
4.401232555812466
 31
0.0
  0
LINE
  5
8BA
330
19
100
AcDbEntity
  8
0
100
AcDbLine
 10
9.103845921209771
 20
2.565681273009209
 30
0.0
 11
9.103845921209771
 21
1.349467553218109
 31
0.0
  0
LINE
  5
8BB
330
19
100
AcDbEntity
  8
0
100
AcDbLine
 10
14.27088169106544
 20
5.589589436324845
 30
0.0
 11
14.41037471623307
 21
5.50659475991688
 31
0.0
  0
LINE
  5
8BC
330
19
100
AcDbEntity
  8
0
100
AcDbLine
 10
14.41037471623307
 20
5.50659475991688
 30
0.0
 11
14.123273976468
 21
5.172098372126862
 31
0.0
  0
LINE
  5
8BD
330
19
100
AcDbEntity
  8
0
100
AcDbLine
 10
14.123273976468
 20
5.172098372126862
 30
0.0
 11
14.27088169106545
 21
5.123129976865588
 31
0.0
  0
LINE
  5
8BE
330
19
100
AcDbEntity
  8
0
100
AcDbLine
 10
14.27088169106544
 20
5.589589436324846
 30
0.0
 11
14.27088169106544
 21
5.799597066757585
 31
0.0
  0
LWPOLYLINE
  5
8BF
330
19
100
AcDbEntity
  8
0
100
AcDbPolyline
 90
        6
 70
     0
 43
0.0
 10
8.96213656825309
 20
4.175008504072846
 10
9.022955938775601
 20
3.744810148174389
 10
9.051014913405719
 20
3.689770638225199
 10
9.078109918275892
 20
3.568664301403315
 10
9.091189183399644
 20
3.450553120907354
 10
9.103845921209771
 20
3.292403462728086
  0
LWPOLYLINE
  5
8C0
330
19
100
AcDbEntity
  8
0
100
AcDbPolyline
 90
        5
 70
     0
 43
0.0
 10
8.795548575079408
 20
4.279410704379476
 10
8.872750344529589
 20
3.842824373981504
 10
8.895815521532335
 20
3.767761977876533
 10
8.940916254123572
 20
3.66868782989164
 10
8.947150034697172
 20
3.164380402690046
  0
LWPOLYLINE
  5
8C1
330
19
100
AcDbEntity
  8
0
100
AcDbPolyline
 90
       10
 70
     0
 43
0.0
 10
8.65789668890149
 20
4.365678385018075
 10
8.645281707786978
 20
4.272127725908028
 10
8.6623823838994
 20
4.122987665092299
 10
8.687468647213617
 20
4.013892254337631
 10
8.745589726777304
 20
3.9018123486368
 10
8.788691818067091
 20
3.796731054242547
 10
8.787743559814162
 20
3.702636114628513
 10
8.784787121130524
 20
3.619551097055218
 10
8.802891045770425
 20
3.466407581258834
 10
8.821275536216756
 20
3.243267088059668
  0
LWPOLYLINE
  5
8C2
330
19
100
AcDbEntity
  8
0
100
AcDbPolyline
 90
        8
 70
     0
 43
0.0
 10
8.601165145464702
 20
3.789626951388876
 10
8.646590208450725
 20
3.723578080524197
 10
8.67065975623145
 20
3.642510221385619
 10
8.682718377944957
 20
3.559433620691082
 10
8.703757979634229
 20
3.526412271447621
 10
8.727825282913953
 20
3.449348428414948
 10
8.734871028741571
 20
3.380283078464828
 10
8.72904294747233
 20
3.301070084670926
  0
LWPOLYLINE
  5
8C3
330
19
100
AcDbEntity
  8
0
100
AcDbPolyline
 90
        5
 70
     0
 43
0.0
 10
9.228649099055476
 20
3.021194778526304
 10
9.147534388386328
 20
2.935067470286023
 10
9.065501437237305
 20
2.846933103685557
 10
8.972449024918284
 20
2.773807625104482
 10
8.881000307893213
 20
2.67462490712406
  0
LWPOLYLINE
  5
8C4
330
19
100
AcDbEntity
  8
0
100
AcDbPolyline
 90
        6
 70
     0
 43
0.0
 10
9.083844444587619
 20
3.07871278109081
 10
9.020379943011799
 20
2.983044400650079
 10
8.979382545695803
 20
2.904943080449647
 10
8.927360075957306
 20
2.851860688533371
 10
8.862325676125115
 20
2.796768993935885
 10
8.792528926448464
 20
2.730070721141215
  0
LWPOLYLINE
  5
8C5
330
19
100
AcDbEntity
  8
0
100
AcDbPolyline
 90
        4
 70
     0
 43
0.0
 10
9.006784062305856
 20
3.127007218843585
 10
8.872233030469038
 20
2.979958342033576
 10
8.791194910968736
 20
2.902835580849601
 10
8.695520405908372
 20
2.790866837355409
  0
LWPOLYLINE
  5
8C6
330
19
100
AcDbEntity
  8
0
100
AcDbPolyline
 90
        4
 70
     0
 43
0.0
 10
8.876584461671854
 20
3.20860448480658
 10
8.748084963925443
 20
3.021930931614524
 10
8.682028798432507
 20
3.003875824871416
 10
8.577281387239129
 20
2.864968298547126
  0
LWPOLYLINE
  5
8C7
330
19
100
AcDbEntity
  8
0
100
AcDbPolyline
 90
        2
 70
     0
 43
0.0
 10
8.783717849018082
 20
3.266804829929706
 10
8.488824317846509
 20
2.920405143071914
  0
LWPOLYLINE
  5
8C8
330
19
100
AcDbEntity
  8
0
100
AcDbPolyline
 90
        7
 70
     0
 43
0.0
 10
9.04822090744317
 20
2.588189603928988
 10
9.082785040181388
 20
2.371465730238514
 10
9.0878792792286
 20
2.212308895655015
 10
9.08497783081951
 20
2.031125483487031
 10
9.056054205598786
 20
1.842920453877199
 10
9.03915160669979
 20
1.63870609334675
 10
9.004127000379112
 20
1.411962301780625
  0
LWPOLYLINE
  5
8C9
330
19
100
AcDbEntity
  8
0
100
AcDbPolyline
 90
        8
 70
     0
 43
0.0
 10
8.935506327223836
 20
2.640465492392773
 10
8.954629029655132
 20
2.420443103503795
 10
8.960729322856075
 20
2.252277793807259
 10
8.953824419466329
 20
2.070091133111796
 10
8.932873475566636
 20
1.944953846171983
 10
8.909935112870503
 20
1.793789332293282
 10
8.894998610008425
 20
1.653640351707825
 10
8.8721383932289
 20
1.494680754289521
  0
LWPOLYLINE
  5
8CA
330
19
100
AcDbEntity
  8
0
100
AcDbPolyline
 90
       10
 70
     0
 43
0.0
 10
8.84115984837986
 20
2.699593283026667
 10
8.866482318299156
 20
2.5244981432353
 10
8.851551426689584
 20
2.374339122385079
 10
8.836592478817487
 20
2.274230302858679
 10
8.814616963630796
 20
2.191134623905625
 10
8.802634654951355
 20
2.138074676999369
 10
8.80370074950689
 20
2.021958771053354
 10
8.771739883566456
 20
1.894813303682832
 10
8.72476620172988
 20
1.763655403327648
 10
8.671795425107401
 20
1.620237502344218
  0
LWPOLYLINE
  5
8CB
330
19
100
AcDbEntity
  8
0
100
AcDbPolyline
 90
        6
 70
     0
 43
0.0
 10
8.754773732930405
 20
2.753732242005917
 10
8.767363841419472
 20
2.5584767287357
 10
8.764441070250864
 20
2.415331469573819
 10
8.732505454946702
 20
2.243140821011858
 10
8.676549670883862
 20
2.063929677258551
 10
8.601165145464702
 20
1.940770269985919
  0
LWPOLYLINE
  5
8CC
330
19
100
AcDbEntity
  8
0
100
AcDbPolyline
 90
        5
 70
     0
 43
0.0
 10
8.642014799021611
 20
2.824399284570229
 10
8.673176877264357
 20
2.723589647330763
 10
8.677258889780083
 20
2.584452332151542
 10
8.661316332764274
 20
2.453311826679123
 10
8.601165145464702
 20
2.286113292368782
  0
LINE
  5
8CD
330
19
100
AcDbEntity
  8
0
100
AcDbLine
 10
7.54769195012998
 20
6.930179988080119
 30
0.0
 11
10.54143393826063
 21
5.300973394641179
 31
0.0
  0
LINE
  5
8CE
330
19
100
AcDbEntity
  8
0
100
AcDbLine
 10
12.7625133934801
 20
4.092252901244605
 30
0.0
 11
12.7625133934801
 21
4.840005153523495
 31
0.0
  0
LINE
  5
8CF
330
19
100
AcDbEntity
  8
0
100
AcDbLine
 10
11.62511228631229
 20
4.711231220194404
 30
0.0
 11
11.62511228631229
 21
4.401928394543485
 31
0.0
  0
LINE
  5
8D0
330
19
100
AcDbEntity
  8
0
100
AcDbLine
 10
11.62511228631229
 20
4.401928394543485
 30
0.0
 11
11.9135147130389
 21
4.554281443944593
 31
0.0
  0
LINE
  5
8D1
330
19
100
AcDbEntity
  8
0
100
AcDbLine
 10
11.62511228631229
 20
4.401928394543485
 30
0.0
 11
10.74400053601045
 21
4.89070275132276
 31
0.0
  0
LINE
  5
8D2
330
19
100
AcDbEntity
  8
0
100
AcDbLine
 10
7.54769195012998
 20
6.930179988080119
 30
0.0
 11
7.54769195012998
 21
6.663773729659634
 31
0.0
  0
LINE
  5
8D4
330
19
100
AcDbEntity
  8
0
100
AcDbLine
 10
13.44314006668916
 20
5.661260961402967
 30
0.0
 11
14.51307804865654
 21
6.220368426695371
 31
0.0
  0
LINE
  5
8D5
330
19
100
AcDbEntity
  8
0
100
AcDbLine
 10
14.51307804865654
 20
6.220368426695371
 30
0.0
 11
14.51307804865654
 21
5.927541044385153
 31
0.0
  0
ARC
  5
8D6
330
19
100
AcDbEntity
  8
0
100
AcDbCircle
 10
10.33485433475975
 20
-0.2499733457600212
 30
0.0
 40
7.702134512961374
100
AcDbArc
 50
57.14764427103906
 51
77.97775630281468
  0
LINE
  5
8D7
330
19
100
AcDbEntity
  8
0
100
AcDbLine
 10
10.31738620962462
 20
4.693193624493373
 30
0.0
 11
9.103845921209771
 21
4.08619797234814
 31
0.0
  0
LINE
  5
8D8
330
19
100
AcDbEntity
  8
0
100
AcDbLine
 10
13.47554201430022
 20
6.782732886931161
 30
0.0
 11
13.72090117629285
 21
6.902609322679151
 31
0.0
  0
LINE
  5
8D9
330
19
100
AcDbEntity
  8
0
100
AcDbLine
 10
14.27088169106544
 20
6.370492250114935
 30
0.0
 11
14.27088169106544
 21
6.670676029420386
 31
0.0
  0
LINE
  5
8DA
330
19
100
AcDbEntity
  8
0
100
AcDbLine
 10
8.186173625350904
 20
6.582715657759056
 30
0.0
 11
8.186173625350904
 21
7.215821327909462
 31
0.0
  0
LINE
  5
8DB
330
19
100
AcDbEntity
  8
0
100
AcDbLine
 10
8.186173625350904
 20
7.215821327909462
 30
0.0
 11
10.29885190511752
 21
6.119020066932426
 31
0.0
  0
LINE
  5
8DC
330
19
100
AcDbEntity
  8
0
100
AcDbLine
 10
12.7625133934801
 20
4.840005153523495
 30
0.0
 11
13.13025948768733
 21
5.035220052913729
 31
0.0
  0
LINE
  5
8DD
330
19
100
AcDbEntity
  8
0
100
AcDbLine
 10
13.8988970095944
 20
5.443244771245862
 30
0.0
 11
13.8988970095944
 21
4.72353073196282
 31
0.0
  0
LINE
  5
8DE
330
19
100
AcDbEntity
  8
0
100
AcDbLine
 10
13.8988970095944
 20
4.72353073196282
 30
0.0
 11
13.59277326544953
 21
4.553474484763567
 31
0.0
  0
LINE
  5
8DF
330
19
100
AcDbEntity
  8
0
100
AcDbLine
 10
13.8988970095944
 20
5.443244771245862
 30
0.0
 11
11.93914284815749
 21
6.380714057390867
 31
0.0
  0
LINE
  5
8E0
330
19
100
AcDbEntity
  8
0
100
AcDbLine
 10
9.26300379120296
 20
7.66087369206078
 30
0.0
 11
8.974426394096209
 21
7.541605067447751
 31
0.0
  0
ARC
  5
8E1
330
19
100
AcDbEntity
  8
0
100
AcDbCircle
 10
10.33485433475975
 20
-0.2499733457600212
 30
0.0
 40
7.702134512961374
100
AcDbArc
 50
106.1988665518223
 51
111.2150115489099
  0
LINE
  5
8E2
330
19
100
AcDbEntity
  8
0
100
AcDbLine
 10
13.74010357283642
 20
5.51920530381229
 30
0.0
 11
14.51307804865654
 21
5.927541044385153
 31
0.0
  0
LINE
  5
8E3
330
19
100
AcDbEntity
  8
0
100
AcDbLine
 10
13.13025948768733
 20
5.035220052913729
 30
0.0
 11
13.05619751186638
 21
5.182511256901075
 31
0.0
  0
LINE
  5
8E4
330
19
100
AcDbEntity
  8
0
100
AcDbLine
 10
13.05619751186638
 20
5.182511256901075
 30
0.0
 11
13.59277326544953
 21
5.11574475026142
 31
0.0
  0
LINE
  5
8E5
330
19
100
AcDbEntity
  8
0
100
AcDbLine
 10
13.59277326544953
 20
5.11574475026142
 30
0.0
 11
13.53899231182883
 21
5.25219241074197
 31
0.0
  0
LINE
  5
8E7
330
19
100
AcDbEntity
  8
0
100
AcDbLine
 10
13.13025948768733
 20
4.425543419744607
 30
0.0
 11
13.59277326544953
 21
4.36799249798253
 31
0.0
  0
LINE
  5
8E9
330
19
100
AcDbEntity
  8
0
100
AcDbLine
 10
13.13025948768733
 20
5.035220052913729
 30
0.0
 11
13.13025948768734
 21
4.296541271223083
 31
0.0
  0
LINE
  5
8EA
330
19
100
AcDbEntity
  8
0
100
AcDbLine
 10
13.59277326544953
 20
5.11574475026142
 30
0.0
 11
13.59277326544953
 21
4.36799249798253
 31
0.0
  0
LINE
  5
8EB
330
19
100
AcDbEntity
  8
0
100
AcDbLine
 10
13.53899231182884
 20
5.252192410741971
 30
0.0
 11
13.8988970095944
 21
5.443244771245862
 31
0.0
  0
LINE
  5
8EC
330
19
100
AcDbEntity
  8
0
100
AcDbLine
 10
13.13025948768734
 20
4.296541271223083
 30
0.0
 11
12.7625133934801
 21
4.092252901244605
 31
0.0
  0
LINE
  5
8ED
330
19
100
AcDbEntity
  8
0
100
AcDbLine
 10
11.62511228631229
 20
4.510033462651436
 30
0.0
 11
11.81271458643752
 21
4.60913728373625
 31
0.0
  0
LINE
  5
8EE
330
19
100
AcDbEntity
  8
0
100
AcDbLine
 10
11.62511228631229
 20
4.510033462651436
 30
0.0
 11
10.75716077494297
 21
4.991507511249487
 31
0.0
  0
LINE
  5
8EF
330
19
100
AcDbEntity
  8
0
100
AcDbLine
 10
11.62511228631229
 20
4.606133215944675
 30
0.0
 11
11.72310854420602
 21
4.657901257182966
 31
0.0
  0
LINE
  5
8F0
330
19
100
AcDbEntity
  8
0
100
AcDbLine
 10
11.62511228631229
 20
4.606133215944675
 30
0.0
 11
10.7924759888722
 21
5.068017046880923
 31
0.0
  0
LINE
  5
8F1
330
19
100
AcDbEntity
  8
0
100
AcDbLine
 10
13.63271010953734
 20
5.570578111359646
 30
0.0
 11
14.51307804865654
 21
6.035646112493104
 31
0.0
  0
LINE
  5
8F2
330
19
100
AcDbEntity
  8
0
100
AcDbLine
 10
13.53724293571306
 20
5.61624585125091
 30
0.0
 11
14.51307804865654
 21
6.131745865786319
 31
0.0
  0
LINE
  5
8F8
330
19
100
AcDbEntity
  8
0
100
AcDbLine
 10
8.62068183128468
 20
7.395402946651505
 30
0.0
 11
8.528355493558843
 21
7.502303189943642
 31
0.0
  0
LINE
  5
8F9
330
19
100
AcDbEntity
  8
0
100
AcDbLine
 10
8.528355493558843
 20
7.502303189943642
 30
0.0
 11
9.0389028979526
 21
7.43952611015338
 31
0.0
  0
LINE
  5
8FA
330
19
100
AcDbEntity
  8
0
100
AcDbLine
 10
9.0389028979526
 20
7.43952611015338
 30
0.0
 11
8.974426394096211
 21
7.541605067447752
 31
0.0
  0
LINE
  5
8FB
330
19
100
AcDbEntity
  8
0
100
AcDbLine
 10
8.974426394096211
 20
7.541605067447752
 30
0.0
 11
8.974426394096211
 21
7.447454162656157
 31
0.0
  0
LINE
  5
8FD
330
19
100
AcDbEntity
  8
0
100
AcDbLine
 10
8.528355493558843
 20
7.502303189943642
 30
0.0
 11
8.528355493558843
 21
7.357244603598585
 31
0.0
  0
LINE
  5
8FE
330
19
100
AcDbEntity
  8
0
100
AcDbLine
 10
8.62068183128468
 20
7.395402946651505
 30
0.0
 11
8.186173625350904
 21
7.215821327909462
 31
0.0
  0
LINE
  5
900
330
19
100
AcDbEntity
  8
0
100
AcDbLine
 10
10.79949187985379
 20
5.859111797488341
 30
0.0
 11
11.93914284815748
 21
6.380714057390867
 31
0.0
  0
LINE
  5
901
330
19
100
AcDbEntity
  8
0
100
AcDbLine
 10
11.93914284815748
 20
6.380714057390867
 30
0.0
 11
11.93914284815748
 21
9.155865414980422
 31
0.0
  0
LINE
  5
902
330
19
100
AcDbEntity
  8
0
100
AcDbLine
 10
10.79949187985379
 20
5.859111797488341
 30
0.0
 11
10.79949187985379
 21
8.703767305001486
 31
0.0
  0
LINE
  5
903
330
19
100
AcDbEntity
  8
0
100
AcDbLine
 10
10.79949187985379
 20
8.703767305001486
 30
0.0
 11
11.19073524582238
 21
8.858973057653522
 31
0.0
  0
LINE
  5
904
330
19
100
AcDbEntity
  8
0
100
AcDbLine
 10
10.79949187985379
 20
8.703767305001486
 30
0.0
 11
10.21425328594217
 21
8.919669383454865
 31
0.0
  0
LINE
  5
905
330
19
100
AcDbEntity
  8
0
100
AcDbLine
 10
10.21425328594217
 20
8.919669383454865
 30
0.0
 11
10.21425328594217
 21
6.162939613546356
 31
0.0
  0
LINE
  5
906
330
19
100
AcDbEntity
  8
0
100
AcDbLine
 10
11.93914284815748
 20
9.155865414980422
 30
0.0
 11
11.35390425424586
 21
9.371767493433801
 31
0.0
  0
LINE
  5
907
330
19
100
AcDbEntity
  8
0
100
AcDbLine
 10
10.21425328594217
 20
8.919669383454865
 30
0.0
 11
10.60549665191075
 21
9.074875136106899
 31
0.0
  0
LINE
  5
908
330
19
100
AcDbEntity
  8
0
100
AcDbLine
 10
11.19073524582238
 20
8.858973057653522
 30
0.0
 11
11.28542915794228
 21
8.739088058680663
 31
0.0
  0
LINE
  5
909
330
19
100
AcDbEntity
  8
0
100
AcDbLine
 10
11.28542915794228
 20
8.739088058680663
 30
0.0
 11
11.42335504712609
 21
9.118546019999796
 31
0.0
  0
LINE
  5
90A
330
19
100
AcDbEntity
  8
0
100
AcDbLine
 10
11.42335504712609
 20
9.118546019999796
 30
0.0
 11
11.50382962253115
 21
8.98317720426672
 31
0.0
  0
LINE
  5
90C
330
19
100
AcDbEntity
  8
0
100
AcDbLine
 10
10.7274177615171
 20
9.02989686357806
 30
0.0
 11
10.83811645321446
 21
9.334448098453175
 31
0.0
  0
LINE
  5
90E
330
19
100
AcDbEntity
  8
0
100
AcDbLine
 10
11.19073524582238
 20
8.858973057653522
 30
0.0
 11
10.60549665191075
 21
9.0748751361069
 31
0.0
  0
LINE
  5
90F
330
19
100
AcDbEntity
  8
0
100
AcDbLine
 10
11.42335504712609
 20
9.118546019999796
 30
0.0
 11
10.83811645321446
 21
9.334448098453175
 31
0.0
  0
LINE
  5
910
330
19
100
AcDbEntity
  8
0
100
AcDbLine
 10
11.05662537406752
 20
9.253837334461245
 30
0.0
 11
11.35390425424586
 21
9.371767493433801
 31
0.0
  0
LINE
  5
911
330
19
100
AcDbEntity
  8
0
100
AcDbLine
 10
11.50382962253114
 20
8.983177204266722
 30
0.0
 11
11.93914284815748
 21
9.155865414980422
 31
0.0
  0
LINE
  5
912
330
19
100
AcDbEntity
  8
0
100
AcDbLine
 10
10.21425328594217
 20
7.205833359795275
 30
0.0
 11
9.26300379120296
 21
7.66087369206078
 31
0.0
  0
ARC
  5
913
330
19
100
AcDbEntity
  8
0
100
AcDbCircle
 10
10.33485433475975
 20
-0.2499733457600212
 30
0.0
 40
7.702134512961374
100
AcDbArc
 50
90.89718161649202
 51
94.38192486366496
  0
LWPOLYLINE
  5
914
330
19
100
AcDbEntity
  8
0
100
AcDbPolyline
 90
        2
 70
     0
 43
0.0
 10
8.528355493558843
 20
7.418217729469122
 10
8.569753583475299
 20
7.374354374826148
  0
LWPOLYLINE
  5
915
330
19
100
AcDbEntity
  8
0
100
AcDbPolyline
 90
        3
 70
     0
 43
0.0
 10
10.68423457211593
 20
8.746287214926126
 10
10.80392209282135
 20
8.78186133057366
 10
11.05427865035955
 20
8.909313658710238
  0
LWPOLYLINE
  5
916
330
19
100
AcDbEntity
  8
0
100
AcDbPolyline
 90
        3
 70
     0
 43
0.0
 10
10.53367669435275
 20
8.801829961209034
 10
10.81787330316396
 20
8.893981637292526
 10
10.94462539491577
 20
8.949766161340413
  0
LWPOLYLINE
  5
917
330
19
100
AcDbEntity
  8
0
100
AcDbPolyline
 90
        3
 70
     0
 43
0.0
 10
10.40816708998191
 20
8.848132075819093
 10
10.62366954402353
 20
8.909888843417555
 10
10.7842818157096
 20
9.008918979314844
  0
LWPOLYLINE
  5
918
330
19
100
AcDbEntity
  8
0
100
AcDbPolyline
 90
        3
 70
     0
 43
0.0
 10
10.29332409532779
 20
8.890499140294304
 10
10.5325551714789
 20
8.950878946105293
 10
10.70241526891135
 20
9.039120606127263
  0
LWPOLYLINE
  5
919
330
19
100
AcDbEntity
  8
0
100
AcDbPolyline
 90
        2
 70
     0
 43
0.0
 10
11.3515040309074
 20
9.14505278818287
 10
11.2444186501218
 20
8.791008446991469
  0
LWPOLYLINE
  5
91A
330
19
100
AcDbEntity
  8
0
100
AcDbPolyline
 90
        2
 70
     0
 43
0.0
 10
11.28105088339502
 20
9.171043864540014
 10
11.16442997234902
 20
8.868677412896435
  0
LWPOLYLINE
  5
91B
330
19
100
AcDbEntity
  8
0
100
AcDbPolyline
 90
        2
 70
     0
 43
0.0
 10
11.19190724127039
 20
9.203930105836871
 10
11.09596847052067
 20
8.893933745429102
  0
LWPOLYLINE
  5
91C
330
19
100
AcDbEntity
  8
0
100
AcDbPolyline
 90
        2
 70
     0
 43
0.0
 10
11.08732850021928
 20
9.242510554545934
 10
10.99029850644493
 20
8.932916760410322
  0
LWPOLYLINE
  5
91D
330
19
100
AcDbEntity
  8
0
100
AcDbPolyline
 90
        2
 70
     0
 43
0.0
 10
11.00335570341811
 20
9.273489204196736
 10
10.89971858734143
 20
8.966332862841082
  0
LWPOLYLINE
  5
91E
330
19
100
AcDbEntity
  8
0
100
AcDbPolyline
 90
        2
 70
     0
 43
0.0
 10
10.91532279870378
 20
9.305965680112442
 10
10.82874847939646
 20
8.992514652580828
  0
LWPOLYLINE
  5
91F
330
19
100
AcDbEntity
  8
0
100
AcDbPolyline
 90
        2
 70
     0
 43
0.0
 10
11.85795575468521
 20
9.185816382682495
 10
11.62805157011881
 20
9.032455895097721
  0
LWPOLYLINE
  5
920
330
19
100
AcDbEntity
  8
0
100
AcDbPolyline
 90
        2
 70
     0
 43
0.0
 10
11.77953602443674
 20
9.214746434337554
 10
11.4676267053969
 20
9.044075270443248
  0
LWPOLYLINE
  5
921
330
19
100
AcDbEntity
  8
0
100
AcDbPolyline
 90
        2
 70
     0
 43
0.0
 10
11.65421784092991
 20
9.260977931317761
 10
11.39162345538508
 20
9.130252214158537
  0
LWPOLYLINE
  5
922
330
19
100
AcDbEntity
  8
0
100
AcDbPolyline
 90
        2
 70
     0
 43
0.0
 10
11.54163472936894
 20
9.302511295722695
 10
11.29928171973413
 20
9.164318273475951
  0
LWPOLYLINE
  5
923
330
19
100
AcDbEntity
  8
0
100
AcDbPolyline
 90
        2
 70
     0
 43
0.0
 10
11.43422184263264
 20
9.34213729739159
 10
11.1785979067325
 20
9.208840091301699
  0
LWPOLYLINE
  5
925
330
19
100
AcDbEntity
  8
0
100
AcDbPolyline
 90
        5
 70
     0
 43
0.0
 10
12.7625133934801
 20
4.779943789684409
 10
12.86218341306061
 20
4.860079102077071
 10
12.91722011738355
 20
4.89314309683957
 10
13.02031230960561
 20
4.9132209732699
 10
13.13025948768733
 20
4.969345094907889
  0
LWPOLYLINE
  5
926
330
19
100
AcDbEntity
  8
0
100
AcDbPolyline
 90
        4
 70
     0
 43
0.0
 10
12.7625133934801
 20
4.682843032364692
 10
12.85924044138299
 20
4.752969987868342
 10
12.97732581011743
 20
4.812095438210009
 10
13.13025948768733
 20
4.867239878581041
  0
LWPOLYLINE
  5
927
330
19
100
AcDbEntity
  8
0
100
AcDbPolyline
 90
        3
 70
     0
 43
0.0
 10
12.7625133934801
 20
4.582737018464544
 10
12.91934725636737
 20
4.669920321185828
 10
13.13025948768733
 20
4.724100791796917
  0
LWPOLYLINE
  5
928
330
19
100
AcDbEntity
  8
0
100
AcDbPolyline
 90
        3
 70
     0
 43
0.0
 10
12.7625133934801
 20
4.477634401310772
 10
12.94845493067025
 20
4.529796030111394
 10
13.13025948768733
 20
4.605982316672699
  0
LWPOLYLINE
  5
929
330
19
100
AcDbEntity
  8
0
100
AcDbPolyline
 90
        4
 70
     0
 43
0.0
 10
12.7625133934801
 20
4.335492390676372
 10
12.88847380774198
 20
4.388620794863187
 10
13.03258640341531
 20
4.445758826408415
 10
13.13025948768733
 20
4.499874767615697
  0
LWPOLYLINE
  5
92A
330
19
100
AcDbEntity
  8
0
100
AcDbPolyline
 90
        4
 70
     0
 43
0.0
 10
12.7625133934801
 20
4.214373709098976
 10
12.92757861642887
 20
4.271525207650216
 10
13.03366428160111
 20
4.308621835906395
 10
13.13025948768733
 20
4.354731428277617
  0
LWPOLYLINE
  5
92B
330
19
100
AcDbEntity
  8
0
100
AcDbPolyline
 90
        4
 70
     0
 43
0.0
 10
13.13025948768734
 20
4.562939704659462
 10
13.27576753582103
 20
4.558007630809645
 10
13.42393184324655
 20
4.530062564605379
 10
13.59277326544953
 20
4.496120452246261
  0
LWPOLYLINE
  5
92C
330
19
100
AcDbEntity
  8
0
100
AcDbPolyline
 90
        3
 70
     0
 43
0.0
 10
13.59277326544953
 20
4.604230009356216
 10
13.31775471465849
 20
4.656129592664856
 10
13.13025948768734
 20
4.672040165541386
  0
LWPOLYLINE
  5
92D
330
19
100
AcDbEntity
  8
0
100
AcDbPolyline
 90
        3
 70
     0
 43
0.0
 10
13.59277326544953
 20
4.721343552577205
 10
13.32871469655193
 20
4.747227131451965
 10
13.13025948768733
 20
4.819196174312177
  0
LWPOLYLINE
  5
92E
330
19
100
AcDbEntity
  8
0
100
AcDbPolyline
 90
        2
 70
     0
 43
0.0
 10
13.59277326544953
 20
4.83945978320042
 10
13.13025948768733
 20
4.907281723015849
  0
LWPOLYLINE
  5
92F
330
19
100
AcDbEntity
  8
0
100
AcDbPolyline
 90
        2
 70
     0
 43
0.0
 10
13.59277326544953
 20
4.946567775158647
 10
13.13025948768733
 20
5.002375422155359
  0
LWPOLYLINE
  5
930
330
19
100
AcDbEntity
  8
0
100
AcDbPolyline
 90
        2
 70
     0
 43
0.0
 10
13.59277326544953
 20
5.040663275897932
 10
13.08857773033111
 20
5.118114900873888
  0
LWPOLYLINE
  5
931
330
19
100
AcDbEntity
  8
0
100
AcDbPolyline
 90
        4
 70
     0
 43
0.0
 10
13.79329805630633
 20
4.664868958585842
 10
13.6871420341858
 20
4.626306527087995
 10
13.62709862635473
 20
4.596242738778673
 10
13.59277326544953
 20
4.582206237397983
  0
LWPOLYLINE
  5
932
330
19
100
AcDbEntity
  8
0
100
AcDbPolyline
 90
        3
 70
     0
 43
0.0
 10
13.8988970095944
 20
4.799601426722524
 10
13.73813039350805
 20
4.73844759544113
 10
13.59277326544953
 20
4.683308205197353
  0
LWPOLYLINE
  5
933
330
19
100
AcDbEntity
  8
0
100
AcDbPolyline
 90
        4
 70
     0
 43
0.0
 10
13.8988970095944
 20
4.90570392565227
 10
13.82513245277342
 20
4.89064902536234
 10
13.74406739926109
 20
4.861574457449233
 10
13.59277326544953
 20
4.792417082958032
  0
LWPOLYLINE
  5
934
330
19
100
AcDbEntity
  8
0
100
AcDbPolyline
 90
        4
 70
     0
 43
0.0
 10
13.8988970095944
 20
5.020821633198062
 10
13.82108635227373
 20
4.965722082847069
 10
13.67796409924712
 20
4.927603688930144
 10
13.59277326544953
 20
4.903526846521165
  0
LWPOLYLINE
  5
935
330
19
100
AcDbEntity
  8
0
100
AcDbPolyline
 90
        4
 70
     0
 43
0.0
 10
13.8988970095944
 20
5.125927055978087
 10
13.7399679918626
 20
5.031742897449223
 10
13.65988261961724
 20
5.040707043667472
 10
13.59277326544953
 20
5.004632742197287
  0
LWPOLYLINE
  5
936
330
19
100
AcDbEntity
  8
0
100
AcDbPolyline
 90
        3
 70
     0
 43
0.0
 10
13.8988970095944
 20
5.262062481328379
 10
13.75090889549753
 20
5.156874573136532
 10
13.59277326544953
 20
5.096726234883619
  0
LWPOLYLINE
  5
937
330
19
100
AcDbEntity
  8
0
100
AcDbPolyline
 90
        4
 70
     0
 43
0.0
 10
13.8988970095944
 20
5.358159990120616
 10
13.770854907494
 20
5.28901832713643
 10
13.6777738777872
 20
5.266944053905652
 10
13.56031800571031
 20
5.198086991586069
  0
LINE
  5
939
330
19
100
AcDbEntity
  8
0
100
AcDbLine
 10
10.26430745856315
 20
7.126898667172864
 30
0.0
 11
10.26430745856315
 21
6.629400227139333
 31
0.0
  0
LINE
  5
93A
330
19
100
AcDbEntity
  8
0
100
AcDbLine
 10
10.67683727039829
 20
6.919922017295448
 30
0.0
 11
10.67683727039829
 21
6.432063243720817
 31
0.0
  0
LINE
  5
93B
330
19
100
AcDbEntity
  8
0
100
AcDbLine
 10
10.30273114803675
 20
4.653438479383889
 30
0.0
 11
10.30273114803675
 21
4.317100004237308
 31
0.0
  0
LINE
  5
93C
330
19
100
AcDbEntity
  8
0
100
AcDbLine
 10
10.34635163221718
 20
7.195012953243802
 30
0.0
 11
10.61094084598806
 21
7.057650920375798
 31
0.0
  0
LINE
  5
93D
330
19
100
AcDbEntity
  8
0
100
AcDbLine
 10
10.61094084598806
 20
7.057650920375798
 30
0.0
 11
10.67683727039829
 21
6.919922017295448
 31
0.0
  0
LINE
  5
93E
330
19
100
AcDbEntity
  8
0
100
AcDbLine
 10
10.34635163221718
 20
7.195012953243802
 30
0.0
 11
10.26430745856315
 21
7.126898667172864
 31
0.0
  0
LWPOLYLINE
  5
940
330
19
100
AcDbEntity
  8
0
100
AcDbPolyline
 90
        4
 70
     0
 43
0.0
 10
10.30273114803675
 20
4.653438479383889
 10
10.73750689400891
 20
5.832865312057082
 42
0.3649568688014297
 10
10.71545057678615
 20
5.893914212916632
 42
-0.2901796613889263
 10
10.67683727039829
 20
5.958959274128582
 42
-0.8614994598697519
  0
LWPOLYLINE
  5
941
330
19
100
AcDbEntity
  8
0
100
AcDbPolyline
 90
        4
 70
     0
 43
0.0
 10
10.35980465017817
 20
4.624441346755351
 10
10.78823062399559
 20
5.786642996722197
 42
0.2822083990236022
 10
10.75903888951796
 20
5.910719685807337
 42
-0.2054774893899485
 10
10.73663620723383
 20
5.984390660612387
 42
-0.8614994598697519
  0
LINE
  5
942
330
19
100
AcDbEntity
  8
0
100
AcDbLine
 10
10.35980465017817
 20
4.624441346755351
 30
0.0
 11
10.35980465017817
 21
4.28810287160877
 31
0.0
  0
LINE
  5
943
330
19
100
AcDbEntity
  8
0
100
AcDbLine
 10
10.30273114803675
 20
4.653438479383889
 30
0.0
 11
10.35980465017817
 21
4.624441346755351
 31
0.0
  0
LINE
  5
944
330
19
100
AcDbEntity
  8
0
100
AcDbLine
 10
10.73663620723383
 20
6.945353403779254
 30
0.0
 11
10.73663620723383
 21
6.457494630204623
 31
0.0
  0
LINE
  5
945
330
19
100
AcDbEntity
  8
0
100
AcDbLine
 10
10.40615056905272
 20
7.220444339727608
 30
0.0
 11
10.6707397828236
 21
7.083082306859603
 31
0.0
  0
LINE
  5
946
330
19
100
AcDbEntity
  8
0
100
AcDbLine
 10
10.6707397828236
 20
7.083082306859603
 30
0.0
 11
10.73663620723383
 21
6.945353403779254
 31
0.0
  0
LINE
  5
947
330
19
100
AcDbEntity
  8
0
100
AcDbLine
 10
10.61094084598806
 20
7.057650920375798
 30
0.0
 11
10.6707397828236
 21
7.083082306859603
 31
0.0
  0
LINE
  5
948
330
19
100
AcDbEntity
  8
0
100
AcDbLine
 10
10.67683727039829
 20
6.919922017295448
 30
0.0
 11
10.73663620723383
 21
6.945353403779254
 31
0.0
  0
LINE
  5
949
330
19
100
AcDbEntity
  8
0
100
AcDbLine
 10
10.34635163221718
 20
7.195012953243802
 30
0.0
 11
10.40615056905272
 21
7.220444339727608
 31
0.0
  0
LINE
  5
94A
330
19
100
AcDbEntity
  8
0
100
AcDbLine
 10
10.26430745856315
 20
6.184962295137306
 30
0.0
 11
10.61824215513816
 21
5.509332928939891
 31
0.0
  0
LINE
  5
94B
330
19
100
AcDbEntity
  8
0
100
AcDbLine
 10
10.78737463077866
 20
5.865402492192056
 30
0.0
 11
12.7625133934801
 21
4.840005153523495
 31
0.0
  0
LINE
  5
94C
330
19
100
AcDbEntity
  8
0
100
AcDbLine
 10
10.67683727039829
 20
6.432063243720817
 30
0.0
 11
10.73663620723383
 21
6.457494630204622
 31
0.0
  0
LINE
  5
94D
330
19
100
AcDbEntity
  8
0
100
AcDbLine
 10
10.67683727039829
 20
6.287912491530457
 30
0.0
 11
10.73663620723383
 21
6.313343878014262
 31
0.0
  0
LINE
  5
94E
330
19
100
AcDbEntity
  8
0
100
AcDbLine
 10
10.67683727039829
 20
6.432063243720817
 30
0.0
 11
10.62804282396467
 21
6.465438694137878
 31
0.0
  0
LINE
  5
94F
330
19
100
AcDbEntity
  8
0
100
AcDbLine
 10
10.62804282396467
 20
6.465438694137878
 30
0.0
 11
10.62804282396467
 21
6.321287941947517
 31
0.0
  0
LINE
  5
950
330
19
100
AcDbEntity
  8
0
100
AcDbLine
 10
10.67683727039829
 20
6.287912491530457
 30
0.0
 11
10.62804282396467
 21
6.321287941947517
 31
0.0
  0
LINE
  5
951
330
19
100
AcDbEntity
  8
0
100
AcDbLine
 10
10.73663620723383
 20
6.313343878014262
 30
0.0
 11
10.6878417608002
 21
6.346719328431322
 31
0.0
  0
LINE
  5
952
330
19
100
AcDbEntity
  8
0
100
AcDbLine
 10
10.62804282396467
 20
6.321287941947517
 30
0.0
 11
10.6878417608002
 21
6.346719328431322
 31
0.0
  0
LINE
  5
953
330
19
100
AcDbEntity
  8
0
100
AcDbLine
 10
10.6878417608002
 20
6.346719328431322
 30
0.0
 11
10.6878417608002
 21
6.436743250812551
 31
0.0
  0
LINE
  5
954
330
19
100
AcDbEntity
  8
0
100
AcDbLine
 10
10.67683727039829
 20
6.287912491530456
 30
0.0
 11
10.67683727039829
 21
5.958959274128582
 31
0.0
  0
LINE
  5
955
330
19
100
AcDbEntity
  8
0
100
AcDbLine
 10
10.73663620723383
 20
6.313343878014263
 30
0.0
 11
10.73663620723383
 21
5.984390660612387
 31
0.0
  0
LINE
  5
958
330
19
100
AcDbEntity
  8
0
100
AcDbLine
 10
10.26430745856315
 20
6.629400227139333
 30
0.0
 11
10.31665538094693
 21
6.599398723732815
 31
0.0
  0
LINE
  5
959
330
19
100
AcDbEntity
  8
0
100
AcDbLine
 10
10.31665538094693
 20
6.599398723732815
 30
0.0
 11
10.31665538094693
 21
6.454253139893734
 31
0.0
  0
LINE
  5
95A
330
19
100
AcDbEntity
  8
0
100
AcDbLine
 10
10.26430745856315
 20
6.484254643300251
 30
0.0
 11
10.31665538094693
 21
6.454253139893734
 31
0.0
  0
LINE
  5
95B
330
19
100
AcDbEntity
  8
0
100
AcDbLine
 10
10.26430745856315
 20
6.484254643300251
 30
0.0
 11
10.31665538094693
 21
6.518315153087222
 31
0.0
  0
LINE
  5
95C
330
19
100
AcDbEntity
  8
0
100
AcDbLine
 10
10.26430745856315
 20
6.484254643300252
 30
0.0
 11
10.26430745856315
 21
6.184962295137306
 31
0.0
  0
LINE
  5
95D
330
19
100
AcDbEntity
  8
0
100
AcDbLine
 10
10.79438261405486
 20
5.824880792893552
 30
0.0
 11
10.79438261405486
 21
5.072147703080289
 31
0.0
  0
LINE
  5
95E
330
19
100
AcDbEntity
  8
0
100
AcDbLine
 10
10.79438261405486
 20
5.072147703080289
 30
0.0
 11
10.74400053601045
 21
4.962996179800571
 31
0.0
  0
LINE
  5
95F
330
19
100
AcDbEntity
  8
0
100
AcDbLine
 10
10.74400053601045
 20
4.962996179800571
 30
0.0
 11
10.74400053601045
 21
4.490529012806706
 31
0.0
  0
LINE
  5
960
330
19
100
AcDbEntity
  8
0
100
AcDbLine
 10
10.68309606241898
 20
3.690800435236681
 30
0.0
 11
10.47450099608125
 21
3.586464139577855
 31
0.0
  0
LINE
  5
961
330
19
100
AcDbEntity
  8
0
100
AcDbLine
 10
10.68309606241897
 20
3.690800435236679
 30
0.0
 11
10.74400053601045
 21
3.828868156932041
 31
0.0
  0
LINE
  5
962
330
19
100
AcDbEntity
  8
0
100
AcDbLine
 10
10.47450099608125
 20
3.586464139577855
 30
0.0
 11
10.35980465017817
 21
3.682495996715785
 31
0.0
  0
LINE
  5
963
330
19
100
AcDbEntity
  8
0
100
AcDbLine
 10
10.35980465017817
 20
3.682495996715785
 30
0.0
 11
10.30273114803675
 21
3.711493129344323
 31
0.0
  0
LINE
  5
964
330
19
100
AcDbEntity
  8
0
100
AcDbLine
 10
10.41742749393982
 20
3.615461272206393
 30
0.0
 11
10.30273114803675
 21
3.711493129344323
 31
0.0
  0
LINE
  5
965
330
19
100
AcDbEntity
  8
0
100
AcDbLine
 10
10.47450099608125
 20
3.586464139577855
 30
0.0
 11
10.41742749393982
 21
3.615461272206393
 31
0.0
  0
LINE
  5
966
330
19
100
AcDbEntity
  8
0
100
AcDbLine
 10
10.79438261405486
 20
5.163317694170169
 30
0.0
 11
12.7625133934801
 21
4.092252901244605
 31
0.0
  0
LINE
  5
967
330
19
100
AcDbEntity
  8
0
100
AcDbLine
 10
10.5127580064023
 20
5.223183490767852
 30
0.0
 11
7.54769195012998
 21
6.867978551060824
 31
0.0
  0
LINE
  5
968
330
19
100
AcDbEntity
  8
0
100
AcDbLine
 10
10.48334675940738
 20
5.143398879483662
 30
0.0
 11
7.54769195012998
 21
6.771878797767585
 31
0.0
  0
LINE
  5
969
330
19
100
AcDbEntity
  8
0
100
AcDbLine
 10
10.45026129611984
 20
5.053647131521052
 30
0.0
 11
7.54769195012998
 21
6.663773729659634
 31
0.0
  0
LINE
  5
96A
330
19
100
AcDbEntity
  8
0
100
AcDbLine
 10
10.74400053601045
 20
4.490529012806706
 30
0.0
 11
10.70824046468054
 21
4.470481998265154
 31
0.0
  0
LINE
  5
96B
330
19
100
AcDbEntity
  8
0
100
AcDbLine
 10
10.70824046468054
 20
4.470481998265154
 30
0.0
 11
10.70824046468054
 21
4.288298143195942
 31
0.0
  0
LINE
  5
96C
330
19
100
AcDbEntity
  8
0
100
AcDbLine
 10
10.74400053601045
 20
4.308345157737494
 30
0.0
 11
10.70824046468054
 21
4.288298143195942
 31
0.0
  0
LINE
  5
96D
330
19
100
AcDbEntity
  8
0
100
AcDbLine
 10
10.74400053601045
 20
4.308345157737494
 30
0.0
 11
10.70824046468054
 21
4.330339190057452
 31
0.0
  0
LINE
  5
96E
330
19
100
AcDbEntity
  8
0
100
AcDbLine
 10
10.74400053601045
 20
4.308345157737495
 30
0.0
 11
10.74400053601045
 21
3.828868156932041
 31
0.0
  0
LINE
  5
96F
330
19
100
AcDbEntity
  8
0
100
AcDbLine
 10
10.30273114803675
 20
4.317100004237308
 30
0.0
 11
10.35980465017817
 21
4.28810287160877
 31
0.0
  0
LINE
  5
970
330
19
100
AcDbEntity
  8
0
100
AcDbLine
 10
10.30273114803675
 20
4.116902004568277
 30
0.0
 11
10.35980465017817
 21
4.087904871939739
 31
0.0
  0
LINE
  5
971
330
19
100
AcDbEntity
  8
0
100
AcDbLine
 10
10.35980465017817
 20
4.087904871939739
 30
0.0
 11
10.4011280612647
 21
4.120959327572979
 31
0.0
  0
LINE
  5
972
330
19
100
AcDbEntity
  8
0
100
AcDbLine
 10
10.4011280612647
 20
4.120959327572979
 30
0.0
 11
10.4011280612647
 21
4.32115732724201
 31
0.0
  0
LINE
  5
973
330
19
100
AcDbEntity
  8
0
100
AcDbLine
 10
10.35980465017817
 20
4.28810287160877
 30
0.0
 11
10.4011280612647
 21
4.32115732724201
 31
0.0
  0
LINE
  5
974
330
19
100
AcDbEntity
  8
0
100
AcDbLine
 10
10.30273114803675
 20
4.116902004568277
 30
0.0
 11
10.34405455912328
 21
4.149956460201517
 31
0.0
  0
LINE
  5
975
330
19
100
AcDbEntity
  8
0
100
AcDbLine
 10
10.34405455912328
 20
4.149956460201517
 30
0.0
 11
10.4011280612647
 21
4.120959327572979
 31
0.0
  0
LINE
  5
976
330
19
100
AcDbEntity
  8
0
100
AcDbLine
 10
10.35980465017817
 20
4.087904871939738
 30
0.0
 11
10.35980465017817
 21
3.682495996715785
 31
0.0
  0
LINE
  5
977
330
19
100
AcDbEntity
  8
0
100
AcDbLine
 10
10.30273114803675
 20
4.116902004568276
 30
0.0
 11
10.30273114803675
 21
3.711493129344323
 31
0.0
  0
LINE
  5
978
330
19
100
AcDbEntity
  8
0
100
AcDbLine
 10
10.34405455912328
 20
4.149956460201517
 30
0.0
 11
10.34405455912328
 21
4.296104964735954
 31
0.0
  0
ELLIPSE
  5
97E
330
19
100
AcDbEntity
  8
0
100
AcDbEllipse
 10
10.51129041984489
 20
6.898051401560372
 30
0.0
 11
-0.01517576862789838
 21
0.04794509377162017
 31
0.0
210
0.0
220
0.0
230
1.0
 40
0.7974889918395494
 41
0.0
 42
6.283185307179586
  0
ELLIPSE
  5
97F
330
19
100
AcDbEntity
  8
0
100
AcDbEllipse
 10
10.52548813091087
 20
6.90775610171869
 30
0.0
 11
-0.01517576862789838
 21
0.04794509377162017
 31
0.0
210
0.0
220
0.0
230
1.0
 40
0.7974889918395494
 41
3.35186926363433
 42
6.543635254845799
  0
LINE
  5
981
330
19
100
AcDbEntity
  8
0
100
AcDbLine
 10
10.48841483630088
 20
6.942380272874448
 30
0.0
 11
10.50097790140167
 21
6.950967627505479
 31
0.0
  0
LINE
  5
982
330
19
100
AcDbEntity
  8
0
100
AcDbLine
 10
10.53585194006616
 20
6.854877272230131
 30
0.0
 11
10.54831057682569
 21
6.863393245936786
 31
0.0
  0
ELLIPSE
  5
985
330
19
100
AcDbEntity
  8
0
100
AcDbEllipse
 10
10.40025656080065
 20
6.972770328128115
 30
0.0
 11
-0.01517576862789838
 21
0.04794509377162017
 31
0.0
210
0.0
220
0.0
230
1.0
 40
0.7974889918395494
 41
3.35186926363433
 42
6.543635254845799
  0
LINE
  5
986
330
19
100
AcDbEntity
  8
0
100
AcDbLine
 10
10.41062036995594
 20
6.919891498639556
 30
0.0
 11
10.42307900671547
 21
6.928407472346211
 31
0.0
  0
LINE
  5
987
330
19
100
AcDbEntity
  8
0
100
AcDbLine
 10
10.36318326619067
 20
7.007394499283874
 30
0.0
 11
10.37574633129145
 21
7.015981853914904
 31
0.0
  0
ELLIPSE
  5
988
330
19
100
AcDbEntity
  8
0
100
AcDbEllipse
 10
10.38605884973467
 20
6.963065627969797
 30
0.0
 11
-0.01517576862789838
 21
0.04794509377162017
 31
0.0
210
0.0
220
0.0
230
1.0
 40
0.7974889918395494
 41
0.0
 42
6.283185307179586
  0
ELLIPSE
  5
989
330
19
100
AcDbEntity
  8
0
100
AcDbEllipse
 10
10.38605884973467
 20
6.728587188385828
 30
0.0
 11
-0.01517576862789838
 21
0.04794509377162017
 31
0.0
210
0.0
220
0.0
230
1.0
 40
0.7974889918395494
 41
0.0
 42
6.283185307179586
  0
ELLIPSE
  5
98A
330
19
100
AcDbEntity
  8
0
100
AcDbEllipse
 10
10.40025656080065
 20
6.738291888544145
 30
0.0
 11
-0.01517576862789838
 21
0.04794509377162017
 31
0.0
210
0.0
220
0.0
230
1.0
 40
0.7974889918395494
 41
3.35186926363433
 42
6.543635254845799
  0
LINE
  5
98B
330
19
100
AcDbEntity
  8
0
100
AcDbLine
 10
10.41062036995594
 20
6.685413059055587
 30
0.0
 11
10.42307900671547
 21
6.693929032762242
 31
0.0
  0
LINE
  5
98C
330
19
100
AcDbEntity
  8
0
100
AcDbLine
 10
10.36318326619067
 20
6.772916059699904
 30
0.0
 11
10.37574633129145
 21
6.781503414330935
 31
0.0
  0
ELLIPSE
  5
98D
330
19
100
AcDbEntity
  8
0
100
AcDbEllipse
 10
10.52548813091087
 20
6.67327766213472
 30
0.0
 11
-0.01517576862789838
 21
0.04794509377162017
 31
0.0
210
0.0
220
0.0
230
1.0
 40
0.7974889918395494
 41
3.35186926363433
 42
6.543635254845799
  0
LINE
  5
98E
330
19
100
AcDbEntity
  8
0
100
AcDbLine
 10
10.53585194006616
 20
6.620398832646162
 30
0.0
 11
10.54831057682569
 21
6.628914806352817
 31
0.0
  0
LINE
  5
98F
330
19
100
AcDbEntity
  8
0
100
AcDbLine
 10
10.48841483630088
 20
6.707901833290479
 30
0.0
 11
10.50097790140167
 21
6.71648918792151
 31
0.0
  0
ELLIPSE
  5
990
330
19
100
AcDbEntity
  8
0
100
AcDbEllipse
 10
10.51129041984489
 20
6.663572961976403
 30
0.0
 11
-0.01517576862789838
 21
0.04794509377162017
 31
0.0
210
0.0
220
0.0
230
1.0
 40
0.7974889918395494
 41
0.0
 42
6.283185307179586
  0
ELLIPSE
  5
993
330
19
100
AcDbEntity
  8
0
100
AcDbEllipse
 10
10.44867463478978
 20
6.428305592740415
 30
0.0
 11
-0.01517576862789838
 21
0.04794509377162017
 31
0.0
210
0.0
220
0.0
230
1.0
 40
0.7974889918395494
 41
0.0
 42
6.283185307179586
  0
LINE
  5
994
330
19
100
AcDbEntity
  8
0
100
AcDbLine
 10
10.42579905124578
 20
6.472634464054491
 30
0.0
 11
10.43836211634656
 21
6.481221818685522
 31
0.0
  0
LINE
  5
995
330
19
100
AcDbEntity
  8
0
100
AcDbLine
 10
10.47323615501105
 20
6.385131463410174
 30
0.0
 11
10.48569479177058
 21
6.393647437116829
 31
0.0
  0
ELLIPSE
  5
996
330
19
100
AcDbEntity
  8
0
100
AcDbEllipse
 10
10.46287234585576
 20
6.438010292898732
 30
0.0
 11
-0.01517576862789838
 21
0.04794509377162017
 31
0.0
210
0.0
220
0.0
230
1.0
 40
0.7974889918395494
 41
3.35186926363433
 42
6.543635254845799
  0
ELLIPSE
  5
997
330
19
100
AcDbEntity
  8
0
100
AcDbEllipse
 10
10.46287234585576
 20
6.269841616450693
 30
0.0
 11
-0.01517576862789838
 21
0.04794509377162017
 31
0.0
210
0.0
220
0.0
230
1.0
 40
0.7974889918395494
 41
3.35186926363433
 42
6.543635254845799
  0
ELLIPSE
  5
998
330
19
100
AcDbEntity
  8
0
100
AcDbEllipse
 10
10.44867463478978
 20
6.260136916292376
 30
0.0
 11
-0.01517576862789838
 21
0.04794509377162017
 31
0.0
210
0.0
220
0.0
230
1.0
 40
0.7974889918395494
 41
0.0
 42
6.283185307179586
  0
LINE
  5
999
330
19
100
AcDbEntity
  8
0
100
AcDbLine
 10
10.42579905124578
 20
6.304465787606452
 30
0.0
 11
10.43836211634656
 21
6.313053142237482
 31
0.0
  0
LINE
  5
99A
330
19
100
AcDbEntity
  8
0
100
AcDbLine
 10
10.47323615501105
 20
6.216962786962134
 30
0.0
 11
10.48569479177058
 21
6.225478760668789
 31
0.0
  0
ELLIPSE
  5
99C
330
19
100
AcDbEntity
  8
0
100
AcDbEllipse
 10
10.5760506984101
 20
4.572510340432683
 30
0.0
 11
0.01517576862789838
 21
0.04794509377162017
 31
0.0
210
0.0
220
0.0
230
-1.0
 40
0.7974889918395494
 41
0.0
 42
6.283185307179586
  0
ELLIPSE
  5
99D
330
19
100
AcDbEntity
  8
0
100
AcDbEllipse
 10
10.56185298734412
 20
4.582215040591001
 30
0.0
 11
0.01517576862789838
 21
0.04794509377162017
 31
0.0
210
0.0
220
0.0
230
-1.0
 40
0.7974889918395494
 41
3.35186926363433
 42
6.543635254845799
  0
LINE
  5
99E
330
19
100
AcDbEntity
  8
0
100
AcDbLine
 10
10.59892628195411
 20
4.616839211746759
 30
0.0
 11
10.58636321685332
 21
4.62542656637779
 31
0.0
  0
LINE
  5
99F
330
19
100
AcDbEntity
  8
0
100
AcDbLine
 10
10.55148917818883
 20
4.529336211102442
 30
0.0
 11
10.5390305414293
 21
4.537852184809097
 31
0.0
  0
LINE
  5
9A0
330
19
100
AcDbEntity
  8
0
100
AcDbLine
 10
10.55148917818883
 20
4.347153478283733
 30
0.0
 11
10.5390305414293
 21
4.355669451990388
 31
0.0
  0
LINE
  5
9A1
330
19
100
AcDbEntity
  8
0
100
AcDbLine
 10
10.59892628195411
 20
4.434656478928051
 30
0.0
 11
10.58636321685332
 21
4.443243833559081
 31
0.0
  0
ELLIPSE
  5
9A2
330
19
100
AcDbEntity
  8
0
100
AcDbEllipse
 10
10.56185298734412
 20
4.400032307772292
 30
0.0
 11
0.01517576862789838
 21
0.04794509377162017
 31
0.0
210
0.0
220
0.0
230
-1.0
 40
0.7974889918395494
 41
3.35186926363433
 42
6.543635254845799
  0
ELLIPSE
  5
9A3
330
19
100
AcDbEntity
  8
0
100
AcDbEllipse
 10
10.5760506984101
 20
4.390327607613974
 30
0.0
 11
0.01517576862789838
 21
0.04794509377162017
 31
0.0
210
0.0
220
0.0
230
-1.0
 40
0.7974889918395494
 41
0.0
 42
6.283185307179586
  0
ELLIPSE
  5
9A4
330
19
100
AcDbEntity
  8
0
100
AcDbEllipse
 10
10.50527568666254
 20
4.043940374560346
 30
0.0
 11
0.01517576862789838
 21
0.04794509377162017
 31
0.0
210
0.0
220
0.0
230
-1.0
 40
0.7974889918395494
 41
0.0
 42
6.283185307179586
  0
ELLIPSE
  5
9A5
330
19
100
AcDbEntity
  8
0
100
AcDbEllipse
 10
10.49107797559656
 20
4.053645074718663
 30
0.0
 11
0.01517576862789838
 21
0.04794509377162017
 31
0.0
210
0.0
220
0.0
230
-1.0
 40
0.7974889918395494
 41
3.35186926363433
 42
6.543635254845799
  0
LINE
  5
9A6
330
19
100
AcDbEntity
  8
0
100
AcDbLine
 10
10.52815127020654
 20
4.088269245874422
 30
0.0
 11
10.51558820510576
 21
4.096856600505452
 31
0.0
  0
LINE
  5
9A7
330
19
100
AcDbEntity
  8
0
100
AcDbLine
 10
10.48071416644127
 20
4.000766245230104
 30
0.0
 11
10.46825552968174
 21
4.009282218936759
 31
0.0
  0
ELLIPSE
  5
9A9
330
19
100
AcDbEntity
  8
0
100
AcDbEllipse
 10
10.63361168252188
 20
4.12493841472044
 30
0.0
 11
0.01517576862789838
 21
0.04794509377162017
 31
0.0
210
0.0
220
0.0
230
-1.0
 40
0.7974889918395494
 41
3.35186926363433
 42
6.543635254845799
  0
LINE
  5
9AA
330
19
100
AcDbEntity
  8
0
100
AcDbLine
 10
10.62324787336659
 20
4.072059585231882
 30
0.0
 11
10.61078923660707
 21
4.080575558938537
 31
0.0
  0
LINE
  5
9AB
330
19
100
AcDbEntity
  8
0
100
AcDbLine
 10
10.67068497713187
 20
4.159562585876199
 30
0.0
 11
10.65812191203109
 21
4.16814994050723
 31
0.0
  0
ELLIPSE
  5
9AC
330
19
100
AcDbEntity
  8
0
100
AcDbEllipse
 10
10.64780939358786
 20
4.115233714562123
 30
0.0
 11
0.01517576862789838
 21
0.04794509377162017
 31
0.0
210
0.0
220
0.0
230
-1.0
 40
0.7974889918395494
 41
0.0
 42
6.283185307179586
  0
ELLIPSE
  5
9AD
330
19
100
AcDbEntity
  8
0
100
AcDbEllipse
 10
10.49107797559656
 20
3.851445628121928
 30
0.0
 11
0.01517576862789838
 21
0.04794509377162017
 31
0.0
210
0.0
220
0.0
230
-1.0
 40
0.7974889918395494
 41
3.35186926363433
 42
6.543635254845799
  0
ELLIPSE
  5
9AE
330
19
100
AcDbEntity
  8
0
100
AcDbEllipse
 10
10.64780939358786
 20
3.913034267965389
 30
0.0
 11
0.01517576862789838
 21
0.04794509377162017
 31
0.0
210
0.0
220
0.0
230
-1.0
 40
0.7974889918395494
 41
0.0
 42
6.283185307179586
  0
ELLIPSE
  5
9AF
330
19
100
AcDbEntity
  8
0
100
AcDbEllipse
 10
10.63361168252188
 20
3.922738968123706
 30
0.0
 11
0.01517576862789838
 21
0.04794509377162017
 31
0.0
210
0.0
220
0.0
230
-1.0
 40
0.7974889918395494
 41
3.35186926363433
 42
6.543635254845799
  0
LINE
  5
9B0
330
19
100
AcDbEntity
  8
0
100
AcDbLine
 10
10.62324787336659
 20
3.869860138635147
 30
0.0
 11
10.61078923660707
 21
3.878376112341802
 31
0.0
  0
LINE
  5
9B1
330
19
100
AcDbEntity
  8
0
100
AcDbLine
 10
10.48071416644127
 20
3.79856679863337
 30
0.0
 11
10.46825552968174
 21
3.807082772340025
 31
0.0
  0
LINE
  5
9B2
330
19
100
AcDbEntity
  8
0
100
AcDbLine
 10
10.52815127020654
 20
3.886069799277687
 30
0.0
 11
10.51558820510576
 21
3.894657153908718
 31
0.0
  0
ELLIPSE
  5
9B3
330
19
100
AcDbEntity
  8
0
100
AcDbEllipse
 10
10.50527568666254
 20
3.841740927963611
 30
0.0
 11
0.01517576862789838
 21
0.04794509377162017
 31
0.0
210
0.0
220
0.0
230
-1.0
 40
0.7974889918395494
 41
0.0
 42
6.283185307179586
  0
LINE
  5
9B4
330
19
100
AcDbEntity
  8
0
100
AcDbLine
 10
10.67068497713187
 20
3.957363139279465
 30
0.0
 11
10.65812191203109
 21
3.965950493910496
 31
0.0
  0
ENDSEC
  0
SECTION
  2
OBJECTS
  0
DICTIONARY
  5
C
330
0
100
AcDbDictionary
281
     1
  3
ACAD_COLOR
350
9C1
  3
ACAD_GROUP
350
D
  3
ACAD_LAYOUT
350
9BC
  3
ACAD_MATERIAL
350
9C3
  3
ACAD_MLINESTYLE
350
E
  3
ACDBHEADERROUNDTRIPXREC
350
9C0
  3
ACDBVARIABLEDICTIONARY
350
AC
  0
DICTIONARY
  5
9C1
102
{ACAD_REACTORS
330
C
102
}
330
C
100
AcDbDictionary
281
     1
  0
DICTIONARY
  5
D
102
{ACAD_REACTORS
330
C
102
}
330
C
100
AcDbDictionary
281
     1
  0
DICTIONARY
  5
9BC
102
{ACAD_REACTORS
330
C
102
}
330
C
100
AcDbDictionary
281
     1
  3
Layout1
350
9BE
  3
Model
350
9BD
  0
DICTIONARY
  5
9C3
102
{ACAD_REACTORS
330
C
102
}
330
C
100
AcDbDictionary
281
     1
  0
DICTIONARY
  5
E
102
{ACAD_REACTORS
330
C
102
}
330
C
100
AcDbDictionary
281
     1
  3
STANDARD
350
1C
  0
DICTIONARY
  5
9C0
102
{ACAD_REACTORS
330
C
102
}
330
C
100
AcDbDictionary
281
     1
  3
COLORDICT
350
9C2
  3
MATERIALDICT
350
9C4
  0
DICTIONARY
  5
AC
102
{ACAD_REACTORS
330
C
102
}
330
C
100
AcDbDictionary
281
     1
  3
SORTENTS
350
9BF
  0
LAYOUT
  5
9BE
102
{ACAD_REACTORS
330
9BC
102
}
102
{ACAD_XDICTIONARY
360
9C5
102
}
330
9BC
100
AcDbPlotSettings
  1

  2

  4

  6

 40
0.0
 41
0.0
 42
0.0
 43
0.0
 44
0.0
 45
0.0
 46
0.0
 47
0.0
 48
0.0
 49
0.0
140
0.0
141
0.0
142
1.0
143
1.0
 70
   688
 72
     0
 73
     0
 74
     5
  7

 75
    16
147
1.0
148
0.0
149
0.0
100
AcDbLayout
  1
Layout1
 70
     1
 71
     1
 10
0.0
 20
0.0
 11
0.0
 21
0.0
 12
0.0
 22
0.0
 32
0.0
 14
0.0
 24
0.0
 34
0.0
 15
0.0
 25
0.0
 35
0.0
146
0.0
 13
0.0
 23
0.0
 33
0.0
 16
1.0
 26
0.0
 36
0.0
 17
0.0
 27
1.0
 37
0.0
 76
     0
330
16
  0
LAYOUT
  5
9BD
102
{ACAD_REACTORS
330
9BC
102
}
102
{ACAD_XDICTIONARY
360
9C7
102
}
330
9BC
100
AcDbPlotSettings
  1

  2

  4

  6

 40
0.0
 41
0.0
 42
0.0
 43
0.0
 44
0.0
 45
0.0
 46
0.0
 47
0.0
 48
0.0
 49
0.0
140
0.0
141
0.0
142
1.0
143
1.0
 70
   688
 72
     0
 73
     0
 74
     5
  7

 75
    16
147
1.0
148
0.0
149
0.0
100
AcDbLayout
  1
Model
 70
     1
 71
     0
 10
0.0
 20
0.0
 11
0.0
 21
0.0
 12
0.0
 22
0.0
 32
0.0
 14
0.0
 24
0.0
 34
0.0
 15
0.0
 25
0.0
 35
0.0
146
0.0
 13
0.0
 23
0.0
 33
0.0
 16
1.0
 26
0.0
 36
0.0
 17
0.0
 27
1.0
 37
0.0
 76
     0
330
19
  0
MLINESTYLE
  5
1C
102
{ACAD_REACTORS
330
E
102
}
330
E
100
AcDbMlineStyle
  2
STANDARD
 70
     0
  3

 62
     0
 51
90.0
 52
90.0
 71
     2
 49
0.5
 62
   256
  6
BYLAYER
 49
-0.5
 62
   256
  6
BYLAYER
  0
XRECORD
  5
9C2
102
{ACAD_REACTORS
330
9C0
102
}
330
9C0
100
AcDbXrecord
340
9C1
  0
XRECORD
  5
9C4
102
{ACAD_REACTORS
330
9C0
102
}
330
9C0
100
AcDbXrecord
340
9C3
  0
DICTIONARYVAR
  5
9BF
102
{ACAD_REACTORS
330
AC
102
}
330
AC
100
DictionaryVariables
280
     0
  1
96
  0
DICTIONARY
  5
9C5
330
9BE
100
AcDbDictionary
280
     1
281
     1
  3
ACAD_XREC_ROUNDTRIP
360
9C6
  0
DICTIONARY
  5
9C7
330
9BD
100
AcDbDictionary
280
     1
281
     1
  3
ACAD_XREC_ROUNDTRIP
360
9C8
  0
XRECORD
  5
9C6
102
{ACAD_REACTORS
330
9C5
102
}
330
9C5
100
AcDbXrecord
102
SHADEPLOT
 70
     0
102
SHADEPLOTRESLEVEL
 70
     0
102
SHADEPLOTCUSTOMDPI
 70
     0
  0
XRECORD
  5
9C8
102
{ACAD_REACTORS
330
9C7
102
}
330
9C7
100
AcDbXrecord
102
SHADEPLOT
 70
     0
102
SHADEPLOTRESLEVEL
 70
     0
102
SHADEPLOTCUSTOMDPI
 70
     0
  0
ENDSEC
  0
EOF
