  0
SECTION
  2
HEADER
  9
$ACADVER
  1
AC1015
  9
$ACADMAINTVER
 70
     6
  9
$DWGCODEPAGE
  3
ANSI_1252
  9
$INSBASE
 10
0.0
 20
0.0
 30
0.0
  9
$EXTMIN
 10
37.11899022206882
 20
94.54028394596679
 30
-0.0015258207003612
  9
$EXTMAX
 10
165.0991883020449
 20
227.6992063447871
 30
0.0000000349246008
  9
$LIMMIN
 10
45.90710313585069
 20
103.9078694661458
  9
$LIMMAX
 10
165.2229899088542
 20
221.470891655816
  9
$ORTHOMODE
 70
     0
  9
$REGENMODE
 70
     1
  9
$FILLMODE
 70
     1
  9
$QTEXTMODE
 70
     0
  9
$MIRRTEXT
 70
     1
  9
$LTSCALE
 40
1.0
  9
$ATTMODE
 70
     1
  9
$TEXTSIZE
 40
0.2
  9
$TRACEWID
 40
0.05
  9
$TEXTSTYLE
  7
STANDARD
  9
$CLAYER
  8
0
  9
$CELTYPE
  6
CONTINUOUS
  9
$CECOLOR
 62
   256
  9
$CELTSCALE
 40
1.0
  9
$DISPSILH
 70
     0
  9
$DIMSCALE
 40
1.0
  9
$DIMASZ
 40
0.18
  9
$DIMEXO
 40
0.0625
  9
$DIMDLI
 40
0.38
  9
$DIMRND
 40
0.0
  9
$DIMDLE
 40
0.0
  9
$DIMEXE
 40
0.18
  9
$DIMTP
 40
0.0
  9
$DIMTM
 40
0.0
  9
$DIMTXT
 40
0.18
  9
$DIMCEN
 40
0.09
  9
$DIMTSZ
 40
0.0
  9
$DIMTOL
 70
     0
  9
$DIMLIM
 70
     0
  9
$DIMTIH
 70
     1
  9
$DIMTOH
 70
     1
  9
$DIMSE1
 70
     0
  9
$DIMSE2
 70
     0
  9
$DIMTAD
 70
     0
  9
$DIMZIN
 70
     0
  9
$DIMBLK
  1

  9
$DIMASO
 70
     1
  9
$DIMSHO
 70
     1
  9
$DIMPOST
  1

  9
$DIMAPOST
  1

  9
$DIMALT
 70
     0
  9
$DIMALTD
 70
     2
  9
$DIMALTF
 40
25.4
  9
$DIMLFAC
 40
1.0
  9
$DIMTOFL
 70
     0
  9
$DIMTVP
 40
0.0
  9
$DIMTIX
 70
     0
  9
$DIMSOXD
 70
     0
  9
$DIMSAH
 70
     0
  9
$DIMBLK1
  1

  9
$DIMBLK2
  1

  9
$DIMSTYLE
  2
STANDARD
  9
$DIMCLRD
 70
     0
  9
$DIMCLRE
 70
     0
  9
$DIMCLRT
 70
     0
  9
$DIMTFAC
 40
1.0
  9
$DIMGAP
 40
0.09
  9
$DIMJUST
 70
     0
  9
$DIMSD1
 70
     0
  9
$DIMSD2
 70
     0
  9
$DIMTOLJ
 70
     1
  9
$DIMTZIN
 70
     0
  9
$DIMALTZ
 70
     0
  9
$DIMALTTZ
 70
     0
  9
$DIMUPT
 70
     0
  9
$DIMDEC
 70
     4
  9
$DIMTDEC
 70
     4
  9
$DIMALTU
 70
     2
  9
$DIMALTTD
 70
     2
  9
$DIMTXSTY
  7
STANDARD
  9
$DIMAUNIT
 70
     0
  9
$DIMADEC
 70
     0
  9
$DIMALTRND
 40
0.0
  9
$DIMAZIN
 70
     0
  9
$DIMDSEP
 70
    46
  9
$DIMATFIT
 70
     3
  9
$DIMFRAC
 70
     0
  9
$DIMLDRBLK
  1

  9
$DIMLUNIT
 70
     2
  9
$DIMLWD
 70
    -2
  9
$DIMLWE
 70
    -2
  9
$DIMTMOVE
 70
     0
  9
$LUNITS
 70
     2
  9
$LUPREC
 70
     4
  9
$SKETCHINC
 40
0.1
  9
$FILLETRAD
 40
0.0
  9
$AUNITS
 70
     0
  9
$AUPREC
 70
     0
  9
$MENU
  1
acad
  9
$ELEVATION
 40
0.0
  9
$PELEVATION
 40
0.0
  9
$THICKNESS
 40
0.0
  9
$LIMCHECK
 70
     0
  9
$CHAMFERA
 40
0.0
  9
$CHAMFERB
 40
0.0
  9
$CHAMFERC
 40
0.0
  9
$CHAMFERD
 40
0.0
  9
$SKPOLY
 70
     0
  9
$TDCREATE
 40
2444971.666666667
  9
$TDUCREATE
 40
2444972.0
  9
$TDUPDATE
 40
2452215.548841667
  9
$TDUUPDATE
 40
2452215.882175
  9
$TDINDWG
 40
0.0003427083
  9
$TDUSRTIMER
 40
0.0003427083
  9
$USRTIMER
 70
     1
  9
$ANGBASE
 50
0.0
  9
$ANGDIR
 70
     0
  9
$PDMODE
 70
     0
  9
$PDSIZE
 40
0.0
  9
$PLINEWID
 40
0.0
  9
$SPLFRAME
 70
     0
  9
$SPLINETYPE
 70
     6
  9
$SPLINESEGS
 70
     8
  9
$HANDSEED
  5
121
  9
$SURFTAB1
 70
     6
  9
$SURFTAB2
 70
     6
  9
$SURFTYPE
 70
     6
  9
$SURFU
 70
     6
  9
$SURFV
 70
     6
  9
$UCSBASE
  2

  9
$UCSNAME
  2

  9
$UCSORG
 10
0.0
 20
0.0
 30
0.0
  9
$UCSXDIR
 10
1.0
 20
0.0
 30
0.0
  9
$UCSYDIR
 10
0.0
 20
1.0
 30
0.0
  9
$UCSORTHOREF
  2

  9
$UCSORTHOVIEW
 70
     0
  9
$UCSORGTOP
 10
0.0
 20
0.0
 30
0.0
  9
$UCSORGBOTTOM
 10
0.0
 20
0.0
 30
0.0
  9
$UCSORGLEFT
 10
0.0
 20
0.0
 30
0.0
  9
$UCSORGRIGHT
 10
0.0
 20
0.0
 30
0.0
  9
$UCSORGFRONT
 10
0.0
 20
0.0
 30
0.0
  9
$UCSORGBACK
 10
0.0
 20
0.0
 30
0.0
  9
$PUCSBASE
  2

  9
$PUCSNAME
  2

  9
$PUCSORG
 10
0.0
 20
0.0
 30
0.0
  9
$PUCSXDIR
 10
1.0
 20
0.0
 30
0.0
  9
$PUCSYDIR
 10
0.0
 20
1.0
 30
0.0
  9
$PUCSORTHOREF
  2

  9
$PUCSORTHOVIEW
 70
     0
  9
$PUCSORGTOP
 10
0.0
 20
0.0
 30
0.0
  9
$PUCSORGBOTTOM
 10
0.0
 20
0.0
 30
0.0
  9
$PUCSORGLEFT
 10
0.0
 20
0.0
 30
0.0
  9
$PUCSORGRIGHT
 10
0.0
 20
0.0
 30
0.0
  9
$PUCSORGFRONT
 10
0.0
 20
0.0
 30
0.0
  9
$PUCSORGBACK
 10
0.0
 20
0.0
 30
0.0
  9
$USERI1
 70
     0
  9
$USERI2
 70
     0
  9
$USERI3
 70
     0
  9
$USERI4
 70
     0
  9
$USERI5
 70
     0
  9
$USERR1
 40
0.0
  9
$USERR2
 40
0.0
  9
$USERR3
 40
0.0
  9
$USERR4
 40
0.0
  9
$USERR5
 40
0.0
  9
$WORLDVIEW
 70
     1
  9
$SHADEDGE
 70
     3
  9
$SHADEDIF
 70
    70
  9
$TILEMODE
 70
     1
  9
$MAXACTVP
 70
    16
  9
$PINSBASE
 10
0.0
 20
0.0
 30
0.0
  9
$PLIMCHECK
 70
     0
  9
$PEXTMIN
 10
1.000000000000000E+20
 20
1.000000000000000E+20
 30
1.000000000000000E+20
  9
$PEXTMAX
 10
-1.000000000000000E+20
 20
-1.000000000000000E+20
 30
-1.000000000000000E+20
  9
$PLIMMIN
 10
0.0
 20
0.0
  9
$PLIMMAX
 10
12.0
 20
9.0
  9
$UNITMODE
 70
     0
  9
$VISRETAIN
 70
     0
  9
$PLINEGEN
 70
     1
  9
$PSLTSCALE
 70
     0
  9
$TREEDEPTH
 70
  3020
  9
$CMLSTYLE
  2
STANDARD
  9
$CMLJUST
 70
     0
  9
$CMLSCALE
 40
1.0
  9
$PROXYGRAPHICS
 70
     0
  9
$MEASUREMENT
 70
     0
  9
$CELWEIGHT
370
    -1
  9
$ENDCAPS
280
     0
  9
$JOINSTYLE
280
     0
  9
$LWDISPLAY
290
     0
  9
$INSUNITS
 70
     0
  9
$HYPERLINKBASE
  1

  9
$STYLESHEET
  1

  9
$XEDIT
290
     1
  9
$CEPSNTYPE
380
     0
  9
$PSTYLEMODE
290
     1
  9
$FINGERPRINTGUID
  2
{890B5539-CEC8-11D5-923F-00805F198AD5}
  9
$VERSIONGUID
  2
{890B553B-CEC8-11D5-923F-00805F198AD5}
  9
$EXTNAMES
290
     1
  9
$PSVPSCALE
 40
0.0
  9
$OLESTARTUP
290
     0
  0
ENDSEC
  0
SECTION
  2
CLASSES
  0
CLASS
  1
LWPOLYLINE
  2
AcDbPolyline
  3
AutoCAD 2000
 90
        0
280
     0
281
     1
  0
CLASS
  1
IMAGE
  2
AcDbRasterImage
  3
ISM
 90
      127
280
     0
281
     1
  0
CLASS
  1
OLE2FRAME
  2
AcDbOle2Frame
  3
AutoCAD 2000
 90
        0
280
     0
281
     1
  0
CLASS
  1
HATCH
  2
AcDbHatch
  3
AutoCAD 2000
 90
        0
280
     0
281
     1
  0
CLASS
  1
DICTIONARYVAR
  2
AcDbDictionaryVar
  3
AutoCAD 2000
 90
        0
280
     0
281
     0
  0
CLASS
  1
RASTERVARIABLES
  2
AcDbRasterVariables
  3
ISM
 90
        0
280
     0
281
     0
  0
CLASS
  1
IMAGEDEF
  2
AcDbRasterImageDef
  3
ISM
 90
        0
280
     0
281
     0
  0
CLASS
  1
IMAGEDEF_REACTOR
  2
AcDbRasterImageDefReactor
  3
ISM
 90
        1
280
     0
281
     0
  0
CLASS
  1
IDBUFFER
  2
AcDbIdBuffer
  3
AutoCAD 2000
 90
        0
280
     0
281
     0
  0
CLASS
  1
SPATIAL_FILTER
  2
AcDbSpatialFilter
  3
AutoCAD 2000
 90
        0
280
     0
281
     0
  0
CLASS
  1
XRECORD
  2
AcDbXrecord
  3
AutoCAD 2000
 90
        0
280
     0
281
     0
  0
CLASS
  1
SORTENTSTABLE
  2
AcDbSortentsTable
  3
AutoCAD 2000
 90
        0
280
     0
281
     0
  0
CLASS
  1
LAYER_INDEX
  2
AcDbLayerIndex
  3
AutoCAD 2000
 90
        0
280
     0
281
     0
  0
CLASS
  1
SPATIAL_INDEX
  2
AcDbSpatialIndex
  3
AutoCAD 2000
 90
        0
280
     0
281
     0
  0
CLASS
  1
OBJECT_PTR
  2
CAseDLPNTableRecord
  3
ASE-LPNTableRecord
 90
        1
280
     1
281
     0
  0
CLASS
  1
LAYOUT
  2
AcDbLayout
  3
ObjectDBX Classes
 90
        0
280
     0
281
     0
  0
CLASS
  1
PLOTSETTINGS
  2
AcDbPlotSettings
  3
AutoCAD 2000
 90
        0
280
     0
281
     0
  0
CLASS
  1
ACDBDICTIONARYWDFLT
  2
AcDbDictionaryWithDefault
  3
AutoCAD 2000
 90
        0
280
     0
281
     0
  0
CLASS
  1
ACDBPLACEHOLDER
  2
AcDbPlaceHolder
  3
ObjectDBX Classes
 90
        0
280
     0
281
     0
  0
CLASS
  1
VBAPROJECT
  2
AcDbVbaProject
  3
ObjectDBX Classes
 90
        0
280
     0
281
     0
  0
CLASS
  1
WIPEOUT
  2
AcDbWipeout
  3
WipeOut|AutoCAD Express Tool|expresstools@autodesk.com
 90
      127
280
     0
281
     1
  0
CLASS
  1
WIPEOUTVARIABLES
  2
AcDbWipeoutVariables
  3
WipeOut|AutoCAD Express Tool|expresstools@autodesk.com
 90
        0
280
     0
281
     0
  0
CLASS
  1
RTEXT
  2
RText
  3
RText|AutoCAD Express Tool|expresstools@autodesk.com
 90
        0
280
     0
281
     1
  0
CLASS
  1
ARCALIGNEDTEXT
  2
AcDbArcAlignedText
  3
ATEXT|AutoCAD Express Tool|expresstools@autodesk.com
 90
        0
280
     0
281
     1
  0
CLASS
  1
LONG_TRANSACTION
  2
AcDbLongTransaction
  3
AutoCAD 2000
 90
        0
280
     1
281
     0
  0
CLASS
  1
LWPOLYLINE
  2
AcDbPolyline
  3
AutoCAD 2000
 90
        0
280
     0
281
     1
  0
CLASS
  1
HATCH
  2
AcDbHatch
  3
AutoCAD 2000
 90
        0
280
     0
281
     1
  0
CLASS
  1
XRECORD
  2
AcDbXrecord
  3
AutoCAD 2000
 90
        0
280
     0
281
     0
  0
ENDSEC
  0
SECTION
  2
TABLES
  0
TABLE
  2
VPORT
  5
7
330
0
100
AcDbSymbolTable
 70
     2
  0
VPORT
  5
ED
330
7
100
AcDbSymbolTableRecord
100
AcDbViewportTableRecord
  2
*Active
 70
     0
 10
0.0
 20
0.0
 11
1.0
 21
1.0
 12
101.1090892620569
 22
161.119745145377
 13
0.0
 23
0.0
 14
1.0
 24
1.0
 15
0.0
 25
0.0
 16
0.0
 26
0.0
 36
1.0
 17
0.0
 27
0.0
 37
0.0
 40
135.2559133027387
 41
1.836842105263158
 42
50.0
 43
0.0
 44
0.0
 50
0.0
 51
0.0
 71
     0
 72
   100
 73
     1
 74
     1
 75
     0
 76
     0
 77
     0
 78
     0
281
     0
 65
     1
110
0.0
120
0.0
130
0.0
111
1.0
121
0.0
131
0.0
112
0.0
122
1.0
132
0.0
 79
     0
146
0.0
  0
ENDTAB
  0
TABLE
  2
LTYPE
  5
4
330
0
100
AcDbSymbolTable
 70
     1
  0
LTYPE
  5
11
330
4
100
AcDbSymbolTableRecord
100
AcDbLinetypeTableRecord
  2
BYBLOCK
 70
     0
  3

 72
    65
 73
     0
 40
0.0
  0
LTYPE
  5
12
330
4
100
AcDbSymbolTableRecord
100
AcDbLinetypeTableRecord
  2
BYLAYER
 70
     0
  3

 72
    65
 73
     0
 40
0.0
  0
LTYPE
  5
13
330
4
100
AcDbSymbolTableRecord
100
AcDbLinetypeTableRecord
  2
CONTINUOUS
 70
     0
  3
Solid line
 72
    65
 73
     0
 40
0.0
  0
ENDTAB
  0
TABLE
  2
LAYER
  5
2
330
0
100
AcDbSymbolTable
 70
     2
  0
LAYER
  5
14
330
2
100
AcDbSymbolTableRecord
100
AcDbLayerTableRecord
  2
0
 70
     0
 62
     7
  6
CONTINUOUS
370
    -3
390
0
  0
LAYER
  5
21
330
2
100
AcDbSymbolTableRecord
100
AcDbLayerTableRecord
  2
LAYER_1
 70
     0
 62
     5
  6
CONTINUOUS
370
    -3
390
0
  0
ENDTAB
  0
TABLE
  2
STYLE
  5
3
330
0
100
AcDbSymbolTable
 70
     5
  0
STYLE
  5
17
330
3
100
AcDbSymbolTableRecord
100
AcDbTextStyleTableRecord
  2
STANDARD
 70
     0
 40
0.0
 41
1.0
 50
0.0
 71
     0
 42
0.2
  3
txt
  4

  0
STYLE
  5
1D
330
3
100
AcDbSymbolTableRecord
100
AcDbTextStyleTableRecord
  2
STD
 70
     0
 40
0.0
 41
1.0
 50
0.0
 71
     0
 42
0.2
  3
txt
  4

  0
STYLE
  5
1E
330
3
100
AcDbSymbolTableRecord
100
AcDbTextStyleTableRecord
  2
TATESTD
 70
     4
 40
0.0
 41
1.0
 50
0.0
 71
     0
 42
0.2
  3
txt
  4

  0
STYLE
  5
1F
330
3
100
AcDbSymbolTableRecord
100
AcDbTextStyleTableRecord
  2
KANJISTD
 70
     0
 40
0.0
 41
1.0
 50
0.0
 71
     0
 42
0.2
  3
txt
  4
extfont
  0
STYLE
  5
20
330
3
100
AcDbSymbolTableRecord
100
AcDbTextStyleTableRecord
  2
KANJITATE
 70
     4
 40
0.0
 41
1.0
 50
0.0
 71
     0
 42
0.2
  3
txt
  4
extfont
  0
ENDTAB
  0
TABLE
  2
VIEW
  5
5
330
0
100
AcDbSymbolTable
 70
     0
  0
ENDTAB
  0
TABLE
  2
UCS
  5
6
330
0
100
AcDbSymbolTable
 70
     0
  0
ENDTAB
  0
TABLE
  2
APPID
  5
8
330
0
100
AcDbSymbolTable
 70
     1
  0
APPID
  5
16
330
8
100
AcDbSymbolTableRecord
100
AcDbRegAppTableRecord
  2
ACAD
 70
     0
  0
ENDTAB
  0
TABLE
  2
DIMSTYLE
  5
9
330
0
100
AcDbSymbolTable
 70
     1
100
AcDbDimStyleTable
  0
DIMSTYLE
105
18
330
9
100
AcDbSymbolTableRecord
100
AcDbDimStyleTableRecord
  2
STANDARD
 70
     0
  3

  4

289
     0
340
17
  0
ENDTAB
  0
TABLE
  2
BLOCK_RECORD
  5
1
330
0
100
AcDbSymbolTable
 70
    16
  0
BLOCK_RECORD
  5
A
330
1
100
AcDbSymbolTableRecord
100
AcDbBlockTableRecord
  2
*MODEL_SPACE
340
E8
  0
BLOCK_RECORD
  5
B
330
1
100
AcDbSymbolTableRecord
100
AcDbBlockTableRecord
  2
*PAPER_SPACE
340
E9
  0
BLOCK_RECORD
  5
22
330
1
100
AcDbSymbolTableRecord
100
AcDbBlockTableRecord
  2
AI9-BLK1
340
0
102
{BLKREFS
331
23
102
}
  0
BLOCK_RECORD
  5
28
330
1
100
AcDbSymbolTableRecord
100
AcDbBlockTableRecord
  2
AI9-BLK2
340
0
102
{BLKREFS
331
29
102
}
  0
BLOCK_RECORD
  5
2E
330
1
100
AcDbSymbolTableRecord
100
AcDbBlockTableRecord
  2
AI9-BLK3
340
0
102
{BLKREFS
331
2F
102
}
  0
BLOCK_RECORD
  5
34
330
1
100
AcDbSymbolTableRecord
100
AcDbBlockTableRecord
  2
AI9-BLK4
340
0
102
{BLKREFS
331
35
102
}
  0
BLOCK_RECORD
  5
3A
330
1
100
AcDbSymbolTableRecord
100
AcDbBlockTableRecord
  2
AI9-BLK5
340
0
102
{BLKREFS
331
3B
102
}
  0
BLOCK_RECORD
  5
40
330
1
100
AcDbSymbolTableRecord
100
AcDbBlockTableRecord
  2
AI9-BLK6
340
0
102
{BLKREFS
331
41
102
}
  0
BLOCK_RECORD
  5
46
330
1
100
AcDbSymbolTableRecord
100
AcDbBlockTableRecord
  2
AI9-BLK7
340
0
102
{BLKREFS
331
47
102
}
  0
BLOCK_RECORD
  5
4C
330
1
100
AcDbSymbolTableRecord
100
AcDbBlockTableRecord
  2
AI9-BLK8
340
0
102
{BLKREFS
331
4D
102
}
  0
BLOCK_RECORD
  5
52
330
1
100
AcDbSymbolTableRecord
100
AcDbBlockTableRecord
  2
AI9-BLK9
340
0
102
{BLKREFS
331
53
102
}
  0
BLOCK_RECORD
  5
59
330
1
100
AcDbSymbolTableRecord
100
AcDbBlockTableRecord
  2
AI9-BLK10
340
0
102
{BLKREFS
331
5A
102
}
  0
BLOCK_RECORD
  5
5C
330
1
100
AcDbSymbolTableRecord
100
AcDbBlockTableRecord
  2
AI9-BLK11
340
0
102
{BLKREFS
331
5D
102
}
  0
BLOCK_RECORD
  5
61
330
1
100
AcDbSymbolTableRecord
100
AcDbBlockTableRecord
  2
AI9-BLK12
340
0
102
{BLKREFS
331
62
102
}
  0
BLOCK_RECORD
  5
68
330
1
100
AcDbSymbolTableRecord
100
AcDbBlockTableRecord
  2
AI9-BLK13
340
0
102
{BLKREFS
331
69
102
}
  0
BLOCK_RECORD
  5
7C
330
1
100
AcDbSymbolTableRecord
100
AcDbBlockTableRecord
  2
AI9-BLK14
340
0
102
{BLKREFS
331
7D
102
}
  0
BLOCK_RECORD
  5
92
330
1
100
AcDbSymbolTableRecord
100
AcDbBlockTableRecord
  2
AI9-BLK15
340
0
102
{BLKREFS
331
93
102
}
  0
BLOCK_RECORD
  5
BC
330
1
100
AcDbSymbolTableRecord
100
AcDbBlockTableRecord
  2
AI9-BLK16
340
0
102
{BLKREFS
331
BD
102
}
  0
ENDTAB
  0
ENDSEC
  0
SECTION
  2
BLOCKS
  0
BLOCK
  5
D
330
A
100
AcDbEntity
  8
0
100
AcDbBlockBegin
  2
*MODEL_SPACE
 70
     0
 10
0.0
 20
0.0
 30
0.0
  3
*MODEL_SPACE
  1

  4

  0
ENDBLK
  5
E
330
A
100
AcDbEntity
  8
0
100
AcDbBlockEnd
  0
BLOCK
  5
F
330
B
100
AcDbEntity
 67
     1
  8
0
100
AcDbBlockBegin
  2
*PAPER_SPACE
 70
     0
 10
0.0
 20
0.0
 30
0.0
  3
*PAPER_SPACE
  1

  4

  0
ENDBLK
  5
10
330
B
100
AcDbEntity
 67
     1
  8
0
100
AcDbBlockEnd
  0
BLOCK
  5
24
330
22
100
AcDbEntity
  8
LAYER_1
 62
     7
100
AcDbBlockBegin
  2
AI9-BLK1
 70
     0
 10
0.0
 20
0.0
 30
0.0
  3
AI9-BLK1
  1

  4

  0
ELLIPSE
  5
26
330
22
100
AcDbEntity
  8
LAYER_1
 62
     7
100
AcDbEllipse
 10
-0.1595079210069444
 20
-0.1227315266927083
 30
0.0
 11
0.1877577039930556
 21
-1.02474365234375
 31
0.0
210
0.0
220
0.0
230
1.0
 40
0.8065188538854526
 41
0.0
 42
6.283185307179586
  0
SPLINE
  5
25
330
22
100
AcDbEntity
  8
LAYER_1
 62
     7
100
AcDbSpline
210
0.0
220
0.0
230
1.0
 70
    11
 71
     3
 72
    23
 73
    19
 74
     0
 42
0.0000000001
 43
0.0000000001
 40
0.0
 40
0.0
 40
0.0
 40
0.0
 40
1.0
 40
1.0
 40
1.0
 40
2.0
 40
2.0
 40
2.0
 40
3.0
 40
3.0
 40
3.0
 40
4.0
 40
4.0
 40
4.0
 40
5.0
 40
5.0
 40
5.0
 40
6.0
 40
6.0
 40
6.0
 40
6.0
 10
0.9744452582465277
 20
0.272076416015625
 30
0.0
 10
0.8705756293402777
 20
0.8377610948350693
 30
0.0
 10
0.4161675347222222
 20
1.229123942057292
 30
0.0
 10
-0.0399631076388889
 20
1.144891357421875
 30
0.0
 10
-0.2215196397569444
 20
1.111646185980903
 30
0.0
 10
-0.3748263888888889
 20
1.005881754557292
 30
0.0
 10
-0.4885145399305555
 20
0.8570536295572916
 30
0.0
 10
-0.8595513237847221
 20
0.7009908040364583
 30
0.0
 10
-1.078142632378472
 20
0.2297017415364583
 30
0.0
 10
-0.9859863281249999
 20
-0.2741434733072917
 30
0.0
 10
-0.8817721896701388
 20
-0.8403449164496527
 30
0.0
 10
-0.4275363498263888
 20
-1.231018744574653
 30
0.0
 10
0.0282497829861111
 20
-1.147475179036458
 30
0.0
 10
0.2104953342013889
 20
-1.114230007595486
 30
0.0
 10
0.3636298285590278
 20
-1.008121066623264
 30
0.0
 10
0.4773179796006944
 20
-0.8592929416232639
 30
0.0
 10
0.8488715277777778
 20
-0.703057861328125
 30
0.0
 10
1.066946072048611
 20
-0.2319410536024305
 30
0.0
 10
0.9744452582465277
 20
0.272076416015625
 30
0.0
  0
ENDBLK
  5
27
330
22
100
AcDbEntity
  8
LAYER_1
100
AcDbBlockEnd
  0
BLOCK
  5
2A
330
28
100
AcDbEntity
  8
LAYER_1
 62
     7
100
AcDbBlockBegin
  2
AI9-BLK2
 70
     0
 10
0.0
 20
0.0
 30
0.0
  3
AI9-BLK2
  1

  4

  0
ELLIPSE
  5
2C
330
28
100
AcDbEntity
  8
LAYER_1
 62
     7
100
AcDbEllipse
 10
-0.148052978515625
 20
-0.1260904947916667
 30
0.0
 11
0.1877577039930556
 21
-1.02474365234375
 31
0.0
210
0.0
220
0.0
230
1.0
 40
0.8065188538854526
 41
0.0
 42
6.283185307179586
  0
SPLINE
  5
2B
330
28
100
AcDbEntity
  8
LAYER_1
 62
     7
100
AcDbSpline
210
0.0
220
0.0
230
1.0
 70
    11
 71
     3
 72
    23
 73
    19
 74
     0
 42
0.0000000001
 43
0.0000000001
 40
0.0
 40
0.0
 40
0.0
 40
0.0
 40
1.0
 40
1.0
 40
1.0
 40
2.0
 40
2.0
 40
2.0
 40
3.0
 40
3.0
 40
3.0
 40
4.0
 40
4.0
 40
4.0
 40
5.0
 40
5.0
 40
5.0
 40
6.0
 40
6.0
 40
6.0
 40
6.0
 10
0.9857279459635416
 20
0.2688897026909722
 30
0.0
 10
0.8820305718315972
 20
0.834402126736111
 30
0.0
 10
0.4274502224392361
 20
1.225937228732639
 30
0.0
 10
-0.0285081651475694
 20
1.141532389322917
 30
0.0
 10
-0.2102369520399305
 20
1.108287217881944
 30
0.0
 10
-0.3633714463975694
 20
1.002695041232639
 30
0.0
 10
-0.4770595974392361
 20
0.8538669162326388
 30
0.0
 10
-0.8480963812934027
 20
0.6978040907118055
 30
0.0
 10
-1.066859944661458
 20
0.2265150282118055
 30
0.0
 10
-0.9745313856336805
 20
-0.27750244140625
 30
0.0
 10
-0.8704895019531249
 20
-0.8435316297743055
 30
0.0
 10
-0.4160814073350694
 20
-1.234205457899305
 30
0.0
 10
0.0397047254774306
 20
-1.150834147135417
 30
0.0
 10
0.2217780219184028
 20
-1.117416720920139
 30
0.0
 10
0.3749125162760416
 20
-1.011480034722222
 30
0.0
 10
0.4886006673177083
 20
-0.8626519097222222
 30
0.0
 10
0.8603264702690971
 20
-0.7064168294270833
 30
0.0
 10
1.078401014539931
 20
-0.2353000217013889
 30
0.0
 10
0.9857279459635416
 20
0.2688897026909722
 30
0.0
  0
ENDBLK
  5
2D
330
28
100
AcDbEntity
  8
LAYER_1
100
AcDbBlockEnd
  0
BLOCK
  5
30
330
2E
100
AcDbEntity
  8
LAYER_1
 62
     7
100
AcDbBlockBegin
  2
AI9-BLK3
 70
     0
 10
0.0
 20
0.0
 30
0.0
  3
AI9-BLK3
  1

  4

  0
ELLIPSE
  5
32
330
2E
100
AcDbEntity
  8
LAYER_1
 62
     7
100
AcDbEllipse
 10
-0.1595940483940972
 20
-0.1169609917534722
 30
0.0
 11
0.1876715766059028
 21
-1.02474365234375
 31
0.0
210
0.0
220
0.0
230
1.0
 40
0.8064495488140501
 41
0.0
 42
6.283185307179586
  0
SPLINE
  5
31
330
2E
100
AcDbEntity
  8
LAYER_1
 62
     7
100
AcDbSpline
210
0.0
220
0.0
230
1.0
 70
    11
 71
     3
 72
    23
 73
    19
 74
     0
 42
0.0000000001
 43
0.0000000001
 40
0.0
 40
0.0
 40
0.0
 40
0.0
 40
1.0
 40
1.0
 40
1.0
 40
2.0
 40
2.0
 40
2.0
 40
3.0
 40
3.0
 40
3.0
 40
4.0
 40
4.0
 40
4.0
 40
5.0
 40
5.0
 40
5.0
 40
6.0
 40
6.0
 40
6.0
 40
6.0
 10
0.9744452582465277
 20
0.2776746961805555
 30
0.0
 10
0.8704033745659722
 20
0.8433593749999999
 30
0.0
 10
0.4159952799479166
 20
1.234722222222222
 30
0.0
 10
-0.0401353624131944
 20
1.150661892361111
 30
0.0
 10
-0.22169189453125
 20
1.117244466145833
 30
0.0
 10
-0.3749986436631944
 20
1.011480034722222
 30
0.0
 10
-0.4886867947048611
 20
0.8626519097222222
 30
0.0
 10
-0.8597235785590277
 20
0.7065890842013888
 30
0.0
 10
-1.078142632378472
 20
0.2353000217013889
 30
0.0
 10
-0.9859863281249999
 20
-0.2683729383680555
 30
0.0
 10
-0.8817721896701388
 20
-0.8345743815104166
 30
0.0
 10
-0.4277086046006944
 20
-1.225248209635417
 30
0.0
 10
0.0280775282118056
 20
-1.141704644097222
 30
0.0
 10
0.2103230794270833
 20
-1.10845947265625
 30
0.0
 10
0.3636298285590278
 20
-1.002522786458333
 30
0.0
 10
0.4773179796006944
 20
-0.8536946614583333
 30
0.0
 10
0.8486992730034721
 20
-0.6972873263888888
 30
0.0
 10
1.066773817274306
 20
-0.2263427734375
 30
0.0
 10
0.9744452582465277
 20
0.2776746961805555
 30
0.0
  0
ENDBLK
  5
33
330
2E
100
AcDbEntity
  8
LAYER_1
100
AcDbBlockEnd
  0
BLOCK
  5
36
330
34
100
AcDbEntity
  8
LAYER_1
 62
     7
100
AcDbBlockBegin
  2
AI9-BLK4
 70
     0
 10
0.0
 20
0.0
 30
0.0
  3
AI9-BLK4
  1

  4

  0
ELLIPSE
  5
38
330
34
100
AcDbEntity
  8
LAYER_1
 62
     7
100
AcDbEllipse
 10
-0.1593356662326389
 20
-0.11627197265625
 30
0.0
 11
0.1876715766059028
 21
-1.02474365234375
 31
0.0
210
0.0
220
0.0
230
1.0
 40
0.8064495488140501
 41
0.0
 42
6.283185307179586
  0
SPLINE
  5
37
330
34
100
AcDbEntity
  8
LAYER_1
 62
     7
100
AcDbSpline
210
0.0
220
0.0
230
1.0
 70
    11
 71
     3
 72
    23
 73
    19
 74
     0
 42
0.0000000001
 43
0.0000000001
 40
0.0
 40
0.0
 40
0.0
 40
0.0
 40
1.0
 40
1.0
 40
1.0
 40
2.0
 40
2.0
 40
2.0
 40
3.0
 40
3.0
 40
3.0
 40
4.0
 40
4.0
 40
4.0
 40
5.0
 40
5.0
 40
5.0
 40
6.0
 40
6.0
 40
6.0
 40
6.0
 10
0.9745313856336805
 20
0.2783637152777778
 30
0.0
 10
0.8706617567274305
 20
0.8440483940972221
 30
0.0
 10
0.4160814073350694
 20
1.235411241319444
 30
0.0
 10
-0.0398769802517361
 20
1.151350911458333
 30
0.0
 10
-0.2216057671440972
 20
1.117933485243055
 30
0.0
 10
-0.3747402615017361
 20
1.012169053819444
 30
0.0
 10
-0.4884284125434028
 20
0.8633409288194444
 30
0.0
 10
-0.8594651963975694
 20
0.7072781032986111
 30
0.0
 10
-1.078056504991319
 20
0.2359890407986111
 30
0.0
 10
-0.9857279459635416
 20
-0.2676839192708333
 30
0.0
 10
-0.8816860622829861
 20
-0.8338853624131943
 30
0.0
 10
-0.4274502224392361
 20
-1.224559190538194
 30
0.0
 10
0.0283359103732639
 20
-1.141015625
 30
0.0
 10
0.2104092068142361
 20
-1.107770453559028
 30
0.0
 10
0.3637159559461805
 20
-1.001833767361111
 30
0.0
 10
0.4774041069878472
 20
-0.853005642361111
 30
0.0
 10
0.8489576551649305
 20
-0.6965983072916666
 30
0.0
 10
1.067032199435764
 20
-0.2256537543402778
 30
0.0
 10
0.9745313856336805
 20
0.2783637152777778
 30
0.0
  0
ENDBLK
  5
39
330
34
100
AcDbEntity
  8
LAYER_1
100
AcDbBlockEnd
  0
BLOCK
  5
3C
330
3A
100
AcDbEntity
  8
LAYER_1
 62
     7
100
AcDbBlockBegin
  2
AI9-BLK5
 70
     0
 10
0.0
 20
0.0
 30
0.0
  3
AI9-BLK5
  1

  4

  0
ELLIPSE
  5
3E
330
3A
100
AcDbEntity
  8
LAYER_1
 62
     7
100
AcDbEllipse
 10
0.2141126844618055
 20
-0.0712273491753472
 30
0.0
 11
-0.2820671929253472
 21
-1.00303955078125
 31
0.0
210
0.0
220
0.0
230
1.0
 40
0.7210796288999377
 41
0.0
 42
6.283185307179586
  0
SPLINE
  5
3D
330
3A
100
AcDbEntity
  8
LAYER_1
 62
     7
100
AcDbSpline
210
0.0
220
0.0
230
1.0
 70
    11
 71
     3
 72
    29
 73
    25
 74
     0
 42
0.0000000001
 43
0.0000000001
 40
0.0
 40
0.0
 40
0.0
 40
0.0
 40
1.0
 40
1.0
 40
1.0
 40
2.0
 40
2.0
 40
2.0
 40
3.0
 40
3.0
 40
3.0
 40
4.0
 40
4.0
 40
4.0
 40
5.0
 40
5.0
 40
5.0
 40
6.0
 40
6.0
 40
6.0
 40
7.0
 40
7.0
 40
7.0
 40
8.0
 40
8.0
 40
8.0
 40
8.0
 10
0.4965243869357638
 20
0.9309509277343749
 30
0.0
 10
0.4291727701822916
 20
0.9502434624565972
 30
0.0
 10
0.3602708604600694
 20
0.9512769911024305
 30
0.0
 10
0.2918857150607639
 20
0.9447313096788194
 30
0.0
 10
0.2267734103732639
 20
1.003297932942708
 30
0.0
 10
0.1532206217447917
 20
1.050151231553819
 30
0.0
 10
0.0681267632378472
 20
1.074266899956597
 30
0.0
 10
-0.3311598036024305
 20
1.186577012803819
 30
0.0
 10
-0.7814337836371527
 20
0.828631591796875
 30
0.0
 10
-0.9374966091579861
 20
0.2750047471788194
 30
0.0
 10
-1.093042670355903
 20
-0.2784498426649305
 30
0.0
 10
-0.895638699001736
 20
-0.8189853244357638
 30
0.0
 10
-0.4965243869357638
 20
-0.9314676920572916
 30
0.0
 10
-0.4290005154079861
 20
-0.9504157172309027
 30
0.0
 10
-0.3602708604600694
 20
-0.9514492458767361
 30
0.0
 10
-0.2918857150607639
 20
-0.9450758192274305
 30
0.0
 10
-0.2267734103732639
 20
-1.003814697265625
 30
0.0
 10
-0.1530483669704861
 20
-1.050495741102431
 30
0.0
 10
-0.0679545084635417
 20
-1.074266899956597
 30
0.0
 10
0.3313320583767361
 20
-1.186749267578125
 30
0.0
 10
0.7812615288628472
 20
-0.8291483561197915
 30
0.0
 10
0.9373243543836805
 20
-0.2748324924045139
 30
0.0
 10
1.092870415581597
 20
0.2784498426649305
 30
0.0
 10
0.8959832085503472
 20
0.8189853244357638
 30
0.0
 10
0.4965243869357638
 20
0.9309509277343749
 30
0.0
  0
ENDBLK
  5
3F
330
3A
100
AcDbEntity
  8
LAYER_1
100
AcDbBlockEnd
  0
BLOCK
  5
42
330
40
100
AcDbEntity
  8
LAYER_1
 62
     7
100
AcDbBlockBegin
  2
AI9-BLK6
 70
     0
 10
0.0
 20
0.0
 30
0.0
  3
AI9-BLK6
  1

  4

  0
ELLIPSE
  5
44
330
40
100
AcDbEntity
  8
LAYER_1
 62
     7
100
AcDbEllipse
 10
0.2146294487847222
 20
-0.061236572265625
 30
0.0
 11
-0.2822394476996528
 21
-1.002867296006945
 31
0.0
210
0.0
220
0.0
230
1.0
 40
0.7211621098987749
 41
0.0
 42
6.283185307179586
  0
SPLINE
  5
43
330
40
100
AcDbEntity
  8
LAYER_1
 62
     7
100
AcDbSpline
210
0.0
220
0.0
230
1.0
 70
    11
 71
     3
 72
    29
 73
    25
 74
     0
 42
0.0000000001
 43
0.0000000001
 40
0.0
 40
0.0
 40
0.0
 40
0.0
 40
1.0
 40
1.0
 40
1.0
 40
2.0
 40
2.0
 40
2.0
 40
3.0
 40
3.0
 40
3.0
 40
4.0
 40
4.0
 40
4.0
 40
5.0
 40
5.0
 40
5.0
 40
6.0
 40
6.0
 40
6.0
 40
7.0
 40
7.0
 40
7.0
 40
8.0
 40
8.0
 40
8.0
 40
8.0
 10
0.4970411512586805
 20
0.9411139594184027
 30
0.0
 10
0.4295172797309028
 20
0.9602342393663194
 30
0.0
 10
0.3609598795572916
 20
0.9612677680121528
 30
0.0
 10
0.2924024793836805
 20
0.9547220865885416
 30
0.0
 10
0.2272901746961805
 20
1.013460964626736
 30
0.0
 10
0.1535651312934028
 20
1.060142008463542
 30
0.0
 10
0.0686435275607639
 20
1.084257676866319
 30
0.0
 10
-0.3304707845052083
 20
1.196567789713542
 30
0.0
 10
-0.7809170193142361
 20
0.8387946234809027
 30
0.0
 10
-0.9369798448350694
 20
0.2849955240885416
 30
0.0
 10
-1.092525906032986
 20
-0.2682868109809027
 30
0.0
 10
-0.8951219346788194
 20
-0.808822292751736
 30
0.0
 10
-0.4958353678385416
 20
-0.9213046603732638
 30
0.0
 10
-0.4284837510850694
 20
-0.9404249403211805
 30
0.0
 10
-0.3597540961371528
 20
-0.9414584689670138
 30
0.0
 10
-0.2911966959635416
 20
-0.9349127875434027
 30
0.0
 10
-0.2260843912760417
 20
-0.9936516655815971
 30
0.0
 10
-0.1525316026475694
 20
-1.040332709418403
 30
0.0
 10
-0.0676099989149306
 20
-1.064103868272569
 30
0.0
 10
0.3320210774739583
 20
-1.176586235894097
 30
0.0
 10
0.7817782931857639
 20
-0.8189853244357638
 30
0.0
 10
0.9378411187065971
 20
-0.2648417154947916
 30
0.0
 10
1.093387179904514
 20
0.2884406195746528
 30
0.0
 10
0.8964999728732638
 20
0.8289761013454861
 30
0.0
 10
0.4970411512586805
 20
0.9411139594184027
 30
0.0
  0
ENDBLK
  5
45
330
40
100
AcDbEntity
  8
LAYER_1
100
AcDbBlockEnd
  0
BLOCK
  5
48
330
46
100
AcDbEntity
  8
LAYER_1
 62
     7
100
AcDbBlockBegin
  2
AI9-BLK7
 70
     0
 10
0.0
 20
0.0
 30
0.0
  3
AI9-BLK7
  1

  4

  0
ELLIPSE
  5
4A
330
46
100
AcDbEntity
  8
LAYER_1
 62
     7
100
AcDbEllipse
 10
0.2148878309461805
 20
-0.0813042534722222
 30
0.0
 11
-0.2820671929253472
 21
-1.002867296006945
 31
0.0
210
0.0
220
0.0
230
1.0
 40
0.7211944043508316
 41
0.0
 42
6.283185307179586
  0
SPLINE
  5
49
330
46
100
AcDbEntity
  8
LAYER_1
 62
     7
100
AcDbSpline
210
0.0
220
0.0
230
1.0
 70
    11
 71
     3
 72
    29
 73
    25
 74
     0
 42
0.0000000001
 43
0.0000000001
 40
0.0
 40
0.0
 40
0.0
 40
0.0
 40
1.0
 40
1.0
 40
1.0
 40
2.0
 40
2.0
 40
2.0
 40
3.0
 40
3.0
 40
3.0
 40
4.0
 40
4.0
 40
4.0
 40
5.0
 40
5.0
 40
5.0
 40
6.0
 40
6.0
 40
6.0
 40
7.0
 40
7.0
 40
7.0
 40
8.0
 40
8.0
 40
8.0
 40
8.0
 10
0.4972995334201388
 20
0.9210462782118055
 30
0.0
 10
0.4299479166666667
 20
0.9401665581597222
 30
0.0
 10
0.3610460069444444
 20
0.9412000868055555
 30
0.0
 10
0.2926608615451389
 20
0.9346544053819443
 30
0.0
 10
0.2275485568576389
 20
0.9933932834201388
 30
0.0
 10
0.1539957682291667
 20
1.040074327256944
 30
0.0
 10
0.0689019097222222
 20
1.064189995659722
 30
0.0
 10
-0.3303846571180555
 20
1.176500108506944
 30
0.0
 10
-0.7806586371527777
 20
0.8187269422743055
 30
0.0
 10
-0.936721462673611
 20
0.2649278428819444
 30
0.0
 10
-1.092267523871528
 20
-0.2883544921875
 30
0.0
 10
-0.8948635525173611
 20
-0.8288899739583333
 30
0.0
 10
-0.4957492404513889
 20
-0.9413723415798611
 30
0.0
 10
-0.4282253689236111
 20
-0.9604926215277777
 30
0.0
 10
-0.3594957139756944
 20
-0.961526150173611
 30
0.0
 10
-0.2911105685763888
 20
-0.9549804687499999
 30
0.0
 10
-0.2259982638888889
 20
-1.013719346788194
 30
0.0
 10
-0.1522732204861111
 20
-1.060400390625
 30
0.0
 10
-0.0671793619791667
 20
-1.084171549479167
 30
0.0
 10
0.3321072048611111
 20
-1.196653917100694
 30
0.0
 10
0.7820366753472221
 20
-0.8390530056423611
 30
0.0
 10
0.9380995008680555
 20
-0.2849093967013889
 30
0.0
 10
1.093645562065972
 20
0.2683729383680555
 30
0.0
 10
0.8967583550347221
 20
0.8089084201388889
 30
0.0
 10
0.4972995334201388
 20
0.9210462782118055
 30
0.0
  0
ENDBLK
  5
4B
330
46
100
AcDbEntity
  8
LAYER_1
100
AcDbBlockEnd
  0
BLOCK
  5
4E
330
4C
100
AcDbEntity
  8
LAYER_1
 62
     7
100
AcDbBlockBegin
  2
AI9-BLK8
 70
     0
 10
0.0
 20
0.0
 30
0.0
  3
AI9-BLK8
  1

  4

  0
ELLIPSE
  5
50
330
4C
100
AcDbEntity
  8
LAYER_1
 62
     7
100
AcDbEllipse
 10
-0.1594217936197916
 20
-0.1260904947916667
 30
0.0
 11
0.1877577039930556
 21
-1.02474365234375
 31
0.0
210
0.0
220
0.0
230
1.0
 40
0.8065188538854526
 41
0.0
 42
6.283185307179586
  0
SPLINE
  5
4F
330
4C
100
AcDbEntity
  8
LAYER_1
 62
     7
100
AcDbSpline
210
0.0
220
0.0
230
1.0
 70
    11
 71
     3
 72
    23
 73
    19
 74
     0
 42
0.0000000001
 43
0.0000000001
 40
0.0
 40
0.0
 40
0.0
 40
0.0
 40
1.0
 40
1.0
 40
1.0
 40
2.0
 40
2.0
 40
2.0
 40
3.0
 40
3.0
 40
3.0
 40
4.0
 40
4.0
 40
4.0
 40
5.0
 40
5.0
 40
5.0
 40
6.0
 40
6.0
 40
6.0
 40
6.0
 10
0.9745313856336805
 20
0.2687174479166666
 30
0.0
 10
0.8706617567274305
 20
0.8342298719618054
 30
0.0
 10
0.416253662109375
 20
1.225764973958333
 30
0.0
 10
-0.0398769802517361
 20
1.141532389322917
 30
0.0
 10
-0.2214335123697916
 20
1.108114963107639
 30
0.0
 10
-0.3747402615017361
 20
1.002522786458333
 30
0.0
 10
-0.4884284125434028
 20
0.8536946614583333
 30
0.0
 10
-0.8594651963975694
 20
0.6976318359374999
 30
0.0
 10
-1.078056504991319
 20
0.2263427734375
 30
0.0
 10
-0.9859002007378471
 20
-0.27750244140625
 30
0.0
 10
-0.8816860622829861
 20
-0.8435316297743055
 30
0.0
 10
-0.4274502224392361
 20
-1.234205457899305
 30
0.0
 10
0.0283359103732639
 20
-1.150834147135417
 30
0.0
 10
0.2105814615885417
 20
-1.117416720920139
 30
0.0
 10
0.3637159559461805
 20
-1.011652289496528
 30
0.0
 10
0.4774041069878472
 20
-0.8628241644965277
 30
0.0
 10
0.8489576551649305
 20
-0.7064168294270833
 30
0.0
 10
1.067032199435764
 20
-0.2354722764756944
 30
0.0
 10
0.9745313856336805
 20
0.2687174479166666
 30
0.0
  0
ENDBLK
  5
51
330
4C
100
AcDbEntity
  8
LAYER_1
100
AcDbBlockEnd
  0
BLOCK
  5
54
330
52
100
AcDbEntity
  8
LAYER_1
 62
     7
100
AcDbBlockBegin
  2
AI9-BLK9
 70
     0
 10
0.0
 20
0.0
 30
0.0
  3
AI9-BLK9
  1

  4

  0
ELLIPSE
  5
56
330
52
100
AcDbEntity
  8
LAYER_1
 62
     7
100
AcDbEllipse
 10
0.2146294487847222
 20
-0.0713134765625
 30
0.0
 11
-0.2822394476996528
 21
-1.002867296006945
 31
0.0
210
0.0
220
0.0
230
1.0
 40
0.7211621098987749
 41
0.0
 42
6.283185307179586
  0
SPLINE
  5
55
330
52
100
AcDbEntity
  8
LAYER_1
 62
     7
100
AcDbSpline
210
0.0
220
0.0
230
1.0
 70
    11
 71
     3
 72
    29
 73
    25
 74
     0
 42
0.0000000001
 43
0.0000000001
 40
0.0
 40
0.0
 40
0.0
 40
0.0
 40
1.0
 40
1.0
 40
1.0
 40
2.0
 40
2.0
 40
2.0
 40
3.0
 40
3.0
 40
3.0
 40
4.0
 40
4.0
 40
4.0
 40
5.0
 40
5.0
 40
5.0
 40
6.0
 40
6.0
 40
6.0
 40
7.0
 40
7.0
 40
7.0
 40
8.0
 40
8.0
 40
8.0
 40
8.0
 10
0.4970411512586805
 20
0.9310370551215277
 30
0.0
 10
0.4295172797309028
 20
0.9501573350694443
 30
0.0
 10
0.3609598795572916
 20
0.9511908637152777
 30
0.0
 10
0.2924024793836805
 20
0.9446451822916666
 30
0.0
 10
0.2272901746961805
 20
1.003384060329861
 30
0.0
 10
0.1535651312934028
 20
1.050065104166667
 30
0.0
 10
0.0686435275607639
 20
1.074180772569444
 30
0.0
 10
-0.3304707845052083
 20
1.186490885416667
 30
0.0
 10
-0.7809170193142361
 20
0.8287177191840277
 30
0.0
 10
-0.9369798448350694
 20
0.2749186197916667
 30
0.0
 10
-1.092525906032986
 20
-0.2783637152777778
 30
0.0
 10
-0.8951219346788194
 20
-0.818899197048611
 30
0.0
 10
-0.4958353678385416
 20
-0.9313815646701388
 30
0.0
 10
-0.4284837510850694
 20
-0.9505018446180554
 30
0.0
 10
-0.3597540961371528
 20
-0.9515353732638888
 30
0.0
 10
-0.2911966959635416
 20
-0.9449896918402777
 30
0.0
 10
-0.2260843912760417
 20
-1.003728569878472
 30
0.0
 10
-0.1525316026475694
 20
-1.050409613715278
 30
0.0
 10
-0.0676099989149306
 20
-1.074180772569444
 30
0.0
 10
0.3320210774739583
 20
-1.186663140190972
 30
0.0
 10
0.7817782931857639
 20
-0.8290622287326388
 30
0.0
 10
0.9378411187065971
 20
-0.2749186197916667
 30
0.0
 10
1.093387179904514
 20
0.2783637152777778
 30
0.0
 10
0.8964999728732638
 20
0.818899197048611
 30
0.0
 10
0.4970411512586805
 20
0.9310370551215277
 30
0.0
  0
ENDBLK
  5
57
330
52
100
AcDbEntity
  8
LAYER_1
100
AcDbBlockEnd
  0
BLOCK
  5
5B
330
59
100
AcDbEntity
  8
LAYER_1
 62
     7
100
AcDbBlockBegin
  2
AI9-BLK10
 70
     0
 10
0.0
 20
0.0
 30
0.0
  3
AI9-BLK10
  1

  4

  0
ELLIPSE
  5
66
330
59
100
AcDbEntity
  8
LAYER_1
 62
     7
100
AcDbEllipse
 10
0.0001722547743056
 20
0.0
 30
0.0
 11
0.0
 21
-0.9508463541666666
 31
0.0
210
0.0
220
0.0
230
1.0
 40
0.638768115942029
 41
0.0
 42
6.283185307179586
  0
INSERT
  5
62
330
59
100
AcDbEntity
  8
LAYER_1
 62
     7
100
AcDbBlockReference
  2
AI9-BLK12
 10
-0.1847432454427083
 20
0.1688096788194444
 30
0.0
  0
INSERT
  5
5D
330
59
100
AcDbEntity
  8
LAYER_1
 62
     7
100
AcDbBlockReference
  2
AI9-BLK11
 10
-0.2825839572482639
 20
0.18758544921875
 30
0.0
  0
ENDBLK
  5
67
330
59
100
AcDbEntity
  8
LAYER_1
100
AcDbBlockEnd
  0
BLOCK
  5
5E
330
5C
100
AcDbEntity
  8
LAYER_1
 62
     7
100
AcDbBlockBegin
  2
AI9-BLK11
 70
     0
 10
0.0
 20
0.0
 30
0.0
  3
AI9-BLK11
  1

  4

  0
SPLINE
  5
5F
330
5C
100
AcDbEntity
  8
LAYER_1
 62
     7
100
AcDbSpline
210
0.0
220
0.0
230
1.0
 70
    11
 71
     3
 72
    20
 73
    16
 74
     0
 42
0.0000000001
 43
0.0000000001
 40
0.0
 40
0.0
 40
0.0
 40
0.0
 40
1.0
 40
1.0
 40
1.0
 40
2.0
 40
2.0
 40
2.0
 40
3.0
 40
3.0
 40
3.0
 40
4.0
 40
4.0
 40
4.0
 40
5.0
 40
5.0
 40
5.0
 40
5.0
 10
0.1924947102864583
 20
0.7505140516493055
 30
0.0
 10
0.2706983778211806
 20
0.5903171115451389
 30
0.0
 10
0.296881103515625
 20
0.3868842230902778
 30
0.0
 10
0.296881103515625
 20
0.1700154622395833
 30
0.0
 10
0.296881103515625
 20
-0.2797417534722222
 30
0.0
 10
0.1075731065538194
 20
-0.6392374674479167
 30
0.0
 10
-0.1602830674913194
 20
-0.7381117078993055
 30
0.0
 10
-0.1602830674913194
 20
-0.7381117078993055
 30
0.0
 10
-0.1602830674913194
 20
-0.7381117078993055
 30
0.0
 10
-0.1602830674913194
 20
-0.7381117078993055
 30
0.0
 10
-0.2520948621961806
 20
-0.5717135959201388
 30
0.0
 10
-0.2970533582899305
 20
-0.4215074327256944
 30
0.0
 10
-0.2970533582899305
 20
-0.1846571180555555
 30
0.0
 10
-0.2970533582899305
 20
0.2881822374131944
 30
0.0
 10
-0.0965488009982639
 20
0.6773057725694444
 30
0.0
 10
0.1924947102864583
 20
0.7505140516493055
 30
0.0
  0
ENDBLK
  5
60
330
5C
100
AcDbEntity
  8
LAYER_1
100
AcDbBlockEnd
  0
BLOCK
  5
63
330
61
100
AcDbEntity
  8
LAYER_1
 62
     7
100
AcDbBlockBegin
  2
AI9-BLK12
 70
     0
 10
0.0
 20
0.0
 30
0.0
  3
AI9-BLK12
  1

  4

  0
SPLINE
  5
64
330
61
100
AcDbEntity
  8
LAYER_1
 62
     7
100
AcDbSpline
210
0.0
220
0.0
230
1.0
 70
     8
 71
     3
 72
    11
 73
     7
 74
     0
 42
0.0000000001
 43
0.0000000001
 40
0.0
 40
0.0
 40
0.0
 40
0.0
 40
1.0
 40
1.0
 40
1.0
 40
2.0
 40
2.0
 40
2.0
 40
2.0
 10
-0.2632914225260417
 20
-0.7172688802083332
 30
0.0
 10
0.0047370062934028
 20
-0.6185668945312499
 30
0.0
 10
0.2042080349392361
 20
-0.2415011935763889
 30
0.0
 10
0.2042080349392361
 20
0.2082560221354166
 30
0.0
 10
0.2042080349392361
 20
0.4251247829861111
 30
0.0
 10
0.1580437554253472
 20
0.6249403211805555
 30
0.0
 10
0.0800123426649305
 20
0.7849650065104166
 30
0.0
  0
ENDBLK
  5
65
330
61
100
AcDbEntity
  8
LAYER_1
100
AcDbBlockEnd
  0
BLOCK
  5
6A
330
68
100
AcDbEntity
  8
LAYER_1
 62
     7
100
AcDbBlockBegin
  2
AI9-BLK13
 70
     0
 10
0.0
 20
0.0
 30
0.0
  3
AI9-BLK13
  1

  4

  0
SPLINE
  5
77
330
68
100
AcDbEntity
  8
LAYER_1
 62
     7
100
AcDbSpline
210
0.0
220
0.0
230
1.0
 70
    11
 71
     3
 72
   107
 73
   103
 74
     0
 42
0.0000000001
 43
0.0000000001
 40
0.0
 40
0.0
 40
0.0
 40
0.0
 40
1.0
 40
1.0
 40
1.0
 40
2.0
 40
2.0
 40
2.0
 40
3.0
 40
3.0
 40
3.0
 40
4.0
 40
4.0
 40
4.0
 40
5.0
 40
5.0
 40
5.0
 40
6.0
 40
6.0
 40
6.0
 40
7.0
 40
7.0
 40
7.0
 40
8.0
 40
8.0
 40
8.0
 40
9.0
 40
9.0
 40
9.0
 40
10.0
 40
10.0
 40
10.0
 40
11.0
 40
11.0
 40
11.0
 40
12.0
 40
12.0
 40
12.0
 40
13.0
 40
13.0
 40
13.0
 40
14.0
 40
14.0
 40
14.0
 40
15.0
 40
15.0
 40
15.0
 40
16.0
 40
16.0
 40
16.0
 40
17.0
 40
17.0
 40
17.0
 40
18.0
 40
18.0
 40
18.0
 40
19.0
 40
19.0
 40
19.0
 40
20.0
 40
20.0
 40
20.0
 40
21.0
 40
21.0
 40
21.0
 40
22.0
 40
22.0
 40
22.0
 40
23.0
 40
23.0
 40
23.0
 40
24.0
 40
24.0
 40
24.0
 40
25.0
 40
25.0
 40
25.0
 40
26.0
 40
26.0
 40
26.0
 40
27.0
 40
27.0
 40
27.0
 40
28.0
 40
28.0
 40
28.0
 40
29.0
 40
29.0
 40
29.0
 40
30.0
 40
30.0
 40
30.0
 40
31.0
 40
31.0
 40
31.0
 40
32.0
 40
32.0
 40
32.0
 40
33.0
 40
33.0
 40
33.0
 40
34.0
 40
34.0
 40
34.0
 40
34.0
 10
-10.32882690429687
 20
-5.576576063368055
 30
0.0
 10
-10.32882690429687
 20
-5.576576063368055
 30
0.0
 10
-10.32882690429687
 20
-15.57768825954861
 30
0.0
 10
-10.32882690429687
 20
-15.57768825954861
 30
0.0
 10
-10.32882690429687
 20
-15.57768825954861
 30
0.0
 10
-9.850475396050346
 20
-15.76303439670139
 30
0.0
 10
-9.850475396050346
 20
-15.97904188368055
 30
0.0
 10
-9.850475396050346
 20
-16.28186577690972
 30
0.0
 10
-9.850475396050346
 20
-17.97547471788194
 30
0.0
 10
-9.850475396050346
 20
-18.19492730034722
 30
0.0
 10
-9.850475396050346
 20
-18.56527506510416
 30
0.0
 10
-10.33933444552951
 20
-18.6376220703125
 30
0.0
 10
-10.39083862304687
 20
-18.68860948350694
 30
0.0
 10
-10.39083862304687
 20
-18.68860948350694
 30
0.0
 10
-10.39083862304687
 20
-30.0262464735243
 30
0.0
 10
-10.39083862304687
 20
-30.0262464735243
 30
0.0
 10
-10.39083862304687
 20
-30.0262464735243
 30
0.0
 10
-8.352547878689235
 20
-31.89159342447917
 30
0.0
 10
-8.352547878689235
 20
-31.89159342447917
 30
0.0
 10
-8.352547878689235
 20
-31.89159342447917
 30
0.0
 10
-2.897755940755208
 20
-30.77142062717014
 30
0.0
 10
-2.897755940755208
 20
-30.77142062717014
 30
0.0
 10
-2.897755940755208
 20
-30.77142062717014
 30
0.0
 10
-0.9452480740017361
 20
-27.9889892578125
 30
0.0
 10
-0.9452480740017361
 20
-27.9889892578125
 30
0.0
 10
-0.9452480740017361
 20
-27.9889892578125
 30
0.0
 10
-0.9452480740017361
 20
-16.62947591145833
 30
0.0
 10
-0.9452480740017361
 20
-16.62947591145833
 30
0.0
 10
-0.9452480740017361
 20
-16.62947591145833
 30
0.0
 10
-1.609462483723958
 20
-16.61397298177083
 30
0.0
 10
-1.609462483723958
 20
-16.1201185438368
 30
0.0
 10
-1.609462483723958
 20
-15.93494466145833
 30
0.0
 10
-1.609462483723958
 20
-15.40905083550347
 30
0.0
 10
-1.609462483723958
 20
-15.11673448350694
 30
0.0
 10
-1.609462483723958
 20
-14.74655897352431
 30
0.0
 10
-1.246177164713542
 20
-14.53055148654514
 30
0.0
 10
-0.8215691460503471
 20
-14.53055148654514
 30
0.0
 10
-0.8215691460503471
 20
-14.53055148654514
 30
0.0
 10
-0.8215691460503471
 20
-6.304180230034722
 30
0.0
 10
-0.8215691460503471
 20
-6.304180230034722
 30
0.0
 10
-0.8215691460503471
 20
-6.304180230034722
 30
0.0
 10
-0.6363952636718749
 20
-5.316471354166667
 30
0.0
 10
0.5366597493489583
 20
-4.575431315104166
 30
0.0
 10
0.5366597493489583
 20
-4.575431315104166
 30
0.0
 10
10.26733194986979
 20
10.47050645616319
 30
0.0
 10
10.26733194986979
 20
10.47050645616319
 30
0.0
 10
10.26733194986979
 20
10.47050645616319
 30
0.0
 10
10.26733194986979
 20
15.64969075520833
 30
0.0
 10
10.26733194986979
 20
15.64969075520833
 30
0.0
 10
10.26733194986979
 20
15.64969075520833
 30
0.0
 10
9.588303629557291
 20
15.61868489583333
 30
0.0
 10
9.588303629557291
 20
16.08170572916666
 30
0.0
 10
9.588303629557291
 20
16.42242567274305
 30
0.0
 10
9.588303629557291
 20
17.27818739149306
 30
0.0
 10
9.588303629557291
 20
17.45560980902778
 30
0.0
 10
9.588303629557291
 20
17.79512396918403
 30
0.0
 10
9.711465793185763
 20
18.04196506076389
 30
0.0
 10
10.39083862304687
 20
18.04196506076389
 30
0.0
 10
10.39083862304687
 20
18.04196506076389
 30
0.0
 10
10.39083862304687
 20
28.06529812282986
 30
0.0
 10
10.39083862304687
 20
28.06529812282986
 30
0.0
 10
10.39083862304687
 20
28.06529812282986
 30
0.0
 10
9.438441975911458
 20
30.04967312282986
 30
0.0
 10
8.662261962890625
 20
30.34956868489583
 30
0.0
 10
7.961529541015624
 20
30.62018093532986
 30
0.0
 10
4.004320610894097
 20
32.0259521484375
 30
0.0
 10
3.386959499782986
 20
31.90261773003472
 30
0.0
 10
2.769598388671875
 20
31.77893880208333
 30
0.0
 10
2.831265597873264
 20
31.90261773003472
 30
0.0
 10
2.460917833116319
 20
31.346923828125
 30
0.0
 10
2.090570068359375
 20
30.79122992621528
 30
0.0
 10
1.781889512803819
 20
30.48272162543402
 30
0.0
 10
1.781889512803819
 20
29.18615993923611
 30
0.0
 10
1.781889512803819
 20
27.88959825303819
 30
0.0
 10
1.781889512803819
 20
19.86407606336805
 30
0.0
 10
1.781889512803819
 20
19.86407606336805
 30
0.0
 10
1.781889512803819
 20
19.86407606336805
 30
0.0
 10
2.279361300998264
 20
19.74074164496528
 30
0.0
 10
2.279361300998264
 20
19.29287923177083
 30
0.0
 10
2.279361300998264
 20
19.11545681423611
 30
0.0
 10
2.279361300998264
 20
18.70652398003472
 30
0.0
 10
2.279361300998264
 20
18.37286648220486
 30
0.0
 10
2.279361300998264
 20
17.91931966145833
 30
0.0
 10
2.121231418185764
 20
17.73414577907986
 30
0.0
 10
1.874562581380208
 20
17.64164496527778
 30
0.0
 10
1.874562581380208
 20
17.64164496527778
 30
0.0
 10
1.874562581380208
 20
16.87890082465278
 30
0.0
 10
1.874562581380208
 20
16.19987250434028
 30
0.0
 10
1.874562581380208
 20
15.54668240017361
 30
0.0
 10
2.592348225911458
 20
11.61152208116319
 30
0.0
 10
1.897816975911458
 20
11.26425645616319
 30
0.0
 10
1.864227294921875
 20
11.25133734809028
 30
0.0
 10
1.550551350911458
 20
11.00949164496528
 30
0.0
 10
1.458050537109375
 20
10.89373643663194
 30
0.0
 10
1.319040934244792
 20
10.72010362413194
 30
0.0
 10
-0.0462504069010417
 20
9.513286675347221
 30
0.0
 10
-0.1425408257378472
 20
9.36256374782986
 30
0.0
 10
-0.3757737901475694
 20
8.997900390624999
 30
0.0
 10
-0.5187452528211806
 20
8.702655707465278
 30
0.0
 10
-1.130421956380208
 20
7.61073269314236
 30
0.0
 10
-1.99462415907118
 20
6.067502170138888
 30
0.0
 10
-10.32882690429687
 20
-5.576576063368055
 30
0.0
 10
-10.32882690429687
 20
-5.576576063368055
 30
0.0
  0
SPLINE
  5
76
330
68
100
AcDbEntity
  8
LAYER_1
 62
     7
100
AcDbSpline
210
0.0
220
0.0
230
1.0
 70
     8
 71
     3
 72
    32
 73
    28
 74
     0
 42
0.0000000001
 43
0.0000000001
 40
0.0
 40
0.0
 40
0.0
 40
0.0
 40
1.0
 40
1.0
 40
1.0
 40
2.0
 40
2.0
 40
2.0
 40
3.0
 40
3.0
 40
3.0
 40
4.0
 40
4.0
 40
4.0
 40
5.0
 40
5.0
 40
5.0
 40
6.0
 40
6.0
 40
6.0
 40
7.0
 40
7.0
 40
7.0
 40
8.0
 40
8.0
 40
8.0
 40
9.0
 40
9.0
 40
9.0
 40
9.0
 10
0.3514858669704861
 20
-4.666726345486111
 30
0.0
 10
0.2278069390190972
 20
-3.958070203993055
 30
0.0
 10
0.4746480305989583
 20
-3.526055230034722
 30
0.0
 10
0.4746480305989583
 20
-3.526055230034722
 30
0.0
 10
0.4746480305989583
 20
-3.526055230034722
 30
0.0
 10
9.769343397352429
 20
10.78676622178819
 30
0.0
 10
9.769343397352429
 20
10.78676622178819
 30
0.0
 10
9.769343397352429
 20
10.78676622178819
 30
0.0
 10
9.769343397352429
 20
15.55701768663194
 30
0.0
 10
9.769343397352429
 20
15.55701768663194
 30
0.0
 10
9.769343397352429
 20
15.55701768663194
 30
0.0
 10
8.924605984157985
 20
15.57252061631944
 30
0.0
 10
8.912892659505207
 20
15.92753770616319
 30
0.0
 10
8.899456787109374
 20
16.34404975043403
 30
0.0
 10
8.912892659505207
 20
17.31453314887153
 30
0.0
 10
8.912892659505207
 20
17.54811062282986
 30
0.0
 10
8.912892659505207
 20
17.964794921875
 30
0.0
 10
9.213994004991319
 20
18.24264187282986
 30
0.0
 10
9.893022325303818
 20
18.24264187282986
 30
0.0
 10
9.893022325303818
 20
18.24264187282986
 30
0.0
 10
9.893022325303818
 20
28.06529812282986
 30
0.0
 10
9.893022325303818
 20
28.06529812282986
 30
0.0
 10
9.893022325303818
 20
28.06529812282986
 30
0.0
 10
8.677764892578125
 20
29.85123562282986
 30
0.0
 10
8.677764892578125
 20
29.85123562282986
 30
0.0
 10
8.677764892578125
 20
29.85123562282986
 30
0.0
 10
2.823858642578125
 20
31.76946478949652
 30
0.0
 10
2.823858642578125
 20
31.76946478949652
 30
0.0
  0
SPLINE
  5
75
330
68
100
AcDbEntity
  8
LAYER_1
 62
     7
100
AcDbSpline
210
0.0
220
0.0
230
1.0
 70
     8
 71
     3
 72
    29
 73
    25
 74
     0
 42
0.0000000001
 43
0.0000000001
 40
0.0
 40
0.0
 40
0.0
 40
0.0
 40
1.0
 40
1.0
 40
1.0
 40
2.0
 40
2.0
 40
2.0
 40
3.0
 40
3.0
 40
3.0
 40
4.0
 40
4.0
 40
4.0
 40
5.0
 40
5.0
 40
5.0
 40
6.0
 40
6.0
 40
6.0
 40
7.0
 40
7.0
 40
7.0
 40
8.0
 40
8.0
 40
8.0
 40
8.0
 10
0.1120517306857639
 20
9.478318956163193
 30
0.0
 10
0.2508890787760417
 20
9.061634657118054
 30
0.0
 10
-0.0119717068142361
 20
8.157297092013888
 30
0.0
 10
-0.0498677571614583
 20
8.089256456163193
 30
0.0
 10
-0.9144144694010415
 20
6.546025933159721
 30
0.0
 10
-9.815679931640624
 20
-5.877332899305555
 30
0.0
 10
-9.815679931640624
 20
-5.877332899305555
 30
0.0
 10
-9.815679931640624
 20
-5.877332899305555
 30
0.0
 10
-9.815679931640624
 20
-15.72427707248264
 30
0.0
 10
-9.815679931640624
 20
-15.72427707248264
 30
0.0
 10
-9.815679931640624
 20
-15.72427707248264
 30
0.0
 10
-9.346974690755207
 20
-15.60852186414931
 30
0.0
 10
-9.346974690755207
 20
-16.3495619032118
 30
0.0
 10
-9.346974690755207
 20
-16.66358235677083
 30
0.0
 10
-9.346974690755207
 20
-18.02181125217014
 30
0.0
 10
-9.346974690755207
 20
-18.3029310438368
 30
0.0
 10
-9.346974690755207
 20
-18.67345106336805
 30
0.0
 10
-9.877347140842012
 20
-18.92011990017361
 30
0.0
 10
-9.877347140842012
 20
-18.92011990017361
 30
0.0
 10
-9.877347140842012
 20
-18.92011990017361
 30
0.0
 10
-9.877347140842012
 20
-29.84107259114583
 30
0.0
 10
-9.877347140842012
 20
-29.84107259114583
 30
0.0
 10
-9.877347140842012
 20
-29.84107259114583
 30
0.0
 10
-7.957912190755208
 20
-31.5982435438368
 30
0.0
 10
-7.957912190755208
 20
-31.5982435438368
 30
0.0
  0
LINE
  5
74
330
68
100
AcDbEntity
  8
LAYER_1
 62
     7
100
AcDbLine
 10
9.769343397352429
 20
10.78676622178819
 30
0.0
 11
10.26733194986979
 21
10.47050645616319
 31
0.0
  0
LINE
  5
73
330
68
100
AcDbEntity
  8
LAYER_1
 62
     7
100
AcDbLine
 10
9.893022325303818
 20
18.24264187282986
 30
0.0
 11
10.39083862304687
 21
18.04196506076389
 31
0.0
  0
LINE
  5
72
330
68
100
AcDbEntity
  8
LAYER_1
 62
     7
100
AcDbLine
 10
-10.35983276367187
 20
-5.669076877170139
 30
0.0
 11
-9.815679931640624
 21
-5.877332899305555
 31
0.0
  0
LINE
  5
71
330
68
100
AcDbEntity
  8
LAYER_1
 62
     7
100
AcDbLine
 10
0.7071919759114582
 20
8.949152289496526
 30
0.0
 11
0.7071919759114582
 21
8.655802408854166
 31
0.0
  0
LINE
  5
70
330
68
100
AcDbEntity
  8
LAYER_1
 62
     7
100
AcDbLine
 10
0.710809326171875
 20
7.769723849826388
 30
0.0
 11
0.710809326171875
 21
-1.369597710503472
 31
0.0
  0
LINE
  5
6F
330
68
100
AcDbEntity
  8
LAYER_1
 62
     7
100
AcDbLine
 10
0.641046142578125
 20
-2.097201877170139
 30
0.0
 11
0.641046142578125
 21
-2.467721896701389
 31
0.0
  0
LINE
  5
6E
330
68
100
AcDbEntity
  8
LAYER_1
 62
     7
100
AcDbLine
 10
-10.35208129882812
 20
-30.04536675347222
 30
0.0
 11
-9.877347140842012
 21
-29.84107259114583
 31
0.0
  0
LINE
  5
6D
330
68
100
AcDbEntity
  8
LAYER_1
 62
     7
100
AcDbLine
 10
-10.32882690429687
 20
-15.57768825954861
 30
0.0
 11
-9.831182861328124
 21
-15.72427707248264
 31
0.0
  0
LINE
  5
6C
330
68
100
AcDbEntity
  8
LAYER_1
 62
     7
100
AcDbLine
 10
9.769343397352429
 20
15.55701768663194
 30
0.0
 11
10.26733194986979
 21
15.64969075520833
 31
0.0
  0
LINE
  5
6B
330
68
100
AcDbEntity
  8
LAYER_1
 62
     7
100
AcDbLine
 10
-10.39083862304687
 20
-18.68860948350694
 30
0.0
 11
-9.877347140842012
 21
-18.92011990017361
 31
0.0
  0
ENDBLK
  5
78
330
68
100
AcDbEntity
  8
LAYER_1
100
AcDbBlockEnd
  0
BLOCK
  5
7E
330
7C
100
AcDbEntity
  8
LAYER_1
 62
     7
100
AcDbBlockBegin
  2
AI9-BLK14
 70
     0
 10
0.0
 20
0.0
 30
0.0
  3
AI9-BLK14
  1

  4

  0
SPLINE
  5
8A
330
7C
100
AcDbEntity
  8
LAYER_1
 62
     7
100
AcDbSpline
210
0.0
220
0.0
230
1.0
 70
     8
 71
     3
 72
    23
 73
    19
 74
     0
 42
0.0000000001
 43
0.0000000001
 40
0.0
 40
0.0
 40
0.0
 40
0.0
 40
1.0
 40
1.0
 40
1.0
 40
2.0
 40
2.0
 40
2.0
 40
3.0
 40
3.0
 40
3.0
 40
4.0
 40
4.0
 40
4.0
 40
5.0
 40
5.0
 40
5.0
 40
6.0
 40
6.0
 40
6.0
 40
6.0
 10
-9.289097086588541
 20
8.597494167751735
 30
0.0
 10
-8.892222086588541
 20
8.465202501085068
 30
0.0
 10
-8.69378458658854
 20
8.134473334418402
 30
0.0
 10
-8.363055419921874
 20
8.002181667751735
 30
0.0
 10
-7.767742919921874
 20
7.803744167751735
 30
0.0
 10
-7.106284586588541
 20
8.002181667751735
 30
0.0
 10
-6.577117919921874
 20
7.671452501085069
 30
0.0
 10
-5.981805419921875
 20
7.274577501085068
 30
0.0
 10
-5.452638753255208
 20
7.009994167751736
 30
0.0
 10
-4.857326253255208
 20
6.679265001085069
 30
0.0
 10
-4.592742919921875
 20
6.546973334418402
 30
0.0
 10
-4.195867919921875
 20
6.679265001085069
 30
0.0
 10
-3.931284586588542
 20
6.546973334418402
 30
0.0
 10
-3.798992919921875
 20
6.480827501085069
 30
0.0
 10
-3.666701253255208
 20
6.414681667751736
 30
0.0
 10
-3.534409586588541
 20
6.414681667751736
 30
0.0
 10
-2.211492919921875
 20
6.282390001085069
 30
0.0
 10
-0.9547220865885416
 20
6.348535834418402
 30
0.0
 10
0.3681945800781249
 20
6.348535834418402
 30
0.0
  0
SPLINE
  5
89
330
7C
100
AcDbEntity
  8
LAYER_1
 62
     7
100
AcDbSpline
210
0.0
220
0.0
230
1.0
 70
     8
 71
     3
 72
    17
 73
    13
 74
     0
 42
0.0000000001
 43
0.0000000001
 40
0.0
 40
0.0
 40
0.0
 40
0.0
 40
1.0
 40
1.0
 40
1.0
 40
2.0
 40
2.0
 40
2.0
 40
3.0
 40
3.0
 40
3.0
 40
4.0
 40
4.0
 40
4.0
 40
4.0
 10
-9.355242919921874
 20
6.679265001085069
 30
0.0
 10
-9.289097086588541
 20
6.546973334418402
 30
0.0
 10
-9.156805419921874
 20
6.546973334418402
 30
0.0
 10
-9.024513753255208
 20
6.480827501085069
 30
0.0
 10
-8.429201253255208
 20
6.216244167751736
 30
0.0
 10
-7.833888753255208
 20
6.282390001085069
 30
0.0
 10
-7.172430419921875
 20
6.150098334418402
 30
0.0
 10
-6.841701253255208
 20
6.083952501085069
 30
0.0
 10
-6.577117919921874
 20
5.819369167751735
 30
0.0
 10
-6.246388753255208
 20
5.687077501085069
 30
0.0
 10
-4.526597086588541
 20
5.290202501085069
 30
0.0
 10
-2.939097086588542
 20
4.562598334418403
 30
0.0
 10
-1.219305419921875
 20
4.761035834418403
 30
0.0
  0
SPLINE
  5
88
330
7C
100
AcDbEntity
  8
LAYER_1
 62
     7
100
AcDbSpline
210
0.0
220
0.0
230
1.0
 70
     8
 71
     3
 72
    20
 73
    16
 74
     0
 42
0.0000000001
 43
0.0000000001
 40
0.0
 40
0.0
 40
0.0
 40
0.0
 40
1.0
 40
1.0
 40
1.0
 40
2.0
 40
2.0
 40
2.0
 40
3.0
 40
3.0
 40
3.0
 40
4.0
 40
4.0
 40
4.0
 40
5.0
 40
5.0
 40
5.0
 40
5.0
 10
-9.222951253255207
 20
4.827181667751736
 30
0.0
 10
-8.826076253255208
 20
4.628744167751735
 30
0.0
 10
-8.363055419921874
 20
4.562598334418403
 30
0.0
 10
-7.900034586588541
 20
4.430306667751736
 30
0.0
 10
-7.172430419921875
 20
4.165723334418402
 30
0.0
 10
-6.643263753255208
 20
3.636556667751736
 30
0.0
 10
-5.915659586588541
 20
3.504265001085069
 30
0.0
 10
-4.791180419921875
 20
3.173535834418403
 30
0.0
 10
-3.798992919921875
 20
3.107390001085069
 30
0.0
 10
-2.674513753255208
 20
2.908952501085069
 30
0.0
 10
-2.145347086588541
 20
2.842806667751736
 30
0.0
 10
-1.682326253255208
 20
2.908952501085069
 30
0.0
 10
-1.153159586588542
 20
2.975098334418402
 30
0.0
 10
-1.153159586588542
 20
2.975098334418402
 30
0.0
 10
-1.153159586588542
 20
3.041244167751736
 30
0.0
 10
-1.153159586588542
 20
3.107390001085069
 30
0.0
  0
SPLINE
  5
87
330
7C
100
AcDbEntity
  8
LAYER_1
 62
     7
100
AcDbSpline
210
0.0
220
0.0
230
1.0
 70
     8
 71
     3
 72
    14
 73
    10
 74
     0
 42
0.0000000001
 43
0.0000000001
 40
0.0
 40
0.0
 40
0.0
 40
0.0
 40
1.0
 40
1.0
 40
1.0
 40
2.0
 40
2.0
 40
2.0
 40
3.0
 40
3.0
 40
3.0
 40
3.0
 10
-9.222951253255207
 20
3.173535834418403
 30
0.0
 10
-7.966180419921875
 20
2.512077501085069
 30
0.0
 10
-6.577117919921874
 20
2.11520250108507
 30
0.0
 10
-5.121909586588541
 20
1.916765001085069
 30
0.0
 10
-4.592742919921875
 20
1.850619167751736
 30
0.0
 10
-4.195867919921875
 20
1.519890001085069
 30
0.0
 10
-3.732847086588541
 20
1.255306667751736
 30
0.0
 10
-3.071388753255208
 20
0.9907233344184027
 30
0.0
 10
-2.343784586588542
 20
1.189160834418403
 30
0.0
 10
-1.682326253255208
 20
1.123015001085069
 30
0.0
  0
SPLINE
  5
86
330
7C
100
AcDbEntity
  8
LAYER_1
 62
     7
100
AcDbSpline
210
0.0
220
0.0
230
1.0
 70
     8
 71
     3
 72
    14
 73
    10
 74
     0
 42
0.0000000001
 43
0.0000000001
 40
0.0
 40
0.0
 40
0.0
 40
0.0
 40
1.0
 40
1.0
 40
1.0
 40
2.0
 40
2.0
 40
2.0
 40
3.0
 40
3.0
 40
3.0
 40
3.0
 10
-9.355242919921874
 20
1.519890001085069
 30
0.0
 10
-9.222951253255207
 20
1.519890001085069
 30
0.0
 10
-9.222951253255207
 20
1.387598334418403
 30
0.0
 10
-9.09065958658854
 20
1.321452501085069
 30
0.0
 10
-8.230763753255207
 20
0.9245775010850693
 30
0.0
 10
-7.238576253255208
 20
1.189160834418403
 30
0.0
 10
-6.444826253255208
 20
0.7261400010850694
 30
0.0
 10
-4.791180419921875
 20
-0.2660474989149305
 30
0.0
 10
-3.732847086588541
 20
-1.125943332248264
 30
0.0
 10
-1.285451253255208
 20
-0.7290683322482638
 30
0.0
  0
SPLINE
  5
85
330
7C
100
AcDbEntity
  8
LAYER_1
 62
     7
100
AcDbSpline
210
0.0
220
0.0
230
1.0
 70
     8
 71
     3
 72
    17
 73
    13
 74
     0
 42
0.0000000001
 43
0.0000000001
 40
0.0
 40
0.0
 40
0.0
 40
0.0
 40
1.0
 40
1.0
 40
1.0
 40
2.0
 40
2.0
 40
2.0
 40
3.0
 40
3.0
 40
3.0
 40
4.0
 40
4.0
 40
4.0
 40
4.0
 10
-9.421388753255208
 20
-0.3321933322482639
 30
0.0
 10
-8.826076253255208
 20
-0.3321933322482639
 30
0.0
 10
-8.296909586588541
 20
-0.7290683322482638
 30
0.0
 10
-7.701597086588541
 20
-0.7952141655815972
 30
0.0
 10
-7.503159586588541
 20
-0.7952141655815972
 30
0.0
 10
-7.304722086588541
 20
-0.9275058322482638
 30
0.0
 10
-7.106284586588541
 20
-0.9936516655815971
 30
0.0
 10
-6.841701253255208
 20
-1.125943332248264
 30
0.0
 10
-6.510972086588541
 20
-1.25823499891493
 30
0.0
 10
-6.246388753255208
 20
-1.390526665581597
 30
0.0
 10
-4.791180419921875
 20
-2.05198499891493
 30
0.0
 10
-3.600555419921875
 20
-2.713443332248264
 30
0.0
 10
-1.550034586588541
 20
-2.382714165581597
 30
0.0
  0
SPLINE
  5
84
330
7C
100
AcDbEntity
  8
LAYER_1
 62
     7
100
AcDbSpline
210
0.0
220
0.0
230
1.0
 70
     8
 71
     3
 72
    14
 73
    10
 74
     0
 42
0.0000000001
 43
0.0000000001
 40
0.0
 40
0.0
 40
0.0
 40
0.0
 40
1.0
 40
1.0
 40
1.0
 40
2.0
 40
2.0
 40
2.0
 40
3.0
 40
3.0
 40
3.0
 40
3.0
 10
-1.351597086588542
 20
3.570410834418402
 30
0.0
 10
0.169757080078125
 20
3.570410834418402
 30
0.0
 10
1.691111246744792
 20
3.702702501085069
 30
0.0
 10
3.278611246744791
 20
3.504265001085069
 30
0.0
 10
3.410902913411458
 20
3.504265001085069
 30
0.0
 10
3.675486246744792
 20
3.305827501085069
 30
0.0
 10
3.873923746744791
 20
3.173535834418403
 30
0.0
 10
5.593715413411458
 20
2.049056667751736
 30
0.0
 10
7.511944580078124
 20
1.453744167751736
 30
0.0
 10
9.165590413411458
 20
0.3292650010850694
 30
0.0
  0
SPLINE
  5
83
330
7C
100
AcDbEntity
  8
LAYER_1
 62
     7
100
AcDbSpline
210
0.0
220
0.0
230
1.0
 70
     8
 71
     3
 72
    20
 73
    16
 74
     0
 42
0.0000000001
 43
0.0000000001
 40
0.0
 40
0.0
 40
0.0
 40
0.0
 40
1.0
 40
1.0
 40
1.0
 40
2.0
 40
2.0
 40
2.0
 40
3.0
 40
3.0
 40
3.0
 40
4.0
 40
4.0
 40
4.0
 40
5.0
 40
5.0
 40
5.0
 40
5.0
 10
-1.087013753255208
 20
1.850619167751736
 30
0.0
 10
0.3681945800781249
 20
1.718327501085069
 30
0.0
 10
1.691111246744792
 20
2.247494167751736
 30
0.0
 10
3.146319580078125
 20
1.982910834418403
 30
0.0
 10
3.410902913411458
 20
1.982910834418403
 30
0.0
 10
3.609340413411458
 20
1.718327501085069
 30
0.0
 10
3.807777913411458
 20
1.652181667751736
 30
0.0
 10
5.130694580078124
 20
0.9907233344184027
 30
0.0
 10
6.255173746744791
 20
0.0646816677517361
 30
0.0
 10
7.511944580078124
 20
-0.5306308322482638
 30
0.0
 10
7.842673746744791
 20
-0.7290683322482638
 30
0.0
 10
8.107257080078124
 20
-0.8613599989149304
 30
0.0
 10
8.43798624674479
 20
-1.05979749891493
 30
0.0
 10
8.636423746744791
 20
-1.192089165581597
 30
0.0
 10
8.901007080078124
 20
-1.192089165581597
 30
0.0
 10
9.033298746744791
 20
-1.390526665581597
 30
0.0
  0
SPLINE
  5
82
330
7C
100
AcDbEntity
  8
LAYER_1
 62
     7
100
AcDbSpline
210
0.0
220
0.0
230
1.0
 70
     8
 71
     3
 72
    26
 73
    22
 74
     0
 42
0.0000000001
 43
0.0000000001
 40
0.0
 40
0.0
 40
0.0
 40
0.0
 40
1.0
 40
1.0
 40
1.0
 40
2.0
 40
2.0
 40
2.0
 40
3.0
 40
3.0
 40
3.0
 40
4.0
 40
4.0
 40
4.0
 40
5.0
 40
5.0
 40
5.0
 40
6.0
 40
6.0
 40
6.0
 40
7.0
 40
7.0
 40
7.0
 40
7.0
 10
-1.219305419921875
 20
-0.0014641655815972
 30
0.0
 10
0.4343404134114583
 20
0.0646816677517361
 30
0.0
 10
2.021840413411458
 20
0.1969733344184028
 30
0.0
 10
3.675486246744792
 20
0.0646816677517361
 30
0.0
 10
3.807777913411458
 20
0.0646816677517361
 30
0.0
 10
4.006215413411458
 20
-0.1999016655815972
 30
0.0
 10
4.138507080078124
 20
-0.3321933322482639
 30
0.0
 10
4.403090413411458
 20
-0.3983391655815972
 30
0.0
 10
4.667673746744791
 20
-0.5306308322482638
 30
0.0
 10
4.932257080078125
 20
-0.6629224989149305
 30
0.0
 10
5.130694580078124
 20
-0.8613599989149304
 30
0.0
 10
5.395277913411458
 20
-0.9936516655815971
 30
0.0
 10
5.593715413411458
 20
-1.25823499891493
 30
0.0
 10
5.990590413411458
 20
-1.588964165581597
 30
0.0
 10
6.453611246744791
 20
-1.85354749891493
 30
0.0
 10
6.916632080078125
 20
-2.118130832248264
 30
0.0
 10
7.247361246744791
 20
-2.316568332248264
 30
0.0
 10
7.578090413411458
 20
-2.515005832248264
 30
0.0
 10
7.974965413411458
 20
-2.64729749891493
 30
0.0
 10
8.371840413411457
 20
-2.911880832248264
 30
0.0
 10
8.702569580078125
 20
-3.24260999891493
 30
0.0
 10
9.165590413411458
 20
-3.507193332248264
 30
0.0
  0
SPLINE
  5
81
330
7C
100
AcDbEntity
  8
LAYER_1
 62
     7
100
AcDbSpline
210
0.0
220
0.0
230
1.0
 70
     8
 71
     3
 72
    23
 73
    19
 74
     0
 42
0.0000000001
 43
0.0000000001
 40
0.0
 40
0.0
 40
0.0
 40
0.0
 40
1.0
 40
1.0
 40
1.0
 40
2.0
 40
2.0
 40
2.0
 40
3.0
 40
3.0
 40
3.0
 40
4.0
 40
4.0
 40
4.0
 40
5.0
 40
5.0
 40
5.0
 40
6.0
 40
6.0
 40
6.0
 40
6.0
 10
-1.219305419921875
 20
-1.85354749891493
 30
0.0
 10
-0.1609720865885417
 20
-1.85354749891493
 30
0.0
 10
0.8973612467447916
 20
-2.05198499891493
 30
0.0
 10
1.889548746744792
 20
-1.721255832248264
 30
0.0
 10
2.418715413411458
 20
-1.588964165581597
 30
0.0
 10
3.080173746744792
 20
-1.45667249891493
 30
0.0
 10
3.477048746744791
 20
-1.655109998914931
 30
0.0
 10
4.204652913411458
 20
-1.985839165581597
 30
0.0
 10
4.866111246744791
 20
-2.515005832248264
 30
0.0
 10
5.527569580078125
 20
-2.911880832248264
 30
0.0
 10
6.189027913411458
 20
-3.308755832248264
 30
0.0
 10
6.850486246744791
 20
-3.771776665581597
 30
0.0
 10
7.644236246744791
 20
-3.970214165581597
 30
0.0
 10
7.908819580078125
 20
-4.102505832248264
 30
0.0
 10
8.173402913411458
 20
-4.168651665581597
 30
0.0
 10
8.43798624674479
 20
-4.300943332248264
 30
0.0
 10
8.768715413411458
 20
-4.43323499891493
 30
0.0
 10
9.033298746744791
 20
-4.763964165581597
 30
0.0
 10
9.364027913411457
 20
-4.962401665581597
 30
0.0
  0
SPLINE
  5
80
330
7C
100
AcDbEntity
  8
LAYER_1
 62
     7
100
AcDbSpline
210
0.0
220
0.0
230
1.0
 70
     8
 71
     3
 72
    23
 73
    19
 74
     0
 42
0.0000000001
 43
0.0000000001
 40
0.0
 40
0.0
 40
0.0
 40
0.0
 40
1.0
 40
1.0
 40
1.0
 40
2.0
 40
2.0
 40
2.0
 40
3.0
 40
3.0
 40
3.0
 40
4.0
 40
4.0
 40
4.0
 40
5.0
 40
5.0
 40
5.0
 40
6.0
 40
6.0
 40
6.0
 40
6.0
 10
-1.153159586588542
 20
-3.705630832248263
 30
0.0
 10
0.3020487467447917
 20
-3.705630832248263
 30
0.0
 10
1.757257080078125
 20
-3.63948499891493
 30
0.0
 10
3.212465413411458
 20
-3.63948499891493
 30
0.0
 10
3.477048746744791
 20
-3.63948499891493
 30
0.0
 10
3.807777913411458
 20
-4.03635999891493
 30
0.0
 10
4.072361246744792
 20
-4.300943332248264
 30
0.0
 10
4.403090413411458
 20
-4.565526665581597
 30
0.0
 10
4.799965413411458
 20
-4.565526665581597
 30
0.0
 10
5.130694580078124
 20
-4.830109998914931
 30
0.0
 10
5.659861246744791
 20
-5.160839165581597
 30
0.0
 10
6.122882080078124
 20
-5.557714165581597
 30
0.0
 10
6.652048746744791
 20
-5.756151665581597
 30
0.0
 10
7.247361246744791
 20
-6.02073499891493
 30
0.0
 10
7.908819580078125
 20
-6.086880832248263
 30
0.0
 10
8.504132080078124
 20
-6.21917249891493
 30
0.0
 10
8.83486124674479
 20
-6.351464165581596
 30
0.0
 10
8.901007080078124
 20
-6.682193332248263
 30
0.0
 10
9.165590413411458
 20
-6.880630832248263
 30
0.0
  0
SPLINE
  5
7F
330
7C
100
AcDbEntity
  8
LAYER_1
 62
     7
100
AcDbSpline
210
0.0
220
0.0
230
1.0
 70
     8
 71
     3
 72
    20
 73
    16
 74
     0
 42
0.0000000001
 43
0.0000000001
 40
0.0
 40
0.0
 40
0.0
 40
0.0
 40
1.0
 40
1.0
 40
1.0
 40
2.0
 40
2.0
 40
2.0
 40
3.0
 40
3.0
 40
3.0
 40
4.0
 40
4.0
 40
4.0
 40
5.0
 40
5.0
 40
5.0
 40
5.0
 10
-1.219305419921875
 20
-5.756151665581597
 30
0.0
 10
0.3020487467447917
 20
-5.756151665581597
 30
0.0
 10
1.889548746744792
 20
-5.62385999891493
 30
0.0
 10
3.410902913411458
 20
-5.82229749891493
 30
0.0
 10
3.609340413411458
 20
-5.82229749891493
 30
0.0
 10
3.873923746744791
 20
-6.02073499891493
 30
0.0
 10
4.072361246744792
 20
-6.153026665581597
 30
0.0
 10
4.535382080078125
 20
-6.351464165581596
 30
0.0
 10
4.998402913411458
 20
-6.483755832248264
 30
0.0
 10
5.461423746744791
 20
-6.682193332248263
 30
0.0
 10
6.387465413411458
 20
-7.079068332248263
 30
0.0
 10
7.379652913411458
 20
-7.60823499891493
 30
0.0
 10
8.371840413411457
 20
-8.071255832248264
 30
0.0
 10
8.636423746744791
 20
-8.203547498914929
 30
0.0
 10
8.901007080078124
 20
-8.468130832248264
 30
0.0
 10
9.165590413411458
 20
-8.600422498914929
 30
0.0
  0
ENDBLK
  5
8B
330
7C
100
AcDbEntity
  8
LAYER_1
100
AcDbBlockEnd
  0
BLOCK
  5
94
330
92
100
AcDbEntity
  8
LAYER_1
 62
     7
100
AcDbBlockBegin
  2
AI9-BLK15
 70
     0
 10
0.0
 20
0.0
 30
0.0
  3
AI9-BLK15
  1

  4

  0
SPLINE
  5
9D
330
92
100
AcDbEntity
  8
LAYER_1
 62
     7
100
AcDbSpline
210
0.0
220
0.0
230
1.0
 70
     8
 71
     3
 72
    17
 73
    13
 74
     0
 42
0.0000000001
 43
0.0000000001
 40
0.0
 40
0.0
 40
0.0
 40
0.0
 40
1.0
 40
1.0
 40
1.0
 40
2.0
 40
2.0
 40
2.0
 40
3.0
 40
3.0
 40
3.0
 40
4.0
 40
4.0
 40
4.0
 40
4.0
 10
-9.117445203993055
 20
8.598872205946179
 30
0.0
 10
-8.191403537326389
 20
8.334288872612847
 30
0.0
 10
-7.397653537326388
 20
7.937413872612846
 30
0.0
 10
-6.471611870659721
 20
7.672830539279513
 30
0.0
 10
-5.545570203993055
 20
7.275955539279513
 30
0.0
 10
-4.751820203993055
 20
6.482205539279513
 30
0.0
 10
-3.825778537326388
 20
5.953038872612846
 30
0.0
 10
-2.899736870659722
 20
5.556163872612847
 30
0.0
 10
-1.841403537326389
 20
5.953038872612846
 30
0.0
 10
-0.7830702039930555
 20
5.82074720594618
 30
0.0
 10
-0.7830702039930555
 20
5.82074720594618
 30
0.0
 10
-0.7830702039930555
 20
5.953038872612846
 30
0.0
 10
-0.7830702039930555
 20
5.953038872612846
 30
0.0
  0
SPLINE
  5
9C
330
92
100
AcDbEntity
  8
LAYER_1
 62
     7
100
AcDbSpline
210
0.0
220
0.0
230
1.0
 70
     8
 71
     3
 72
    20
 73
    16
 74
     0
 42
0.0000000001
 43
0.0000000001
 40
0.0
 40
0.0
 40
0.0
 40
0.0
 40
1.0
 40
1.0
 40
1.0
 40
2.0
 40
2.0
 40
2.0
 40
3.0
 40
3.0
 40
3.0
 40
4.0
 40
4.0
 40
4.0
 40
5.0
 40
5.0
 40
5.0
 40
5.0
 10
-9.249736870659721
 20
5.556163872612847
 30
0.0
 10
-8.985153537326388
 20
5.556163872612847
 30
0.0
 10
-8.720570203993054
 20
5.688455539279514
 30
0.0
 10
-8.588278537326389
 20
5.556163872612847
 30
0.0
 10
-8.455986870659721
 20
5.291580539279513
 30
0.0
 10
-8.191403537326389
 20
5.02699720594618
 30
0.0
 10
-7.926820203993055
 20
4.894705539279514
 30
0.0
 10
-6.868486870659722
 20
4.497830539279513
 30
0.0
 10
-5.677861870659722
 20
4.63012220594618
 30
0.0
 10
-4.619528537326389
 20
4.233247205946181
 30
0.0
 10
-4.487236870659721
 20
4.233247205946181
 30
0.0
 10
-4.090361870659722
 20
3.968663872612847
 30
0.0
 10
-3.825778537326388
 20
3.571788872612847
 30
0.0
 10
-3.693486870659722
 20
3.174913872612847
 30
0.0
 10
-3.032028537326389
 20
3.43949720594618
 30
0.0
 10
-2.502861870659722
 20
3.43949720594618
 30
0.0
  0
SPLINE
  5
9B
330
92
100
AcDbEntity
  8
LAYER_1
 62
     7
100
AcDbSpline
210
0.0
220
0.0
230
1.0
 70
     8
 71
     3
 72
    14
 73
    10
 74
     0
 42
0.0000000001
 43
0.0000000001
 40
0.0
 40
0.0
 40
0.0
 40
0.0
 40
1.0
 40
1.0
 40
1.0
 40
2.0
 40
2.0
 40
2.0
 40
3.0
 40
3.0
 40
3.0
 40
3.0
 10
-8.985153537326388
 20
3.571788872612847
 30
0.0
 10
-8.720570203993054
 20
3.571788872612847
 30
0.0
 10
-8.455986870659721
 20
3.571788872612847
 30
0.0
 10
-8.323695203993054
 20
3.571788872612847
 30
0.0
 10
-7.926820203993055
 20
2.64574720594618
 30
0.0
 10
-7.133070203993055
 20
1.85199720594618
 30
0.0
 10
-6.339320203993055
 20
1.587413872612847
 30
0.0
 10
-5.016403537326388
 20
1.190538872612847
 30
0.0
 10
-3.693486870659722
 20
1.190538872612847
 30
0.0
 10
-2.370570203993055
 20
0.7936638726128471
 30
0.0
  0
SPLINE
  5
9A
330
92
100
AcDbEntity
  8
LAYER_1
 62
     7
100
AcDbSpline
210
0.0
220
0.0
230
1.0
 70
     8
 71
     3
 72
     8
 73
     4
 74
     0
 42
0.0000000001
 43
0.0000000001
 40
0.0
 40
0.0
 40
0.0
 40
0.0
 40
1.0
 40
1.0
 40
1.0
 40
1.0
 10
-9.249736870659721
 20
0.7936638726128471
 30
0.0
 10
-7.133070203993055
 20
-0.2646694607204861
 30
0.0
 10
-4.884111870659722
 20
-1.719877794053819
 30
0.0
 10
-2.502861870659722
 20
-1.852169460720486
 30
0.0
  0
SPLINE
  5
99
330
92
100
AcDbEntity
  8
LAYER_1
 62
     7
100
AcDbSpline
210
0.0
220
0.0
230
1.0
 70
     8
 71
     3
 72
    14
 73
    10
 74
     0
 42
0.0000000001
 43
0.0000000001
 40
0.0
 40
0.0
 40
0.0
 40
0.0
 40
1.0
 40
1.0
 40
1.0
 40
2.0
 40
2.0
 40
2.0
 40
3.0
 40
3.0
 40
3.0
 40
3.0
 10
-1.973695203993055
 20
2.64574720594618
 30
0.0
 10
-0.3861952039930555
 20
2.513455539279514
 30
0.0
 10
1.201304796006944
 20
3.174913872612847
 30
0.0
 10
2.524221462673611
 20
2.64574720594618
 30
0.0
 10
3.942222764756944
 20
2.03803236219618
 30
0.0
 10
4.707895236545139
 20
2.126915825737847
 30
0.0
 10
6.625263129340278
 20
0.5290805392795138
 30
0.0
 10
6.889846462673611
 20
0.3967888726128472
 30
0.0
 10
8.609638129340278
 20
-0.7938361273871527
 30
0.0
 10
8.87422146267361
 20
-0.661544460720486
 30
0.0
  0
SPLINE
  5
98
330
92
100
AcDbEntity
  8
LAYER_1
 62
     7
100
AcDbSpline
210
0.0
220
0.0
230
1.0
 70
     8
 71
     3
 72
    20
 73
    16
 74
     0
 42
0.0000000001
 43
0.0000000001
 40
0.0
 40
0.0
 40
0.0
 40
0.0
 40
1.0
 40
1.0
 40
1.0
 40
2.0
 40
2.0
 40
2.0
 40
3.0
 40
3.0
 40
3.0
 40
4.0
 40
4.0
 40
4.0
 40
5.0
 40
5.0
 40
5.0
 40
5.0
 10
-1.841403537326389
 20
0.2644972059461805
 30
0.0
 10
-1.444528537326389
 20
0.2644972059461805
 30
0.0
 10
-1.047653537326389
 20
0.1322055392795139
 30
0.0
 10
-0.6507785373263888
 20
0.2644972059461805
 30
0.0
 10
0.0106797960069444
 20
0.6613722059461805
 30
0.0
 10
0.6721381293402777
 20
0.5290805392795138
 30
0.0
 10
1.333596462673611
 20
0.7936638726128471
 30
0.0
 10
1.862763129340278
 20
0.9259555392795138
 30
0.0
 10
2.656513129340278
 20
0.9259555392795138
 30
0.0
 10
3.185679796006944
 20
0.6613722059461805
 30
0.0
 10
4.111721462673611
 20
0.1322055392795139
 30
0.0
 10
5.037763129340277
 20
-0.3969611273871527
 30
0.0
 10
5.963804796006944
 20
-0.9261277940538194
 30
0.0
 10
7.022138129340277
 20
-1.719877794053819
 30
0.0
 10
7.948179796006944
 20
-1.719877794053819
 30
0.0
 10
9.006513129340277
 20
-2.249044460720486
 30
0.0
  0
SPLINE
  5
97
330
92
100
AcDbEntity
  8
LAYER_1
 62
     7
100
AcDbSpline
210
0.0
220
0.0
230
1.0
 70
     8
 71
     3
 72
    14
 73
    10
 74
     0
 42
0.0000000001
 43
0.0000000001
 40
0.0
 40
0.0
 40
0.0
 40
0.0
 40
1.0
 40
1.0
 40
1.0
 40
2.0
 40
2.0
 40
2.0
 40
3.0
 40
3.0
 40
3.0
 40
3.0
 10
-1.841403537326389
 20
-1.587586127387153
 30
0.0
 10
-0.2539035373263889
 20
-1.455294460720486
 30
0.0
 10
1.201304796006944
 20
-0.7938361273871527
 30
0.0
 10
2.656513129340278
 20
-1.323002794053819
 30
0.0
 10
3.317971462673611
 20
-1.587586127387153
 30
0.0
 10
3.979429796006944
 20
-2.116752794053819
 30
0.0
 10
4.640888129340278
 20
-2.513627794053819
 30
0.0
 10
5.963804796006944
 20
-3.175086127387153
 30
0.0
 10
7.286721462673611
 20
-3.571961127387152
 30
0.0
 10
8.47734646267361
 20
-4.365711127387153
 30
0.0
  0
SPLINE
  5
96
330
92
100
AcDbEntity
  8
LAYER_1
 62
     7
100
AcDbSpline
210
0.0
220
0.0
230
1.0
 70
     8
 71
     3
 72
    17
 73
    13
 74
     0
 42
0.0000000001
 43
0.0000000001
 40
0.0
 40
0.0
 40
0.0
 40
0.0
 40
1.0
 40
1.0
 40
1.0
 40
2.0
 40
2.0
 40
2.0
 40
3.0
 40
3.0
 40
3.0
 40
4.0
 40
4.0
 40
4.0
 40
4.0
 10
-1.973695203993055
 20
-4.101127794053819
 30
0.0
 10
-0.5184868706597222
 20
-3.704252794053819
 30
0.0
 10
-0.9153618706597222
 20
-3.968836127387152
 30
0.0
 10
-0.5184868706597222
 20
-3.704252794053819
 30
0.0
 10
0.2752631293402778
 20
-3.175086127387153
 30
0.0
 10
1.862763129340278
 20
-3.042794460720486
 30
0.0
 10
2.788804796006944
 20
-3.439669460720486
 30
0.0
 10
5.037763129340277
 20
-4.101127794053819
 30
0.0
 10
6.096096462673611
 20
-5.027169460720486
 30
0.0
 10
7.815888129340277
 20
-6.085502794053819
 30
0.0
 10
7.92854275173611
 20
-6.154749213324652
 30
0.0
 10
9.006513129340277
 20
-6.482377794053819
 30
0.0
 10
9.138804796006944
 20
-6.482377794053819
 30
0.0
  0
SPLINE
  5
95
330
92
100
AcDbEntity
  8
LAYER_1
 62
     7
100
AcDbSpline
210
0.0
220
0.0
230
1.0
 70
     8
 71
     3
 72
    17
 73
    13
 74
     0
 42
0.0000000001
 43
0.0000000001
 40
0.0
 40
0.0
 40
0.0
 40
0.0
 40
1.0
 40
1.0
 40
1.0
 40
2.0
 40
2.0
 40
2.0
 40
3.0
 40
3.0
 40
3.0
 40
4.0
 40
4.0
 40
4.0
 40
4.0
 10
-2.105986870659722
 20
-5.820919460720486
 30
0.0
 10
-1.312236870659722
 20
-5.820919460720486
 30
0.0
 10
-0.5184868706597222
 20
-5.688627794053819
 30
0.0
 10
0.2752631293402778
 20
-5.556336127387152
 30
0.0
 10
1.333596462673611
 20
-5.291752794053819
 30
0.0
 10
2.64014892578125
 20
-5.006671142578124
 30
0.0
 10
3.582554796006944
 20
-5.556336127387152
 30
0.0
 10
5.170054796006944
 20
-6.482377794053819
 30
0.0
 10
6.49297146267361
 20
-7.011544460720486
 30
0.0
 10
7.948179796006944
 20
-7.937586127387152
 30
0.0
 10
8.212763129340278
 20
-8.069877794053818
 30
0.0
 10
9.006513129340277
 20
-8.599044460720485
 30
0.0
 10
9.27109646267361
 20
-8.599044460720485
 30
0.0
  0
ENDBLK
  5
9E
330
92
100
AcDbEntity
  8
LAYER_1
100
AcDbBlockEnd
  0
BLOCK
  5
BE
330
BC
100
AcDbEntity
  8
LAYER_1
 62
     7
100
AcDbBlockBegin
  2
AI9-BLK16
 70
     0
 10
0.0
 20
0.0
 30
0.0
  3
AI9-BLK16
  1

  4

  0
SPLINE
  5
C5
330
BC
100
AcDbEntity
  8
LAYER_1
 62
     7
100
AcDbSpline
210
0.0
220
0.0
230
1.0
 70
     8
 71
     3
 72
     8
 73
     4
 74
     0
 42
0.0000000001
 43
0.0000000001
 40
0.0
 40
0.0
 40
0.0
 40
0.0
 40
1.0
 40
1.0
 40
1.0
 40
1.0
 10
-5.203213840060763
 20
36.59897189670139
 30
0.0
 10
-5.203213840060763
 20
11.55209418402778
 30
0.0
 10
-5.027169460720486
 20
-13.49530029296875
 30
0.0
 10
-5.379774983723958
 20
-38.54269476996527
 30
0.0
  0
SPLINE
  5
C4
330
BC
100
AcDbEntity
  8
LAYER_1
 62
     7
100
AcDbSpline
210
0.0
220
0.0
230
1.0
 70
     8
 71
     3
 72
    20
 73
    16
 74
     0
 42
0.0000000001
 43
0.0000000001
 40
0.0
 40
0.0
 40
0.0
 40
0.0
 40
1.0
 40
1.0
 40
1.0
 40
2.0
 40
2.0
 40
2.0
 40
3.0
 40
3.0
 40
3.0
 40
4.0
 40
4.0
 40
4.0
 40
5.0
 40
5.0
 40
5.0
 40
5.0
 10
-3.792274983723958
 20
36.77553304036458
 30
0.0
 10
-3.77281019422743
 20
34.18671603732638
 30
0.0
 10
-3.052268473307291
 20
32.89446072048611
 30
0.0
 10
-3.086547173394097
 20
30.24897189670139
 30
0.0
 10
-3.121342637803819
 20
27.60399983723958
 30
0.0
 10
-3.922499593098958
 20
5.023293728298611
 30
0.0
 10
-3.857387288411458
 20
2.202105034722222
 30
0.0
 10
-3.792274983723958
 20
-0.6187391493055555
 30
0.0
 10
-3.864449734157986
 20
-15.61196695963542
 30
0.0
 10
-3.916470675998264
 20
-17.02290581597222
 30
0.0
 10
-3.968836127387152
 20
-18.43436143663194
 30
0.0
 10
-4.498002794053819
 20
-27.25363362630208
 30
0.0
 10
-3.792274983723958
 20
-33.42707248263888
 30
0.0
 10
-3.672213406032986
 20
-34.47886013454861
 30
0.0
 10
-3.968836127387152
 20
-36.60207248263889
 30
0.0
 10
-3.615713840060764
 20
-37.66040581597222
 30
0.0
  0
SPLINE
  5
C3
330
BC
100
AcDbEntity
  8
LAYER_1
 62
     7
100
AcDbSpline
210
0.0
220
0.0
230
1.0
 70
     8
 71
     3
 72
    23
 73
    19
 74
     0
 42
0.0000000001
 43
0.0000000001
 40
0.0
 40
0.0
 40
0.0
 40
0.0
 40
1.0
 40
1.0
 40
1.0
 40
2.0
 40
2.0
 40
2.0
 40
3.0
 40
3.0
 40
3.0
 40
4.0
 40
4.0
 40
4.0
 40
5.0
 40
5.0
 40
5.0
 40
6.0
 40
6.0
 40
6.0
 40
6.0
 10
-1.323002794053819
 20
37.12813856336805
 30
0.0
 10
-1.499047173394097
 20
34.30626085069444
 30
0.0
 10
-0.7938361273871527
 20
33.07136637369791
 30
0.0
 10
-1.146441650390625
 20
31.30730523003472
 30
0.0
 10
-1.037059868706597
 20
31.85438639322916
 30
0.0
 10
-1.323002794053819
 20
27.77969970703125
 30
0.0
 10
-1.499047173394097
 20
27.25053304036458
 30
0.0
 10
-2.204774983723958
 20
25.83959418402777
 30
0.0
 10
-1.852169460720486
 20
24.60469970703125
 30
0.0
 10
-1.852169460720486
 20
23.01719970703125
 30
0.0
 10
-2.204774983723958
 20
6.083866373697916
 30
0.0
 10
-2.381336127387153
 20
1.321366373697917
 30
0.0
 10
-2.55738050672743
 20
-28.13540581597222
 30
0.0
 10
-2.576673041449653
 20
-31.31540120442708
 30
0.0
 10
-2.204774983723958
 20
-33.60363362630208
 30
0.0
 10
-1.852169460720486
 20
-36.77863362630208
 30
0.0
 10
-1.852169460720486
 20
-36.77863362630208
 30
0.0
 10
-1.852169460720486
 20
-36.77863362630208
 30
0.0
 10
-1.852169460720486
 20
-36.77863362630208
 30
0.0
  0
SPLINE
  5
C2
330
BC
100
AcDbEntity
  8
LAYER_1
 62
     7
100
AcDbSpline
210
0.0
220
0.0
230
1.0
 70
     8
 71
     3
 72
    23
 73
    19
 74
     0
 42
0.0000000001
 43
0.0000000001
 40
0.0
 40
0.0
 40
0.0
 40
0.0
 40
1.0
 40
1.0
 40
1.0
 40
2.0
 40
2.0
 40
2.0
 40
3.0
 40
3.0
 40
3.0
 40
4.0
 40
4.0
 40
4.0
 40
5.0
 40
5.0
 40
5.0
 40
6.0
 40
6.0
 40
6.0
 40
6.0
 10
0.441058349609375
 20
37.48126085069444
 30
0.0
 10
1.322830539279514
 20
34.48230523003472
 30
0.0
 10
0.441058349609375
 20
31.30730523003472
 30
0.0
 10
0.441058349609375
 20
28.30886637369791
 30
0.0
 10
0.441058349609375
 20
28.13230523003472
 30
0.0
 10
0.0884528266059028
 20
27.77969970703125
 30
0.0
 10
0.0884528266059028
 20
27.60313856336805
 30
0.0
 10
-0.7938361273871527
 20
17.37292751736111
 30
0.0
 10
0.441058349609375
 20
7.494805230034721
 30
0.0
 10
-0.6172749837239583
 20
-2.735405815972222
 30
0.0
 10
-0.6172749837239583
 20
-3.264572482638889
 30
0.0
 10
-0.9698805067274304
 20
-3.793739149305555
 30
0.0
 10
-0.9698805067274304
 20
-4.322905815972222
 30
0.0
 10
-1.675608317057292
 20
-11.02602810329861
 30
0.0
 10
-1.675608317057292
 20
-17.55207248263889
 30
0.0
 10
-1.146441650390625
 20
-24.25519476996528
 30
0.0
 10
-0.7938361273871527
 20
-27.95936143663194
 30
0.0
 10
-0.0881083170572917
 20
-32.72186143663194
 30
0.0
 10
0.2644972059461805
 20
-36.24946695963541
 30
0.0
  0
SPLINE
  5
C1
330
BC
100
AcDbEntity
  8
LAYER_1
 62
     7
100
AcDbSpline
210
0.0
220
0.0
230
1.0
 70
     8
 71
     3
 72
    26
 73
    22
 74
     0
 42
0.0000000001
 43
0.0000000001
 40
0.0
 40
0.0
 40
0.0
 40
0.0
 40
1.0
 40
1.0
 40
1.0
 40
2.0
 40
2.0
 40
2.0
 40
3.0
 40
3.0
 40
3.0
 40
4.0
 40
4.0
 40
4.0
 40
5.0
 40
5.0
 40
5.0
 40
6.0
 40
6.0
 40
6.0
 40
7.0
 40
7.0
 40
7.0
 40
7.0
 10
2.085919189453125
 20
-36.06739366319444
 30
0.0
 10
2.001686604817708
 20
-35.26193033854166
 30
0.0
 10
1.915731472439236
 20
-34.61235758463541
 30
0.0
 10
1.85199720594618
 20
-34.48540581597222
 30
0.0
 10
0.7936638726128471
 20
-32.72186143663194
 30
0.0
 10
0.7936638726128471
 20
-30.42863362630208
 30
0.0
 10
0.7936638726128471
 20
-28.48852810329861
 30
0.0
 10
0.441058349609375
 20
-21.60936143663194
 30
0.0
 10
0.0884528266059028
 20
-14.73019476996528
 30
0.0
 10
0.9702250162760416
 20
-7.85102810329861
 30
0.0
 10
1.322830539279514
 20
-4.146861436631944
 30
0.0
 10
1.675952826605903
 20
-0.7953002929687499
 30
0.0
 10
2.205119493272569
 20
2.908866373697916
 30
0.0
 10
2.734286159939236
 20
5.731260850694444
 30
0.0
 10
1.146786159939236
 20
9.788033040364583
 30
0.0
 10
1.499391682942708
 20
12.61042751736111
 30
0.0
 10
2.028558349609375
 20
18.07813856336805
 30
0.0
 10
1.675952826605903
 20
22.66459418402778
 30
0.0
 10
2.028558349609375
 20
28.13230523003472
 30
0.0
 10
2.205119493272569
 20
31.83647189670139
 30
0.0
 10
2.028558349609375
 20
34.30626085069444
 30
0.0
 10
2.028558349609375
 20
38.01042751736111
 30
0.0
  0
SPLINE
  5
C0
330
BC
100
AcDbEntity
  8
LAYER_1
 62
     7
100
AcDbSpline
210
0.0
220
0.0
230
1.0
 70
     8
 71
     3
 72
    11
 73
     7
 74
     0
 42
0.0000000001
 43
0.0000000001
 40
0.0
 40
0.0
 40
0.0
 40
0.0
 40
1.0
 40
1.0
 40
1.0
 40
2.0
 40
2.0
 40
2.0
 40
2.0
 10
5.203558349609375
 20
38.53959418402778
 30
0.0
 10
4.416009521484375
 20
17.53639729817708
 30
0.0
 10
4.321786159939236
 20
-13.31873914930555
 30
0.0
 10
4.321786159939236
 20
-15.25936143663194
 30
0.0
 10
4.321786159939236
 20
-17.19946695963542
 30
0.0
 10
4.674391682942708
 20
-24.25519476996528
 30
0.0
 10
5.380119493272569
 20
-34.66196695963541
 30
0.0
  0
SPLINE
  5
BF
330
BC
100
AcDbEntity
  8
LAYER_1
 62
     7
100
AcDbSpline
210
0.0
220
0.0
230
1.0
 70
     8
 71
     3
 72
    20
 73
    16
 74
     0
 42
0.0000000001
 43
0.0000000001
 40
0.0
 40
0.0
 40
0.0
 40
0.0
 40
1.0
 40
1.0
 40
1.0
 40
2.0
 40
2.0
 40
2.0
 40
3.0
 40
3.0
 40
3.0
 40
4.0
 40
4.0
 40
4.0
 40
5.0
 40
5.0
 40
5.0
 40
5.0
 10
3.43949720594618
 20
38.36303304036458
 30
0.0
 10
3.086891682942708
 20
23.89897189670139
 30
0.0
 10
4.145225016276041
 20
8.906260850694444
 30
0.0
 10
2.910330539279514
 20
-5.557800292968749
 30
0.0
 10
2.910330539279514
 20
-6.086966959635416
 30
0.0
 10
2.557725016276041
 20
-6.792694769965277
 30
0.0
 10
2.557725016276041
 20
-7.321861436631944
 30
0.0
 10
2.205119493272569
 20
-14.02446695963542
 30
0.0
 10
1.85199720594618
 20
-20.72707248263889
 30
0.0
 10
2.381163872612847
 20
-27.43019476996528
 30
0.0
 10
2.381163872612847
 20
-27.78280029296875
 30
0.0
 10
2.734286159939236
 20
-28.48852810329861
 30
0.0
 10
2.734286159939236
 20
-28.84113362630208
 30
0.0
 10
2.910330539279514
 20
-30.95780029296875
 30
0.0
 10
3.263452826605902
 20
-33.07446695963542
 30
0.0
 10
3.616058349609375
 20
-35.19113362630208
 30
0.0
  0
ENDBLK
  5
C6
330
BC
100
AcDbEntity
  8
LAYER_1
100
AcDbBlockEnd
  0
ENDSEC
  0
SECTION
  2
ENTITIES
  0
LWPOLYLINE
  5
DC
330
A
100
AcDbEntity
  8
LAYER_1
 62
     7
100
AcDbPolyline
 90
        5
 70
     1
 43
0.0
 10
152.7987698025173
 20
168.289641655816
 10
155.3288479275174
 20
169.9102145724826
 10
155.3288479275174
 20
167.991985405816
 10
153.824030219184
 20
167.396672905816
 10
153.129498969184
 20
167.495891655816
  0
LWPOLYLINE
  5
D1
330
A
100
AcDbEntity
  8
LAYER_1
 62
     7
100
AcDbPolyline
 90
        9
 70
     0
 43
0.0
 10
149.0065809461806
 20
170.3620388454861
 10
155.2242892795139
 20
169.9214111328125
 10
153.0633531358507
 20
167.7162055121528
 10
157.1201253255208
 20
168.0693277994791
 10
165.0906982421875
 20
165.9414645724826
 10
165.0906982421875
 20
155.7107367621528
 10
161.3534586588542
 20
154.8401611328125
 10
161.3534586588542
 20
144.7859944661458
 10
149.0065809461806
 20
141.7870388454861
  0
SPLINE
  5
D0
330
A
100
AcDbEntity
  8
LAYER_1
 62
     7
100
AcDbSpline
210
0.0
220
0.0
230
1.0
 70
     8
 71
     3
 72
    71
 73
    67
 74
     0
 42
0.0000000001
 43
0.0000000001
 40
0.0
 40
0.0
 40
0.0
 40
0.0
 40
1.0
 40
1.0
 40
1.0
 40
2.0
 40
2.0
 40
2.0
 40
3.0
 40
3.0
 40
3.0
 40
4.0
 40
4.0
 40
4.0
 40
5.0
 40
5.0
 40
5.0
 40
6.0
 40
6.0
 40
6.0
 40
7.0
 40
7.0
 40
7.0
 40
8.0
 40
8.0
 40
8.0
 40
9.0
 40
9.0
 40
9.0
 40
10.0
 40
10.0
 40
10.0
 40
11.0
 40
11.0
 40
11.0
 40
12.0
 40
12.0
 40
12.0
 40
13.0
 40
13.0
 40
13.0
 40
14.0
 40
14.0
 40
14.0
 40
15.0
 40
15.0
 40
15.0
 40
16.0
 40
16.0
 40
16.0
 40
17.0
 40
17.0
 40
17.0
 40
18.0
 40
18.0
 40
18.0
 40
19.0
 40
19.0
 40
19.0
 40
20.0
 40
20.0
 40
20.0
 40
21.0
 40
21.0
 40
21.0
 40
22.0
 40
22.0
 40
22.0
 40
22.0
 10
88.4815931532118
 20
127.9479180230035
 30
0.0
 10
88.4815931532118
 20
127.9479180230035
 30
0.0
 10
64.69251980251735
 20
122.9135999891493
 30
0.0
 10
64.69251980251735
 20
122.9135999891493
 30
0.0
 10
64.69251980251735
 20
122.9135999891493
 30
0.0
 10
58.21022813585069
 20
126.0885999891493
 30
0.0
 10
57.81335313585069
 20
126.0885999891493
 30
0.0
 10
57.41647813585069
 20
126.0885999891493
 30
0.0
 10
53.58001980251736
 20
126.0885999891493
 30
0.0
 10
53.58001980251736
 20
126.0885999891493
 30
0.0
 10
53.58001980251736
 20
126.0885999891493
 30
0.0
 10
53.44772813585069
 20
129.2635999891493
 30
0.0
 10
53.44772813585069
 20
129.2635999891493
 30
0.0
 10
53.44772813585069
 20
129.2635999891493
 30
0.0
 10
52.25710313585069
 20
129.2635999891493
 30
0.0
 10
52.25710313585069
 20
129.2635999891493
 30
0.0
 10
52.25710313585069
 20
129.2635999891493
 30
0.0
 10
46.03939480251736
 20
132.7031833224826
 30
0.0
 10
46.03939480251736
 20
132.7031833224826
 30
0.0
 10
46.03939480251736
 20
132.7031833224826
 30
0.0
 10
46.03939480251736
 20
144.080266655816
 30
0.0
 10
46.03939480251736
 20
144.080266655816
 30
0.0
 10
46.03939480251736
 20
144.080266655816
 30
0.0
 10
52.91856146918402
 20
145.5354749891493
 30
0.0
 10
52.91856146918402
 20
145.5354749891493
 30
0.0
 10
52.91856146918402
 20
145.5354749891493
 30
0.0
 10
53.05085313585069
 20
156.780266655816
 30
0.0
 10
53.05085313585069
 20
156.780266655816
 30
0.0
 10
53.05085313585069
 20
156.780266655816
 30
0.0
 10
78.58314480251735
 20
160.749016655816
 30
0.0
 10
78.58314480251735
 20
160.749016655816
 30
0.0
 10
78.58314480251735
 20
160.749016655816
 30
0.0
 10
63.23731146918402
 20
176.624016655816
 30
0.0
 10
63.23731146918402
 20
176.624016655816
 30
0.0
 10
63.23731146918402
 20
176.624016655816
 30
0.0
 10
71.39512532552082
 20
193.1162055121528
 30
0.0
 10
71.39512532552082
 20
194.1745388454861
 30
0.0
 10
71.39512532552082
 20
195.2328721788194
 30
0.0
 10
68.92585313585069
 20
198.055266655816
 30
0.0
 10
68.92585313585069
 20
198.055266655816
 30
0.0
 10
68.92585313585069
 20
198.055266655816
 30
0.0
 10
76.86335313585069
 20
196.9969333224826
 30
0.0
 10
76.86335313585069
 20
196.9969333224826
 30
0.0
 10
76.86335313585069
 20
196.9969333224826
 30
0.0
 10
74.21751980251736
 20
201.5828721788194
 30
0.0
 10
74.21751980251736
 20
201.5828721788194
 30
0.0
 10
74.21751980251736
 20
201.5828721788194
 30
0.0
 10
83.38991427951387
 20
220.6329583062066
 30
0.0
 10
83.38991427951387
 20
220.6329583062066
 30
0.0
 10
83.38991427951387
 20
220.6329583062066
 30
0.0
 10
95.73679199218749
 20
221.3385999891493
 30
0.0
 10
95.73679199218749
 20
221.3385999891493
 30
0.0
 10
95.73679199218749
 20
221.3385999891493
 30
0.0
 10
149.0065809461806
 20
181.8276611328125
 30
0.0
 10
149.0065809461806
 20
181.8276611328125
 30
0.0
 10
149.0065809461806
 20
181.8276611328125
 30
0.0
 10
149.0065809461806
 20
108.4495388454861
 30
0.0
 10
149.0065809461806
 20
108.4495388454861
 30
0.0
 10
149.0065809461806
 20
108.4495388454861
 30
0.0
 10
135.7774142795139
 20
104.0401611328125
 30
0.0
 10
135.7774142795139
 20
104.0401611328125
 30
0.0
 10
135.7774142795139
 20
104.0401611328125
 30
0.0
 10
107.2024142795139
 20
131.9094333224826
 30
0.0
 10
107.2024142795139
 20
131.9094333224826
 30
0.0
 10
107.2024142795139
 20
131.9094333224826
 30
0.0
 10
94.91393093532986
 20
129.309075249566
 30
0.0
 10
94.91393093532986
 20
129.309075249566
 30
0.0
  0
LWPOLYLINE
  5
CB
330
A
100
AcDbEntity
  8
LAYER_1
 62
     7
100
AcDbPolyline
 90
        3
 70
     0
 43
0.0
 10
83.38991427951387
 20
220.6329583062066
 10
135.7774142795139
 20
179.3578721788194
 10
135.9534586588542
 20
104.5693277994792
  0
LINE
  5
CA
330
A
100
AcDbEntity
  8
LAYER_1
 62
     7
100
AcDbLine
 10
149.0065809461806
 20
181.8276611328125
 30
0.0
 11
135.7774142795139
 21
179.3578721788194
 31
0.0
  0
LINE
  5
C9
330
A
100
AcDbEntity
  8
LAYER_1
 62
     7
100
AcDbLine
 10
164.7050198025173
 20
165.7760999891493
 30
0.0
 11
149.1826253255208
 21
163.1302666558159
 31
0.0
  0
LINE
  5
C8
330
A
100
AcDbEntity
  8
LAYER_1
 62
     7
100
AcDbLine
 10
161.3534586588542
 20
154.8401611328125
 30
0.0
 11
149.1826253255208
 21
152.2162041558159
 31
0.0
  0
LINE
  5
C7
330
A
100
AcDbEntity
  8
LAYER_1
 62
     7
100
AcDbLine
 10
155.3235080295139
 20
169.0615152994791
 30
0.0
 11
154.0886135525174
 21
167.9258395724826
 31
0.0
  0
INSERT
  5
BD
330
A
100
AcDbEntity
  8
LAYER_1
 62
     7
100
AcDbBlockReference
  2
AI9-BLK16
 10
142.038961452908
 20
142.7589002821181
 30
0.0
  0
LWPOLYLINE
  5
B3
330
A
100
AcDbEntity
  8
LAYER_1
 62
     7
100
AcDbPolyline
 90
        7
 70
     0
 43
0.0
 10
86.96402859157985
 20
139.0626573350695
 10
64.69251980251735
 20
134.555266655816
 10
58.07793646918402
 20
137.8625583224826
 10
53.31543646918402
 20
137.730266655816
 10
56.35814480251736
 20
140.508391655816
 10
52.38939480251736
 20
140.6406833224826
 10
46.03939480251736
 20
144.080266655816
  0
LWPOLYLINE
  5
AE
330
A
100
AcDbEntity
  8
LAYER_1
 62
     7
100
AcDbPolyline
 90
        3
 70
     0
 43
0.0
 10
107.4227281358507
 20
131.7109958224826
 10
98.03001980251736
 20
141.302141655816
 10
96.30540500217013
 20
140.9529812282986
  0
LWPOLYLINE
  5
A5
330
A
100
AcDbEntity
  8
LAYER_1
 62
     7
100
AcDbPolyline
 90
        7
 70
     0
 43
0.0
 10
86.95403781467013
 20
151.6407009548611
 10
71.57168646918402
 20
148.545110405816
 10
65.88314480251735
 20
151.2240166558159
 10
61.12064480251735
 20
151.0917249891493
 10
64.03106146918402
 20
154.002141655816
 10
58.87168646918402
 20
154.1344333224826
 10
53.24929063585069
 20
156.6479749891493
  0
LWPOLYLINE
  5
A0
330
A
100
AcDbEntity
  8
LAYER_1
 62
     7
100
AcDbPolyline
 90
        3
 70
     0
 43
0.0
 10
98.03001980251736
 20
141.302141655816
 10
98.03001980251736
 20
153.8698499891493
 10
96.54966227213541
 20
153.5718492296007
  0
LINE
  5
9F
330
A
100
AcDbEntity
  8
LAYER_1
 62
     7
100
AcDbLine
 10
64.69251980251735
 20
134.555266655816
 30
0.0
 11
64.69251980251735
 21
122.649016655816
 31
0.0
  0
INSERT
  5
93
330
A
100
AcDbEntity
  8
LAYER_1
 62
     7
100
AcDbBlockReference
  2
AI9-BLK15
 10
55.42142333984374
 20
133.3647277832031
 30
0.0
  0
LINE
  5
91
330
A
100
AcDbEntity
  8
LAYER_1
 62
     7
100
AcDbLine
 10
58.80554063585069
 20
154.101360405816
 30
0.0
 11
58.80554063585069
 21
142.7573499891493
 31
0.0
  0
LINE
  5
90
330
A
100
AcDbEntity
  8
LAYER_1
 62
     7
100
AcDbLine
 10
65.35397813585068
 20
139.1854749891493
 30
0.0
 11
65.35397813585068
 21
151.0917249891493
 31
0.0
  0
LINE
  5
8F
330
A
100
AcDbEntity
  8
LAYER_1
 62
     7
100
AcDbLine
 10
61.12064480251735
 20
139.119329155816
 30
0.0
 11
61.12064480251735
 21
151.0917249891493
 31
0.0
  0
LINE
  5
8E
330
A
100
AcDbEntity
  8
LAYER_1
 62
     7
100
AcDbLine
 10
53.44772813585069
 20
137.5979749891493
 30
0.0
 11
53.44772813585069
 21
129.395891655816
 31
0.0
  0
LINE
  5
8D
330
A
100
AcDbEntity
  8
LAYER_1
 62
     7
100
AcDbLine
 10
97.21766628689235
 20
154.157170952691
 30
0.0
 11
98.03001980251736
 21
153.8698499891493
 31
0.0
  0
LINE
  5
8C
330
A
100
AcDbEntity
  8
LAYER_1
 62
     7
100
AcDbLine
 10
78.58314480251735
 20
160.749016655816
 30
0.0
 11
89.17112901475694
 21
157.003508843316
 31
0.0
  0
INSERT
  5
7D
330
A
100
AcDbEntity
  8
LAYER_1
 62
     7
100
AcDbBlockReference
  2
AI9-BLK14
 10
62.2738043891059
 20
146.7275641547309
 30
0.0
  0
SPLINE
  5
7B
330
A
100
AcDbEntity
  8
LAYER_1
 62
     7
100
AcDbSpline
210
0.0
220
0.0
230
1.0
 70
     8
 71
     3
 72
    23
 73
    19
 74
     0
 42
0.0000000001
 43
0.0000000001
 40
0.0
 40
0.0
 40
0.0
 40
0.0
 40
1.0
 40
1.0
 40
1.0
 40
2.0
 40
2.0
 40
2.0
 40
3.0
 40
3.0
 40
3.0
 40
4.0
 40
4.0
 40
4.0
 40
5.0
 40
5.0
 40
5.0
 40
6.0
 40
6.0
 40
6.0
 40
6.0
 10
52.91856146918402
 20
145.5354749891493
 30
0.0
 10
52.91856146918402
 20
145.5354749891493
 30
0.0
 10
58.54095730251736
 20
142.4266208224826
 30
0.0
 10
58.73939480251735
 20
142.3604749891493
 30
0.0
 10
58.73939480251735
 20
142.3604749891493
 30
0.0
 10
61.12064480251735
 20
142.1620374891493
 30
0.0
 10
61.12064480251735
 20
142.1620374891493
 30
0.0
 10
61.12064480251735
 20
142.1620374891493
 30
0.0
 10
61.12064480251735
 20
139.119329155816
 30
0.0
 10
61.12064480251735
 20
139.119329155816
 30
0.0
 10
61.12064480251735
 20
139.119329155816
 30
0.0
 10
65.28783230251736
 20
139.0531833224826
 30
0.0
 10
65.28783230251736
 20
139.0531833224826
 30
0.0
 10
65.28783230251736
 20
139.0531833224826
 30
0.0
 10
71.57168646918402
 20
136.0104749891493
 30
0.0
 10
71.57168646918402
 20
136.0104749891493
 30
0.0
 10
71.57168646918402
 20
136.0104749891493
 30
0.0
 10
71.57168646918402
 20
148.545110405816
 30
0.0
 10
71.57168646918402
 20
148.545110405816
 30
0.0
  0
LINE
  5
7A
330
A
100
AcDbEntity
  8
LAYER_1
 62
     7
100
AcDbLine
 10
52.32324896918402
 20
140.607610405816
 30
0.0
 11
52.32324896918402
 21
129.2635999891493
 31
0.0
  0
LINE
  5
79
330
A
100
AcDbEntity
  8
LAYER_1
 62
     7
100
AcDbLine
 10
57.54876980251736
 20
137.6971937391493
 30
0.0
 11
57.54876980251736
 21
126.3531833224826
 31
0.0
  0
INSERT
  5
69
330
A
100
AcDbEntity
  8
LAYER_1
 62
     7
100
AcDbBlockReference
  2
AI9-BLK13
 10
97.32282782660589
 20
159.4066351996528
 30
0.0
  0
INSERT
  5
5A
330
A
100
AcDbEntity
  8
LAYER_1
 62
     7
100
AcDbBlockReference
  2
AI9-BLK10
 10
91.61421847873262
 20
145.5935248480903
 30
0.0
  0
SPLINE
  5
58
330
A
100
AcDbEntity
  8
LAYER_1
 62
     7
100
AcDbSpline
210
0.0
220
0.0
230
1.0
 70
    11
 71
     3
 72
    14
 73
    10
 74
     0
 42
0.0000000001
 43
0.0000000001
 40
0.0
 40
0.0
 40
0.0
 40
0.0
 40
1.0
 40
1.0
 40
1.0
 40
2.0
 40
2.0
 40
2.0
 40
3.0
 40
3.0
 40
3.0
 40
3.0
 10
69.19043646918402
 20
198.055266655816
 30
0.0
 10
69.19043646918402
 20
198.055266655816
 30
0.0
 10
75.45241427951389
 20
198.5844333224826
 30
0.0
 10
75.45241427951389
 20
198.5844333224826
 30
0.0
 10
75.45241427951389
 20
198.5844333224826
 30
0.0
 10
76.42220865885416
 20
197.3495388454861
 30
0.0
 10
76.15762532552083
 20
197.3495388454861
 30
0.0
 10
75.89304199218749
 20
197.3495388454861
 30
0.0
 10
69.19043646918402
 20
198.055266655816
 30
0.0
 10
69.19043646918402
 20
198.055266655816
 30
0.0
  0
INSERT
  5
53
330
A
100
AcDbEntity
  8
LAYER_1
 62
     7
100
AcDbBlockReference
  2
AI9-BLK9
 10
89.59702894422742
 20
135.4690782335069
 30
0.0
  0
INSERT
  5
4D
330
A
100
AcDbEntity
  8
LAYER_1
 62
     7
100
AcDbBlockReference
  2
AI9-BLK8
 10
100.9808302137587
 20
188.4196790907118
 30
0.0
  0
INSERT
  5
47
330
A
100
AcDbEntity
  8
LAYER_1
 62
     7
100
AcDbBlockReference
  2
AI9-BLK7
 10
92.03228081597221
 20
133.8378255208333
 30
0.0
  0
INSERT
  5
41
330
A
100
AcDbEntity
  8
LAYER_1
 62
     7
100
AcDbBlockReference
  2
AI9-BLK6
 10
94.45771416558159
 20
131.9656745062934
 30
0.0
  0
INSERT
  5
3B
330
A
100
AcDbEntity
  8
LAYER_1
 62
     7
100
AcDbBlockReference
  2
AI9-BLK5
 10
94.36986423068575
 20
138.8107347276476
 30
0.0
  0
INSERT
  5
35
330
A
100
AcDbEntity
  8
LAYER_1
 62
     7
100
AcDbBlockReference
  2
AI9-BLK4
 10
103.0680413140191
 20
185.6806559244791
 30
0.0
  0
INSERT
  5
2F
330
A
100
AcDbEntity
  8
LAYER_1
 62
     7
100
AcDbBlockReference
  2
AI9-BLK3
 10
101.1719468858507
 20
182.0650282118055
 30
0.0
  0
INSERT
  5
29
330
A
100
AcDbEntity
  8
LAYER_1
 62
     7
100
AcDbBlockReference
  2
AI9-BLK2
 10
105.2176086425781
 20
182.6915188259549
 30
0.0
  0
INSERT
  5
23
330
A
100
AcDbEntity
  8
LAYER_1
 62
     7
100
AcDbBlockReference
  2
AI9-BLK1
 10
102.5828857421875
 20
175.0595126681858
 30
0.0
  0
ENDSEC
  0
SECTION
  2
OBJECTS
  0
DICTIONARY
  5
19
330
0
100
AcDbDictionary
281
     1
  3
ACAD_COLOR
350
119
  3
ACAD_GROUP
350
1A
  3
ACAD_LAYOUT
350
E6
  3
ACAD_MATERIAL
350
11B
  3
ACAD_MLINESTYLE
350
1B
  3
ACAD_PLOTSETTINGS
350
E7
  3
ACAD_PLOTSTYLENAME
350
E4
  3
ACDBHEADERROUNDTRIPXREC
350
118
  0
DICTIONARY
  5
119
102
{ACAD_REACTORS
330
19
102
}
330
19
100
AcDbDictionary
281
     1
  0
DICTIONARY
  5
1A
102
{ACAD_REACTORS
330
19
102
}
330
19
100
AcDbDictionary
281
     1
  0
DICTIONARY
  5
E6
102
{ACAD_REACTORS
330
19
102
}
330
19
100
AcDbDictionary
281
     1
  3
Layout1
350
E9
  3
Model
350
E8
  0
DICTIONARY
  5
11B
102
{ACAD_REACTORS
330
19
102
}
330
19
100
AcDbDictionary
281
     1
  0
DICTIONARY
  5
1B
102
{ACAD_REACTORS
330
19
102
}
330
19
100
AcDbDictionary
281
     1
  3
STANDARD
350
1C
  0
DICTIONARY
  5
E7
102
{ACAD_REACTORS
330
19
102
}
330
19
100
AcDbDictionary
281
     1
  0
ACDBDICTIONARYWDFLT
  5
E4
102
{ACAD_REACTORS
330
19
102
}
330
19
100
AcDbDictionary
281
     1
  3
Normal
350
E5
100
AcDbDictionaryWithDefault
340
E5
  0
DICTIONARY
  5
118
102
{ACAD_REACTORS
330
19
102
}
330
19
100
AcDbDictionary
281
     1
  3
COLORDICT
350
11A
  3
MATERIALDICT
350
11C
  0
LAYOUT
  5
E9
102
{ACAD_REACTORS
330
E6
102
}
102
{ACAD_XDICTIONARY
360
11D
102
}
330
E6
100
AcDbPlotSettings
  1

  2
Support Center HP LaserJet 4
  4

  6

 40
0.0
 41
0.0
 42
0.0
 43
0.0
 44
0.0
 45
0.0
 46
0.0
 47
0.0
 48
0.0
 49
0.0
140
0.0
141
0.0
142
1.0
143
1.0
 70
   688
 72
     0
 73
     0
 74
     5
  7

 75
    16
147
1.0
148
0.0
149
0.0
100
AcDbLayout
  1
Layout1
 70
     0
 71
     1
 10
0.0
 20
0.0
 11
12.0
 21
9.0
 12
0.0
 22
0.0
 32
0.0
 14
1.000000000000000E+20
 24
1.000000000000000E+20
 34
1.000000000000000E+20
 15
-1.000000000000000E+20
 25
-1.000000000000000E+20
 35
-1.000000000000000E+20
146
0.0
 13
0.0
 23
0.0
 33
0.0
 16
1.0
 26
0.0
 36
0.0
 17
0.0
 27
1.0
 37
0.0
 76
     0
330
B
  0
LAYOUT
  5
E8
102
{ACAD_REACTORS
330
E6
102
}
102
{ACAD_XDICTIONARY
360
11F
102
}
330
E6
100
AcDbPlotSettings
  1

  2
Support Center HP LaserJet 4
  4

  6

 40
0.0
 41
0.0
 42
0.0
 43
0.0
 44
0.0
 45
0.0
 46
0.0
 47
0.0
 48
0.0
 49
0.0
140
0.0
141
0.0
142
1.0
143
1.0
 70
  1712
 72
     0
 73
     0
 74
     0
  7

 75
     0
147
1.0
148
0.0
149
0.0
100
AcDbLayout
  1
Model
 70
     1
 71
     0
 10
0.0
 20
0.0
 11
12.0
 21
9.0
 12
0.0
 22
0.0
 32
0.0
 14
0.0
 24
0.0
 34
0.0
 15
0.0
 25
0.0
 35
0.0
146
0.0
 13
0.0
 23
0.0
 33
0.0
 16
1.0
 26
0.0
 36
0.0
 17
0.0
 27
1.0
 37
0.0
 76
     0
330
A
  0
MLINESTYLE
  5
1C
102
{ACAD_REACTORS
330
1B
102
}
330
1B
100
AcDbMlineStyle
  2
STANDARD
 70
     0
  3

 62
     0
 51
90.0000000000002
 52
90.0000000000002
 71
     2
 49
0.5
 62
   256
  6
BYLAYER
 49
-0.5
 62
   256
  6
BYLAYER
  0
ACDBPLACEHOLDER
  5
E5
102
{ACAD_REACTORS
330
E4
102
}
330
E4
  0
XRECORD
  5
11A
102
{ACAD_REACTORS
330
118
102
}
330
118
100
AcDbXrecord
340
119
  0
XRECORD
  5
11C
102
{ACAD_REACTORS
330
118
102
}
330
118
100
AcDbXrecord
340
11B
  0
DICTIONARY
  5
11D
330
E9
100
AcDbDictionary
280
     1
281
     1
  3
ACAD_XREC_ROUNDTRIP
360
11E
  0
DICTIONARY
  5
11F
330
E8
100
AcDbDictionary
280
     1
281
     1
  3
ACAD_XREC_ROUNDTRIP
360
120
  0
XRECORD
  5
11E
102
{ACAD_REACTORS
330
11D
102
}
330
11D
100
AcDbXrecord
102
SHADEPLOT
 70
     0
102
SHADEPLOTRESLEVEL
 70
     0
102
SHADEPLOTCUSTOMDPI
 70
     0
  0
XRECORD
  5
120
102
{ACAD_REACTORS
330
11F
102
}
330
11F
100
AcDbXrecord
102
SHADEPLOT
 70
     0
102
SHADEPLOTRESLEVEL
 70
     0
102
SHADEPLOTCUSTOMDPI
 70
     0
  0
ENDSEC
  0
EOF
