  0
SECTION
  2
HEADER
  9
$ACADVER
  1
AC1015
  9
$ACADMAINTVER
 70
     6
  9
$DWGCODEPAGE
  3
ANSI_1252
  9
$INSBASE
 10
0.0
 20
0.0
 30
0.0
  9
$EXTMIN
 10
36.56323475307199
 20
63.45781348895685
 30
-0.0015258207003612
  9
$EXTMAX
 10
219.9369523139397
 20
255.2610184783231
 30
0.0000000349246008
  9
$LIMMIN
 10
62.40945502387152
 20
103.0142116970486
  9
$LIMMAX
 10
175.8095960828993
 20
224.510585530599
  9
$ORTHOMODE
 70
     0
  9
$REGENMODE
 70
     1
  9
$FILLMODE
 70
     1
  9
$QTEXTMODE
 70
     0
  9
$MIRRTEXT
 70
     1
  9
$LTSCALE
 40
1.0
  9
$ATTMODE
 70
     1
  9
$TEXTSIZE
 40
0.2
  9
$TRACEWID
 40
0.05
  9
$TEXTSTYLE
  7
STANDARD
  9
$CLAYER
  8
0
  9
$CELTYPE
  6
CONTINUOUS
  9
$CECOLOR
 62
   256
  9
$CELTSCALE
 40
1.0
  9
$DISPSILH
 70
     0
  9
$DIMSCALE
 40
1.0
  9
$DIMASZ
 40
0.18
  9
$DIMEXO
 40
0.0625
  9
$DIMDLI
 40
0.38
  9
$DIMRND
 40
0.0
  9
$DIMDLE
 40
0.0
  9
$DIMEXE
 40
0.18
  9
$DIMTP
 40
0.0
  9
$DIMTM
 40
0.0
  9
$DIMTXT
 40
0.18
  9
$DIMCEN
 40
0.09
  9
$DIMTSZ
 40
0.0
  9
$DIMTOL
 70
     0
  9
$DIMLIM
 70
     0
  9
$DIMTIH
 70
     1
  9
$DIMTOH
 70
     1
  9
$DIMSE1
 70
     0
  9
$DIMSE2
 70
     0
  9
$DIMTAD
 70
     0
  9
$DIMZIN
 70
     0
  9
$DIMBLK
  1

  9
$DIMASO
 70
     1
  9
$DIMSHO
 70
     1
  9
$DIMPOST
  1

  9
$DIMAPOST
  1

  9
$DIMALT
 70
     0
  9
$DIMALTD
 70
     2
  9
$DIMALTF
 40
25.4
  9
$DIMLFAC
 40
1.0
  9
$DIMTOFL
 70
     0
  9
$DIMTVP
 40
0.0
  9
$DIMTIX
 70
     0
  9
$DIMSOXD
 70
     0
  9
$DIMSAH
 70
     0
  9
$DIMBLK1
  1

  9
$DIMBLK2
  1

  9
$DIMSTYLE
  2
STANDARD
  9
$DIMCLRD
 70
     0
  9
$DIMCLRE
 70
     0
  9
$DIMCLRT
 70
     0
  9
$DIMTFAC
 40
1.0
  9
$DIMGAP
 40
0.09
  9
$DIMJUST
 70
     0
  9
$DIMSD1
 70
     0
  9
$DIMSD2
 70
     0
  9
$DIMTOLJ
 70
     1
  9
$DIMTZIN
 70
     0
  9
$DIMALTZ
 70
     0
  9
$DIMALTTZ
 70
     0
  9
$DIMUPT
 70
     0
  9
$DIMDEC
 70
     4
  9
$DIMTDEC
 70
     4
  9
$DIMALTU
 70
     2
  9
$DIMALTTD
 70
     2
  9
$DIMTXSTY
  7
STANDARD
  9
$DIMAUNIT
 70
     0
  9
$DIMADEC
 70
     0
  9
$DIMALTRND
 40
0.0
  9
$DIMAZIN
 70
     0
  9
$DIMDSEP
 70
    46
  9
$DIMATFIT
 70
     3
  9
$DIMFRAC
 70
     0
  9
$DIMLDRBLK
  1

  9
$DIMLUNIT
 70
     2
  9
$DIMLWD
 70
    -2
  9
$DIMLWE
 70
    -2
  9
$DIMTMOVE
 70
     0
  9
$LUNITS
 70
     2
  9
$LUPREC
 70
     4
  9
$SKETCHINC
 40
0.1
  9
$FILLETRAD
 40
0.0
  9
$AUNITS
 70
     0
  9
$AUPREC
 70
     0
  9
$MENU
  1
acad
  9
$ELEVATION
 40
0.0
  9
$PELEVATION
 40
0.0
  9
$THICKNESS
 40
0.0
  9
$LIMCHECK
 70
     0
  9
$CHAMFERA
 40
0.0
  9
$CHAMFERB
 40
0.0
  9
$CHAMFERC
 40
0.0
  9
$CHAMFERD
 40
0.0
  9
$SKPOLY
 70
     0
  9
$TDCREATE
 40
2444971.666666667
  9
$TDUCREATE
 40
2444972.0
  9
$TDUPDATE
 40
2452215.549057176
  9
$TDUUPDATE
 40
2452215.882390509
  9
$TDINDWG
 40
0.0001563657
  9
$TDUSRTIMER
 40
0.0001563657
  9
$USRTIMER
 70
     1
  9
$ANGBASE
 50
0.0
  9
$ANGDIR
 70
     0
  9
$PDMODE
 70
     0
  9
$PDSIZE
 40
0.0
  9
$PLINEWID
 40
0.0
  9
$SPLFRAME
 70
     0
  9
$SPLINETYPE
 70
     6
  9
$SPLINESEGS
 70
     8
  9
$HANDSEED
  5
F3
  9
$SURFTAB1
 70
     6
  9
$SURFTAB2
 70
     6
  9
$SURFTYPE
 70
     6
  9
$SURFU
 70
     6
  9
$SURFV
 70
     6
  9
$UCSBASE
  2

  9
$UCSNAME
  2

  9
$UCSORG
 10
0.0
 20
0.0
 30
0.0
  9
$UCSXDIR
 10
1.0
 20
0.0
 30
0.0
  9
$UCSYDIR
 10
0.0
 20
1.0
 30
0.0
  9
$UCSORTHOREF
  2

  9
$UCSORTHOVIEW
 70
     0
  9
$UCSORGTOP
 10
0.0
 20
0.0
 30
0.0
  9
$UCSORGBOTTOM
 10
0.0
 20
0.0
 30
0.0
  9
$UCSORGLEFT
 10
0.0
 20
0.0
 30
0.0
  9
$UCSORGRIGHT
 10
0.0
 20
0.0
 30
0.0
  9
$UCSORGFRONT
 10
0.0
 20
0.0
 30
0.0
  9
$UCSORGBACK
 10
0.0
 20
0.0
 30
0.0
  9
$PUCSBASE
  2

  9
$PUCSNAME
  2

  9
$PUCSORG
 10
0.0
 20
0.0
 30
0.0
  9
$PUCSXDIR
 10
1.0
 20
0.0
 30
0.0
  9
$PUCSYDIR
 10
0.0
 20
1.0
 30
0.0
  9
$PUCSORTHOREF
  2

  9
$PUCSORTHOVIEW
 70
     0
  9
$PUCSORGTOP
 10
0.0
 20
0.0
 30
0.0
  9
$PUCSORGBOTTOM
 10
0.0
 20
0.0
 30
0.0
  9
$PUCSORGLEFT
 10
0.0
 20
0.0
 30
0.0
  9
$PUCSORGRIGHT
 10
0.0
 20
0.0
 30
0.0
  9
$PUCSORGFRONT
 10
0.0
 20
0.0
 30
0.0
  9
$PUCSORGBACK
 10
0.0
 20
0.0
 30
0.0
  9
$USERI1
 70
     0
  9
$USERI2
 70
     0
  9
$USERI3
 70
     0
  9
$USERI4
 70
     0
  9
$USERI5
 70
     0
  9
$USERR1
 40
0.0
  9
$USERR2
 40
0.0
  9
$USERR3
 40
0.0
  9
$USERR4
 40
0.0
  9
$USERR5
 40
0.0
  9
$WORLDVIEW
 70
     1
  9
$SHADEDGE
 70
     3
  9
$SHADEDIF
 70
    70
  9
$TILEMODE
 70
     1
  9
$MAXACTVP
 70
    16
  9
$PINSBASE
 10
0.0
 20
0.0
 30
0.0
  9
$PLIMCHECK
 70
     0
  9
$PEXTMIN
 10
1.000000000000000E+20
 20
1.000000000000000E+20
 30
1.000000000000000E+20
  9
$PEXTMAX
 10
-1.000000000000000E+20
 20
-1.000000000000000E+20
 30
-1.000000000000000E+20
  9
$PLIMMIN
 10
0.0
 20
0.0
  9
$PLIMMAX
 10
12.0
 20
9.0
  9
$UNITMODE
 70
     0
  9
$VISRETAIN
 70
     0
  9
$PLINEGEN
 70
     1
  9
$PSLTSCALE
 70
     0
  9
$TREEDEPTH
 70
  3020
  9
$CMLSTYLE
  2
STANDARD
  9
$CMLJUST
 70
     0
  9
$CMLSCALE
 40
1.0
  9
$PROXYGRAPHICS
 70
     0
  9
$MEASUREMENT
 70
     0
  9
$CELWEIGHT
370
    -1
  9
$ENDCAPS
280
     0
  9
$JOINSTYLE
280
     0
  9
$LWDISPLAY
290
     0
  9
$INSUNITS
 70
     0
  9
$HYPERLINKBASE
  1

  9
$STYLESHEET
  1

  9
$XEDIT
290
     1
  9
$CEPSNTYPE
380
     0
  9
$PSTYLEMODE
290
     1
  9
$FINGERPRINTGUID
  2
{890B553C-CEC8-11D5-923F-00805F198AD5}
  9
$VERSIONGUID
  2
{890B553E-CEC8-11D5-923F-00805F198AD5}
  9
$EXTNAMES
290
     1
  9
$PSVPSCALE
 40
0.0
  9
$OLESTARTUP
290
     0
  0
ENDSEC
  0
SECTION
  2
CLASSES
  0
CLASS
  1
LWPOLYLINE
  2
AcDbPolyline
  3
AutoCAD 2000
 90
        0
280
     0
281
     1
  0
CLASS
  1
IMAGE
  2
AcDbRasterImage
  3
ISM
 90
      127
280
     0
281
     1
  0
CLASS
  1
OLE2FRAME
  2
AcDbOle2Frame
  3
AutoCAD 2000
 90
        0
280
     0
281
     1
  0
CLASS
  1
HATCH
  2
AcDbHatch
  3
AutoCAD 2000
 90
        0
280
     0
281
     1
  0
CLASS
  1
DICTIONARYVAR
  2
AcDbDictionaryVar
  3
AutoCAD 2000
 90
        0
280
     0
281
     0
  0
CLASS
  1
RASTERVARIABLES
  2
AcDbRasterVariables
  3
ISM
 90
        0
280
     0
281
     0
  0
CLASS
  1
IMAGEDEF
  2
AcDbRasterImageDef
  3
ISM
 90
        0
280
     0
281
     0
  0
CLASS
  1
IMAGEDEF_REACTOR
  2
AcDbRasterImageDefReactor
  3
ISM
 90
        1
280
     0
281
     0
  0
CLASS
  1
IDBUFFER
  2
AcDbIdBuffer
  3
AutoCAD 2000
 90
        0
280
     0
281
     0
  0
CLASS
  1
SPATIAL_FILTER
  2
AcDbSpatialFilter
  3
AutoCAD 2000
 90
        0
280
     0
281
     0
  0
CLASS
  1
XRECORD
  2
AcDbXrecord
  3
AutoCAD 2000
 90
        0
280
     0
281
     0
  0
CLASS
  1
SORTENTSTABLE
  2
AcDbSortentsTable
  3
AutoCAD 2000
 90
        0
280
     0
281
     0
  0
CLASS
  1
LAYER_INDEX
  2
AcDbLayerIndex
  3
AutoCAD 2000
 90
        0
280
     0
281
     0
  0
CLASS
  1
SPATIAL_INDEX
  2
AcDbSpatialIndex
  3
AutoCAD 2000
 90
        0
280
     0
281
     0
  0
CLASS
  1
OBJECT_PTR
  2
CAseDLPNTableRecord
  3
ASE-LPNTableRecord
 90
        1
280
     1
281
     0
  0
CLASS
  1
LAYOUT
  2
AcDbLayout
  3
ObjectDBX Classes
 90
        0
280
     0
281
     0
  0
CLASS
  1
PLOTSETTINGS
  2
AcDbPlotSettings
  3
AutoCAD 2000
 90
        0
280
     0
281
     0
  0
CLASS
  1
ACDBDICTIONARYWDFLT
  2
AcDbDictionaryWithDefault
  3
AutoCAD 2000
 90
        0
280
     0
281
     0
  0
CLASS
  1
ACDBPLACEHOLDER
  2
AcDbPlaceHolder
  3
ObjectDBX Classes
 90
        0
280
     0
281
     0
  0
CLASS
  1
VBAPROJECT
  2
AcDbVbaProject
  3
ObjectDBX Classes
 90
        0
280
     0
281
     0
  0
CLASS
  1
WIPEOUT
  2
AcDbWipeout
  3
WipeOut|AutoCAD Express Tool|expresstools@autodesk.com
 90
      127
280
     0
281
     1
  0
CLASS
  1
WIPEOUTVARIABLES
  2
AcDbWipeoutVariables
  3
WipeOut|AutoCAD Express Tool|expresstools@autodesk.com
 90
        0
280
     0
281
     0
  0
CLASS
  1
RTEXT
  2
RText
  3
RText|AutoCAD Express Tool|expresstools@autodesk.com
 90
        0
280
     0
281
     1
  0
CLASS
  1
ARCALIGNEDTEXT
  2
AcDbArcAlignedText
  3
ATEXT|AutoCAD Express Tool|expresstools@autodesk.com
 90
        0
280
     0
281
     1
  0
CLASS
  1
LONG_TRANSACTION
  2
AcDbLongTransaction
  3
AutoCAD 2000
 90
        0
280
     1
281
     0
  0
CLASS
  1
LWPOLYLINE
  2
AcDbPolyline
  3
AutoCAD 2000
 90
        0
280
     0
281
     1
  0
CLASS
  1
HATCH
  2
AcDbHatch
  3
AutoCAD 2000
 90
        0
280
     0
281
     1
  0
CLASS
  1
XRECORD
  2
AcDbXrecord
  3
AutoCAD 2000
 90
        0
280
     0
281
     0
  0
ENDSEC
  0
SECTION
  2
TABLES
  0
TABLE
  2
VPORT
  5
7
330
0
100
AcDbSymbolTable
 70
     2
  0
VPORT
  5
BF
330
7
100
AcDbSymbolTableRecord
100
AcDbViewportTableRecord
  2
*Active
 70
     0
 10
0.0
 20
0.0
 11
1.0
 21
1.0
 12
128.2500935335059
 22
159.35941598364
 13
0.0
 23
0.0
 14
1.0
 24
1.0
 15
0.0
 25
0.0
 16
0.0
 26
0.0
 36
1.0
 17
0.0
 27
0.0
 37
0.0
 40
194.8237279025846
 41
1.836842105263158
 42
50.0
 43
0.0
 44
0.0
 50
0.0
 51
0.0
 71
     0
 72
   100
 73
     1
 74
     1
 75
     0
 76
     0
 77
     0
 78
     0
281
     0
 65
     1
110
0.0
120
0.0
130
0.0
111
1.0
121
0.0
131
0.0
112
0.0
122
1.0
132
0.0
 79
     0
146
0.0
  0
ENDTAB
  0
TABLE
  2
LTYPE
  5
4
330
0
100
AcDbSymbolTable
 70
     1
  0
LTYPE
  5
11
330
4
100
AcDbSymbolTableRecord
100
AcDbLinetypeTableRecord
  2
BYBLOCK
 70
     0
  3

 72
    65
 73
     0
 40
0.0
  0
LTYPE
  5
12
330
4
100
AcDbSymbolTableRecord
100
AcDbLinetypeTableRecord
  2
BYLAYER
 70
     0
  3

 72
    65
 73
     0
 40
0.0
  0
LTYPE
  5
13
330
4
100
AcDbSymbolTableRecord
100
AcDbLinetypeTableRecord
  2
CONTINUOUS
 70
     0
  3
Solid line
 72
    65
 73
     0
 40
0.0
  0
ENDTAB
  0
TABLE
  2
LAYER
  5
2
330
0
100
AcDbSymbolTable
 70
     2
  0
LAYER
  5
14
330
2
100
AcDbSymbolTableRecord
100
AcDbLayerTableRecord
  2
0
 70
     0
 62
     7
  6
CONTINUOUS
370
    -3
390
0
  0
LAYER
  5
21
330
2
100
AcDbSymbolTableRecord
100
AcDbLayerTableRecord
  2
LAYER_1
 70
     0
 62
     5
  6
CONTINUOUS
370
    -3
390
0
  0
ENDTAB
  0
TABLE
  2
STYLE
  5
3
330
0
100
AcDbSymbolTable
 70
     5
  0
STYLE
  5
17
330
3
100
AcDbSymbolTableRecord
100
AcDbTextStyleTableRecord
  2
STANDARD
 70
     0
 40
0.0
 41
1.0
 50
0.0
 71
     0
 42
0.2
  3
txt
  4

  0
STYLE
  5
1D
330
3
100
AcDbSymbolTableRecord
100
AcDbTextStyleTableRecord
  2
STD
 70
     0
 40
0.0
 41
1.0
 50
0.0
 71
     0
 42
0.2
  3
txt
  4

  0
STYLE
  5
1E
330
3
100
AcDbSymbolTableRecord
100
AcDbTextStyleTableRecord
  2
TATESTD
 70
     4
 40
0.0
 41
1.0
 50
0.0
 71
     0
 42
0.2
  3
txt
  4

  0
STYLE
  5
1F
330
3
100
AcDbSymbolTableRecord
100
AcDbTextStyleTableRecord
  2
KANJISTD
 70
     0
 40
0.0
 41
1.0
 50
0.0
 71
     0
 42
0.2
  3
txt
  4
extfont
  0
STYLE
  5
20
330
3
100
AcDbSymbolTableRecord
100
AcDbTextStyleTableRecord
  2
KANJITATE
 70
     4
 40
0.0
 41
1.0
 50
0.0
 71
     0
 42
0.2
  3
txt
  4
extfont
  0
ENDTAB
  0
TABLE
  2
VIEW
  5
5
330
0
100
AcDbSymbolTable
 70
     0
  0
ENDTAB
  0
TABLE
  2
UCS
  5
6
330
0
100
AcDbSymbolTable
 70
     0
  0
ENDTAB
  0
TABLE
  2
APPID
  5
8
330
0
100
AcDbSymbolTable
 70
     1
  0
APPID
  5
16
330
8
100
AcDbSymbolTableRecord
100
AcDbRegAppTableRecord
  2
ACAD
 70
     0
  0
ENDTAB
  0
TABLE
  2
DIMSTYLE
  5
9
330
0
100
AcDbSymbolTable
 70
     1
100
AcDbDimStyleTable
  0
DIMSTYLE
105
18
330
9
100
AcDbSymbolTableRecord
100
AcDbDimStyleTableRecord
  2
STANDARD
 70
     0
  3

  4

289
     0
340
17
  0
ENDTAB
  0
TABLE
  2
BLOCK_RECORD
  5
1
330
0
100
AcDbSymbolTable
 70
    14
  0
BLOCK_RECORD
  5
A
330
1
100
AcDbSymbolTableRecord
100
AcDbBlockTableRecord
  2
*MODEL_SPACE
340
BA
  0
BLOCK_RECORD
  5
B
330
1
100
AcDbSymbolTableRecord
100
AcDbBlockTableRecord
  2
*PAPER_SPACE
340
BB
  0
BLOCK_RECORD
  5
22
330
1
100
AcDbSymbolTableRecord
100
AcDbBlockTableRecord
  2
AI9-BLK1
340
0
102
{BLKREFS
331
23
102
}
  0
BLOCK_RECORD
  5
28
330
1
100
AcDbSymbolTableRecord
100
AcDbBlockTableRecord
  2
AI9-BLK2
340
0
102
{BLKREFS
331
29
102
}
  0
BLOCK_RECORD
  5
2E
330
1
100
AcDbSymbolTableRecord
100
AcDbBlockTableRecord
  2
AI9-BLK3
340
0
102
{BLKREFS
331
2F
102
}
  0
BLOCK_RECORD
  5
34
330
1
100
AcDbSymbolTableRecord
100
AcDbBlockTableRecord
  2
AI9-BLK4
340
0
102
{BLKREFS
331
35
102
}
  0
BLOCK_RECORD
  5
3A
330
1
100
AcDbSymbolTableRecord
100
AcDbBlockTableRecord
  2
AI9-BLK5
340
0
102
{BLKREFS
331
3B
102
}
  0
BLOCK_RECORD
  5
40
330
1
100
AcDbSymbolTableRecord
100
AcDbBlockTableRecord
  2
AI9-BLK6
340
0
102
{BLKREFS
331
41
102
}
  0
BLOCK_RECORD
  5
46
330
1
100
AcDbSymbolTableRecord
100
AcDbBlockTableRecord
  2
AI9-BLK7
340
0
102
{BLKREFS
331
47
102
}
  0
BLOCK_RECORD
  5
4C
330
1
100
AcDbSymbolTableRecord
100
AcDbBlockTableRecord
  2
AI9-BLK8
340
0
102
{BLKREFS
331
4D
102
}
  0
BLOCK_RECORD
  5
52
330
1
100
AcDbSymbolTableRecord
100
AcDbBlockTableRecord
  2
AI9-BLK9
340
0
102
{BLKREFS
331
53
102
}
  0
BLOCK_RECORD
  5
5E
330
1
100
AcDbSymbolTableRecord
100
AcDbBlockTableRecord
  2
AI9-BLK10
340
0
102
{BLKREFS
331
5F
102
}
  0
BLOCK_RECORD
  5
65
330
1
100
AcDbSymbolTableRecord
100
AcDbBlockTableRecord
  2
AI9-BLK11
340
0
102
{BLKREFS
331
66
102
}
  0
BLOCK_RECORD
  5
75
330
1
100
AcDbSymbolTableRecord
100
AcDbBlockTableRecord
  2
AI9-BLK12
340
0
102
{BLKREFS
331
76
102
}
  0
BLOCK_RECORD
  5
7B
330
1
100
AcDbSymbolTableRecord
100
AcDbBlockTableRecord
  2
AI9-BLK13
340
0
102
{BLKREFS
331
7C
102
}
  0
BLOCK_RECORD
  5
93
330
1
100
AcDbSymbolTableRecord
100
AcDbBlockTableRecord
  2
AI9-BLK14
340
0
102
{BLKREFS
331
94
102
}
  0
ENDTAB
  0
ENDSEC
  0
SECTION
  2
BLOCKS
  0
BLOCK
  5
D
330
A
100
AcDbEntity
  8
0
100
AcDbBlockBegin
  2
*MODEL_SPACE
 70
     0
 10
0.0
 20
0.0
 30
0.0
  3
*MODEL_SPACE
  1

  4

  0
ENDBLK
  5
E
330
A
100
AcDbEntity
  8
0
100
AcDbBlockEnd
  0
BLOCK
  5
F
330
B
100
AcDbEntity
 67
     1
  8
0
100
AcDbBlockBegin
  2
*PAPER_SPACE
 70
     0
 10
0.0
 20
0.0
 30
0.0
  3
*PAPER_SPACE
  1

  4

  0
ENDBLK
  5
10
330
B
100
AcDbEntity
 67
     1
  8
0
100
AcDbBlockEnd
  0
BLOCK
  5
24
330
22
100
AcDbEntity
  8
LAYER_1
 62
     7
100
AcDbBlockBegin
  2
AI9-BLK1
 70
     0
 10
0.0
 20
0.0
 30
0.0
  3
AI9-BLK1
  1

  4

  0
ELLIPSE
  5
26
330
22
100
AcDbEntity
  8
LAYER_1
 62
     7
100
AcDbEllipse
 10
0.2830145941840278
 20
-0.1066257052951389
 30
0.0
 11
-0.3725009494357638
 21
-1.324122450086805
 31
0.0
210
0.0
220
0.0
230
1.0
 40
0.7209287191844929
 41
0.0
 42
6.283185307179586
  0
SPLINE
  5
25
330
22
100
AcDbEntity
  8
LAYER_1
 62
     7
100
AcDbSpline
210
0.0
220
0.0
230
1.0
 70
    11
 71
     3
 72
    29
 73
    25
 74
     0
 42
0.0000000001
 43
0.0000000001
 40
0.0
 40
0.0
 40
0.0
 40
0.0
 40
1.0
 40
1.0
 40
1.0
 40
2.0
 40
2.0
 40
2.0
 40
3.0
 40
3.0
 40
3.0
 40
4.0
 40
4.0
 40
4.0
 40
5.0
 40
5.0
 40
5.0
 40
6.0
 40
6.0
 40
6.0
 40
7.0
 40
7.0
 40
7.0
 40
8.0
 40
8.0
 40
8.0
 40
8.0
 10
0.6560323079427083
 20
1.216290961371528
 30
0.0
 10
0.5671488444010416
 20
1.241440158420139
 30
0.0
 10
0.4761983235677083
 20
1.242818196614583
 30
0.0
 10
0.3859368218315972
 20
1.234549967447917
 30
0.0
 10
0.2996371799045139
 20
1.311720106336805
 30
0.0
 10
0.2026577419704861
 20
1.373731825086805
 30
0.0
 10
0.0903476291232639
 20
1.405254448784722
 30
0.0
 10
-0.4367519802517361
 20
1.553565809461805
 30
0.0
 10
-1.031203206380208
 20
1.081243218315972
 30
0.0
 10
-1.237047661675347
 20
0.3505384657118055
 30
0.0
 10
-1.442030843098958
 20
-0.3803385416666666
 30
0.0
 10
-1.181581624348958
 20
-1.093817816840278
 30
0.0
 10
-0.6549987792968749
 20
-1.24178466796875
 30
0.0
 10
-0.5655985514322917
 20
-1.267450629340278
 30
0.0
 10
-0.475164794921875
 20
-1.268656412760417
 30
0.0
 10
-0.3845587836371527
 20
-1.260215928819444
 30
0.0
 10
-0.2986036512586806
 20
-1.337386067708333
 30
0.0
 10
-0.2016242133246528
 20
-1.399225531684028
 30
0.0
 10
-0.0894863552517361
 20
-1.430748155381944
 30
0.0
 10
0.4381300184461805
 20
-1.579059516059028
 30
0.0
 10
1.031719970703125
 20
-1.107081434461805
 30
0.0
 10
1.237564425998264
 20
-0.3753431532118055
 30
0.0
 10
1.443064371744792
 20
0.3546725802951389
 30
0.0
 10
1.183131917317708
 20
1.068324110243055
 30
0.0
 10
0.6560323079427083
 20
1.216290961371528
 30
0.0
  0
ENDBLK
  5
27
330
22
100
AcDbEntity
  8
LAYER_1
100
AcDbBlockEnd
  0
BLOCK
  5
2A
330
28
100
AcDbEntity
  8
LAYER_1
 62
     7
100
AcDbBlockBegin
  2
AI9-BLK2
 70
     0
 10
0.0
 20
0.0
 30
0.0
  3
AI9-BLK2
  1

  4

  0
ELLIPSE
  5
2C
330
28
100
AcDbEntity
  8
LAYER_1
 62
     7
100
AcDbEllipse
 10
0.2831868489583333
 20
-0.1066257052951389
 30
0.0
 11
-0.3725009494357638
 21
-1.324122450086805
 31
0.0
210
0.0
220
0.0
230
1.0
 40
0.7209287191844929
 41
0.0
 42
6.283185307179586
  0
SPLINE
  5
2B
330
28
100
AcDbEntity
  8
LAYER_1
 62
     7
100
AcDbSpline
210
0.0
220
0.0
230
1.0
 70
    11
 71
     3
 72
    29
 73
    25
 74
     0
 42
0.0000000001
 43
0.0000000001
 40
0.0
 40
0.0
 40
0.0
 40
0.0
 40
1.0
 40
1.0
 40
1.0
 40
2.0
 40
2.0
 40
2.0
 40
3.0
 40
3.0
 40
3.0
 40
4.0
 40
4.0
 40
4.0
 40
5.0
 40
5.0
 40
5.0
 40
6.0
 40
6.0
 40
6.0
 40
7.0
 40
7.0
 40
7.0
 40
8.0
 40
8.0
 40
8.0
 40
8.0
 10
0.6560323079427083
 20
1.216290961371528
 30
0.0
 10
0.5671488444010416
 20
1.241612413194444
 30
0.0
 10
0.4761983235677083
 20
1.242818196614583
 30
0.0
 10
0.3861090766059028
 20
1.234549967447917
 30
0.0
 10
0.2998094346788194
 20
1.311892361111111
 30
0.0
 10
0.2028299967447917
 20
1.373904079861111
 30
0.0
 10
0.0905198838975694
 20
1.405254448784722
 30
0.0
 10
-0.4365797254774305
 20
1.553738064236111
 30
0.0
 10
-1.031030951605903
 20
1.081415473090278
 30
0.0
 10
-1.236875406901042
 20
0.3507107204861111
 30
0.0
 10
-1.442030843098958
 20
-0.3801662868923611
 30
0.0
 10
-1.181581624348958
 20
-1.093817816840278
 30
0.0
 10
-0.6548265245225694
 20
-1.24178466796875
 30
0.0
 10
-0.5655985514322917
 20
-1.267450629340278
 30
0.0
 10
-0.4749925401475694
 20
-1.268656412760417
 30
0.0
 10
-0.3843865288628472
 20
-1.260215928819444
 30
0.0
 10
-0.298431396484375
 20
-1.337213812934028
 30
0.0
 10
-0.2014519585503472
 20
-1.399053276909722
 30
0.0
 10
-0.0893141004774305
 20
-1.430748155381944
 30
0.0
 10
0.4383022732204861
 20
-1.578887261284722
 30
0.0
 10
1.031892225477431
 20
-1.107081434461805
 30
0.0
 10
1.237736680772569
 20
-0.3753431532118055
 30
0.0
 10
1.443236626519097
 20
0.3548448350694444
 30
0.0
 10
1.183131917317708
 20
1.068324110243055
 30
0.0
 10
0.6560323079427083
 20
1.216290961371528
 30
0.0
  0
ENDBLK
  5
2D
330
28
100
AcDbEntity
  8
LAYER_1
100
AcDbBlockEnd
  0
BLOCK
  5
30
330
2E
100
AcDbEntity
  8
LAYER_1
 62
     7
100
AcDbBlockBegin
  2
AI9-BLK3
 70
     0
 10
0.0
 20
0.0
 30
0.0
  3
AI9-BLK3
  1

  4

  0
ELLIPSE
  5
32
330
2E
100
AcDbEntity
  8
LAYER_1
 62
     7
100
AcDbEllipse
 10
0.2824978298611111
 20
-0.1067979600694444
 30
0.0
 11
-0.3724148220486111
 21
-1.324122450086805
 31
0.0
210
0.0
220
0.0
230
1.0
 40
0.7210012153584495
 41
0.0
 42
6.283185307179586
  0
SPLINE
  5
31
330
2E
100
AcDbEntity
  8
LAYER_1
 62
     7
100
AcDbSpline
210
0.0
220
0.0
230
1.0
 70
    11
 71
     3
 72
    29
 73
    25
 74
     0
 42
0.0000000001
 43
0.0000000001
 40
0.0
 40
0.0
 40
0.0
 40
0.0
 40
1.0
 40
1.0
 40
1.0
 40
2.0
 40
2.0
 40
2.0
 40
3.0
 40
3.0
 40
3.0
 40
4.0
 40
4.0
 40
4.0
 40
5.0
 40
5.0
 40
5.0
 40
6.0
 40
6.0
 40
6.0
 40
7.0
 40
7.0
 40
7.0
 40
8.0
 40
8.0
 40
8.0
 40
8.0
 10
0.6554294162326388
 20
1.216118706597222
 30
0.0
 10
0.5665459526909722
 20
1.241440158420139
 30
0.0
 10
0.4755954318576389
 20
1.242645941840278
 30
0.0
 10
0.3855061848958333
 20
1.234377712673611
 30
0.0
 10
0.2990342881944444
 20
1.311720106336805
 30
0.0
 10
0.2020548502604166
 20
1.373731825086805
 30
0.0
 10
0.0899169921875
 20
1.405082194010417
 30
0.0
 10
-0.4371826171875
 20
1.553565809461805
 30
0.0
 10
-1.031806098090278
 20
1.081243218315972
 30
0.0
 10
-1.237650553385417
 20
0.3505384657118055
 30
0.0
 10
-1.442633734809028
 20
-0.3805107964409722
 30
0.0
 10
-1.182184516059028
 20
-1.093990071614583
 30
0.0
 10
-0.6556016710069443
 20
-1.241956922743055
 30
0.0
 10
-0.5662014431423611
 20
-1.267622884114583
 30
0.0
 10
-0.4757676866319444
 20
-1.268828667534722
 30
0.0
 10
-0.3851616753472222
 20
-1.26038818359375
 30
0.0
 10
-0.29920654296875
 20
-1.337558322482639
 30
0.0
 10
-0.2022271050347222
 20
-1.399225531684028
 30
0.0
 10
-0.0899169921875
 20
-1.43092041015625
 30
0.0
 10
0.4375271267361111
 20
-1.579059516059028
 30
0.0
 10
1.031117078993056
 20
-1.107253689236111
 30
0.0
 10
1.2371337890625
 20
-0.3755154079861111
 30
0.0
 10
1.442461480034722
 20
0.3546725802951389
 30
0.0
 10
1.182529025607639
 20
1.06815185546875
 30
0.0
 10
0.6554294162326388
 20
1.216118706597222
 30
0.0
  0
ENDBLK
  5
33
330
2E
100
AcDbEntity
  8
LAYER_1
100
AcDbBlockEnd
  0
BLOCK
  5
36
330
34
100
AcDbEntity
  8
LAYER_1
 62
     7
100
AcDbBlockBegin
  2
AI9-BLK4
 70
     0
 10
0.0
 20
0.0
 30
0.0
  3
AI9-BLK4
  1

  4

  0
ELLIPSE
  5
38
330
34
100
AcDbEntity
  8
LAYER_1
 62
     7
100
AcDbEllipse
 10
-0.2095479329427083
 20
-0.1603691948784722
 30
0.0
 11
0.2477023654513889
 21
-1.352458360460069
 31
0.0
210
0.0
220
0.0
230
1.0
 40
0.8067345294508065
 41
0.0
 42
6.283185307179586
  0
SPLINE
  5
37
330
34
100
AcDbEntity
  8
LAYER_1
 62
     7
100
AcDbSpline
210
0.0
220
0.0
230
1.0
 70
    11
 71
     3
 72
    23
 73
    19
 74
     0
 42
0.0000000001
 43
0.0000000001
 40
0.0
 40
0.0
 40
0.0
 40
0.0
 40
1.0
 40
1.0
 40
1.0
 40
2.0
 40
2.0
 40
2.0
 40
3.0
 40
3.0
 40
3.0
 40
4.0
 40
4.0
 40
4.0
 40
5.0
 40
5.0
 40
5.0
 40
6.0
 40
6.0
 40
6.0
 40
6.0
 10
1.287173800998264
 20
0.3607876247829861
 30
0.0
 10
1.14971449110243
 20
1.107339816623264
 30
0.0
 10
0.5502678765190971
 20
1.624104139539931
 30
0.0
 10
-0.0521070692274306
 20
1.512827555338542
 30
0.0
 10
-0.2915412055121527
 20
1.468902587890625
 30
0.0
 10
-0.4939405653211805
 20
1.329376220703125
 30
0.0
 10
-0.6439744737413193
 20
1.133005777994792
 30
0.0
 10
-1.133694797092014
 20
0.9268168131510416
 30
0.0
 10
-1.422566053602431
 20
0.3049770779079861
 30
0.0
 10
-1.300609673394097
 20
-0.3602708604600694
 30
0.0
 10
-1.163322618272569
 20
-1.107339816623264
 30
0.0
 10
-0.5633592393663194
 20
-1.623070610894097
 30
0.0
 10
0.0381544325086806
 20
-1.512827555338542
 30
0.0
 10
0.2786220974392361
 20
-1.469074842664931
 30
0.0
 10
0.4808492024739583
 20
-1.329031711154514
 30
0.0
 10
0.6308831108940972
 20
-1.132489013671875
 30
0.0
 10
1.121292453342014
 20
-0.9263000488281249
 30
0.0
 10
1.408957926432292
 20
-0.304632568359375
 30
0.0
 10
1.287173800998264
 20
0.3607876247829861
 30
0.0
  0
ENDBLK
  5
39
330
34
100
AcDbEntity
  8
LAYER_1
100
AcDbBlockEnd
  0
BLOCK
  5
3C
330
3A
100
AcDbEntity
  8
LAYER_1
 62
     7
100
AcDbBlockBegin
  2
AI9-BLK5
 70
     0
 10
0.0
 20
0.0
 30
0.0
  3
AI9-BLK5
  1

  4

  0
ELLIPSE
  5
3E
330
3A
100
AcDbEntity
  8
LAYER_1
 62
     7
100
AcDbEllipse
 10
-0.2025716145833333
 20
-0.1549431694878472
 30
0.0
 11
0.2476162380642361
 21
-1.352544487847222
 31
0.0
210
0.0
220
0.0
230
1.0
 40
0.8066210278536381
 41
0.0
 42
6.283185307179586
  0
SPLINE
  5
3D
330
3A
100
AcDbEntity
  8
LAYER_1
 62
     7
100
AcDbSpline
210
0.0
220
0.0
230
1.0
 70
    11
 71
     3
 72
    23
 73
    19
 74
     0
 42
0.0000000001
 43
0.0000000001
 40
0.0
 40
0.0
 40
0.0
 40
0.0
 40
1.0
 40
1.0
 40
1.0
 40
2.0
 40
2.0
 40
2.0
 40
3.0
 40
3.0
 40
3.0
 40
4.0
 40
4.0
 40
4.0
 40
5.0
 40
5.0
 40
5.0
 40
6.0
 40
6.0
 40
6.0
 40
6.0
 10
1.294063991970486
 20
0.3661275227864583
 30
0.0
 10
1.156604682074653
 20
1.112851969401042
 30
0.0
 10
0.5571580674913194
 20
1.629616292317708
 30
0.0
 10
-0.0450446234809028
 20
1.518339708116319
 30
0.0
 10
-0.2846510145399305
 20
1.474242485894097
 30
0.0
 10
-0.4870503743489583
 20
1.334716118706597
 30
0.0
 10
-0.6370842827690971
 20
1.138345675998264
 30
0.0
 10
-1.126804606119792
 20
0.9323289659288193
 30
0.0
 10
-1.415503607855903
 20
0.3103169759114583
 30
0.0
 10
-1.293547227647569
 20
-0.3547587076822916
 30
0.0
 10
-1.156432427300347
 20
-1.101827663845486
 30
0.0
 10
-0.5564690483940972
 20
-1.617558458116319
 30
0.0
 10
0.0450446234809028
 20
-1.507487657335069
 30
0.0
 10
0.2856845431857639
 20
-1.463562689887153
 30
0.0
 10
0.4877393934461805
 20
-1.323691813151042
 30
0.0
 10
0.6377733018663194
 20
-1.127149115668403
 30
0.0
 10
1.128182644314236
 20
-0.9207878960503472
 30
0.0
 10
1.415848117404514
 20
-0.2992926703559027
 30
0.0
 10
1.294063991970486
 20
0.3661275227864583
 30
0.0
  0
ENDBLK
  5
3F
330
3A
100
AcDbEntity
  8
LAYER_1
100
AcDbBlockEnd
  0
BLOCK
  5
42
330
40
100
AcDbEntity
  8
LAYER_1
 62
     7
100
AcDbBlockBegin
  2
AI9-BLK6
 70
     0
 10
0.0
 20
0.0
 30
0.0
  3
AI9-BLK6
  1

  4

  0
ELLIPSE
  5
44
330
40
100
AcDbEntity
  8
LAYER_1
 62
     7
100
AcDbEllipse
 10
-0.1967149522569444
 20
-0.1605414496527778
 30
0.0
 11
0.2477023654513889
 21
-1.352458360460069
 31
0.0
210
0.0
220
0.0
230
1.0
 40
0.8067345294508065
 41
0.0
 42
6.283185307179586
  0
SPLINE
  5
43
330
40
100
AcDbEntity
  8
LAYER_1
 62
     7
100
AcDbSpline
210
0.0
220
0.0
230
1.0
 70
    11
 71
     3
 72
    23
 73
    19
 74
     0
 42
0.0000000001
 43
0.0000000001
 40
0.0
 40
0.0
 40
0.0
 40
0.0
 40
1.0
 40
1.0
 40
1.0
 40
2.0
 40
2.0
 40
2.0
 40
3.0
 40
3.0
 40
3.0
 40
4.0
 40
4.0
 40
4.0
 40
5.0
 40
5.0
 40
5.0
 40
6.0
 40
6.0
 40
6.0
 40
6.0
 10
1.300006781684028
 20
0.3604431152343749
 30
0.0
 10
1.162547471788194
 20
1.107167561848958
 30
0.0
 10
0.563100857204861
 20
1.623931884765625
 30
0.0
 10
-0.0392740885416667
 20
1.512655300564236
 30
0.0
 10
-0.2787082248263889
 20
1.468730333116319
 30
0.0
 10
-0.4811075846354166
 20
1.329203965928819
 30
0.0
 10
-0.6311414930555555
 20
1.132833523220486
 30
0.0
 10
-1.12086181640625
 20
0.926644558376736
 30
0.0
 10
-1.409733072916667
 20
0.304632568359375
 30
0.0
 10
-1.287776692708333
 20
-0.3604431152343749
 30
0.0
 10
-1.150489637586805
 20
-1.107512071397569
 30
0.0
 10
-0.5505262586805555
 20
-1.623242865668403
 30
0.0
 10
0.0509874131944444
 20
-1.512999810112847
 30
0.0
 10
0.291455078125
 20
-1.469247097439236
 30
0.0
 10
0.4936821831597222
 20
-1.329376220703125
 30
0.0
 10
0.6437160915798611
 20
-1.132661268446181
 30
0.0
 10
1.134125434027778
 20
-0.9264723036024305
 30
0.0
 10
1.421790907118055
 20
-0.3048048231336805
 30
0.0
 10
1.300006781684028
 20
0.3604431152343749
 30
0.0
  0
ENDBLK
  5
45
330
40
100
AcDbEntity
  8
LAYER_1
100
AcDbBlockEnd
  0
BLOCK
  5
48
330
46
100
AcDbEntity
  8
LAYER_1
 62
     7
100
AcDbBlockBegin
  2
AI9-BLK7
 70
     0
 10
0.0
 20
0.0
 30
0.0
  3
AI9-BLK7
  1

  4

  0
ELLIPSE
  5
4A
330
46
100
AcDbEntity
  8
LAYER_1
 62
     7
100
AcDbEllipse
 10
-0.2024854871961805
 20
-0.1605414496527778
 30
0.0
 11
0.2476162380642361
 21
-1.352458360460069
 31
0.0
210
0.0
220
0.0
230
1.0
 40
0.8066820167156502
 41
0.0
 42
6.283185307179586
  0
SPLINE
  5
49
330
46
100
AcDbEntity
  8
LAYER_1
 62
     7
100
AcDbSpline
210
0.0
220
0.0
230
1.0
 70
    11
 71
     3
 72
    23
 73
    19
 74
     0
 42
0.0000000001
 43
0.0000000001
 40
0.0
 40
0.0
 40
0.0
 40
0.0
 40
1.0
 40
1.0
 40
1.0
 40
2.0
 40
2.0
 40
2.0
 40
3.0
 40
3.0
 40
3.0
 40
4.0
 40
4.0
 40
4.0
 40
5.0
 40
5.0
 40
5.0
 40
6.0
 40
6.0
 40
6.0
 40
6.0
 10
1.294322374131944
 20
0.3606153700086806
 30
0.0
 10
1.156863064236111
 20
1.107167561848958
 30
0.0
 10
0.5574164496527777
 20
1.623931884765625
 30
0.0
 10
-0.04495849609375
 20
1.512827555338542
 30
0.0
 10
-0.2845648871527778
 20
1.468730333116319
 30
0.0
 10
-0.4867919921875
 20
1.329203965928819
 30
0.0
 10
-0.6369981553819444
 20
1.132833523220486
 30
0.0
 10
-1.126546223958333
 20
0.9268168131510416
 30
0.0
 10
-1.41541748046875
 20
0.3048048231336805
 30
0.0
 10
-1.293461100260417
 20
-0.3604431152343749
 30
0.0
 10
-1.156174045138889
 20
-1.107512071397569
 30
0.0
 10
-0.5563829210069444
 20
-1.623242865668403
 30
0.0
 10
0.0451307508680555
 20
-1.512999810112847
 30
0.0
 10
0.2857706705729167
 20
-1.469247097439236
 30
0.0
 10
0.4879977756076389
 20
-1.329203965928819
 30
0.0
 10
0.6380316840277778
 20
-1.132661268446181
 30
0.0
 10
1.128268771701389
 20
-0.9263000488281249
 30
0.0
 10
1.416106499565972
 20
-0.3048048231336805
 30
0.0
 10
1.294322374131944
 20
0.3606153700086806
 30
0.0
  0
ENDBLK
  5
4B
330
46
100
AcDbEntity
  8
LAYER_1
100
AcDbBlockEnd
  0
BLOCK
  5
4E
330
4C
100
AcDbEntity
  8
LAYER_1
 62
     7
100
AcDbBlockBegin
  2
AI9-BLK8
 70
     0
 10
0.0
 20
0.0
 30
0.0
  3
AI9-BLK8
  1

  4

  0
ELLIPSE
  5
50
330
4C
100
AcDbEntity
  8
LAYER_1
 62
     7
100
AcDbEllipse
 10
-0.2025716145833333
 20
-0.160455322265625
 30
0.0
 11
0.2475301106770834
 21
-1.352458360460069
 31
0.0
210
0.0
220
0.0
230
1.0
 40
0.8066294998909848
 41
0.0
 42
6.283185307179586
  0
SPLINE
  5
4F
330
4C
100
AcDbEntity
  8
LAYER_1
 62
     7
100
AcDbSpline
210
0.0
220
0.0
230
1.0
 70
    11
 71
     3
 72
    23
 73
    19
 74
     0
 42
0.0000000001
 43
0.0000000001
 40
0.0
 40
0.0
 40
0.0
 40
0.0
 40
1.0
 40
1.0
 40
1.0
 40
2.0
 40
2.0
 40
2.0
 40
3.0
 40
3.0
 40
3.0
 40
4.0
 40
4.0
 40
4.0
 40
5.0
 40
5.0
 40
5.0
 40
6.0
 40
6.0
 40
6.0
 40
6.0
 10
1.294150119357639
 20
0.3607014973958333
 30
0.0
 10
1.157035319010417
 20
1.107253689236111
 30
0.0
 10
0.5570719401041666
 20
1.624018012152778
 30
0.0
 10
-0.0447862413194444
 20
1.512913682725694
 30
0.0
 10
-0.2845648871527778
 20
1.468816460503472
 30
0.0
 10
-0.4871365017361111
 20
1.329290093315972
 30
0.0
 10
-0.63717041015625
 20
1.132919650607639
 30
0.0
 10
-1.126718478732639
 20
0.9269029405381943
 30
0.0
 10
-1.415245225694444
 20
0.3048909505208333
 30
0.0
 10
-1.293461100260417
 20
-0.3603569878472222
 30
0.0
 10
-1.156001790364583
 20
-1.107425944010417
 30
0.0
 10
-0.5565551757812499
 20
-1.62315673828125
 30
0.0
 10
0.04495849609375
 20
-1.512913682725694
 30
0.0
 10
0.2854261610243055
 20
-1.469160970052083
 30
0.0
 10
0.4876532660590278
 20
-1.329117838541667
 30
0.0
 10
0.6376871744791666
 20
-1.132575141059028
 30
0.0
 10
1.128441026475694
 20
-0.9262139214409721
 30
0.0
 10
1.416106499565972
 20
-0.3047186957465278
 30
0.0
 10
1.294150119357639
 20
0.3607014973958333
 30
0.0
  0
ENDBLK
  5
51
330
4C
100
AcDbEntity
  8
LAYER_1
100
AcDbBlockEnd
  0
BLOCK
  5
54
330
52
100
AcDbEntity
  8
LAYER_1
 62
     7
100
AcDbBlockBegin
  2
AI9-BLK9
 70
     0
 10
0.0
 20
0.0
 30
0.0
  3
AI9-BLK9
  1

  4

  0
ELLIPSE
  5
56
330
52
100
AcDbEntity
  8
LAYER_1
 62
     7
100
AcDbEllipse
 10
0.2820671929253472
 20
-0.0936204698350694
 30
0.0
 11
-0.3724148220486111
 21
-1.324036322699653
 31
0.0
210
0.0
220
0.0
230
1.0
 40
0.7210277129031723
 41
0.0
 42
6.283185307179586
  0
SPLINE
  5
55
330
52
100
AcDbEntity
  8
LAYER_1
 62
     7
100
AcDbSpline
210
0.0
220
0.0
230
1.0
 70
    11
 71
     3
 72
    29
 73
    25
 74
     0
 42
0.0000000001
 43
0.0000000001
 40
0.0
 40
0.0
 40
0.0
 40
0.0
 40
1.0
 40
1.0
 40
1.0
 40
2.0
 40
2.0
 40
2.0
 40
3.0
 40
3.0
 40
3.0
 40
4.0
 40
4.0
 40
4.0
 40
5.0
 40
5.0
 40
5.0
 40
6.0
 40
6.0
 40
6.0
 40
7.0
 40
7.0
 40
7.0
 40
8.0
 40
8.0
 40
8.0
 40
8.0
 10
0.6549987792968749
 20
1.229210069444444
 30
0.0
 10
0.5659430609809028
 20
1.254876030815972
 30
0.0
 10
0.475164794921875
 20
1.256081814236111
 30
0.0
 10
0.3847310384114583
 20
1.247641330295139
 30
0.0
 10
0.2986036512586806
 20
1.324639214409722
 30
0.0
 10
0.2014519585503472
 20
1.386650933159722
 30
0.0
 10
0.0894863552517361
 20
1.41851806640625
 30
0.0
 10
-0.4376132541232639
 20
1.566484917534722
 30
0.0
 10
-1.032236735026042
 20
1.0945068359375
 30
0.0
 10
-1.23808119032118
 20
0.3634575737847222
 30
0.0
 10
-1.443236626519097
 20
-0.3672471788194444
 30
0.0
 10
-1.182787407769097
 20
-1.08055419921875
 30
0.0
 10
-0.6560323079427083
 20
-1.228865559895833
 30
0.0
 10
-0.5666320800781249
 20
-1.25418701171875
 30
0.0
 10
-0.4761983235677083
 20
-1.255392795138889
 30
0.0
 10
-0.3855923122829861
 20
-1.247124565972222
 30
0.0
 10
-0.2998094346788194
 20
-1.324466959635417
 30
0.0
 10
-0.2028299967447917
 20
-1.3859619140625
 30
0.0
 10
-0.0903476291232639
 20
-1.417656792534722
 30
0.0
 10
0.4369242350260416
 20
-1.5657958984375
 30
0.0
 10
1.030686442057292
 20
-1.093990071614583
 30
0.0
 10
1.236703152126736
 20
-0.3622517903645833
 30
0.0
 10
1.442030843098958
 20
0.3681084526909722
 30
0.0
 10
1.182098388671875
 20
1.081415473090278
 30
0.0
 10
0.6549987792968749
 20
1.229210069444444
 30
0.0
  0
ENDBLK
  5
57
330
52
100
AcDbEntity
  8
LAYER_1
100
AcDbBlockEnd
  0
BLOCK
  5
60
330
5E
100
AcDbEntity
  8
LAYER_1
 62
     7
100
AcDbBlockBegin
  2
AI9-BLK10
 70
     0
 10
0.0
 20
0.0
 30
0.0
  3
AI9-BLK10
  1

  4

  0
ELLIPSE
  5
63
330
5E
100
AcDbEntity
  8
LAYER_1
 62
     7
100
AcDbEllipse
 10
-0.0002583821614583
 20
-0.0029283311631944
 30
0.0
 11
0.0
 21
-1.507746039496528
 31
0.0
210
0.0
220
0.0
230
1.0
 40
0.638980920827145
 41
0.0
 42
6.283185307179586
  0
SPLINE
  5
62
330
5E
100
AcDbEntity
  8
LAYER_1
 62
     7
100
AcDbSpline
210
0.0
220
0.0
230
1.0
 70
     8
 71
     3
 72
    11
 73
     7
 74
     0
 42
0.0000000001
 43
0.0000000001
 40
0.0
 40
0.0
 40
0.0
 40
0.0
 40
1.0
 40
1.0
 40
1.0
 40
2.0
 40
2.0
 40
2.0
 40
2.0
 10
-0.7104648166232638
 20
-0.873159450954861
 30
0.0
 10
-0.2855122884114583
 20
-0.7162353515625
 30
0.0
 10
0.0307474772135417
 20
-0.1186835394965278
 30
0.0
 10
0.0307474772135417
 20
0.5944512261284721
 30
0.0
 10
0.0307474772135417
 20
0.9387885199652777
 30
0.0
 10
-0.0428053114149306
 20
1.2557373046875
 30
0.0
 10
-0.166656494140625
 20
1.509296332465278
 30
0.0
  0
SPLINE
  5
61
330
5E
100
AcDbEntity
  8
LAYER_1
 62
     7
100
AcDbSpline
210
0.0
220
0.0
230
1.0
 70
    11
 71
     3
 72
    20
 73
    16
 74
     0
 42
0.0000000001
 43
0.0000000001
 40
0.0
 40
0.0
 40
0.0
 40
0.0
 40
1.0
 40
1.0
 40
1.0
 40
2.0
 40
2.0
 40
2.0
 40
3.0
 40
3.0
 40
3.0
 40
4.0
 40
4.0
 40
4.0
 40
5.0
 40
5.0
 40
5.0
 40
5.0
 10
-0.1430575900607639
 20
1.483802625868055
 30
0.0
 10
-0.0190341525607639
 20
1.230243598090278
 30
0.0
 10
0.022479248046875
 20
0.9077826605902777
 30
0.0
 10
0.022479248046875
 20
0.5637898763020833
 30
0.0
 10
0.022479248046875
 20
-0.1495171440972222
 30
0.0
 10
-0.2781053331163194
 20
-0.7193359374999999
 30
0.0
 10
-0.703057861328125
 20
-0.8760877821180555
 30
0.0
 10
-0.703057861328125
 20
-0.8760877821180555
 30
0.0
 10
-0.703057861328125
 20
-0.8760877821180555
 30
0.0
 10
-0.703057861328125
 20
-0.8760877821180555
 30
0.0
 10
-0.8480963812934027
 20
-0.6121934678819444
 30
0.0
 10
-0.9194098578559027
 20
-0.3741373697916666
 30
0.0
 10
-0.9194098578559027
 20
0.0012057834201389
 30
0.0
 10
-0.9194098578559027
 20
0.7515475802951388
 30
0.0
 10
-0.6014275444878472
 20
1.368391927083333
 30
0.0
 10
-0.1430575900607639
 20
1.483802625868055
 30
0.0
  0
ENDBLK
  5
64
330
5E
100
AcDbEntity
  8
LAYER_1
100
AcDbBlockEnd
  0
BLOCK
  5
67
330
65
100
AcDbEntity
  8
LAYER_1
 62
     7
100
AcDbBlockBegin
  2
AI9-BLK11
 70
     0
 10
0.0
 20
0.0
 30
0.0
  3
AI9-BLK11
  1

  4

  0
LINE
  5
6A
330
65
100
AcDbEntity
  8
LAYER_1
 62
     7
100
AcDbLine
 10
-0.0375515407986111
 20
9.506051974826388
 30
0.0
 11
-0.0375515407986111
 21
9.154307725694444
 31
0.0
  0
LINE
  5
69
330
65
100
AcDbEntity
  8
LAYER_1
 62
     7
100
AcDbLine
 10
-0.04185791015625
 20
8.090634494357639
 30
0.0
 11
-0.04185791015625
 21
-8.188302951388888
 31
0.0
  0
LINE
  5
68
330
65
100
AcDbEntity
  8
LAYER_1
 62
     7
100
AcDbLine
 10
0.04185791015625
 20
-9.06146240234375
 30
0.0
 11
0.04185791015625
 21
-9.506051974826388
 31
0.0
  0
ENDBLK
  5
6B
330
65
100
AcDbEntity
  8
LAYER_1
100
AcDbBlockEnd
  0
BLOCK
  5
77
330
75
100
AcDbEntity
  8
LAYER_1
 62
     7
100
AcDbBlockBegin
  2
AI9-BLK12
 70
     0
 10
0.0
 20
0.0
 30
0.0
  3
AI9-BLK12
  1

  4

  0
INSERT
  5
7C
330
75
100
AcDbEntity
  8
LAYER_1
 62
     7
100
AcDbBlockReference
  2
AI9-BLK13
 10
0.0
 20
-2.535245768229166
 30
0.0
  0
SPLINE
  5
7A
330
75
100
AcDbEntity
  8
LAYER_1
 62
     7
100
AcDbSpline
210
0.0
220
0.0
230
1.0
 70
     8
 71
     3
 72
    17
 73
    13
 74
     0
 42
0.0000000001
 43
0.0000000001
 40
0.0
 40
0.0
 40
0.0
 40
0.0
 40
1.0
 40
1.0
 40
1.0
 40
2.0
 40
2.0
 40
2.0
 40
3.0
 40
3.0
 40
3.0
 40
4.0
 40
4.0
 40
4.0
 40
4.0
 10
-12.7822516547309
 20
11.99031032986111
 30
0.0
 10
-12.46478610568576
 20
11.83149142795139
 30
0.0
 10
-11.9885016547309
 20
11.67267252604167
 30
0.0
 10
-11.67103610568576
 20
11.51402587890625
 30
0.0
 10
-11.35357055664063
 20
11.19656032986111
 30
0.0
 10
-11.1947516547309
 20
10.87892252604167
 30
0.0
 10
-10.87728610568576
 20
10.56145697699653
 30
0.0
 10
-8.813501654730903
 20
9.291422526041666
 30
0.0
 10
-7.067355007595485
 20
7.862741427951388
 30
0.0
 10
-4.844751654730902
 20
6.751525878906249
 30
0.0
 10
-4.209820556640625
 20
6.434060329861111
 30
0.0
 10
-2.384092203776041
 20
6.672116427951388
 30
0.0
 10
-1.749161105685764
 20
6.672116427951388
 30
0.0
  0
SPLINE
  5
79
330
75
100
AcDbEntity
  8
LAYER_1
 62
     7
100
AcDbSpline
210
0.0
220
0.0
230
1.0
 70
     8
 71
     3
 72
    14
 73
    10
 74
     0
 42
0.0000000001
 43
0.0000000001
 40
0.0
 40
0.0
 40
0.0
 40
0.0
 40
1.0
 40
1.0
 40
1.0
 40
2.0
 40
2.0
 40
2.0
 40
3.0
 40
3.0
 40
3.0
 40
3.0
 10
-12.7822516547309
 20
13.89527587890625
 30
0.0
 10
-11.1947516547309
 20
13.10152587890625
 30
0.0
 10
-10.24235500759549
 20
11.51402587890625
 30
0.0
 10
-8.654855007595485
 20
10.72027587890625
 30
0.0
 10
-7.543467203776041
 20
10.08517252604167
 30
0.0
 10
-6.432251654730902
 20
9.291422526041666
 30
0.0
 10
-5.321036105685764
 20
8.815310329861111
 30
0.0
 10
-3.892355007595486
 20
8.339025878906249
 30
0.0
 10
-1.828570556640625
 20
8.259616427951388
 30
0.0
 10
-0.241070556640625
 20
8.259616427951388
 30
0.0
  0
SPLINE
  5
78
330
75
100
AcDbEntity
  8
LAYER_1
 62
     7
100
AcDbSpline
210
0.0
220
0.0
230
1.0
 70
     8
 71
     3
 72
    20
 73
    16
 74
     0
 42
0.0000000001
 43
0.0000000001
 40
0.0
 40
0.0
 40
0.0
 40
0.0
 40
1.0
 40
1.0
 40
1.0
 40
2.0
 40
2.0
 40
2.0
 40
3.0
 40
3.0
 40
3.0
 40
4.0
 40
4.0
 40
4.0
 40
5.0
 40
5.0
 40
5.0
 40
5.0
 10
-2.146036105685764
 20
2.623956976996527
 30
0.0
 10
-0.3997172037760416
 20
2.78277587890625
 30
0.0
 10
1.187782796223958
 20
2.306491427951389
 30
0.0
 10
2.933929443359375
 20
3.100241427951389
 30
0.0
 10
3.886498345269097
 20
3.57652587890625
 30
0.0
 10
4.838894992404513
 20
2.465310329861111
 30
0.0
 10
5.791463894314235
 20
2.306491427951389
 30
0.0
 10
6.108929443359375
 20
2.147672526041666
 30
0.0
 10
7.628905571831597
 20
1.584916178385416
 30
0.0
 10
8.013894992404513
 20
1.353922526041667
 30
0.0
 10
9.491324191623264
 20
0.4674994574652777
 30
0.0
 10
10.19808553059896
 20
0.5255493164062499
 30
0.0
 10
10.71278279622396
 20
-0.0747585720486111
 30
0.0
 10
11.0302483452691
 20
-0.2335774739583333
 30
0.0
 10
11.8239983452691
 20
-0.5510430230034722
 30
0.0
 10
12.37951999240451
 20
-0.7096896701388888
 30
0.0
  0
ENDBLK
  5
88
330
75
100
AcDbEntity
  8
LAYER_1
100
AcDbBlockEnd
  0
BLOCK
  5
7D
330
7B
100
AcDbEntity
  8
LAYER_1
 62
     7
100
AcDbBlockBegin
  2
AI9-BLK13
 70
     0
 10
0.0
 20
0.0
 30
0.0
  3
AI9-BLK13
  1

  4

  0
SPLINE
  5
86
330
7B
100
AcDbEntity
  8
LAYER_1
 62
     7
100
AcDbSpline
210
0.0
220
0.0
230
1.0
 70
     8
 71
     3
 72
    14
 73
    10
 74
     0
 42
0.0000000001
 43
0.0000000001
 40
0.0
 40
0.0
 40
0.0
 40
0.0
 40
1.0
 40
1.0
 40
1.0
 40
2.0
 40
2.0
 40
2.0
 40
3.0
 40
3.0
 40
3.0
 40
3.0
 10
-12.46478610568576
 20
11.35055609809028
 30
0.0
 10
-11.35357055664063
 20
11.03291829427083
 30
0.0
 10
-9.948316107855902
 20
10.42158610026042
 30
0.0
 10
-9.130967203776041
 20
9.604237196180554
 30
0.0
 10
-8.019751654730902
 20
8.493021647135416
 30
0.0
 10
-5.255234781901041
 20
6.849711100260416
 30
0.0
 10
-4.209820556640625
 20
6.111771647135416
 30
0.0
 10
-2.860376654730902
 20
5.159202745225694
 30
0.0
 10
-2.463501654730903
 20
6.032362196180555
 30
0.0
 10
-2.463501654730903
 20
6.032362196180555
 30
0.0
  0
SPLINE
  5
85
330
7B
100
AcDbEntity
  8
LAYER_1
 62
     7
100
AcDbSpline
210
0.0
220
0.0
230
1.0
 70
     8
 71
     3
 72
    14
 73
    10
 74
     0
 42
0.0000000001
 43
0.0000000001
 40
0.0
 40
0.0
 40
0.0
 40
0.0
 40
1.0
 40
1.0
 40
1.0
 40
2.0
 40
2.0
 40
2.0
 40
3.0
 40
3.0
 40
3.0
 40
3.0
 10
-12.86166110568576
 20
9.524827745225693
 30
0.0
 10
-12.54419555664062
 20
9.524827745225693
 30
0.0
 10
-11.51221720377604
 20
8.651668294270833
 30
0.0
 10
-11.35357055664063
 20
8.493021647135416
 30
0.0
 10
-11.1947516547309
 20
8.175556098090278
 30
0.0
 10
-10.08353610568576
 20
7.381806098090277
 30
0.0
 10
-9.766070556640624
 20
7.222987196180555
 30
0.0
 10
-8.496036105685763
 20
6.746702745225694
 30
0.0
 10
-3.574717203776042
 20
1.984202745225694
 30
0.0
 10
-2.622320556640625
 20
2.777952745225694
 30
0.0
  0
SPLINE
  5
84
330
7B
100
AcDbEntity
  8
LAYER_1
 62
     7
100
AcDbSpline
210
0.0
220
0.0
230
1.0
 70
     8
 71
     3
 72
    14
 73
    10
 74
     0
 42
0.0000000001
 43
0.0000000001
 40
0.0
 40
0.0
 40
0.0
 40
0.0
 40
1.0
 40
1.0
 40
1.0
 40
2.0
 40
2.0
 40
2.0
 40
3.0
 40
3.0
 40
3.0
 40
3.0
 10
-12.7822516547309
 20
6.270418294270833
 30
0.0
 10
-12.46478610568576
 20
6.270418294270833
 30
0.0
 10
-11.67103610568576
 20
5.318021647135416
 30
0.0
 10
-11.51221720377604
 20
5.318021647135416
 30
0.0
 10
-11.03610500759548
 20
4.206806098090278
 30
0.0
 10
-7.226001654730903
 20
1.666737196180556
 30
0.0
 10
-6.273605007595486
 20
1.349271647135417
 30
0.0
 10
-6.34939710828993
 20
1.372181532118056
 30
0.0
 10
-3.812945556640625
 20
-1.111387803819444
 30
0.0
 10
-2.304855007595486
 20
-0.0001722547743056
 30
0.0
  0
SPLINE
  5
83
330
7B
100
AcDbEntity
  8
LAYER_1
 62
     7
100
AcDbSpline
210
0.0
220
0.0
230
1.0
 70
     8
 71
     3
 72
     8
 73
     4
 74
     0
 42
0.0000000001
 43
0.0000000001
 40
0.0
 40
0.0
 40
0.0
 40
0.0
 40
1.0
 40
1.0
 40
1.0
 40
1.0
 10
-12.62360500759549
 20
1.984202745225694
 30
0.0
 10
-10.08353610568576
 20
0.7141682942708333
 30
0.0
 10
-4.130411105685764
 20
-3.889512803819444
 30
0.0
 10
-2.542911105685764
 20
-2.619478352864583
 30
0.0
  0
SPLINE
  5
82
330
7B
100
AcDbEntity
  8
LAYER_1
 62
     7
100
AcDbSpline
210
0.0
220
0.0
230
1.0
 70
     8
 71
     3
 72
    14
 73
    10
 74
     0
 42
0.0000000001
 43
0.0000000001
 40
0.0
 40
0.0
 40
0.0
 40
0.0
 40
1.0
 40
1.0
 40
1.0
 40
2.0
 40
2.0
 40
2.0
 40
3.0
 40
3.0
 40
3.0
 40
3.0
 10
-2.146036105685764
 20
2.460487196180555
 30
0.0
 10
-0.241070556640625
 20
2.301668294270833
 30
0.0
 10
2.457644992404514
 20
3.730521647135416
 30
0.0
 10
4.045144992404514
 20
3.095418294270833
 30
0.0
 10
5.746849907769096
 20
2.366263834635416
 30
0.0
 10
5.553407796223958
 20
1.190452745225694
 30
0.0
 10
8.490179443359374
 20
0.0792371961805556
 30
0.0
 10
8.822458902994791
 20
-0.0461642795138889
 30
0.0
 10
12.06205444335937
 20
-1.984547254774305
 30
0.0
 10
12.37951999240451
 20
-1.825728352864583
 30
0.0
  0
SPLINE
  5
81
330
7B
100
AcDbEntity
  8
LAYER_1
 62
     7
100
AcDbSpline
210
0.0
220
0.0
230
1.0
 70
     8
 71
     3
 72
    20
 73
    16
 74
     0
 42
0.0000000001
 43
0.0000000001
 40
0.0
 40
0.0
 40
0.0
 40
0.0
 40
1.0
 40
1.0
 40
1.0
 40
2.0
 40
2.0
 40
2.0
 40
3.0
 40
3.0
 40
3.0
 40
4.0
 40
4.0
 40
4.0
 40
5.0
 40
5.0
 40
5.0
 40
5.0
 10
-2.304855007595486
 20
-0.7145128038194444
 30
0.0
 10
-1.828570556640625
 20
-0.7145128038194444
 30
0.0
 10
0.4732699924045138
 20
-0.8733317057291666
 30
0.0
 10
0.9495544433593749
 20
-0.7145128038194444
 30
0.0
 10
1.743304443359375
 20
-0.2382283528645833
 30
0.0
 10
2.537054443359375
 20
-0.3970472547743055
 30
0.0
 10
3.330804443359375
 20
-0.0795817057291667
 30
0.0
 10
3.965907796223958
 20
0.0792371961805556
 30
0.0
 10
4.918304443359374
 20
0.0792371961805556
 30
0.0
 10
5.553407796223958
 20
-0.2382283528645833
 30
0.0
 10
6.480482991536458
 20
-0.7680840386284722
 30
0.0
 10
6.958317735460069
 20
-1.67586669921875
 30
0.0
 10
8.331532796223957
 20
-2.460831705729166
 30
0.0
 10
9.601394992404513
 20
-3.413228352864583
 30
0.0
 10
11.0302483452691
 20
-4.048331705729166
 30
0.0
 10
12.30028279622396
 20
-4.683262803819444
 30
0.0
  0
SPLINE
  5
80
330
7B
100
AcDbEntity
  8
LAYER_1
 62
     7
100
AcDbSpline
210
0.0
220
0.0
230
1.0
 70
     8
 71
     3
 72
    14
 73
    10
 74
     0
 42
0.0000000001
 43
0.0000000001
 40
0.0
 40
0.0
 40
0.0
 40
0.0
 40
1.0
 40
1.0
 40
1.0
 40
2.0
 40
2.0
 40
2.0
 40
3.0
 40
3.0
 40
3.0
 40
3.0
 10
-2.384092203776041
 20
-3.175172254774305
 30
0.0
 10
-0.4791266547309027
 20
-3.016353352864583
 30
0.0
 10
3.172157796223958
 20
-1.984547254774305
 30
0.0
 10
4.918304443359374
 20
-2.619478352864583
 30
0.0
 10
5.712054443359374
 20
-2.936943901909722
 30
0.0
 10
6.505804443359375
 20
-3.572047254774305
 30
0.0
 10
7.299554443359375
 20
-4.048331705729166
 30
0.0
 10
8.887054443359375
 20
-4.842081705729166
 30
0.0
 10
11.26830444335938
 20
-6.747047254774305
 30
0.0
 10
12.69715779622396
 20
-7.699443901909722
 30
0.0
  0
SPLINE
  5
7F
330
7B
100
AcDbEntity
  8
LAYER_1
 62
     7
100
AcDbSpline
210
0.0
220
0.0
230
1.0
 70
     8
 71
     3
 72
    17
 73
    13
 74
     0
 42
0.0000000001
 43
0.0000000001
 40
0.0
 40
0.0
 40
0.0
 40
0.0
 40
1.0
 40
1.0
 40
1.0
 40
2.0
 40
2.0
 40
2.0
 40
3.0
 40
3.0
 40
3.0
 40
4.0
 40
4.0
 40
4.0
 40
4.0
 10
-2.542911105685764
 20
-5.397603352864583
 30
0.0
 10
-1.305777316623264
 20
-5.060328504774305
 30
0.0
 10
-0.4791266547309027
 20
-5.635831705729166
 30
0.0
 10
0.8701449924045138
 20
-5.080137803819444
 30
0.0
 10
1.928822835286458
 20
-4.644160970052083
 30
0.0
 10
4.002770317925346
 20
-4.605059136284722
 30
0.0
 10
5.077123345269097
 20
-5.159547254774305
 30
0.0
 10
7.537782796223958
 20
-6.429581705729166
 30
0.0
 10
8.771471489800346
 20
-8.161431206597221
 30
0.0
 10
11.10965779622396
 20
-8.334547254774305
 30
0.0
 10
11.26813218858507
 20
-8.346260579427083
 30
0.0
 10
12.53833889431424
 20
-8.810831705729166
 30
0.0
 10
12.69715779622396
 20
-8.810831705729166
 30
0.0
  0
SPLINE
  5
7E
330
7B
100
AcDbEntity
  8
LAYER_1
 62
     7
100
AcDbSpline
210
0.0
220
0.0
230
1.0
 70
     8
 71
     3
 72
    17
 73
    13
 74
     0
 42
0.0000000001
 43
0.0000000001
 40
0.0
 40
0.0
 40
0.0
 40
0.0
 40
1.0
 40
1.0
 40
1.0
 40
2.0
 40
2.0
 40
2.0
 40
3.0
 40
3.0
 40
3.0
 40
4.0
 40
4.0
 40
4.0
 40
4.0
 10
-2.384092203776041
 20
-6.508818901909722
 30
0.0
 10
-1.546934000651042
 20
-6.508818901909722
 30
0.0
 10
1.489745415581597
 20
-6.709840223524305
 30
0.0
 10
2.695873345269097
 20
-6.508818901909722
 30
0.0
 10
3.965907796223958
 20
-6.191353352864582
 30
0.0
 10
4.581201850043402
 20
-6.484358723958333
 30
0.0
 10
5.712054443359374
 20
-7.143922254774305
 30
0.0
 10
7.617019992404513
 20
-8.255137803819444
 30
0.0
 10
9.522157796223958
 20
-9.445762803819443
 30
0.0
 10
11.26830444335938
 20
-10.55697835286458
 30
0.0
 10
11.58576999240451
 20
-10.71579725477431
 30
0.0
 10
12.53833889431424
 20
-11.35072835286458
 30
0.0
 10
12.85580444335937
 20
-11.35072835286458
 30
0.0
  0
ENDBLK
  5
87
330
7B
100
AcDbEntity
  8
LAYER_1
100
AcDbBlockEnd
  0
BLOCK
  5
95
330
93
100
AcDbEntity
  8
LAYER_1
 62
     7
100
AcDbBlockBegin
  2
AI9-BLK14
 70
     0
 10
0.0
 20
0.0
 30
0.0
  3
AI9-BLK14
  1

  4

  0
SPLINE
  5
9C
330
93
100
AcDbEntity
  8
LAYER_1
 62
     7
100
AcDbSpline
210
0.0
220
0.0
230
1.0
 70
     8
 71
     3
 72
    17
 73
    13
 74
     0
 42
0.0000000001
 43
0.0000000001
 40
0.0
 40
0.0
 40
0.0
 40
0.0
 40
1.0
 40
1.0
 40
1.0
 40
2.0
 40
2.0
 40
2.0
 40
3.0
 40
3.0
 40
3.0
 40
4.0
 40
4.0
 40
4.0
 40
4.0
 10
-17.77695109049479
 20
1.950828382703993
 30
0.0
 10
-17.38007609049479
 20
1.950828382703993
 30
0.0
 10
-17.06261054144965
 20
1.792095608181423
 30
0.0
 10
-16.74514499240451
 20
1.712686157226562
 30
0.0
 10
-15.63375718858507
 20
1.395220608181424
 30
0.0
 10
-14.60195109049479
 20
1.395220608181424
 30
0.0
 10
-13.49073554144965
 20
1.157078382703993
 30
0.0
 10
-12.93504163953993
 20
1.077755059136285
 30
0.0
 10
-12.45875718858507
 20
0.6808800591362847
 30
0.0
 10
-11.90323554144965
 20
0.6808800591362847
 30
0.0
 10
-10.87125718858507
 20
0.5220611572265624
 30
0.0
 10
-9.548168267144096
 20
0.0721316867404514
 30
0.0
 10
-8.59577162000868
 20
-0.0866872151692708
 30
0.0
  0
SPLINE
  5
9B
330
93
100
AcDbEntity
  8
LAYER_1
 62
     7
100
AcDbSpline
210
0.0
220
0.0
230
1.0
 70
     8
 71
     3
 72
    17
 73
    13
 74
     0
 42
0.0000000001
 43
0.0000000001
 40
0.0
 40
0.0
 40
0.0
 40
0.0
 40
1.0
 40
1.0
 40
1.0
 40
2.0
 40
2.0
 40
2.0
 40
3.0
 40
3.0
 40
3.0
 40
4.0
 40
4.0
 40
4.0
 40
4.0
 10
-13.57014499240451
 20
2.665255059136285
 30
0.0
 10
-13.41132609049479
 20
2.665255059136285
 30
0.0
 10
-13.17326999240451
 20
2.665255059136285
 30
0.0
 10
-13.01445109049479
 20
2.585845608181423
 30
0.0
 10
-12.69698554144965
 20
2.347703382703993
 30
0.0
 10
-12.45875718858507
 20
2.268380059136284
 30
0.0
 10
-12.14129163953993
 20
2.268380059136284
 30
0.0
 10
-11.34754163953993
 20
2.109561157226562
 30
0.0
 10
-10.55379163953993
 20
2.030237833658854
 30
0.0
 10
-9.76004163953993
 20
1.792095608181423
 30
0.0
 10
-9.204519992404514
 20
1.633362833658854
 30
0.0
 10
-8.728235541449653
 20
1.395220608181424
 30
0.0
 10
-8.172541639539929
 20
1.157078382703993
 30
0.0
  0
SPLINE
  5
9A
330
93
100
AcDbEntity
  8
LAYER_1
 62
     7
100
AcDbSpline
210
0.0
220
0.0
230
1.0
 70
     8
 71
     3
 72
    20
 73
    16
 74
     0
 42
0.0000000001
 43
0.0000000001
 40
0.0
 40
0.0
 40
0.0
 40
0.0
 40
1.0
 40
1.0
 40
1.0
 40
2.0
 40
2.0
 40
2.0
 40
3.0
 40
3.0
 40
3.0
 40
4.0
 40
4.0
 40
4.0
 40
5.0
 40
5.0
 40
5.0
 40
5.0
 10
-4.283201090494791
 20
2.506436157226562
 30
0.0
 10
-4.283201090494791
 20
2.347703382703993
 30
0.0
 10
-4.362610541449652
 20
2.109561157226562
 30
0.0
 10
-4.283201090494791
 20
1.950828382703993
 30
0.0
 10
-4.20379163953993
 20
1.792095608181423
 30
0.0
 10
-4.124382188585069
 20
1.712686157226562
 30
0.0
 10
-4.045144992404514
 20
1.553953382703993
 30
0.0
 10
-3.727507188585069
 20
0.760203382703993
 30
0.0
 10
-3.886326090494791
 20
-0.1128699408637153
 30
0.0
 10
-3.41004163953993
 20
-0.8272966172960069
 30
0.0
 10
-3.41004163953993
 20
-0.8272966172960069
 30
0.0
 10
-3.092576090494791
 20
-1.674187215169271
 30
0.0
 10
-2.24577162000868
 20
-2.097244940863715
 30
0.0
 10
-1.399483913845486
 20
-2.520474921332465
 30
0.0
 10
1.352458360460069
 20
-3.261687215169271
 30
0.0
 10
1.352458360460069
 20
-3.261687215169271
 30
0.0
  0
SPLINE
  5
99
330
93
100
AcDbEntity
  8
LAYER_1
 62
     7
100
AcDbSpline
210
0.0
220
0.0
230
1.0
 70
     8
 71
     3
 72
    23
 73
    19
 74
     0
 42
0.0000000001
 43
0.0000000001
 40
0.0
 40
0.0
 40
0.0
 40
0.0
 40
1.0
 40
1.0
 40
1.0
 40
2.0
 40
2.0
 40
2.0
 40
3.0
 40
3.0
 40
3.0
 40
4.0
 40
4.0
 40
4.0
 40
5.0
 40
5.0
 40
5.0
 40
6.0
 40
6.0
 40
6.0
 40
6.0
 10
-1.505076090494792
 20
2.665255059136285
 30
0.0
 10
-1.505076090494792
 20
2.427112833658854
 30
0.0
 10
-1.584485541449653
 20
2.109561157226562
 30
0.0
 10
-1.505076090494792
 20
1.871505059136285
 30
0.0
 10
-0.9493821885850694
 20
0.9189361572265624
 30
0.0
 10
-0.8701449924045138
 20
-0.1128699408637153
 30
0.0
 10
-0.3938605414496528
 20
-1.065438842773437
 30
0.0
 10
-0.2350416395399305
 20
-1.303494940863715
 30
0.0
 10
0.0824239095052083
 20
-1.462313842773438
 30
0.0
 10
0.3998894585503472
 20
-1.621046617296007
 30
0.0
 10
1.034992811414931
 20
-1.938598293728298
 30
0.0
 10
1.669923909505208
 20
-1.859188842773437
 30
0.0
 10
2.304855007595486
 20
-2.017835489908854
 30
0.0
 10
3.257423909505208
 20
-2.256063842773437
 30
0.0
 10
4.051173909505208
 20
-2.335473293728299
 30
0.0
 10
5.00374281141493
 20
-2.573529391818576
 30
0.0
 10
5.479855007595486
 20
-2.652938842773437
 30
0.0
 10
5.79749281141493
 20
-3.129223293728298
 30
0.0
 10
6.353014458550347
 20
-3.129223293728298
 30
0.0
  0
SPLINE
  5
98
330
93
100
AcDbEntity
  8
LAYER_1
 62
     7
100
AcDbSpline
210
0.0
220
0.0
230
1.0
 70
     8
 71
     3
 72
    14
 73
    10
 74
     0
 42
0.0000000001
 43
0.0000000001
 40
0.0
 40
0.0
 40
0.0
 40
0.0
 40
1.0
 40
1.0
 40
1.0
 40
2.0
 40
2.0
 40
2.0
 40
3.0
 40
3.0
 40
3.0
 40
3.0
 10
1.749333360460069
 20
2.982720608181424
 30
0.0
 10
1.749333360460069
 20
2.744578382703993
 30
0.0
 10
1.669923909505208
 20
2.506436157226562
 30
0.0
 10
1.749333360460069
 20
2.347703382703993
 30
0.0
 10
2.304855007595486
 20
1.553953382703993
 30
0.0
 10
2.225617811414931
 20
0.6808800591362847
 30
0.0
 10
2.384264458550347
 20
-0.1922793918185764
 30
0.0
 10
5.40061781141493
 20
-1.065438842773437
 30
0.0
 10
8.575617811414929
 20
-1.541637166341146
 30
0.0
 10
11.51238945855035
 20
-2.652938842773437
 30
0.0
  0
SPLINE
  5
97
330
93
100
AcDbEntity
  8
LAYER_1
 62
     7
100
AcDbSpline
210
0.0
220
0.0
230
1.0
 70
     8
 71
     3
 72
    14
 73
    10
 74
     0
 42
0.0000000001
 43
0.0000000001
 40
0.0
 40
0.0
 40
0.0
 40
0.0
 40
1.0
 40
1.0
 40
1.0
 40
2.0
 40
2.0
 40
2.0
 40
3.0
 40
3.0
 40
3.0
 40
3.0
 10
4.924333360460069
 20
3.379595608181423
 30
0.0
 10
5.00374281141493
 20
2.347703382703993
 30
0.0
 10
4.871106635199652
 20
1.765826755099826
 30
0.0
 10
5.585619439019097
 20
0.9720767550998263
 30
0.0
 10
5.664856635199652
 20
0.8133439805772569
 30
0.0
 10
5.79749281141493
 20
0.2045956081814236
 30
0.0
 10
5.956139458550346
 20
0.0458628336588542
 30
0.0
 10
5.956139458550346
 20
0.0458628336588542
 30
0.0
 10
12.93349134657118
 20
-2.424873521592882
 30
0.0
 10
13.84058498806424
 20
-2.520474921332465
 30
0.0
  0
SPLINE
  5
96
330
93
100
AcDbEntity
  8
LAYER_1
 62
     7
100
AcDbSpline
210
0.0
220
0.0
230
1.0
 70
     8
 71
     3
 72
    20
 73
    16
 74
     0
 42
0.0000000001
 43
0.0000000001
 40
0.0
 40
0.0
 40
0.0
 40
0.0
 40
1.0
 40
1.0
 40
1.0
 40
2.0
 40
2.0
 40
2.0
 40
3.0
 40
3.0
 40
3.0
 40
4.0
 40
4.0
 40
4.0
 40
5.0
 40
5.0
 40
5.0
 40
5.0
 10
7.543639458550347
 20
3.300186157226562
 30
0.0
 10
7.623048909505208
 20
2.427112833658854
 30
0.0
 10
8.019923909505208
 20
1.73895501030816
 30
0.0
 10
8.337389458550346
 20
0.8658816867404513
 30
0.0
 10
8.575617811414929
 20
0.1514550103081597
 30
0.0
 10
8.893083360460068
 20
-0.3510121663411458
 30
0.0
 10
9.448605007595486
 20
-0.5097449408637153
 30
0.0
 10
10.32176445855035
 20
-0.8272966172960069
 30
0.0
 10
10.63923000759549
 20
-0.6154232449001735
 30
0.0
 10
11.51238945855035
 20
-0.9328887939453124
 30
0.0
 10
12.54436781141493
 20
-1.250440470377604
 30
0.0
 10
13.54999118381076
 20
-1.250440470377604
 30
0.0
 10
14.58179728190104
 20
-1.567906019422743
 30
0.0
 10
14.89926283094618
 20
-1.726638793945312
 30
0.0
 10
17.4393317328559
 20
-2.150471666124132
 30
0.0
 10
17.75679728190104
 20
-2.309118313259548
 30
0.0
  0
ENDBLK
  5
9D
330
93
100
AcDbEntity
  8
LAYER_1
100
AcDbBlockEnd
  0
ENDSEC
  0
SECTION
  2
ENTITIES
  0
LWPOLYLINE
  5
AF
330
A
100
AcDbEntity
  8
LAYER_1
 62
     7
100
AcDbPolyline
 90
        4
 70
     1
 43
0.0
 10
164.6180311414931
 20
146.6439344618055
 10
164.6180311414931
 20
143.6277533637153
 10
159.5378933376736
 20
140.7702189127604
 10
159.061781141493
 20
143.9452189127604
  0
SPLINE
  5
AE
330
A
100
AcDbEntity
  8
LAYER_1
 62
     7
100
AcDbSpline
210
0.0
220
0.0
230
1.0
 70
     8
 71
     3
 72
    77
 73
    73
 74
     0
 42
0.0000000001
 43
0.0000000001
 40
0.0
 40
0.0
 40
0.0
 40
0.0
 40
1.0
 40
1.0
 40
1.0
 40
2.0
 40
2.0
 40
2.0
 40
3.0
 40
3.0
 40
3.0
 40
4.0
 40
4.0
 40
4.0
 40
5.0
 40
5.0
 40
5.0
 40
6.0
 40
6.0
 40
6.0
 40
7.0
 40
7.0
 40
7.0
 40
8.0
 40
8.0
 40
8.0
 40
9.0
 40
9.0
 40
9.0
 40
10.0
 40
10.0
 40
10.0
 40
11.0
 40
11.0
 40
11.0
 40
12.0
 40
12.0
 40
12.0
 40
13.0
 40
13.0
 40
13.0
 40
14.0
 40
14.0
 40
14.0
 40
15.0
 40
15.0
 40
15.0
 40
16.0
 40
16.0
 40
16.0
 40
17.0
 40
17.0
 40
17.0
 40
18.0
 40
18.0
 40
18.0
 40
19.0
 40
19.0
 40
19.0
 40
20.0
 40
20.0
 40
20.0
 40
21.0
 40
21.0
 40
21.0
 40
22.0
 40
22.0
 40
22.0
 40
23.0
 40
23.0
 40
23.0
 40
24.0
 40
24.0
 40
24.0
 40
24.0
 10
129.8544338650173
 20
112.3642008463542
 30
0.0
 10
129.8544338650173
 20
112.3642008463542
 30
0.0
 10
87.94174669053818
 20
103.1465033637153
 30
0.0
 10
87.94174669053818
 20
103.1465033637153
 30
0.0
 10
87.94174669053818
 20
103.1465033637153
 30
0.0
 10
82.35845269097221
 20
106.0906819661458
 30
0.0
 10
78.73421223958333
 20
108.0676500108507
 30
0.0
 10
78.31632215711805
 20
108.2957153320312
 30
0.0
 10
72.86049669053818
 20
108.5439344618056
 30
0.0
 10
72.86049669053818
 20
108.5439344618056
 30
0.0
 10
72.86049669053818
 20
108.5439344618056
 30
0.0
 10
72.86049669053818
 20
111.5601155598958
 30
0.0
 10
72.86049669053818
 20
111.5601155598958
 30
0.0
 10
72.86049669053818
 20
111.5601155598958
 30
0.0
 10
72.70167778862846
 20
112.3538655598958
 30
0.0
 10
72.70167778862846
 20
112.3538655598958
 30
0.0
 10
72.70167778862846
 20
112.3538655598958
 30
0.0
 10
71.53447943793402
 20
112.3152804904514
 30
0.0
 10
71.53447943793402
 20
112.3152804904514
 30
0.0
 10
71.53447943793402
 20
112.3152804904514
 30
0.0
 10
62.54174669053819
 20
117.4340033637153
 30
0.0
 10
62.54174669053819
 20
117.4340033637153
 30
0.0
 10
62.54174669053819
 20
117.4340033637153
 30
0.0
 10
62.54174669053819
 20
134.1027533637153
 30
0.0
 10
62.54174669053819
 20
134.1027533637153
 30
0.0
 10
62.54174669053819
 20
134.1027533637153
 30
0.0
 10
98.10167778862846
 20
140.6114000108507
 30
0.0
 10
98.10167778862846
 20
140.6114000108507
 30
0.0
 10
98.10167778862846
 20
140.6114000108507
 30
0.0
 10
98.26049669053819
 20
222.0501844618055
 30
0.0
 10
98.26049669053819
 20
222.0501844618055
 30
0.0
 10
98.26049669053819
 20
222.0501844618055
 30
0.0
 10
113.6592122395833
 20
223.7432766384548
 30
0.0
 10
113.6592122395833
 20
223.7432766384548
 30
0.0
 10
113.6592122395833
 20
223.7432766384548
 30
0.0
 10
118.9510511610243
 20
223.5320922851562
 30
0.0
 10
118.9510511610243
 20
223.5320922851562
 30
0.0
 10
118.9510511610243
 20
223.5320922851562
 30
0.0
 10
130.5923733181423
 20
224.3782938639323
 30
0.0
 10
130.5923733181423
 20
224.3782938639323
 30
0.0
 10
130.5923733181423
 20
224.3782938639323
 30
0.0
 10
132.074281141493
 20
220.5682766384549
 30
0.0
 10
132.074281141493
 20
220.5682766384549
 30
0.0
 10
132.074281141493
 20
220.5682766384549
 30
0.0
 10
141.3874077690972
 20
218.8751844618055
 30
0.0
 10
141.3874077690972
 20
218.8751844618055
 30
0.0
 10
141.3874077690972
 20
218.8751844618055
 30
0.0
 10
141.4008436414931
 20
148.9061564127604
 30
0.0
 10
141.4008436414931
 20
148.9061564127604
 30
0.0
 10
141.4008436414931
 20
148.9061564127604
 30
0.0
 10
146.163343641493
 20
149.7793158637153
 30
0.0
 10
146.163343641493
 20
149.7793158637153
 30
0.0
 10
146.163343641493
 20
149.7793158637153
 30
0.0
 10
155.7810167100694
 20
146.0620578342014
 30
0.0
 10
155.7810167100694
 20
146.0620578342014
 30
0.0
 10
155.7810167100694
 20
146.0620578342014
 30
0.0
 10
164.2473388671875
 20
146.2732421875
 30
0.0
 10
164.2473388671875
 20
146.2732421875
 30
0.0
 10
164.2473388671875
 20
146.2732421875
 30
0.0
 10
159.8023044162326
 20
143.0982421875
 30
0.0
 10
159.8023044162326
 20
143.0982421875
 30
0.0
 10
159.8023044162326
 20
143.0982421875
 30
0.0
 10
164.8822699652778
 20
143.3101155598958
 30
0.0
 10
164.8822699652778
 20
143.3101155598958
 30
0.0
 10
164.8822699652778
 20
143.3101155598958
 30
0.0
 10
175.6773044162326
 20
139.0771267361111
 30
0.0
 10
175.6773044162326
 20
139.0771267361111
 30
0.0
 10
175.6773044162326
 20
139.0771267361111
 30
0.0
 10
175.6773044162326
 20
123.4133110894097
 30
0.0
 10
175.6773044162326
 20
123.4133110894097
 30
0.0
 10
175.6773044162326
 20
123.4133110894097
 30
0.0
 10
140.5979641384548
 20
114.7643988715278
 30
0.0
 10
140.5979641384548
 20
114.7643988715278
 30
0.0
  0
LINE
  5
AD
330
A
100
AcDbEntity
  8
LAYER_1
 62
     7
100
AcDbLine
 10
87.94174669053818
 20
120.7676500108507
 30
0.0
 11
87.94174669053818
 21
103.3051500108507
 31
0.0
  0
LINE
  5
AC
330
A
100
AcDbEntity
  8
LAYER_1
 62
     7
100
AcDbLine
 10
72.86049669053818
 20
125.8476155598958
 30
0.0
 11
72.86049669053818
 21
111.5601155598958
 31
0.0
  0
LINE
  5
AB
330
A
100
AcDbEntity
  8
LAYER_1
 62
     7
100
AcDbLine
 10
71.78889973958333
 20
128.9170233832465
 30
0.0
 11
71.74928114149304
 21
112.2880642361111
 31
0.0
  0
LINE
  5
AA
330
A
100
AcDbEntity
  8
LAYER_1
 62
     7
100
AcDbLine
 10
78.7738308376736
 20
125.1730658637153
 30
0.0
 11
78.73421223958333
 21
108.0676500108507
 31
0.0
  0
LINE
  5
A9
330
A
100
AcDbEntity
  8
LAYER_1
 62
     7
100
AcDbLine
 10
127.7570597330729
 20
128.6877522786458
 30
0.0
 11
124.533656141493
 21
127.9908094618055
 31
0.0
  0
LINE
  5
A8
330
A
100
AcDbEntity
  8
LAYER_1
 62
     7
100
AcDbLine
 10
175.5717122395833
 20
139.0239000108507
 30
0.0
 11
143.0395033094618
 21
131.9912543402778
 31
0.0
  0
LINE
  5
A7
330
A
100
AcDbEntity
  8
LAYER_1
 62
     7
100
AcDbLine
 10
125.2802083333333
 20
145.6960164388021
 30
0.0
 11
125.327406141493
 21
128.1496283637153
 31
0.0
  0
LWPOLYLINE
  5
9E
330
A
100
AcDbEntity
  8
LAYER_1
 62
     7
100
AcDbPolyline
 90
        7
 70
     0
 43
0.0
 10
98.26049669053819
 20
222.0501844618055
 10
109.2141777886285
 20
219.7220750596788
 10
110.2723388671875
 20
215.9120578342014
 10
114.2941433376736
 20
222.8970750596788
 10
116.1992811414931
 20
218.4521267361111
 10
125.0891777886285
 20
216.9702189127604
 10
125.2130289713542
 20
169.1569444444444
  0
INSERT
  5
94
330
A
100
AcDbEntity
  8
LAYER_1
 62
     7
100
AcDbBlockReference
  2
AI9-BLK14
 10
121.5142883300781
 20
220.6549638536241
 30
0.0
  0
LWPOLYLINE
  5
89
330
A
100
AcDbEntity
  8
LAYER_1
 62
     7
100
AcDbPolyline
 90
        8
 70
     0
 43
0.0
 10
98.10167778862846
 20
140.6114000108507
 10
125.327406141493
 20
128.1496283637153
 10
87.94174669053818
 20
120.7676500108507
 10
78.73421223958333
 20
125.3715033637153
 10
72.86049669053818
 20
125.8476155598958
 10
76.19414333767361
 20
128.7051500108507
 10
71.11417778862847
 20
129.0226155598958
 10
62.54174669053819
 20
134.1027533637153
  0
INSERT
  5
76
330
A
100
AcDbEntity
  8
LAYER_1
 62
     7
100
AcDbBlockReference
  2
AI9-BLK12
 10
75.32399834526909
 20
119.7311930338542
 30
0.0
  0
SPLINE
  5
74
330
A
100
AcDbEntity
  8
LAYER_1
 62
     7
100
AcDbSpline
210
0.0
220
0.0
230
1.0
 70
     8
 71
     3
 72
    14
 73
    10
 74
     0
 42
0.0000000001
 43
0.0000000001
 40
0.0
 40
0.0
 40
0.0
 40
0.0
 40
1.0
 40
1.0
 40
1.0
 40
2.0
 40
2.0
 40
2.0
 40
3.0
 40
3.0
 40
3.0
 40
3.0
 10
73.17796223958332
 20
109.0202189127604
 30
0.0
 10
73.8128933376736
 20
109.0202189127604
 30
0.0
 10
76.11490614149305
 20
108.8614000108507
 30
0.0
 10
77.14671223958332
 20
108.9408094618055
 30
0.0
 10
78.29892442491318
 20
109.0295206705729
 30
0.0
 10
79.52796223958333
 20
108.8614000108507
 30
0.0
 10
80.48053114149305
 20
108.5439344618056
 30
0.0
 10
81.59174669053819
 20
108.0676500108507
 30
0.0
 10
84.9253933376736
 20
105.5277533637153
 30
0.0
 10
85.79855278862847
 20
104.4163655598958
 30
0.0
  0
LINE
  5
73
330
A
100
AcDbEntity
  8
LAYER_1
 62
     7
100
AcDbLine
 10
114.2941433376736
 20
222.8970750596788
 30
0.0
 11
130.5923733181423
 21
224.3782938639323
 31
0.0
  0
LINE
  5
72
330
A
100
AcDbEntity
  8
LAYER_1
 62
     7
100
AcDbLine
 10
124.9439670138889
 20
217.0496283637153
 30
0.0
 11
141.2420247395833
 21
218.5313639322916
 31
0.0
  0
LINE
  5
71
330
A
100
AcDbEntity
  8
LAYER_1
 62
     7
100
AcDbLine
 10
125.6050808376736
 20
160.4949408637153
 30
0.0
 11
125.6050808376736
 21
160.1428521050347
 31
0.0
  0
LINE
  5
70
330
A
100
AcDbEntity
  8
LAYER_1
 62
     7
100
AcDbLine
 10
125.6844902886285
 20
147.2392469618056
 30
0.0
 11
125.6844902886285
 21
146.7946573893229
 31
0.0
  0
LINE
  5
6F
330
A
100
AcDbEntity
  8
LAYER_1
 62
     7
100
AcDbLine
 10
129.0048733181424
 20
133.3620578342014
 30
0.0
 11
127.7617106119792
 21
133.3351860894097
 31
0.0
  0
LINE
  5
6E
330
A
100
AcDbEntity
  8
LAYER_1
 62
     7
100
AcDbLine
 10
129.2429294162326
 20
136.9339328342014
 30
0.0
 11
127.9997667100694
 21
136.9070610894097
 31
0.0
  0
SPLINE
  5
6D
330
A
100
AcDbEntity
  8
LAYER_1
 62
     7
100
AcDbSpline
210
0.0
220
0.0
230
1.0
 70
    11
 71
     3
 72
   113
 73
   109
 74
     0
 42
0.0000000001
 43
0.0000000001
 40
0.0
 40
0.0
 40
0.0
 40
0.0
 40
1.0
 40
1.0
 40
1.0
 40
2.0
 40
2.0
 40
2.0
 40
3.0
 40
3.0
 40
3.0
 40
4.0
 40
4.0
 40
4.0
 40
5.0
 40
5.0
 40
5.0
 40
6.0
 40
6.0
 40
6.0
 40
7.0
 40
7.0
 40
7.0
 40
8.0
 40
8.0
 40
8.0
 40
9.0
 40
9.0
 40
9.0
 40
10.0
 40
10.0
 40
10.0
 40
11.0
 40
11.0
 40
11.0
 40
12.0
 40
12.0
 40
12.0
 40
13.0
 40
13.0
 40
13.0
 40
14.0
 40
14.0
 40
14.0
 40
15.0
 40
15.0
 40
15.0
 40
16.0
 40
16.0
 40
16.0
 40
17.0
 40
17.0
 40
17.0
 40
18.0
 40
18.0
 40
18.0
 40
19.0
 40
19.0
 40
19.0
 40
20.0
 40
20.0
 40
20.0
 40
21.0
 40
21.0
 40
21.0
 40
22.0
 40
22.0
 40
22.0
 40
23.0
 40
23.0
 40
23.0
 40
24.0
 40
24.0
 40
24.0
 40
25.0
 40
25.0
 40
25.0
 40
26.0
 40
26.0
 40
26.0
 40
27.0
 40
27.0
 40
27.0
 40
28.0
 40
28.0
 40
28.0
 40
29.0
 40
29.0
 40
29.0
 40
30.0
 40
30.0
 40
30.0
 40
31.0
 40
31.0
 40
31.0
 40
32.0
 40
32.0
 40
32.0
 40
33.0
 40
33.0
 40
33.0
 40
34.0
 40
34.0
 40
34.0
 40
35.0
 40
35.0
 40
35.0
 40
36.0
 40
36.0
 40
36.0
 40
36.0
 10
142.9380452473958
 20
145.6383110894097
 30
0.0
 10
142.9380452473958
 20
145.6383110894097
 30
0.0
 10
142.9380452473958
 20
139.9022271050347
 30
0.0
 10
142.9380452473958
 20
139.9022271050347
 30
0.0
 10
142.9380452473958
 20
139.9022271050347
 30
0.0
 10
142.3637478298611
 20
139.6800184461806
 30
0.0
 10
142.3637478298611
 20
139.4207750108507
 30
0.0
 10
142.3637478298611
 20
139.0574896918403
 30
0.0
 10
142.3637478298611
 20
137.0248833550347
 30
0.0
 10
142.3637478298611
 20
136.7616780598958
 30
0.0
 10
142.3637478298611
 20
136.3170884874132
 30
0.0
 10
142.9847262912326
 20
136.2307888454861
 30
0.0
 10
143.0465657552083
 20
136.1691216362847
 30
0.0
 10
143.0465657552083
 20
136.1691216362847
 30
0.0
 10
143.0465657552083
 20
117.9101155598958
 30
0.0
 10
143.0465657552083
 20
117.9101155598958
 30
0.0
 10
143.0465657552083
 20
117.9101155598958
 30
0.0
 10
140.2236545138889
 20
114.3914672851562
 30
0.0
 10
140.2236545138889
 20
114.3914672851562
 30
0.0
 10
140.2236545138889
 20
114.3914672851562
 30
0.0
 10
129.8725206163194
 20
112.2746283637153
 30
0.0
 10
129.8725206163194
 20
112.2746283637153
 30
0.0
 10
129.8725206163194
 20
112.2746283637153
 30
0.0
 10
127.7617106119792
 20
114.8408799913194
 30
0.0
 10
127.7617106119792
 20
114.8408799913194
 30
0.0
 10
127.7617106119792
 20
114.8408799913194
 30
0.0
 10
127.7617106119792
 20
133.3620578342014
 30
0.0
 10
127.7617106119792
 20
133.3620578342014
 30
0.0
 10
127.7617106119792
 20
133.3620578342014
 30
0.0
 10
128.3277398003472
 20
133.3803168402778
 30
0.0
 10
128.3277398003472
 20
133.9730455186632
 30
0.0
 10
128.3277398003472
 20
134.1954264322917
 30
0.0
 10
128.3277398003472
 20
135.5936184353299
 30
0.0
 10
128.3277398003472
 20
135.9441569010417
 30
0.0
 10
128.3277398003472
 20
136.38857421875
 30
0.0
 10
128.3549560546875
 20
137.0658799913194
 30
0.0
 10
127.845598687066
 20
137.0658799913194
 30
0.0
 10
127.845598687066
 20
137.0658799913194
 30
0.0
 10
127.3810275607639
 20
143.7864000108507
 30
0.0
 10
127.3810275607639
 20
143.7864000108507
 30
0.0
 10
127.3810275607639
 20
143.7864000108507
 30
0.0
 10
125.3325737847222
 20
146.0195109049479
 30
0.0
 10
123.9249077690972
 20
146.9083455403646
 30
0.0
 10
123.9249077690972
 20
146.9083455403646
 30
0.0
 10
111.8284884982639
 20
176.6476155598958
 30
0.0
 10
111.8284884982639
 20
176.6476155598958
 30
0.0
 10
111.8284884982639
 20
176.6476155598958
 30
0.0
 10
111.8284884982639
 20
185.4320922851562
 30
0.0
 10
111.8284884982639
 20
185.4320922851562
 30
0.0
 10
111.8284884982639
 20
185.4320922851562
 30
0.0
 10
112.505622016059
 20
185.3948852539062
 30
0.0
 10
112.505622016059
 20
185.9504069010417
 30
0.0
 10
112.505622016059
 20
186.3589952256944
 30
0.0
 10
112.505622016059
 20
187.3856336805555
 30
0.0
 10
112.505622016059
 20
187.5987128363715
 30
0.0
 10
112.505622016059
 20
188.0064398871528
 30
0.0
 10
112.4499837239583
 20
188.2364000108507
 30
0.0
 10
111.635218641493
 20
188.2364000108507
 30
0.0
 10
111.635218641493
 20
188.2364000108507
 30
0.0
 10
111.6486545138889
 20
189.9827189127604
 30
0.0
 10
111.6486545138889
 20
189.9827189127604
 30
0.0
 10
111.6486545138889
 20
189.9827189127604
 30
0.0
 10
111.6486545138889
 20
196.2543429904514
 30
0.0
 10
111.6486545138889
 20
201.0952189127604
 30
0.0
 10
111.6486545138889
 20
203.1057766384548
 30
0.0
 10
114.531682671441
 20
204.6362603081597
 30
0.0
 10
114.8236545138889
 20
204.5876844618055
 30
0.0
 10
115.7124891493055
 20
204.4395453559028
 30
0.0
 10
119.6705593532986
 20
203.8681762695312
 30
0.0
 10
120.4112548828125
 20
203.7196926540798
 30
0.0
 10
121.1521226671007
 20
203.5717258029514
 30
0.0
 10
121.0780531141493
 20
203.7196926540798
 30
0.0
 10
121.5224704318576
 20
203.0532389322916
 30
0.0
 10
121.9674045138889
 20
202.3862684461805
 30
0.0
 10
122.3374077690972
 20
202.0160929361979
 30
0.0
 10
122.3374077690972
 20
200.4601155598958
 30
0.0
 10
122.3374077690972
 20
198.904310438368
 30
0.0
 10
122.4486843532986
 20
185.1356418185764
 30
0.0
 10
122.4486843532986
 20
185.1356418185764
 30
0.0
 10
122.4486843532986
 20
185.1356418185764
 30
0.0
 10
121.8511325412326
 20
184.987158203125
 30
0.0
 10
121.8511325412326
 20
184.4502400716146
 30
0.0
 10
121.8511325412326
 20
184.2373331705729
 30
0.0
 10
121.8511325412326
 20
183.7465793185764
 30
0.0
 10
121.8511325412326
 20
183.3459147135417
 30
0.0
 10
121.8511325412326
 20
182.8019341362847
 30
0.0
 10
122.041301812066
 20
182.5797254774305
 30
0.0
 10
122.3374077690972
 20
182.4682766384549
 30
0.0
 10
122.3374077690972
 20
182.4682766384549
 30
0.0
 10
122.3374077690972
 20
181.5530870225694
 30
0.0
 10
122.3374077690972
 20
180.7381496853299
 30
0.0
 10
122.3374077690972
 20
179.9547349717882
 30
0.0
 10
122.7477186414931
 20
175.5761908637153
 30
0.0
 10
122.9723388671875
 20
174.6370578342014
 30
0.0
 10
123.134430609809
 20
173.9607855902778
 30
0.0
 10
123.1311577690972
 20
173.3139689127604
 30
0.0
 10
123.5016777886285
 20
172.3083455403646
 30
0.0
 10
123.7309488932292
 20
171.6865058051215
 30
0.0
 10
124.8678304036458
 20
170.9547675238715
 30
0.0
 10
124.9835856119792
 20
170.7739000108507
 30
0.0
 10
125.0593777126736
 20
170.6548719618055
 30
0.0
 10
124.701604546441
 20
169.9129706488715
 30
0.0
 10
125.1947699652778
 20
169.1333455403646
 30
0.0
 10
126.5149305555555
 20
167.0485460069444
 30
0.0
 10
129.2632554796007
 20
163.8106730143229
 30
0.0
 10
129.8516777886285
 20
162.8896267361111
 30
0.0
 10
132.2861545138889
 20
159.0795233832465
 30
0.0
 10
142.9380452473958
 20
145.6383110894097
 30
0.0
 10
142.9380452473958
 20
145.6383110894097
 30
0.0
  0
SPLINE
  5
6C
330
A
100
AcDbEntity
  8
LAYER_1
 62
     7
100
AcDbSpline
210
0.0
220
0.0
230
1.0
 70
     8
 71
     3
 72
    38
 73
    34
 74
     0
 42
0.0000000001
 43
0.0000000001
 40
0.0
 40
0.0
 40
0.0
 40
0.0
 40
1.0
 40
1.0
 40
1.0
 40
2.0
 40
2.0
 40
2.0
 40
3.0
 40
3.0
 40
3.0
 40
4.0
 40
4.0
 40
4.0
 40
5.0
 40
5.0
 40
5.0
 40
6.0
 40
6.0
 40
6.0
 40
7.0
 40
7.0
 40
7.0
 40
8.0
 40
8.0
 40
8.0
 40
9.0
 40
9.0
 40
9.0
 40
10.0
 40
10.0
 40
10.0
 40
11.0
 40
11.0
 40
11.0
 40
11.0
 10
117.6124593098958
 20
204.0023627387153
 30
0.0
 10
118.4861355251736
 20
203.8690375434028
 30
0.0
 10
119.2414727105035
 20
203.7503540039062
 30
0.0
 10
119.5248318142361
 20
203.6935099283854
 30
0.0
 10
120.2658718532986
 20
203.5451985677083
 30
0.0
 10
120.1918023003472
 20
203.6935099283854
 30
0.0
 10
120.6362196180556
 20
203.0263671875
 30
0.0
 10
121.0808091905382
 20
202.3600857204861
 30
0.0
 10
121.4513292100694
 20
201.9893934461805
 30
0.0
 10
121.4513292100694
 20
200.4339328342014
 30
0.0
 10
121.4513292100694
 20
198.877783203125
 30
0.0
 10
121.5622612847222
 20
185.1091145833333
 30
0.0
 10
121.5622612847222
 20
185.1091145833333
 30
0.0
 10
121.5622612847222
 20
185.1091145833333
 30
0.0
 10
120.7009874131944
 20
185.2248697916667
 30
0.0
 10
120.7009874131944
 20
184.6879516601562
 30
0.0
 10
120.7009874131944
 20
184.4748725043403
 30
0.0
 10
120.7009874131944
 20
183.9839463975694
 30
0.0
 10
120.7009874131944
 20
183.5836263020833
 30
0.0
 10
120.7009874131944
 20
183.0396457248264
 30
0.0
 10
121.1550509982639
 20
182.5530259874132
 30
0.0
 10
121.4513292100694
 20
182.4420939127604
 30
0.0
 10
121.4513292100694
 20
182.4420939127604
 30
0.0
 10
121.4513292100694
 20
181.5267320421007
 30
0.0
 10
121.4513292100694
 20
180.7119669596354
 30
0.0
 10
121.4513292100694
 20
179.9283799913194
 30
0.0
 10
121.9033257378472
 20
175.3179809570312
 30
0.0
 10
122.086432562934
 20
174.6101860894097
 30
0.0
 10
122.284870062934
 20
173.8433078342014
 30
0.0
 10
122.3374077690972
 20
172.9965033637153
 30
0.0
 10
122.6548733181424
 20
172.1495266384549
 30
0.0
 10
122.9361653645833
 20
171.4000461154514
 30
0.0
 10
124.5429578993056
 20
170.0804022894965
 30
0.0
 10
124.8773044162326
 20
169.5570922851562
 30
0.0
  0
INSERT
  5
66
330
A
100
AcDbEntity
  8
LAYER_1
 62
     7
100
AcDbBlockReference
  2
AI9-BLK11
 10
124.6747328016493
 20
157.7374864366319
 30
0.0
  0
INSERT
  5
5F
330
A
100
AcDbEntity
  8
LAYER_1
 62
     7
100
AcDbBlockReference
  2
AI9-BLK10
 10
134.9532613118489
 20
139.6559027777778
 30
0.0
  0
SPLINE
  5
5D
330
A
100
AcDbEntity
  8
LAYER_1
 62
     7
100
AcDbSpline
210
0.0
220
0.0
230
1.0
 70
     8
 71
     3
 72
    14
 73
    10
 74
     0
 42
0.0000000001
 43
0.0000000001
 40
0.0
 40
0.0
 40
0.0
 40
0.0
 40
1.0
 40
1.0
 40
1.0
 40
2.0
 40
2.0
 40
2.0
 40
3.0
 40
3.0
 40
3.0
 40
3.0
 10
161.046156141493
 20
143.1514689127604
 30
0.0
 10
161.2048027886285
 20
143.1514689127604
 30
0.0
 10
161.9985527886284
 20
143.3101155598958
 30
0.0
 10
162.0779622395833
 20
143.3895250108507
 30
0.0
 10
162.3954277886285
 20
143.7069905598958
 30
0.0
 10
162.7923027886285
 20
144.0246283637153
 30
0.0
 10
163.1891777886285
 20
144.1038655598958
 30
0.0
 10
163.5860527886285
 20
144.1832750108507
 30
0.0
 10
164.1417466905382
 20
144.4215033637153
 30
0.0
 10
164.5386216905382
 20
144.6595594618055
 30
0.0
  0
SPLINE
  5
5C
330
A
100
AcDbEntity
  8
LAYER_1
 62
     7
100
AcDbSpline
210
0.0
220
0.0
230
1.0
 70
     8
 71
     3
 72
    29
 73
    25
 74
     0
 42
0.0000000001
 43
0.0000000001
 40
0.0
 40
0.0
 40
0.0
 40
0.0
 40
1.0
 40
1.0
 40
1.0
 40
2.0
 40
2.0
 40
2.0
 40
3.0
 40
3.0
 40
3.0
 40
4.0
 40
4.0
 40
4.0
 40
5.0
 40
5.0
 40
5.0
 40
6.0
 40
6.0
 40
6.0
 40
7.0
 40
7.0
 40
7.0
 40
8.0
 40
8.0
 40
8.0
 40
8.0
 10
132.2329277886285
 20
112.7507405598958
 30
0.0
 10
132.2329277886285
 20
112.7507405598958
 30
0.0
 10
131.0026841905382
 20
112.5523030598958
 30
0.0
 10
131.0026841905382
 20
112.5523030598958
 30
0.0
 10
131.0026841905382
 20
112.5523030598958
 30
0.0
 10
128.9127170138889
 20
114.8145250108507
 30
0.0
 10
128.9127170138889
 20
114.8145250108507
 30
0.0
 10
128.9127170138889
 20
114.8145250108507
 30
0.0
 10
128.9127170138889
 20
133.3351860894097
 30
0.0
 10
128.9127170138889
 20
133.3351860894097
 30
0.0
 10
128.9127170138889
 20
133.3351860894097
 30
0.0
 10
129.4785739474826
 20
133.3537896050347
 30
0.0
 10
129.4785739474826
 20
133.9466905381945
 30
0.0
 10
129.4785739474826
 20
134.1685546875
 30
0.0
 10
129.4785739474826
 20
135.5672634548611
 30
0.0
 10
129.4785739474826
 20
135.9178019205729
 30
0.0
 10
129.4785739474826
 20
136.3622192382812
 30
0.0
 10
129.4504964192708
 20
137.0395250108507
 30
0.0
 10
128.9413113064236
 20
137.0395250108507
 30
0.0
 10
128.9413113064236
 20
137.0395250108507
 30
0.0
 10
128.6610527886285
 20
142.4767469618055
 30
0.0
 10
128.6610527886285
 20
142.4767469618055
 30
0.0
 10
128.303968641493
 20
143.1514689127604
 30
0.0
 10
127.6292466905382
 20
143.6673719618055
 30
0.0
 10
127.2719902886285
 20
143.9848375108507
 30
0.0
  0
LINE
  5
5B
330
A
100
AcDbEntity
  8
LAYER_1
 62
     7
100
AcDbLine
 10
127.9117445203993
 20
136.9735514322917
 30
0.0
 11
128.9127170138889
 21
137.1054985894097
 31
0.0
  0
LINE
  5
5A
330
A
100
AcDbEntity
  8
LAYER_1
 62
     7
100
AcDbLine
 10
128.8198716905382
 20
133.2826483832465
 30
0.0
 11
127.6688652886285
 21
133.2826483832465
 31
0.0
  0
LINE
  5
59
330
A
100
AcDbEntity
  8
LAYER_1
 62
     7
100
AcDbLine
 10
122.3374077690972
 20
182.4682766384549
 30
0.0
 11
121.4513292100694
 21
182.4420939127604
 31
0.0
  0
LINE
  5
58
330
A
100
AcDbEntity
  8
LAYER_1
 62
     7
100
AcDbLine
 10
122.4486843532986
 20
185.1356418185764
 30
0.0
 11
121.5622612847222
 21
185.1091145833333
 31
0.0
  0
INSERT
  5
53
330
A
100
AcDbEntity
  8
LAYER_1
 62
     7
100
AcDbBlockReference
  2
AI9-BLK9
 10
131.6137580023871
 20
127.9325873480903
 30
0.0
  0
INSERT
  5
4D
330
A
100
AcDbEntity
  8
LAYER_1
 62
     7
100
AcDbBlockReference
  2
AI9-BLK8
 10
118.6895684136285
 20
199.2989461263021
 30
0.0
  0
INSERT
  5
47
330
A
100
AcDbEntity
  8
LAYER_1
 62
     7
100
AcDbBlockReference
  2
AI9-BLK7
 10
115.9677707248264
 20
195.5783291286892
 30
0.0
  0
INSERT
  5
41
330
A
100
AcDbEntity
  8
LAYER_1
 62
     7
100
AcDbBlockReference
  2
AI9-BLK6
 10
113.5014268663194
 20
192.1652730305989
 30
0.0
  0
INSERT
  5
3B
330
A
100
AcDbEntity
  8
LAYER_1
 62
     7
100
AcDbBlockReference
  2
AI9-BLK5
 10
118.9842102050781
 20
188.6671230740017
 30
0.0
  0
INSERT
  5
35
330
A
100
AcDbEntity
  8
LAYER_1
 62
     7
100
AcDbBlockReference
  2
AI9-BLK4
 10
116.2923848470052
 20
181.3700663248698
 30
0.0
  0
INSERT
  5
2F
330
A
100
AcDbEntity
  8
LAYER_1
 62
     7
100
AcDbBlockReference
  2
AI9-BLK3
 10
139.218031141493
 20
126.5350843641493
 30
0.0
  0
INSERT
  5
29
330
A
100
AcDbEntity
  8
LAYER_1
 62
     7
100
AcDbBlockReference
  2
AI9-BLK2
 10
131.8354498969184
 20
116.9305026584201
 30
0.0
  0
INSERT
  5
23
330
A
100
AcDbEntity
  8
LAYER_1
 62
     7
100
AcDbBlockReference
  2
AI9-BLK1
 10
135.7249627007379
 20
121.4549465603298
 30
0.0
  0
ENDSEC
  0
SECTION
  2
OBJECTS
  0
DICTIONARY
  5
19
330
0
100
AcDbDictionary
281
     1
  3
ACAD_COLOR
350
EB
  3
ACAD_GROUP
350
1A
  3
ACAD_LAYOUT
350
B8
  3
ACAD_MATERIAL
350
ED
  3
ACAD_MLINESTYLE
350
1B
  3
ACAD_PLOTSETTINGS
350
B9
  3
ACAD_PLOTSTYLENAME
350
B6
  3
ACDBHEADERROUNDTRIPXREC
350
EA
  0
DICTIONARY
  5
EB
102
{ACAD_REACTORS
330
19
102
}
330
19
100
AcDbDictionary
281
     1
  0
DICTIONARY
  5
1A
102
{ACAD_REACTORS
330
19
102
}
330
19
100
AcDbDictionary
281
     1
  0
DICTIONARY
  5
B8
102
{ACAD_REACTORS
330
19
102
}
330
19
100
AcDbDictionary
281
     1
  3
Layout1
350
BB
  3
Model
350
BA
  0
DICTIONARY
  5
ED
102
{ACAD_REACTORS
330
19
102
}
330
19
100
AcDbDictionary
281
     1
  0
DICTIONARY
  5
1B
102
{ACAD_REACTORS
330
19
102
}
330
19
100
AcDbDictionary
281
     1
  3
STANDARD
350
1C
  0
DICTIONARY
  5
B9
102
{ACAD_REACTORS
330
19
102
}
330
19
100
AcDbDictionary
281
     1
  0
ACDBDICTIONARYWDFLT
  5
B6
102
{ACAD_REACTORS
330
19
102
}
330
19
100
AcDbDictionary
281
     1
  3
Normal
350
B7
100
AcDbDictionaryWithDefault
340
B7
  0
DICTIONARY
  5
EA
102
{ACAD_REACTORS
330
19
102
}
330
19
100
AcDbDictionary
281
     1
  3
COLORDICT
350
EC
  3
MATERIALDICT
350
EE
  0
LAYOUT
  5
BB
102
{ACAD_REACTORS
330
B8
102
}
102
{ACAD_XDICTIONARY
360
EF
102
}
330
B8
100
AcDbPlotSettings
  1

  2
Support Center HP LaserJet 4
  4

  6

 40
0.0
 41
0.0
 42
0.0
 43
0.0
 44
0.0
 45
0.0
 46
0.0
 47
0.0
 48
0.0
 49
0.0
140
0.0
141
0.0
142
1.0
143
1.0
 70
   688
 72
     0
 73
     0
 74
     5
  7

 75
    16
147
1.0
148
0.0
149
0.0
100
AcDbLayout
  1
Layout1
 70
     0
 71
     1
 10
0.0
 20
0.0
 11
12.0
 21
9.0
 12
0.0
 22
0.0
 32
0.0
 14
1.000000000000000E+20
 24
1.000000000000000E+20
 34
1.000000000000000E+20
 15
-1.000000000000000E+20
 25
-1.000000000000000E+20
 35
-1.000000000000000E+20
146
0.0
 13
0.0
 23
0.0
 33
0.0
 16
1.0
 26
0.0
 36
0.0
 17
0.0
 27
1.0
 37
0.0
 76
     0
330
B
  0
LAYOUT
  5
BA
102
{ACAD_REACTORS
330
B8
102
}
102
{ACAD_XDICTIONARY
360
F1
102
}
330
B8
100
AcDbPlotSettings
  1

  2
Support Center HP LaserJet 4
  4

  6

 40
0.0
 41
0.0
 42
0.0
 43
0.0
 44
0.0
 45
0.0
 46
0.0
 47
0.0
 48
0.0
 49
0.0
140
0.0
141
0.0
142
1.0
143
1.0
 70
  1712
 72
     0
 73
     0
 74
     0
  7

 75
     0
147
1.0
148
0.0
149
0.0
100
AcDbLayout
  1
Model
 70
     1
 71
     0
 10
0.0
 20
0.0
 11
12.0
 21
9.0
 12
0.0
 22
0.0
 32
0.0
 14
0.0
 24
0.0
 34
0.0
 15
0.0
 25
0.0
 35
0.0
146
0.0
 13
0.0
 23
0.0
 33
0.0
 16
1.0
 26
0.0
 36
0.0
 17
0.0
 27
1.0
 37
0.0
 76
     0
330
A
  0
MLINESTYLE
  5
1C
102
{ACAD_REACTORS
330
1B
102
}
330
1B
100
AcDbMlineStyle
  2
STANDARD
 70
     0
  3

 62
     0
 51
90.0000000000002
 52
90.0000000000002
 71
     2
 49
0.5
 62
   256
  6
BYLAYER
 49
-0.5
 62
   256
  6
BYLAYER
  0
ACDBPLACEHOLDER
  5
B7
102
{ACAD_REACTORS
330
B6
102
}
330
B6
  0
XRECORD
  5
EC
102
{ACAD_REACTORS
330
EA
102
}
330
EA
100
AcDbXrecord
340
EB
  0
XRECORD
  5
EE
102
{ACAD_REACTORS
330
EA
102
}
330
EA
100
AcDbXrecord
340
ED
  0
DICTIONARY
  5
EF
330
BB
100
AcDbDictionary
280
     1
281
     1
  3
ACAD_XREC_ROUNDTRIP
360
F0
  0
DICTIONARY
  5
F1
330
BA
100
AcDbDictionary
280
     1
281
     1
  3
ACAD_XREC_ROUNDTRIP
360
F2
  0
XRECORD
  5
F0
102
{ACAD_REACTORS
330
EF
102
}
330
EF
100
AcDbXrecord
102
SHADEPLOT
 70
     0
102
SHADEPLOTRESLEVEL
 70
     0
102
SHADEPLOTCUSTOMDPI
 70
     0
  0
XRECORD
  5
F2
102
{ACAD_REACTORS
330
F1
102
}
330
F1
100
AcDbXrecord
102
SHADEPLOT
 70
     0
102
SHADEPLOTRESLEVEL
 70
     0
102
SHADEPLOTCUSTOMDPI
 70
     0
  0
ENDSEC
  0
EOF
