  0
SECTION
  2
HEADER
  9
$ACADVER
  1
AC1015
  9
$ACADMAINTVER
 70
     6
  9
$DWGCODEPAGE
  3
ANSI_1252
  9
$INSBASE
 10
0.0
 20
0.0
 30
0.0
  9
$EXTMIN
 10
43.53811041472623
 20
99.58922637723191
 30
-0.0015258207003612
  9
$EXTMAX
 10
165.0756289185813
 20
243.548068262013
 30
0.0000000349246008
  9
$LIMMIN
 10
45.89056667751736
 20
99.41753200954861
  9
$LIMMAX
 10
165.2176500108507
 20
243.6757378472222
  9
$ORTHOMODE
 70
     0
  9
$REGENMODE
 70
     1
  9
$FILLMODE
 70
     1
  9
$QTEXTMODE
 70
     0
  9
$MIRRTEXT
 70
     1
  9
$LTSCALE
 40
1.0
  9
$ATTMODE
 70
     1
  9
$TEXTSIZE
 40
0.2
  9
$TRACEWID
 40
0.05
  9
$TEXTSTYLE
  7
STANDARD
  9
$CLAYER
  8
0
  9
$CELTYPE
  6
CONTINUOUS
  9
$CECOLOR
 62
   256
  9
$CELTSCALE
 40
1.0
  9
$DISPSILH
 70
     0
  9
$DIMSCALE
 40
1.0
  9
$DIMASZ
 40
0.18
  9
$DIMEXO
 40
0.0625
  9
$DIMDLI
 40
0.38
  9
$DIMRND
 40
0.0
  9
$DIMDLE
 40
0.0
  9
$DIMEXE
 40
0.18
  9
$DIMTP
 40
0.0
  9
$DIMTM
 40
0.0
  9
$DIMTXT
 40
0.18
  9
$DIMCEN
 40
0.09
  9
$DIMTSZ
 40
0.0
  9
$DIMTOL
 70
     0
  9
$DIMLIM
 70
     0
  9
$DIMTIH
 70
     1
  9
$DIMTOH
 70
     1
  9
$DIMSE1
 70
     0
  9
$DIMSE2
 70
     0
  9
$DIMTAD
 70
     0
  9
$DIMZIN
 70
     0
  9
$DIMBLK
  1

  9
$DIMASO
 70
     1
  9
$DIMSHO
 70
     1
  9
$DIMPOST
  1

  9
$DIMAPOST
  1

  9
$DIMALT
 70
     0
  9
$DIMALTD
 70
     2
  9
$DIMALTF
 40
25.4
  9
$DIMLFAC
 40
1.0
  9
$DIMTOFL
 70
     0
  9
$DIMTVP
 40
0.0
  9
$DIMTIX
 70
     0
  9
$DIMSOXD
 70
     0
  9
$DIMSAH
 70
     0
  9
$DIMBLK1
  1

  9
$DIMBLK2
  1

  9
$DIMSTYLE
  2
STANDARD
  9
$DIMCLRD
 70
     0
  9
$DIMCLRE
 70
     0
  9
$DIMCLRT
 70
     0
  9
$DIMTFAC
 40
1.0
  9
$DIMGAP
 40
0.09
  9
$DIMJUST
 70
     0
  9
$DIMSD1
 70
     0
  9
$DIMSD2
 70
     0
  9
$DIMTOLJ
 70
     1
  9
$DIMTZIN
 70
     0
  9
$DIMALTZ
 70
     0
  9
$DIMALTTZ
 70
     0
  9
$DIMUPT
 70
     0
  9
$DIMDEC
 70
     4
  9
$DIMTDEC
 70
     4
  9
$DIMALTU
 70
     2
  9
$DIMALTTD
 70
     2
  9
$DIMTXSTY
  7
STANDARD
  9
$DIMAUNIT
 70
     0
  9
$DIMADEC
 70
     0
  9
$DIMALTRND
 40
0.0
  9
$DIMAZIN
 70
     0
  9
$DIMDSEP
 70
    46
  9
$DIMATFIT
 70
     3
  9
$DIMFRAC
 70
     0
  9
$DIMLDRBLK
  1

  9
$DIMLUNIT
 70
     2
  9
$DIMLWD
 70
    -2
  9
$DIMLWE
 70
    -2
  9
$DIMTMOVE
 70
     0
  9
$LUNITS
 70
     2
  9
$LUPREC
 70
     4
  9
$SKETCHINC
 40
0.1
  9
$FILLETRAD
 40
0.0
  9
$AUNITS
 70
     0
  9
$AUPREC
 70
     0
  9
$MENU
  1
acad
  9
$ELEVATION
 40
0.0
  9
$PELEVATION
 40
0.0
  9
$THICKNESS
 40
0.0
  9
$LIMCHECK
 70
     0
  9
$CHAMFERA
 40
0.0
  9
$CHAMFERB
 40
0.0
  9
$CHAMFERC
 40
0.0
  9
$CHAMFERD
 40
0.0
  9
$SKPOLY
 70
     0
  9
$TDCREATE
 40
2444971.666666667
  9
$TDUCREATE
 40
2444972.0
  9
$TDUPDATE
 40
2452215.548433565
  9
$TDUUPDATE
 40
2452215.881766898
  9
$TDINDWG
 40
0.000265162
  9
$TDUSRTIMER
 40
0.000265162
  9
$USRTIMER
 70
     1
  9
$ANGBASE
 50
0.0
  9
$ANGDIR
 70
     0
  9
$PDMODE
 70
     0
  9
$PDSIZE
 40
0.0
  9
$PLINEWID
 40
0.0
  9
$SPLFRAME
 70
     0
  9
$SPLINETYPE
 70
     6
  9
$SPLINESEGS
 70
     8
  9
$HANDSEED
  5
1A3
  9
$SURFTAB1
 70
     6
  9
$SURFTAB2
 70
     6
  9
$SURFTYPE
 70
     6
  9
$SURFU
 70
     6
  9
$SURFV
 70
     6
  9
$UCSBASE
  2

  9
$UCSNAME
  2

  9
$UCSORG
 10
0.0
 20
0.0
 30
0.0
  9
$UCSXDIR
 10
1.0
 20
0.0
 30
0.0
  9
$UCSYDIR
 10
0.0
 20
1.0
 30
0.0
  9
$UCSORTHOREF
  2

  9
$UCSORTHOVIEW
 70
     0
  9
$UCSORGTOP
 10
0.0
 20
0.0
 30
0.0
  9
$UCSORGBOTTOM
 10
0.0
 20
0.0
 30
0.0
  9
$UCSORGLEFT
 10
0.0
 20
0.0
 30
0.0
  9
$UCSORGRIGHT
 10
0.0
 20
0.0
 30
0.0
  9
$UCSORGFRONT
 10
0.0
 20
0.0
 30
0.0
  9
$UCSORGBACK
 10
0.0
 20
0.0
 30
0.0
  9
$PUCSBASE
  2

  9
$PUCSNAME
  2

  9
$PUCSORG
 10
0.0
 20
0.0
 30
0.0
  9
$PUCSXDIR
 10
1.0
 20
0.0
 30
0.0
  9
$PUCSYDIR
 10
0.0
 20
1.0
 30
0.0
  9
$PUCSORTHOREF
  2

  9
$PUCSORTHOVIEW
 70
     0
  9
$PUCSORGTOP
 10
0.0
 20
0.0
 30
0.0
  9
$PUCSORGBOTTOM
 10
0.0
 20
0.0
 30
0.0
  9
$PUCSORGLEFT
 10
0.0
 20
0.0
 30
0.0
  9
$PUCSORGRIGHT
 10
0.0
 20
0.0
 30
0.0
  9
$PUCSORGFRONT
 10
0.0
 20
0.0
 30
0.0
  9
$PUCSORGBACK
 10
0.0
 20
0.0
 30
0.0
  9
$USERI1
 70
     0
  9
$USERI2
 70
     0
  9
$USERI3
 70
     0
  9
$USERI4
 70
     0
  9
$USERI5
 70
     0
  9
$USERR1
 40
0.0
  9
$USERR2
 40
0.0
  9
$USERR3
 40
0.0
  9
$USERR4
 40
0.0
  9
$USERR5
 40
0.0
  9
$WORLDVIEW
 70
     1
  9
$SHADEDGE
 70
     3
  9
$SHADEDIF
 70
    70
  9
$TILEMODE
 70
     1
  9
$MAXACTVP
 70
    16
  9
$PINSBASE
 10
0.0
 20
0.0
 30
0.0
  9
$PLIMCHECK
 70
     0
  9
$PEXTMIN
 10
1.000000000000000E+20
 20
1.000000000000000E+20
 30
1.000000000000000E+20
  9
$PEXTMAX
 10
-1.000000000000000E+20
 20
-1.000000000000000E+20
 30
-1.000000000000000E+20
  9
$PLIMMIN
 10
0.0
 20
0.0
  9
$PLIMMAX
 10
12.0
 20
9.0
  9
$UNITMODE
 70
     0
  9
$VISRETAIN
 70
     0
  9
$PLINEGEN
 70
     1
  9
$PSLTSCALE
 70
     0
  9
$TREEDEPTH
 70
  3020
  9
$CMLSTYLE
  2
STANDARD
  9
$CMLJUST
 70
     0
  9
$CMLSCALE
 40
1.0
  9
$PROXYGRAPHICS
 70
     0
  9
$MEASUREMENT
 70
     0
  9
$CELWEIGHT
370
    -1
  9
$ENDCAPS
280
     0
  9
$JOINSTYLE
280
     0
  9
$LWDISPLAY
290
     0
  9
$INSUNITS
 70
     0
  9
$HYPERLINKBASE
  1

  9
$STYLESHEET
  1

  9
$XEDIT
290
     1
  9
$CEPSNTYPE
380
     0
  9
$PSTYLEMODE
290
     1
  9
$FINGERPRINTGUID
  2
{890B5536-CEC8-11D5-923F-00805F198AD5}
  9
$VERSIONGUID
  2
{890B5538-CEC8-11D5-923F-00805F198AD5}
  9
$EXTNAMES
290
     1
  9
$PSVPSCALE
 40
0.0
  9
$OLESTARTUP
290
     0
  0
ENDSEC
  0
SECTION
  2
CLASSES
  0
CLASS
  1
LWPOLYLINE
  2
AcDbPolyline
  3
AutoCAD 2000
 90
        0
280
     0
281
     1
  0
CLASS
  1
IMAGE
  2
AcDbRasterImage
  3
ISM
 90
      127
280
     0
281
     1
  0
CLASS
  1
OLE2FRAME
  2
AcDbOle2Frame
  3
AutoCAD 2000
 90
        0
280
     0
281
     1
  0
CLASS
  1
HATCH
  2
AcDbHatch
  3
AutoCAD 2000
 90
        0
280
     0
281
     1
  0
CLASS
  1
DICTIONARYVAR
  2
AcDbDictionaryVar
  3
AutoCAD 2000
 90
        0
280
     0
281
     0
  0
CLASS
  1
RASTERVARIABLES
  2
AcDbRasterVariables
  3
ISM
 90
        0
280
     0
281
     0
  0
CLASS
  1
IMAGEDEF
  2
AcDbRasterImageDef
  3
ISM
 90
        0
280
     0
281
     0
  0
CLASS
  1
IMAGEDEF_REACTOR
  2
AcDbRasterImageDefReactor
  3
ISM
 90
        1
280
     0
281
     0
  0
CLASS
  1
IDBUFFER
  2
AcDbIdBuffer
  3
AutoCAD 2000
 90
        0
280
     0
281
     0
  0
CLASS
  1
SPATIAL_FILTER
  2
AcDbSpatialFilter
  3
AutoCAD 2000
 90
        0
280
     0
281
     0
  0
CLASS
  1
XRECORD
  2
AcDbXrecord
  3
AutoCAD 2000
 90
        0
280
     0
281
     0
  0
CLASS
  1
SORTENTSTABLE
  2
AcDbSortentsTable
  3
AutoCAD 2000
 90
        0
280
     0
281
     0
  0
CLASS
  1
LAYER_INDEX
  2
AcDbLayerIndex
  3
AutoCAD 2000
 90
        0
280
     0
281
     0
  0
CLASS
  1
SPATIAL_INDEX
  2
AcDbSpatialIndex
  3
AutoCAD 2000
 90
        0
280
     0
281
     0
  0
CLASS
  1
OBJECT_PTR
  2
CAseDLPNTableRecord
  3
ASE-LPNTableRecord
 90
        1
280
     1
281
     0
  0
CLASS
  1
LAYOUT
  2
AcDbLayout
  3
ObjectDBX Classes
 90
        0
280
     0
281
     0
  0
CLASS
  1
PLOTSETTINGS
  2
AcDbPlotSettings
  3
AutoCAD 2000
 90
        0
280
     0
281
     0
  0
CLASS
  1
ACDBDICTIONARYWDFLT
  2
AcDbDictionaryWithDefault
  3
AutoCAD 2000
 90
        0
280
     0
281
     0
  0
CLASS
  1
ACDBPLACEHOLDER
  2
AcDbPlaceHolder
  3
ObjectDBX Classes
 90
        0
280
     0
281
     0
  0
CLASS
  1
VBAPROJECT
  2
AcDbVbaProject
  3
ObjectDBX Classes
 90
        0
280
     0
281
     0
  0
CLASS
  1
WIPEOUT
  2
AcDbWipeout
  3
WipeOut|AutoCAD Express Tool|expresstools@autodesk.com
 90
      127
280
     0
281
     1
  0
CLASS
  1
WIPEOUTVARIABLES
  2
AcDbWipeoutVariables
  3
WipeOut|AutoCAD Express Tool|expresstools@autodesk.com
 90
        0
280
     0
281
     0
  0
CLASS
  1
RTEXT
  2
RText
  3
RText|AutoCAD Express Tool|expresstools@autodesk.com
 90
        0
280
     0
281
     1
  0
CLASS
  1
ARCALIGNEDTEXT
  2
AcDbArcAlignedText
  3
ATEXT|AutoCAD Express Tool|expresstools@autodesk.com
 90
        0
280
     0
281
     1
  0
CLASS
  1
LONG_TRANSACTION
  2
AcDbLongTransaction
  3
AutoCAD 2000
 90
        0
280
     1
281
     0
  0
CLASS
  1
LWPOLYLINE
  2
AcDbPolyline
  3
AutoCAD 2000
 90
        0
280
     0
281
     1
  0
CLASS
  1
HATCH
  2
AcDbHatch
  3
AutoCAD 2000
 90
        0
280
     0
281
     1
  0
CLASS
  1
XRECORD
  2
AcDbXrecord
  3
AutoCAD 2000
 90
        0
280
     0
281
     0
  0
ENDSEC
  0
SECTION
  2
TABLES
  0
TABLE
  2
VPORT
  5
7
330
0
100
AcDbSymbolTable
 70
     2
  0
VPORT
  5
16F
330
7
100
AcDbSymbolTableRecord
100
AcDbViewportTableRecord
  2
*Active
 70
     0
 10
0.0
 20
0.0
 11
1.0
 21
1.0
 12
104.3068696666537
 22
171.5686473196225
 13
0.0
 23
0.0
 14
1.0
 24
1.0
 15
0.0
 25
0.0
 16
0.0
 26
0.0
 36
1.0
 17
0.0
 27
0.0
 37
0.0
 40
146.2259102609194
 41
1.836842105263158
 42
50.0
 43
0.0
 44
0.0
 50
0.0
 51
0.0
 71
     0
 72
   100
 73
     1
 74
     1
 75
     0
 76
     0
 77
     0
 78
     0
281
     0
 65
     1
110
0.0
120
0.0
130
0.0
111
1.0
121
0.0
131
0.0
112
0.0
122
1.0
132
0.0
 79
     0
146
0.0
  0
ENDTAB
  0
TABLE
  2
LTYPE
  5
4
330
0
100
AcDbSymbolTable
 70
     1
  0
LTYPE
  5
11
330
4
100
AcDbSymbolTableRecord
100
AcDbLinetypeTableRecord
  2
BYBLOCK
 70
     0
  3

 72
    65
 73
     0
 40
0.0
  0
LTYPE
  5
12
330
4
100
AcDbSymbolTableRecord
100
AcDbLinetypeTableRecord
  2
BYLAYER
 70
     0
  3

 72
    65
 73
     0
 40
0.0
  0
LTYPE
  5
13
330
4
100
AcDbSymbolTableRecord
100
AcDbLinetypeTableRecord
  2
CONTINUOUS
 70
     0
  3
Solid line
 72
    65
 73
     0
 40
0.0
  0
ENDTAB
  0
TABLE
  2
LAYER
  5
2
330
0
100
AcDbSymbolTable
 70
     2
  0
LAYER
  5
14
330
2
100
AcDbSymbolTableRecord
100
AcDbLayerTableRecord
  2
0
 70
     0
 62
     7
  6
CONTINUOUS
370
    -3
390
0
  0
LAYER
  5
21
330
2
100
AcDbSymbolTableRecord
100
AcDbLayerTableRecord
  2
LAYER_1
 70
     0
 62
     5
  6
CONTINUOUS
370
    -3
390
0
  0
ENDTAB
  0
TABLE
  2
STYLE
  5
3
330
0
100
AcDbSymbolTable
 70
     5
  0
STYLE
  5
17
330
3
100
AcDbSymbolTableRecord
100
AcDbTextStyleTableRecord
  2
STANDARD
 70
     0
 40
0.0
 41
1.0
 50
0.0
 71
     0
 42
0.2
  3
txt
  4

  0
STYLE
  5
1D
330
3
100
AcDbSymbolTableRecord
100
AcDbTextStyleTableRecord
  2
STD
 70
     0
 40
0.0
 41
1.0
 50
0.0
 71
     0
 42
0.2
  3
txt
  4

  0
STYLE
  5
1E
330
3
100
AcDbSymbolTableRecord
100
AcDbTextStyleTableRecord
  2
TATESTD
 70
     4
 40
0.0
 41
1.0
 50
0.0
 71
     0
 42
0.2
  3
txt
  4

  0
STYLE
  5
1F
330
3
100
AcDbSymbolTableRecord
100
AcDbTextStyleTableRecord
  2
KANJISTD
 70
     0
 40
0.0
 41
1.0
 50
0.0
 71
     0
 42
0.2
  3
txt
  4
extfont
  0
STYLE
  5
20
330
3
100
AcDbSymbolTableRecord
100
AcDbTextStyleTableRecord
  2
KANJITATE
 70
     4
 40
0.0
 41
1.0
 50
0.0
 71
     0
 42
0.2
  3
txt
  4
extfont
  0
ENDTAB
  0
TABLE
  2
VIEW
  5
5
330
0
100
AcDbSymbolTable
 70
     0
  0
ENDTAB
  0
TABLE
  2
UCS
  5
6
330
0
100
AcDbSymbolTable
 70
     0
  0
ENDTAB
  0
TABLE
  2
APPID
  5
8
330
0
100
AcDbSymbolTable
 70
     1
  0
APPID
  5
16
330
8
100
AcDbSymbolTableRecord
100
AcDbRegAppTableRecord
  2
ACAD
 70
     0
  0
ENDTAB
  0
TABLE
  2
DIMSTYLE
  5
9
330
0
100
AcDbSymbolTable
 70
     1
100
AcDbDimStyleTable
  0
DIMSTYLE
105
18
330
9
100
AcDbSymbolTableRecord
100
AcDbDimStyleTableRecord
  2
STANDARD
 70
     0
  3

  4

289
     0
340
17
  0
ENDTAB
  0
TABLE
  2
BLOCK_RECORD
  5
1
330
0
100
AcDbSymbolTable
 70
    16
  0
BLOCK_RECORD
  5
A
330
1
100
AcDbSymbolTableRecord
100
AcDbBlockTableRecord
  2
*MODEL_SPACE
340
16A
  0
BLOCK_RECORD
  5
B
330
1
100
AcDbSymbolTableRecord
100
AcDbBlockTableRecord
  2
*PAPER_SPACE
340
16B
  0
BLOCK_RECORD
  5
22
330
1
100
AcDbSymbolTableRecord
100
AcDbBlockTableRecord
  2
AI9-BLK1
340
0
102
{BLKREFS
331
23
102
}
  0
BLOCK_RECORD
  5
25
330
1
100
AcDbSymbolTableRecord
100
AcDbBlockTableRecord
  2
AI9-BLK2
340
0
102
{BLKREFS
331
26
102
}
  0
BLOCK_RECORD
  5
2A
330
1
100
AcDbSymbolTableRecord
100
AcDbBlockTableRecord
  2
AI9-BLK3
340
0
102
{BLKREFS
331
2B
102
}
  0
BLOCK_RECORD
  5
31
330
1
100
AcDbSymbolTableRecord
100
AcDbBlockTableRecord
  2
AI9-BLK4
340
0
102
{BLKREFS
331
32
102
}
  0
BLOCK_RECORD
  5
37
330
1
100
AcDbSymbolTableRecord
100
AcDbBlockTableRecord
  2
AI9-BLK5
340
0
102
{BLKREFS
331
38
102
}
  0
BLOCK_RECORD
  5
3D
330
1
100
AcDbSymbolTableRecord
100
AcDbBlockTableRecord
  2
AI9-BLK6
340
0
102
{BLKREFS
331
3E
102
}
  0
BLOCK_RECORD
  5
43
330
1
100
AcDbSymbolTableRecord
100
AcDbBlockTableRecord
  2
AI9-BLK7
340
0
102
{BLKREFS
331
44
102
}
  0
BLOCK_RECORD
  5
49
330
1
100
AcDbSymbolTableRecord
100
AcDbBlockTableRecord
  2
AI9-BLK8
340
0
102
{BLKREFS
331
4A
102
}
  0
BLOCK_RECORD
  5
4F
330
1
100
AcDbSymbolTableRecord
100
AcDbBlockTableRecord
  2
AI9-BLK9
340
0
102
{BLKREFS
331
50
102
}
  0
BLOCK_RECORD
  5
55
330
1
100
AcDbSymbolTableRecord
100
AcDbBlockTableRecord
  2
AI9-BLK10
340
0
102
{BLKREFS
331
56
102
}
  0
BLOCK_RECORD
  5
5B
330
1
100
AcDbSymbolTableRecord
100
AcDbBlockTableRecord
  2
AI9-BLK11
340
0
102
{BLKREFS
331
5C
102
}
  0
BLOCK_RECORD
  5
61
330
1
100
AcDbSymbolTableRecord
100
AcDbBlockTableRecord
  2
AI9-BLK12
340
0
102
{BLKREFS
331
62
102
}
  0
BLOCK_RECORD
  5
81
330
1
100
AcDbSymbolTableRecord
100
AcDbBlockTableRecord
  2
AI9-BLK13
340
0
102
{BLKREFS
331
82
102
}
  0
BLOCK_RECORD
  5
84
330
1
100
AcDbSymbolTableRecord
100
AcDbBlockTableRecord
  2
AI9-BLK14
340
0
102
{BLKREFS
331
85
102
}
  0
BLOCK_RECORD
  5
102
330
1
100
AcDbSymbolTableRecord
100
AcDbBlockTableRecord
  2
AI9-BLK15
340
0
102
{BLKREFS
331
103
102
}
  0
BLOCK_RECORD
  5
118
330
1
100
AcDbSymbolTableRecord
100
AcDbBlockTableRecord
  2
AI9-BLK16
340
0
102
{BLKREFS
331
119
102
}
  0
ENDTAB
  0
ENDSEC
  0
SECTION
  2
BLOCKS
  0
BLOCK
  5
D
330
A
100
AcDbEntity
  8
0
100
AcDbBlockBegin
  2
*MODEL_SPACE
 70
     0
 10
0.0
 20
0.0
 30
0.0
  3
*MODEL_SPACE
  1

  4

  0
ENDBLK
  5
E
330
A
100
AcDbEntity
  8
0
100
AcDbBlockEnd
  0
BLOCK
  5
F
330
B
100
AcDbEntity
 67
     1
  8
0
100
AcDbBlockBegin
  2
*PAPER_SPACE
 70
     0
 10
0.0
 20
0.0
 30
0.0
  3
*PAPER_SPACE
  1

  4

  0
ENDBLK
  5
10
330
B
100
AcDbEntity
 67
     1
  8
0
100
AcDbBlockEnd
  0
BLOCK
  5
24
330
22
100
AcDbEntity
  8
LAYER_1
 62
     7
100
AcDbBlockBegin
  2
AI9-BLK1
 70
     0
 10
0.0
 20
0.0
 30
0.0
  3
AI9-BLK1
  1

  4

  0
ELLIPSE
  5
2F
330
22
100
AcDbEntity
  8
LAYER_1
 62
     7
100
AcDbEllipse
 10
0.0
 20
0.0
 30
0.0
 11
0.0
 21
-0.9508463541666666
 31
0.0
210
0.0
220
0.0
230
1.0
 40
0.6389492753623188
 41
0.0
 42
6.283185307179586
  0
INSERT
  5
2B
330
22
100
AcDbEntity
  8
LAYER_1
 62
     7
100
AcDbBlockReference
  2
AI9-BLK3
 10
-0.17518310546875
 20
0.1672593858506944
 30
0.0
  0
INSERT
  5
26
330
22
100
AcDbEntity
  8
LAYER_1
 62
     7
100
AcDbBlockReference
  2
AI9-BLK2
 10
-0.2825839572482639
 20
0.1910305447048611
 30
0.0
  0
ENDBLK
  5
30
330
22
100
AcDbEntity
  8
LAYER_1
100
AcDbBlockEnd
  0
BLOCK
  5
27
330
25
100
AcDbEntity
  8
LAYER_1
 62
     7
100
AcDbBlockBegin
  2
AI9-BLK2
 70
     0
 10
0.0
 20
0.0
 30
0.0
  3
AI9-BLK2
  1

  4

  0
SPLINE
  5
28
330
25
100
AcDbEntity
  8
LAYER_1
 62
     7
100
AcDbSpline
210
0.0
220
0.0
230
1.0
 70
    11
 71
     3
 72
    20
 73
    16
 74
     0
 42
0.0000000001
 43
0.0000000001
 40
0.0
 40
0.0
 40
0.0
 40
0.0
 40
1.0
 40
1.0
 40
1.0
 40
2.0
 40
2.0
 40
2.0
 40
3.0
 40
3.0
 40
3.0
 40
4.0
 40
4.0
 40
4.0
 40
5.0
 40
5.0
 40
5.0
 40
5.0
 10
0.1924947102864583
 20
0.7470689561631944
 30
0.0
 10
0.2703538682725694
 20
0.5868720160590277
 30
0.0
 10
0.296881103515625
 20
0.3834391276041667
 30
0.0
 10
0.296881103515625
 20
0.1665703667534722
 30
0.0
 10
0.296881103515625
 20
-0.2831868489583333
 30
0.0
 10
0.1074008517795139
 20
-0.6426825629340277
 30
0.0
 10
-0.1606275770399306
 20
-0.7415568033854166
 30
0.0
 10
-0.1606275770399306
 20
-0.7415568033854166
 30
0.0
 10
-0.1606275770399306
 20
-0.7415568033854166
 30
0.0
 10
-0.1606275770399306
 20
-0.7415568033854166
 30
0.0
 10
-0.2522671169704861
 20
-0.57515869140625
 30
0.0
 10
-0.2972256130642361
 20
-0.4249525282118055
 30
0.0
 10
-0.2972256130642361
 20
-0.1881022135416667
 30
0.0
 10
-0.2972256130642361
 20
0.2847371419270833
 30
0.0
 10
-0.0967210557725694
 20
0.6738606770833333
 30
0.0
 10
0.1924947102864583
 20
0.7470689561631944
 30
0.0
  0
ENDBLK
  5
29
330
25
100
AcDbEntity
  8
LAYER_1
100
AcDbBlockEnd
  0
BLOCK
  5
2C
330
2A
100
AcDbEntity
  8
LAYER_1
 62
     7
100
AcDbBlockBegin
  2
AI9-BLK3
 70
     0
 10
0.0
 20
0.0
 30
0.0
  3
AI9-BLK3
  1

  4

  0
SPLINE
  5
2D
330
2A
100
AcDbEntity
  8
LAYER_1
 62
     7
100
AcDbSpline
210
0.0
220
0.0
230
1.0
 70
     8
 71
     3
 72
    11
 73
     7
 74
     0
 42
0.0000000001
 43
0.0000000001
 40
0.0
 40
0.0
 40
0.0
 40
0.0
 40
1.0
 40
1.0
 40
1.0
 40
2.0
 40
2.0
 40
2.0
 40
2.0
 10
-0.2731960720486111
 20
-0.7157185872395833
 30
0.0
 10
-0.0048231336805556
 20
-0.6170166015624999
 30
0.0
 10
0.1946478949652778
 20
-0.2399509006076389
 30
0.0
 10
0.1946478949652778
 20
0.2098063151041666
 30
0.0
 10
0.1946478949652778
 20
0.4266750759548611
 30
0.0
 10
0.1483113606770833
 20
0.6264906141493055
 30
0.0
 10
0.0702799479166667
 20
0.7865152994791665
 30
0.0
  0
ENDBLK
  5
2E
330
2A
100
AcDbEntity
  8
LAYER_1
100
AcDbBlockEnd
  0
BLOCK
  5
33
330
31
100
AcDbEntity
  8
LAYER_1
 62
     7
100
AcDbBlockBegin
  2
AI9-BLK4
 70
     0
 10
0.0
 20
0.0
 30
0.0
  3
AI9-BLK4
  1

  4

  0
ELLIPSE
  5
35
330
31
100
AcDbEntity
  8
LAYER_1
 62
     7
100
AcDbEllipse
 10
-0.1341864691840278
 20
-0.1141187879774305
 30
0.0
 11
0.1688096788194444
 21
-0.9222520616319444
 31
0.0
210
0.0
220
0.0
230
1.0
 40
0.8065206673222237
 41
0.0
 42
6.283185307179586
  0
SPLINE
  5
34
330
31
100
AcDbEntity
  8
LAYER_1
 62
     7
100
AcDbSpline
210
0.0
220
0.0
230
1.0
 70
    11
 71
     3
 72
    23
 73
    19
 74
     0
 42
0.0000000001
 43
0.0000000001
 40
0.0
 40
0.0
 40
0.0
 40
0.0
 40
1.0
 40
1.0
 40
1.0
 40
2.0
 40
2.0
 40
2.0
 40
3.0
 40
3.0
 40
3.0
 40
4.0
 40
4.0
 40
4.0
 40
5.0
 40
5.0
 40
5.0
 40
6.0
 40
6.0
 40
6.0
 40
6.0
 10
0.8862508138020833
 20
0.2412428114149305
 30
0.0
 10
0.7927164713541666
 20
0.7504279242621527
 30
0.0
 10
0.3836113823784722
 20
1.102861192491319
 30
0.0
 10
-0.0266994900173611
 20
1.026724582248264
 30
0.0
 10
-0.1901692708333333
 20
0.9967522515190971
 30
0.0
 10
-0.3281453450520833
 20
0.9016676161024305
 30
0.0
 10
-0.4304646809895833
 20
0.7679979112413193
 30
0.0
 10
-0.7642944335937499
 20
0.6274380154079861
 30
0.0
 10
-0.9610093858506944
 20
0.2030022515190972
 30
0.0
 10
-0.8779825846354166
 20
-0.250372314453125
 30
0.0
 10
-0.7842759874131944
 20
-0.7599019368489582
 30
0.0
 10
-0.3753431532118055
 20
-1.111301676432292
 30
0.0
 10
0.0346232096354167
 20
-1.036370849609375
 30
0.0
 10
0.1986097547743055
 20
-1.006398518880208
 30
0.0
 10
0.3367580837673611
 20
-0.911141628689236
 30
0.0
 10
0.4390774197048611
 20
-0.7769551595052082
 30
0.0
 10
0.7732516818576388
 20
-0.6363952636718749
 30
0.0
 10
0.9694498697916666
 20
-0.2124762641059028
 30
0.0
 10
0.8862508138020833
 20
0.2412428114149305
 30
0.0
  0
ENDBLK
  5
36
330
31
100
AcDbEntity
  8
LAYER_1
100
AcDbBlockEnd
  0
BLOCK
  5
39
330
37
100
AcDbEntity
  8
LAYER_1
 62
     7
100
AcDbBlockBegin
  2
AI9-BLK5
 70
     0
 10
0.0
 20
0.0
 30
0.0
  3
AI9-BLK5
  1

  4

  0
ELLIPSE
  5
3B
330
37
100
AcDbEntity
  8
LAYER_1
 62
     7
100
AcDbEllipse
 10
-0.1381483289930555
 20
-0.1075731065538194
 30
0.0
 11
0.1688958062065973
 21
-0.9224243164062499
 31
0.0
210
0.0
220
0.0
230
1.0
 40
0.8062712619008424
 41
0.0
 42
6.283185307179586
  0
SPLINE
  5
3A
330
37
100
AcDbEntity
  8
LAYER_1
 62
     7
100
AcDbSpline
210
0.0
220
0.0
230
1.0
 70
    11
 71
     3
 72
    23
 73
    19
 74
     0
 42
0.0000000001
 43
0.0000000001
 40
0.0
 40
0.0
 40
0.0
 40
0.0
 40
1.0
 40
1.0
 40
1.0
 40
2.0
 40
2.0
 40
2.0
 40
3.0
 40
3.0
 40
3.0
 40
4.0
 40
4.0
 40
4.0
 40
5.0
 40
5.0
 40
5.0
 40
6.0
 40
6.0
 40
6.0
 40
6.0
 10
0.8823750813802083
 20
0.2477884928385417
 30
0.0
 10
0.7886684841579861
 20
0.7568013509114583
 30
0.0
 10
0.3797356499565972
 20
1.109234619140625
 30
0.0
 10
-0.0305752224392361
 20
1.033270263671875
 30
0.0
 10
-0.1942172580295139
 20
1.003297932942708
 30
0.0
 10
-0.3320210774739583
 20
0.9082132975260416
 30
0.0
 10
-0.4343404134114583
 20
0.774371337890625
 30
0.0
 10
-0.7681701660156249
 20
0.6338114420572916
 30
0.0
 10
-0.9648851182725694
 20
0.2095479329427083
 30
0.0
 10
-0.8818583170572916
 20
-0.2438266330295139
 30
0.0
 10
-0.7881517198350694
 20
-0.7533562554253471
 30
0.0
 10
-0.3793911404079861
 20
-1.104755995008681
 30
0.0
 10
0.0307474772135417
 20
-1.029997422960069
 30
0.0
 10
0.1947340223524305
 20
-1.000025092230903
 30
0.0
 10
0.3327100965711805
 20
-0.9045959472656249
 30
0.0
 10
0.4350294325086805
 20
-0.7705817328559027
 30
0.0
 10
0.7693759494357638
 20
-0.6300218370225694
 30
0.0
 10
0.965401882595486
 20
-0.2059305826822916
 30
0.0
 10
0.8823750813802083
 20
0.2477884928385417
 30
0.0
  0
ENDBLK
  5
3C
330
37
100
AcDbEntity
  8
LAYER_1
100
AcDbBlockEnd
  0
BLOCK
  5
3F
330
3D
100
AcDbEntity
  8
LAYER_1
 62
     7
100
AcDbBlockBegin
  2
AI9-BLK6
 70
     0
 10
0.0
 20
0.0
 30
0.0
  3
AI9-BLK6
  1

  4

  0
ELLIPSE
  5
41
330
3D
100
AcDbEntity
  8
LAYER_1
 62
     7
100
AcDbEllipse
 10
-0.1383205837673611
 20
-0.1127407497829861
 30
0.0
 11
0.1688958062065973
 21
-0.9224243164062499
 31
0.0
210
0.0
220
0.0
230
1.0
 40
0.8062712619008424
 41
0.0
 42
6.283185307179586
  0
SPLINE
  5
40
330
3D
100
AcDbEntity
  8
LAYER_1
 62
     7
100
AcDbSpline
210
0.0
220
0.0
230
1.0
 70
    11
 71
     3
 72
    23
 73
    19
 74
     0
 42
0.0000000001
 43
0.0000000001
 40
0.0
 40
0.0
 40
0.0
 40
0.0
 40
1.0
 40
1.0
 40
1.0
 40
2.0
 40
2.0
 40
2.0
 40
3.0
 40
3.0
 40
3.0
 40
4.0
 40
4.0
 40
4.0
 40
5.0
 40
5.0
 40
5.0
 40
6.0
 40
6.0
 40
6.0
 40
6.0
 10
0.8822028266059027
 20
0.242620849609375
 30
0.0
 10
0.7886684841579861
 20
0.7516337076822917
 30
0.0
 10
0.3797356499565972
 20
1.104066975911458
 30
0.0
 10
-0.0305752224392361
 20
1.028102620442708
 30
0.0
 10
-0.1942172580295139
 20
0.9981302897135416
 30
0.0
 10
-0.3321933322482639
 20
0.9030456542968749
 30
0.0
 10
-0.4345126681857638
 20
0.7692036946614582
 30
0.0
 10
-0.7683424207899305
 20
0.6286437988281249
 30
0.0
 10
-0.9648851182725694
 20
0.2043802897135416
 30
0.0
 10
-0.8820305718315972
 20
-0.2489942762586805
 30
0.0
 10
-0.7881517198350694
 20
-0.7585238986545139
 30
0.0
 10
-0.3795633951822917
 20
-1.109923638237847
 30
0.0
 10
0.0305752224392361
 20
-1.035165066189236
 30
0.0
 10
0.1947340223524305
 20
-1.005192735460069
 30
0.0
 10
0.332537841796875
 20
-0.9097635904947916
 30
0.0
 10
0.4348571777343749
 20
-0.7757493760850693
 30
0.0
 10
0.7693759494357638
 20
-0.6351894802517361
 30
0.0
 10
0.965401882595486
 20
-0.2110982259114583
 30
0.0
 10
0.8822028266059027
 20
0.242620849609375
 30
0.0
  0
ENDBLK
  5
42
330
3D
100
AcDbEntity
  8
LAYER_1
100
AcDbBlockEnd
  0
BLOCK
  5
45
330
43
100
AcDbEntity
  8
LAYER_1
 62
     7
100
AcDbBlockBegin
  2
AI9-BLK7
 70
     0
 10
0.0
 20
0.0
 30
0.0
  3
AI9-BLK7
  1

  4

  0
ELLIPSE
  5
47
330
43
100
AcDbEntity
  8
LAYER_1
 62
     7
100
AcDbEllipse
 10
-0.1342725965711805
 20
-0.1140326605902778
 30
0.0
 11
0.1688958062065973
 21
-0.9224243164062499
 31
0.0
210
0.0
220
0.0
230
1.0
 40
0.8062712619008424
 41
0.0
 42
6.283185307179586
  0
SPLINE
  5
46
330
43
100
AcDbEntity
  8
LAYER_1
 62
     7
100
AcDbSpline
210
0.0
220
0.0
230
1.0
 70
    11
 71
     3
 72
    23
 73
    19
 74
     0
 42
0.0000000001
 43
0.0000000001
 40
0.0
 40
0.0
 40
0.0
 40
0.0
 40
1.0
 40
1.0
 40
1.0
 40
2.0
 40
2.0
 40
2.0
 40
3.0
 40
3.0
 40
3.0
 40
4.0
 40
4.0
 40
4.0
 40
5.0
 40
5.0
 40
5.0
 40
6.0
 40
6.0
 40
6.0
 40
6.0
 10
0.8862508138020833
 20
0.2413289388020833
 30
0.0
 10
0.7927164713541666
 20
0.7503417968749999
 30
0.0
 10
0.3837836371527778
 20
1.102775065104167
 30
0.0
 10
-0.0265272352430556
 20
1.026810709635417
 30
0.0
 10
-0.1901692708333333
 20
0.9968383789062499
 30
0.0
 10
-0.3281453450520833
 20
0.9017537434895833
 30
0.0
 10
-0.4304646809895833
 20
0.7679117838541666
 30
0.0
 10
-0.7642944335937499
 20
0.6273518880208333
 30
0.0
 10
-0.9608371310763888
 20
0.20308837890625
 30
0.0
 10
-0.8779825846354166
 20
-0.2502861870659722
 30
0.0
 10
-0.7841037326388888
 20
-0.7598158094618055
 30
0.0
 10
-0.3755154079861111
 20
-1.111215549045139
 30
0.0
 10
0.0346232096354167
 20
-1.036456976996528
 30
0.0
 10
0.1987820095486111
 20
-1.006484646267361
 30
0.0
 10
0.3365858289930555
 20
-0.9110555013020832
 30
0.0
 10
0.4389051649305555
 20
-0.7770412868923611
 30
0.0
 10
0.7734239366319444
 20
-0.6364813910590277
 30
0.0
 10
0.9694498697916666
 20
-0.21239013671875
 30
0.0
 10
0.8862508138020833
 20
0.2413289388020833
 30
0.0
  0
ENDBLK
  5
48
330
43
100
AcDbEntity
  8
LAYER_1
100
AcDbBlockEnd
  0
BLOCK
  5
4B
330
49
100
AcDbEntity
  8
LAYER_1
 62
     7
100
AcDbBlockBegin
  2
AI9-BLK8
 70
     0
 10
0.0
 20
0.0
 30
0.0
  3
AI9-BLK8
  1

  4

  0
ELLIPSE
  5
4D
330
49
100
AcDbEntity
  8
LAYER_1
 62
     7
100
AcDbEllipse
 10
0.1932698567708333
 20
-0.0639926486545139
 30
0.0
 11
-0.2539035373263889
 21
-0.9028733995225694
 31
0.0
210
0.0
220
0.0
230
1.0
 40
0.7208388310601289
 41
0.0
 42
6.283185307179586
  0
SPLINE
  5
4C
330
49
100
AcDbEntity
  8
LAYER_1
 62
     7
100
AcDbSpline
210
0.0
220
0.0
230
1.0
 70
    11
 71
     3
 72
    29
 73
    25
 74
     0
 42
0.0000000001
 43
0.0000000001
 40
0.0
 40
0.0
 40
0.0
 40
0.0
 40
1.0
 40
1.0
 40
1.0
 40
2.0
 40
2.0
 40
2.0
 40
3.0
 40
3.0
 40
3.0
 40
4.0
 40
4.0
 40
4.0
 40
5.0
 40
5.0
 40
5.0
 40
6.0
 40
6.0
 40
6.0
 40
7.0
 40
7.0
 40
7.0
 40
8.0
 40
8.0
 40
8.0
 40
8.0
 10
0.4471733940972222
 20
0.8380194769965277
 30
0.0
 10
0.3868842230902778
 20
0.8552449544270833
 30
0.0
 10
0.3248725043402778
 20
0.8561062282986111
 30
0.0
 10
0.2632052951388889
 20
0.8504218207465277
 30
0.0
 10
0.204638671875
 20
0.9031317816840278
 30
0.0
 10
0.1381483289930555
 20
0.9451619466145832
 30
0.0
 10
0.0616672092013889
 20
0.9668660481770832
 30
0.0
 10
-0.2973117404513889
 20
1.067979600694444
 30
0.0
 10
-0.7027994791666666
 20
0.7460354275173611
 30
0.0
 10
-0.8433593749999999
 20
0.2475301106770833
 30
0.0
 10
-0.983230251736111
 20
-0.2506306966145833
 30
0.0
 10
-0.8056355794270833
 20
-0.7370781792534722
 30
0.0
 10
-0.4461398654513888
 20
-0.8380194769965277
 30
0.0
 10
-0.3855061848958333
 20
-0.8554172092013889
 30
0.0
 10
-0.3238389756944444
 20
-0.8562784830729165
 30
0.0
 10
-0.26199951171875
 20
-0.8504218207465277
 30
0.0
 10
-0.2036051432291667
 20
-0.9031317816840278
 30
0.0
 10
-0.1371148003472222
 20
-0.9453342013888888
 30
0.0
 10
-0.0606336805555555
 20
-0.9668660481770832
 30
0.0
 10
0.2986897786458333
 20
-1.067807345920139
 30
0.0
 10
0.7034884982638888
 20
-0.7460354275173611
 30
0.0
 10
0.8440483940972221
 20
-0.2471856011284722
 30
0.0
 10
0.9842637803819444
 20
0.2506306966145833
 30
0.0
 10
0.8068413628472222
 20
0.7370781792534722
 30
0.0
 10
0.4471733940972222
 20
0.8380194769965277
 30
0.0
  0
ENDBLK
  5
4E
330
49
100
AcDbEntity
  8
LAYER_1
100
AcDbBlockEnd
  0
BLOCK
  5
51
330
4F
100
AcDbEntity
  8
LAYER_1
 62
     7
100
AcDbBlockBegin
  2
AI9-BLK9
 70
     0
 10
0.0
 20
0.0
 30
0.0
  3
AI9-BLK9
  1

  4

  0
ELLIPSE
  5
53
330
4F
100
AcDbEntity
  8
LAYER_1
 62
     7
100
AcDbEllipse
 10
0.1920640733506944
 20
-0.0640787760416667
 30
0.0
 11
-0.2536451551649306
 21
-0.9027011447482638
 31
0.0
210
0.0
220
0.0
230
1.0
 40
0.7211084841592451
 41
0.0
 42
6.283185307179586
  0
SPLINE
  5
52
330
4F
100
AcDbEntity
  8
LAYER_1
 62
     7
100
AcDbSpline
210
0.0
220
0.0
230
1.0
 70
    11
 71
     3
 72
    29
 73
    25
 74
     0
 42
0.0000000001
 43
0.0000000001
 40
0.0
 40
0.0
 40
0.0
 40
0.0
 40
1.0
 40
1.0
 40
1.0
 40
2.0
 40
2.0
 40
2.0
 40
3.0
 40
3.0
 40
3.0
 40
4.0
 40
4.0
 40
4.0
 40
5.0
 40
5.0
 40
5.0
 40
6.0
 40
6.0
 40
6.0
 40
7.0
 40
7.0
 40
7.0
 40
8.0
 40
8.0
 40
8.0
 40
8.0
 10
0.4462259928385416
 20
0.8379333496093749
 30
0.0
 10
0.3855923122829861
 20
0.855331081814236
 30
0.0
 10
0.3239251030815972
 20
0.8560201009114583
 30
0.0
 10
0.2620856391059028
 20
0.850335693359375
 30
0.0
 10
0.2033467610677083
 20
0.9030456542968749
 30
0.0
 10
0.137200927734375
 20
0.9452480740017361
 30
0.0
 10
0.0607198079427083
 20
0.9669521755642361
 30
0.0
 10
-0.2986036512586806
 20
1.067893473307292
 30
0.0
 10
-0.7037468804253472
 20
0.7459493001302082
 30
0.0
 10
-0.8443067762586805
 20
0.2476162380642361
 30
0.0
 10
-0.9843499077690971
 20
-0.2505445692274305
 30
0.0
 10
-0.8065829806857638
 20
-0.7371643066406249
 30
0.0
 10
-0.4474317762586805
 20
-0.838277859157986
 30
0.0
 10
-0.386798095703125
 20
-0.8555033365885416
 30
0.0
 10
-0.324786376953125
 20
-0.8561923556857638
 30
0.0
 10
-0.2631191677517361
 20
-0.8506802029079861
 30
0.0
 10
-0.2045525444878472
 20
-0.903390163845486
 30
0.0
 10
-0.1384067111545139
 20
-0.9454203287760415
 30
0.0
 10
-0.0615810818142361
 20
-0.9667799207899305
 30
0.0
 10
0.2977423773871528
 20
-1.067893473307292
 30
0.0
 10
0.7025410970052083
 20
-0.7462938096788194
 30
0.0
 10
0.8429287380642361
 20
-0.247271728515625
 30
0.0
 10
0.9829718695746527
 20
0.2507168240017361
 30
0.0
 10
0.8057217068142361
 20
0.7371643066406249
 30
0.0
 10
0.4462259928385416
 20
0.8379333496093749
 30
0.0
  0
ENDBLK
  5
54
330
4F
100
AcDbEntity
  8
LAYER_1
100
AcDbBlockEnd
  0
BLOCK
  5
57
330
55
100
AcDbEntity
  8
LAYER_1
 62
     7
100
AcDbBlockBegin
  2
AI9-BLK10
 70
     0
 10
0.0
 20
0.0
 30
0.0
  3
AI9-BLK10
  1

  4

  0
ELLIPSE
  5
59
330
55
100
AcDbEntity
  8
LAYER_1
 62
     7
100
AcDbEllipse
 10
0.1694125705295139
 20
-0.0552076551649306
 30
0.0
 11
-0.2539035373263889
 21
-0.9027872721354167
 31
0.0
210
0.0
220
0.0
230
1.0
 40
0.7209274503366571
 41
0.0
 42
6.283185307179586
  0
SPLINE
  5
58
330
55
100
AcDbEntity
  8
LAYER_1
 62
     7
100
AcDbSpline
210
0.0
220
0.0
230
1.0
 70
    11
 71
     3
 72
    29
 73
    25
 74
     0
 42
0.0000000001
 43
0.0000000001
 40
0.0
 40
0.0
 40
0.0
 40
0.0
 40
1.0
 40
1.0
 40
1.0
 40
2.0
 40
2.0
 40
2.0
 40
3.0
 40
3.0
 40
3.0
 40
4.0
 40
4.0
 40
4.0
 40
5.0
 40
5.0
 40
5.0
 40
6.0
 40
6.0
 40
6.0
 40
7.0
 40
7.0
 40
7.0
 40
8.0
 40
8.0
 40
8.0
 40
8.0
 10
0.4236606174045138
 20
0.8467183430989582
 30
0.0
 10
0.3630269368489583
 20
0.8641160753038194
 30
0.0
 10
0.3010152180989583
 20
0.8649773491753472
 30
0.0
 10
0.2393480088975694
 20
0.8591206868489583
 30
0.0
 10
0.1807813856336805
 20
0.9118306477864583
 30
0.0
 10
0.1142910427517361
 20
0.9540330674913193
 30
0.0
 10
0.0378099229600694
 20
0.9757371690538194
 30
0.0
 10
-0.3211690266927083
 20
1.07685072157118
 30
0.0
 10
-0.7266567654079861
 20
0.7547342936197916
 30
0.0
 10
-0.8668721516927083
 20
0.2564012315538194
 30
0.0
 10
-1.00708753797743
 20
-0.2417595757378472
 30
0.0
 10
-0.8294928656684028
 20
-0.7280348036024305
 30
0.0
 10
-0.4699971516927083
 20
-0.8293206108940971
 30
0.0
 10
-0.4093634711371528
 20
-0.8465460883246527
 30
0.0
 10
-0.3476962619357639
 20
-0.8474073621961805
 30
0.0
 10
-0.2858567979600694
 20
-0.8417229546440972
 30
0.0
 10
-0.2274624294704861
 20
-0.8944329155815971
 30
0.0
 10
-0.1609720865885417
 20
-0.9364630805121527
 30
0.0
 10
-0.084490966796875
 20
-0.9579949273003472
 30
0.0
 10
0.2748324924045139
 20
-1.059108479817708
 30
0.0
 10
0.6796312120225694
 20
-0.7373365614149305
 30
0.0
 10
0.8201911078559027
 20
-0.2384867350260417
 30
0.0
 10
0.960406494140625
 20
0.2595018174913194
 30
0.0
 10
0.7829840766059028
 20
0.7461215549045138
 30
0.0
 10
0.4236606174045138
 20
0.8467183430989582
 30
0.0
  0
ENDBLK
  5
5A
330
55
100
AcDbEntity
  8
LAYER_1
100
AcDbBlockEnd
  0
BLOCK
  5
5D
330
5B
100
AcDbEntity
  8
LAYER_1
 62
     7
100
AcDbBlockBegin
  2
AI9-BLK11
 70
     0
 10
0.0
 20
0.0
 30
0.0
  3
AI9-BLK11
  1

  4

  0
ELLIPSE
  5
5F
330
5B
100
AcDbEntity
  8
LAYER_1
 62
     7
100
AcDbEllipse
 10
-0.1384067111545139
 20
-0.1140326605902778
 30
0.0
 11
0.1688958062065973
 21
-0.9224243164062499
 31
0.0
210
0.0
220
0.0
230
1.0
 40
0.8062712619008424
 41
0.0
 42
6.283185307179586
  0
SPLINE
  5
5E
330
5B
100
AcDbEntity
  8
LAYER_1
 62
     7
100
AcDbSpline
210
0.0
220
0.0
230
1.0
 70
    11
 71
     3
 72
    23
 73
    19
 74
     0
 42
0.0000000001
 43
0.0000000001
 40
0.0
 40
0.0
 40
0.0
 40
0.0
 40
1.0
 40
1.0
 40
1.0
 40
2.0
 40
2.0
 40
2.0
 40
3.0
 40
3.0
 40
3.0
 40
4.0
 40
4.0
 40
4.0
 40
5.0
 40
5.0
 40
5.0
 40
6.0
 40
6.0
 40
6.0
 40
6.0
 10
0.8821166992187499
 20
0.2413289388020833
 30
0.0
 10
0.7884101019965277
 20
0.7503417968749999
 30
0.0
 10
0.3794772677951389
 20
1.102775065104167
 30
0.0
 10
-0.0308336046006944
 20
1.026810709635417
 30
0.0
 10
-0.1944756401909722
 20
0.9968383789062499
 30
0.0
 10
-0.3322794596354167
 20
0.9017537434895833
 30
0.0
 10
-0.4345987955729166
 20
0.7679117838541666
 30
0.0
 10
-0.7684285481770833
 20
0.6273518880208333
 30
0.0
 10
-0.9651435004340276
 20
0.20308837890625
 30
0.0
 10
-0.8821166992187499
 20
-0.2502861870659722
 30
0.0
 10
-0.7884101019965277
 20
-0.7598158094618055
 30
0.0
 10
-0.3796495225694444
 20
-1.111215549045139
 30
0.0
 10
0.0304890950520833
 20
-1.036456976996528
 30
0.0
 10
0.1944756401909722
 20
-1.006484646267361
 30
0.0
 10
0.3324517144097222
 20
-0.9110555013020832
 30
0.0
 10
0.4347710503472222
 20
-0.7770412868923611
 30
0.0
 10
0.7691175672743055
 20
-0.6364813910590277
 30
0.0
 10
0.9651435004340276
 20
-0.21239013671875
 30
0.0
 10
0.8821166992187499
 20
0.2413289388020833
 30
0.0
  0
ENDBLK
  5
60
330
5B
100
AcDbEntity
  8
LAYER_1
100
AcDbBlockEnd
  0
BLOCK
  5
63
330
61
100
AcDbEntity
  8
LAYER_1
 62
     7
100
AcDbBlockBegin
  2
AI9-BLK12
 70
     0
 10
0.0
 20
0.0
 30
0.0
  3
AI9-BLK12
  1

  4

  0
ELLIPSE
  5
65
330
61
100
AcDbEntity
  8
LAYER_1
 62
     7
100
AcDbEllipse
 10
0.192236328125
 20
-0.0551215277777778
 30
0.0
 11
-0.2540757921006944
 21
-0.9028733995225694
 31
0.0
210
0.0
220
0.0
230
1.0
 40
0.7209797643743133
 41
0.0
 42
6.283185307179586
  0
SPLINE
  5
64
330
61
100
AcDbEntity
  8
LAYER_1
 62
     7
100
AcDbSpline
210
0.0
220
0.0
230
1.0
 70
    11
 71
     3
 72
    29
 73
    25
 74
     0
 42
0.0000000001
 43
0.0000000001
 40
0.0
 40
0.0
 40
0.0
 40
0.0
 40
1.0
 40
1.0
 40
1.0
 40
2.0
 40
2.0
 40
2.0
 40
3.0
 40
3.0
 40
3.0
 40
4.0
 40
4.0
 40
4.0
 40
5.0
 40
5.0
 40
5.0
 40
6.0
 40
6.0
 40
6.0
 40
7.0
 40
7.0
 40
7.0
 40
8.0
 40
8.0
 40
8.0
 40
8.0
 10
0.4464843749999999
 20
0.8468905978732638
 30
0.0
 10
0.3856784396701389
 20
0.8641160753038194
 30
0.0
 10
0.32401123046875
 20
0.8649773491753472
 30
0.0
 10
0.2623440212673611
 20
0.8592929416232639
 30
0.0
 10
0.2036051432291667
 20
0.9120029025607638
 30
0.0
 10
0.1374593098958333
 20
0.9540330674913193
 30
0.0
 10
0.0609781901041667
 20
0.9757371690538194
 30
0.0
 10
-0.2985175238715278
 20
1.07685072157118
 30
0.0
 10
-0.7036607530381944
 20
0.7549065483940971
 30
0.0
 10
-0.8442206488715277
 20
0.2564012315538194
 30
0.0
 10
-0.9840915256076388
 20
-0.2417595757378472
 30
0.0
 10
-0.8063245985243055
 20
-0.7282070583767361
 30
0.0
 10
-0.4473456488715277
 20
-0.8291483561197915
 30
0.0
 10
-0.3865397135416666
 20
-0.8465460883246527
 30
0.0
 10
-0.3245279947916667
 20
-0.8474073621961805
 30
0.0
 10
-0.2630330403645833
 20
-0.8415506998697916
 30
0.0
 10
-0.2044664171006944
 20
-0.8942606608072916
 30
0.0
 10
-0.1383205837673611
 20
-0.9364630805121527
 30
0.0
 10
-0.0618394639756944
 20
-0.9579949273003472
 30
0.0
 10
0.2978285047743055
 20
-1.058936225043403
 30
0.0
 10
0.7027994791666666
 20
-0.7371643066406249
 30
0.0
 10
0.8431871202256944
 20
-0.2383144802517361
 30
0.0
 10
0.9830579969618055
 20
0.2595018174913194
 30
0.0
 10
0.8059800889756944
 20
0.7459493001302082
 30
0.0
 10
0.4464843749999999
 20
0.8468905978732638
 30
0.0
  0
ENDBLK
  5
66
330
61
100
AcDbEntity
  8
LAYER_1
100
AcDbBlockEnd
  0
BLOCK
  5
83
330
81
100
AcDbEntity
  8
LAYER_1
 62
     7
100
AcDbBlockBegin
  2
AI9-BLK13
 70
     0
 10
0.0
 20
0.0
 30
0.0
  3
AI9-BLK13
  1

  4

  0
INSERT
  5
85
330
81
100
AcDbEntity
  8
LAYER_1
 62
     7
100
AcDbBlockReference
  2
AI9-BLK14
 10
0.0
 20
0.0
 30
0.0
  0
ENDBLK
  5
95
330
81
100
AcDbEntity
  8
LAYER_1
100
AcDbBlockEnd
  0
BLOCK
  5
86
330
84
100
AcDbEntity
  8
LAYER_1
 62
     7
100
AcDbBlockBegin
  2
AI9-BLK14
 70
     0
 10
0.0
 20
0.0
 30
0.0
  3
AI9-BLK14
  1

  4

  0
SPLINE
  5
93
330
84
100
AcDbEntity
  8
LAYER_1
 62
     7
100
AcDbSpline
210
0.0
220
0.0
230
1.0
 70
    11
 71
     3
 72
   107
 73
   103
 74
     0
 42
0.0000000001
 43
0.0000000001
 40
0.0
 40
0.0
 40
0.0
 40
0.0
 40
1.0
 40
1.0
 40
1.0
 40
2.0
 40
2.0
 40
2.0
 40
3.0
 40
3.0
 40
3.0
 40
4.0
 40
4.0
 40
4.0
 40
5.0
 40
5.0
 40
5.0
 40
6.0
 40
6.0
 40
6.0
 40
7.0
 40
7.0
 40
7.0
 40
8.0
 40
8.0
 40
8.0
 40
9.0
 40
9.0
 40
9.0
 40
10.0
 40
10.0
 40
10.0
 40
11.0
 40
11.0
 40
11.0
 40
12.0
 40
12.0
 40
12.0
 40
13.0
 40
13.0
 40
13.0
 40
14.0
 40
14.0
 40
14.0
 40
15.0
 40
15.0
 40
15.0
 40
16.0
 40
16.0
 40
16.0
 40
17.0
 40
17.0
 40
17.0
 40
18.0
 40
18.0
 40
18.0
 40
19.0
 40
19.0
 40
19.0
 40
20.0
 40
20.0
 40
20.0
 40
21.0
 40
21.0
 40
21.0
 40
22.0
 40
22.0
 40
22.0
 40
23.0
 40
23.0
 40
23.0
 40
24.0
 40
24.0
 40
24.0
 40
25.0
 40
25.0
 40
25.0
 40
26.0
 40
26.0
 40
26.0
 40
27.0
 40
27.0
 40
27.0
 40
28.0
 40
28.0
 40
28.0
 40
29.0
 40
29.0
 40
29.0
 40
30.0
 40
30.0
 40
30.0
 40
31.0
 40
31.0
 40
31.0
 40
32.0
 40
32.0
 40
32.0
 40
33.0
 40
33.0
 40
33.0
 40
34.0
 40
34.0
 40
34.0
 40
34.0
 10
-10.32882690429687
 20
-5.576576063368055
 30
0.0
 10
-10.32882690429687
 20
-5.576576063368055
 30
0.0
 10
-10.32882690429687
 20
-15.57786051432292
 30
0.0
 10
-10.32882690429687
 20
-15.57786051432292
 30
0.0
 10
-10.32882690429687
 20
-15.57786051432292
 30
0.0
 10
-9.850475396050346
 20
-15.76303439670139
 30
0.0
 10
-9.850475396050346
 20
-15.97904188368055
 30
0.0
 10
-9.850475396050346
 20
-16.28186577690972
 30
0.0
 10
-9.850475396050346
 20
-17.97564697265625
 30
0.0
 10
-9.850475396050346
 20
-18.19492730034722
 30
0.0
 10
-9.850475396050346
 20
-18.56510281032986
 30
0.0
 10
-10.33933444552951
 20
-18.63744981553819
 30
0.0
 10
-10.39083862304687
 20
-18.68878173828125
 30
0.0
 10
-10.39083862304687
 20
-18.68878173828125
 30
0.0
 10
-10.39083862304687
 20
-30.0262464735243
 30
0.0
 10
-10.39083862304687
 20
-30.0262464735243
 30
0.0
 10
-10.39083862304687
 20
-30.0262464735243
 30
0.0
 10
-8.352547878689235
 20
-31.89142116970486
 30
0.0
 10
-8.352547878689235
 20
-31.89142116970486
 30
0.0
 10
-8.352547878689235
 20
-31.89142116970486
 30
0.0
 10
-2.897755940755208
 20
-30.77142062717014
 30
0.0
 10
-2.897755940755208
 20
-30.77142062717014
 30
0.0
 10
-2.897755940755208
 20
-30.77142062717014
 30
0.0
 10
-0.9452480740017361
 20
-27.98881700303819
 30
0.0
 10
-0.9452480740017361
 20
-27.98881700303819
 30
0.0
 10
-0.9452480740017361
 20
-27.98881700303819
 30
0.0
 10
-0.9452480740017361
 20
-16.62930365668403
 30
0.0
 10
-0.9452480740017361
 20
-16.62930365668403
 30
0.0
 10
-0.9452480740017361
 20
-16.62930365668403
 30
0.0
 10
-1.609462483723958
 20
-16.61380072699653
 30
0.0
 10
-1.609462483723958
 20
-16.1201185438368
 30
0.0
 10
-1.609462483723958
 20
-15.93477240668403
 30
0.0
 10
-1.609462483723958
 20
-15.40905083550347
 30
0.0
 10
-1.609462483723958
 20
-15.11690673828125
 30
0.0
 10
-1.609462483723958
 20
-14.74655897352431
 30
0.0
 10
-1.246177164713542
 20
-14.53055148654514
 30
0.0
 10
-0.8215691460503471
 20
-14.53055148654514
 30
0.0
 10
-0.8215691460503471
 20
-14.53055148654514
 30
0.0
 10
-0.8215691460503471
 20
-6.304180230034722
 30
0.0
 10
-0.8215691460503471
 20
-6.304180230034722
 30
0.0
 10
-0.8215691460503471
 20
-6.304180230034722
 30
0.0
 10
-0.6363952636718749
 20
-5.316299099392361
 30
0.0
 10
0.5366597493489583
 20
-4.575259060329861
 30
0.0
 10
0.5366597493489583
 20
-4.575259060329861
 30
0.0
 10
10.26733194986979
 20
10.47050645616319
 30
0.0
 10
10.26733194986979
 20
10.47050645616319
 30
0.0
 10
10.26733194986979
 20
10.47050645616319
 30
0.0
 10
10.26733194986979
 20
15.64986300998264
 30
0.0
 10
10.26733194986979
 20
15.64986300998264
 30
0.0
 10
10.26733194986979
 20
15.64986300998264
 30
0.0
 10
9.588303629557291
 20
15.61885715060764
 30
0.0
 10
9.588303629557291
 20
16.08187798394097
 30
0.0
 10
9.588303629557291
 20
16.42225341796875
 30
0.0
 10
9.588303629557291
 20
17.27801513671875
 30
0.0
 10
9.588303629557291
 20
17.45560980902778
 30
0.0
 10
9.588303629557291
 20
17.79512396918403
 30
0.0
 10
9.711465793185763
 20
18.04179280598958
 30
0.0
 10
10.39083862304687
 20
18.04179280598958
 30
0.0
 10
10.39083862304687
 20
18.04179280598958
 30
0.0
 10
10.39083862304687
 20
28.06529812282986
 30
0.0
 10
10.39083862304687
 20
28.06529812282986
 30
0.0
 10
10.39083862304687
 20
28.06529812282986
 30
0.0
 10
9.438441975911458
 20
30.04967312282986
 30
0.0
 10
8.662261962890625
 20
30.34974093967014
 30
0.0
 10
7.961529541015624
 20
30.62018093532986
 30
0.0
 10
4.004320610894097
 20
32.0261244032118
 30
0.0
 10
3.386959499782986
 20
31.90244547526041
 30
0.0
 10
2.769598388671875
 20
31.77911105685764
 30
0.0
 10
2.831265597873264
 20
31.90244547526041
 30
0.0
 10
2.460917833116319
 20
31.3470960828993
 30
0.0
 10
2.090570068359375
 20
30.79122992621528
 30
0.0
 10
1.781889512803819
 20
30.48272162543402
 30
0.0
 10
1.781889512803819
 20
29.18615993923611
 30
0.0
 10
1.781889512803819
 20
27.88959825303819
 30
0.0
 10
1.781889512803819
 20
19.86390380859375
 30
0.0
 10
1.781889512803819
 20
19.86390380859375
 30
0.0
 10
1.781889512803819
 20
19.86390380859375
 30
0.0
 10
2.279361300998264
 20
19.74074164496528
 30
0.0
 10
2.279361300998264
 20
19.29305148654514
 30
0.0
 10
2.279361300998264
 20
19.11545681423611
 30
0.0
 10
2.279361300998264
 20
18.70635172526042
 30
0.0
 10
2.279361300998264
 20
18.37286648220486
 30
0.0
 10
2.279361300998264
 20
17.91949191623264
 30
0.0
 10
2.121231418185764
 20
17.73414577907986
 30
0.0
 10
1.874562581380208
 20
17.64164496527778
 30
0.0
 10
1.874562581380208
 20
17.64164496527778
 30
0.0
 10
1.874562581380208
 20
16.87890082465278
 30
0.0
 10
1.874562581380208
 20
16.19987250434028
 30
0.0
 10
1.874562581380208
 20
15.54668240017361
 30
0.0
 10
2.592348225911458
 20
11.61152208116319
 30
0.0
 10
1.897816975911458
 20
11.26425645616319
 30
0.0
 10
1.864227294921875
 20
11.25133734809028
 30
0.0
 10
1.550551350911458
 20
11.00949164496528
 30
0.0
 10
1.458050537109375
 20
10.89373643663194
 30
0.0
 10
1.319040934244792
 20
10.72010362413194
 30
0.0
 10
-0.0462504069010417
 20
9.513114420572915
 30
0.0
 10
-0.1425408257378472
 20
9.36256374782986
 30
0.0
 10
-0.3757737901475694
 20
8.998072645399304
 30
0.0
 10
-0.5187452528211806
 20
8.702655707465278
 30
0.0
 10
-1.130421956380208
 20
7.61073269314236
 30
0.0
 10
-1.99462415907118
 20
6.067329915364583
 30
0.0
 10
-10.32882690429687
 20
-5.576576063368055
 30
0.0
 10
-10.32882690429687
 20
-5.576576063368055
 30
0.0
  0
SPLINE
  5
92
330
84
100
AcDbEntity
  8
LAYER_1
 62
     7
100
AcDbSpline
210
0.0
220
0.0
230
1.0
 70
     8
 71
     3
 72
    32
 73
    28
 74
     0
 42
0.0000000001
 43
0.0000000001
 40
0.0
 40
0.0
 40
0.0
 40
0.0
 40
1.0
 40
1.0
 40
1.0
 40
2.0
 40
2.0
 40
2.0
 40
3.0
 40
3.0
 40
3.0
 40
4.0
 40
4.0
 40
4.0
 40
5.0
 40
5.0
 40
5.0
 40
6.0
 40
6.0
 40
6.0
 40
7.0
 40
7.0
 40
7.0
 40
8.0
 40
8.0
 40
8.0
 40
9.0
 40
9.0
 40
9.0
 40
9.0
 10
0.3514858669704861
 20
-4.666898600260416
 30
0.0
 10
0.2278069390190972
 20
-3.958070203993055
 30
0.0
 10
0.4746480305989583
 20
-3.526055230034722
 30
0.0
 10
0.4746480305989583
 20
-3.526055230034722
 30
0.0
 10
0.4746480305989583
 20
-3.526055230034722
 30
0.0
 10
9.769343397352429
 20
10.78676622178819
 30
0.0
 10
9.769343397352429
 20
10.78676622178819
 30
0.0
 10
9.769343397352429
 20
10.78676622178819
 30
0.0
 10
9.769343397352429
 20
15.55701768663194
 30
0.0
 10
9.769343397352429
 20
15.55701768663194
 30
0.0
 10
9.769343397352429
 20
15.55701768663194
 30
0.0
 10
8.924605984157985
 20
15.57252061631944
 30
0.0
 10
8.912892659505207
 20
15.92753770616319
 30
0.0
 10
8.899456787109374
 20
16.34404975043403
 30
0.0
 10
8.912892659505207
 20
17.31453314887153
 30
0.0
 10
8.912892659505207
 20
17.54811062282986
 30
0.0
 10
8.912892659505207
 20
17.9649671766493
 30
0.0
 10
9.213994004991319
 20
18.24264187282986
 30
0.0
 10
9.893022325303818
 20
18.24264187282986
 30
0.0
 10
9.893022325303818
 20
18.24264187282986
 30
0.0
 10
9.893022325303818
 20
28.06529812282986
 30
0.0
 10
9.893022325303818
 20
28.06529812282986
 30
0.0
 10
9.893022325303818
 20
28.06529812282986
 30
0.0
 10
8.677764892578125
 20
29.85123562282986
 30
0.0
 10
8.677764892578125
 20
29.85123562282986
 30
0.0
 10
8.677764892578125
 20
29.85123562282986
 30
0.0
 10
2.823858642578125
 20
31.76946478949652
 30
0.0
 10
2.823858642578125
 20
31.76946478949652
 30
0.0
  0
SPLINE
  5
91
330
84
100
AcDbEntity
  8
LAYER_1
 62
     7
100
AcDbSpline
210
0.0
220
0.0
230
1.0
 70
     8
 71
     3
 72
    29
 73
    25
 74
     0
 42
0.0000000001
 43
0.0000000001
 40
0.0
 40
0.0
 40
0.0
 40
0.0
 40
1.0
 40
1.0
 40
1.0
 40
2.0
 40
2.0
 40
2.0
 40
3.0
 40
3.0
 40
3.0
 40
4.0
 40
4.0
 40
4.0
 40
5.0
 40
5.0
 40
5.0
 40
6.0
 40
6.0
 40
6.0
 40
7.0
 40
7.0
 40
7.0
 40
8.0
 40
8.0
 40
8.0
 40
8.0
 10
0.1120517306857639
 20
9.478318956163193
 30
0.0
 10
0.2508890787760417
 20
9.06146240234375
 30
0.0
 10
-0.0119717068142361
 20
8.157124837239582
 30
0.0
 10
-0.0498677571614583
 20
8.089256456163193
 30
0.0
 10
-0.9144144694010415
 20
6.545853678385416
 30
0.0
 10
-9.815679931640624
 20
-5.877332899305555
 30
0.0
 10
-9.815679931640624
 20
-5.877332899305555
 30
0.0
 10
-9.815679931640624
 20
-5.877332899305555
 30
0.0
 10
-9.815679931640624
 20
-15.72427707248264
 30
0.0
 10
-9.815679931640624
 20
-15.72427707248264
 30
0.0
 10
-9.815679931640624
 20
-15.72427707248264
 30
0.0
 10
-9.346974690755207
 20
-15.60852186414931
 30
0.0
 10
-9.346974690755207
 20
-16.3495619032118
 30
0.0
 10
-9.346974690755207
 20
-16.66341010199653
 30
0.0
 10
-9.346974690755207
 20
-18.02181125217014
 30
0.0
 10
-9.346974690755207
 20
-18.3029310438368
 30
0.0
 10
-9.346974690755207
 20
-18.67345106336805
 30
0.0
 10
-9.877347140842012
 20
-18.92029215494792
 30
0.0
 10
-9.877347140842012
 20
-18.92029215494792
 30
0.0
 10
-9.877347140842012
 20
-18.92029215494792
 30
0.0
 10
-9.877347140842012
 20
-29.84090033637153
 30
0.0
 10
-9.877347140842012
 20
-29.84090033637153
 30
0.0
 10
-9.877347140842012
 20
-29.84090033637153
 30
0.0
 10
-7.957912190755208
 20
-31.5982435438368
 30
0.0
 10
-7.957912190755208
 20
-31.5982435438368
 30
0.0
  0
LINE
  5
90
330
84
100
AcDbEntity
  8
LAYER_1
 62
     7
100
AcDbLine
 10
9.769343397352429
 20
10.78676622178819
 30
0.0
 11
10.26733194986979
 21
10.47050645616319
 31
0.0
  0
LINE
  5
8F
330
84
100
AcDbEntity
  8
LAYER_1
 62
     7
100
AcDbLine
 10
9.893022325303818
 20
18.24264187282986
 30
0.0
 11
10.39083862304687
 21
18.04179280598958
 31
0.0
  0
LINE
  5
8E
330
84
100
AcDbEntity
  8
LAYER_1
 62
     7
100
AcDbLine
 10
-10.35983276367187
 20
-5.669076877170139
 30
0.0
 11
-9.815679931640624
 21
-5.877332899305555
 31
0.0
  0
LINE
  5
8D
330
84
100
AcDbEntity
  8
LAYER_1
 62
     7
100
AcDbLine
 10
0.7071919759114582
 20
8.949152289496526
 30
0.0
 11
0.7071919759114582
 21
8.655974663628472
 31
0.0
  0
LINE
  5
8C
330
84
100
AcDbEntity
  8
LAYER_1
 62
     7
100
AcDbLine
 10
0.710809326171875
 20
7.769551595052083
 30
0.0
 11
0.710809326171875
 21
-1.369597710503472
 31
0.0
  0
LINE
  5
8B
330
84
100
AcDbEntity
  8
LAYER_1
 62
     7
100
AcDbLine
 10
0.641046142578125
 20
-2.097201877170139
 30
0.0
 11
0.641046142578125
 21
-2.467721896701389
 31
0.0
  0
LINE
  5
8A
330
84
100
AcDbEntity
  8
LAYER_1
 62
     7
100
AcDbLine
 10
-10.35208129882812
 20
-30.04536675347222
 30
0.0
 11
-9.877347140842012
 21
-29.84090033637153
 31
0.0
  0
LINE
  5
89
330
84
100
AcDbEntity
  8
LAYER_1
 62
     7
100
AcDbLine
 10
-10.32882690429687
 20
-15.57786051432292
 30
0.0
 11
-9.831182861328124
 21
-15.72427707248264
 31
0.0
  0
LINE
  5
88
330
84
100
AcDbEntity
  8
LAYER_1
 62
     7
100
AcDbLine
 10
9.769343397352429
 20
15.55701768663194
 30
0.0
 11
10.26733194986979
 21
15.64986300998264
 31
0.0
  0
LINE
  5
87
330
84
100
AcDbEntity
  8
LAYER_1
 62
     7
100
AcDbLine
 10
-10.39083862304687
 20
-18.68878173828125
 30
0.0
 11
-9.877347140842012
 21
-18.92029215494792
 31
0.0
  0
ENDBLK
  5
94
330
84
100
AcDbEntity
  8
LAYER_1
100
AcDbBlockEnd
  0
BLOCK
  5
104
330
102
100
AcDbEntity
  8
LAYER_1
 62
     7
100
AcDbBlockBegin
  2
AI9-BLK15
 70
     0
 10
0.0
 20
0.0
 30
0.0
  3
AI9-BLK15
  1

  4

  0
SPLINE
  5
110
330
102
100
AcDbEntity
  8
LAYER_1
 62
     7
100
AcDbSpline
210
0.0
220
0.0
230
1.0
 70
     8
 71
     3
 72
    23
 73
    19
 74
     0
 42
0.0000000001
 43
0.0000000001
 40
0.0
 40
0.0
 40
0.0
 40
0.0
 40
1.0
 40
1.0
 40
1.0
 40
2.0
 40
2.0
 40
2.0
 40
3.0
 40
3.0
 40
3.0
 40
4.0
 40
4.0
 40
4.0
 40
5.0
 40
5.0
 40
5.0
 40
6.0
 40
6.0
 40
6.0
 40
6.0
 10
-9.272216118706597
 20
8.59732191297743
 30
0.0
 10
-8.875341118706597
 20
8.465030246310763
 30
0.0
 10
-8.676903618706596
 20
8.134301079644096
 30
0.0
 10
-8.34617445203993
 20
8.002009412977429
 30
0.0
 10
-7.75086195203993
 20
7.80357191297743
 30
0.0
 10
-7.089403618706597
 20
8.002009412977429
 30
0.0
 10
-6.56023695203993
 20
7.671280246310763
 30
0.0
 10
-5.96492445203993
 20
7.274405246310764
 30
0.0
 10
-5.435757785373263
 20
7.00982191297743
 30
0.0
 10
-4.840445285373264
 20
6.679092746310763
 30
0.0
 10
-4.57586195203993
 20
6.546801079644097
 30
0.0
 10
-4.178986952039931
 20
6.679092746310763
 30
0.0
 10
-3.914403618706597
 20
6.546801079644097
 30
0.0
 10
-3.78211195203993
 20
6.480655246310763
 30
0.0
 10
-3.649820285373264
 20
6.41450941297743
 30
0.0
 10
-3.517528618706597
 20
6.41450941297743
 30
0.0
 10
-2.194611952039931
 20
6.282217746310764
 30
0.0
 10
-0.9378411187065971
 20
6.348363579644096
 30
0.0
 10
0.3850755479600694
 20
6.348363579644096
 30
0.0
  0
SPLINE
  5
10F
330
102
100
AcDbEntity
  8
LAYER_1
 62
     7
100
AcDbSpline
210
0.0
220
0.0
230
1.0
 70
     8
 71
     3
 72
    17
 73
    13
 74
     0
 42
0.0000000001
 43
0.0000000001
 40
0.0
 40
0.0
 40
0.0
 40
0.0
 40
1.0
 40
1.0
 40
1.0
 40
2.0
 40
2.0
 40
2.0
 40
3.0
 40
3.0
 40
3.0
 40
4.0
 40
4.0
 40
4.0
 40
4.0
 10
-9.33836195203993
 20
6.679092746310763
 30
0.0
 10
-9.272216118706597
 20
6.546801079644097
 30
0.0
 10
-9.13992445203993
 20
6.546801079644097
 30
0.0
 10
-9.007632785373263
 20
6.480655246310763
 30
0.0
 10
-8.412320285373264
 20
6.21607191297743
 30
0.0
 10
-7.817007785373264
 20
6.282217746310764
 30
0.0
 10
-7.15554945203993
 20
6.149926079644096
 30
0.0
 10
-6.824820285373264
 20
6.083780246310764
 30
0.0
 10
-6.56023695203993
 20
5.81919691297743
 30
0.0
 10
-6.229507785373263
 20
5.686905246310763
 30
0.0
 10
-4.509716118706597
 20
5.290030246310764
 30
0.0
 10
-2.922216118706597
 20
4.562426079644097
 30
0.0
 10
-1.202424452039931
 20
4.760863579644097
 30
0.0
  0
SPLINE
  5
10E
330
102
100
AcDbEntity
  8
LAYER_1
 62
     7
100
AcDbSpline
210
0.0
220
0.0
230
1.0
 70
     8
 71
     3
 72
    20
 73
    16
 74
     0
 42
0.0000000001
 43
0.0000000001
 40
0.0
 40
0.0
 40
0.0
 40
0.0
 40
1.0
 40
1.0
 40
1.0
 40
2.0
 40
2.0
 40
2.0
 40
3.0
 40
3.0
 40
3.0
 40
4.0
 40
4.0
 40
4.0
 40
5.0
 40
5.0
 40
5.0
 40
5.0
 10
-9.206070285373263
 20
4.82700941297743
 30
0.0
 10
-8.809195285373264
 20
4.628571912977431
 30
0.0
 10
-8.34617445203993
 20
4.562426079644097
 30
0.0
 10
-7.883153618706596
 20
4.43013441297743
 30
0.0
 10
-7.15554945203993
 20
4.165551079644096
 30
0.0
 10
-6.626382785373263
 20
3.63638441297743
 30
0.0
 10
-5.898778618706596
 20
3.504092746310763
 30
0.0
 10
-4.77429945203993
 20
3.173363579644097
 30
0.0
 10
-3.78211195203993
 20
3.107217746310764
 30
0.0
 10
-2.657632785373264
 20
2.908780246310764
 30
0.0
 10
-2.128466118706597
 20
2.84263441297743
 30
0.0
 10
-1.665445285373264
 20
2.908780246310764
 30
0.0
 10
-1.136278618706597
 20
2.974926079644097
 30
0.0
 10
-1.136278618706597
 20
2.974926079644097
 30
0.0
 10
-1.136278618706597
 20
3.04107191297743
 30
0.0
 10
-1.136278618706597
 20
3.107217746310764
 30
0.0
  0
SPLINE
  5
10D
330
102
100
AcDbEntity
  8
LAYER_1
 62
     7
100
AcDbSpline
210
0.0
220
0.0
230
1.0
 70
     8
 71
     3
 72
    14
 73
    10
 74
     0
 42
0.0000000001
 43
0.0000000001
 40
0.0
 40
0.0
 40
0.0
 40
0.0
 40
1.0
 40
1.0
 40
1.0
 40
2.0
 40
2.0
 40
2.0
 40
3.0
 40
3.0
 40
3.0
 40
3.0
 10
-9.206070285373263
 20
3.173363579644097
 30
0.0
 10
-7.94929945203993
 20
2.511905246310764
 30
0.0
 10
-6.56023695203993
 20
2.115030246310764
 30
0.0
 10
-5.105028618706597
 20
1.916592746310764
 30
0.0
 10
-4.57586195203993
 20
1.85044691297743
 30
0.0
 10
-4.178986952039931
 20
1.519717746310764
 30
0.0
 10
-3.715966118706597
 20
1.25513441297743
 30
0.0
 10
-3.054507785373263
 20
0.9905510796440972
 30
0.0
 10
-2.326903618706597
 20
1.188988579644097
 30
0.0
 10
-1.665445285373264
 20
1.122842746310764
 30
0.0
  0
SPLINE
  5
10C
330
102
100
AcDbEntity
  8
LAYER_1
 62
     7
100
AcDbSpline
210
0.0
220
0.0
230
1.0
 70
     8
 71
     3
 72
    14
 73
    10
 74
     0
 42
0.0000000001
 43
0.0000000001
 40
0.0
 40
0.0
 40
0.0
 40
0.0
 40
1.0
 40
1.0
 40
1.0
 40
2.0
 40
2.0
 40
2.0
 40
3.0
 40
3.0
 40
3.0
 40
3.0
 10
-9.33836195203993
 20
1.519717746310764
 30
0.0
 10
-9.206070285373263
 20
1.519717746310764
 30
0.0
 10
-9.206070285373263
 20
1.387426079644097
 30
0.0
 10
-9.073778618706596
 20
1.321280246310764
 30
0.0
 10
-8.213882785373263
 20
0.9244052463107638
 30
0.0
 10
-7.221695285373263
 20
1.188988579644097
 30
0.0
 10
-6.427945285373263
 20
0.7259677463107638
 30
0.0
 10
-4.77429945203993
 20
-0.2662197536892361
 30
0.0
 10
-3.715966118706597
 20
-1.126115587022569
 30
0.0
 10
-1.268570285373264
 20
-0.7292405870225693
 30
0.0
  0
SPLINE
  5
10B
330
102
100
AcDbEntity
  8
LAYER_1
 62
     7
100
AcDbSpline
210
0.0
220
0.0
230
1.0
 70
     8
 71
     3
 72
    17
 73
    13
 74
     0
 42
0.0000000001
 43
0.0000000001
 40
0.0
 40
0.0
 40
0.0
 40
0.0
 40
1.0
 40
1.0
 40
1.0
 40
2.0
 40
2.0
 40
2.0
 40
3.0
 40
3.0
 40
3.0
 40
4.0
 40
4.0
 40
4.0
 40
4.0
 10
-9.404507785373262
 20
-0.3323655870225694
 30
0.0
 10
-8.809195285373264
 20
-0.3323655870225694
 30
0.0
 10
-8.280028618706597
 20
-0.7292405870225693
 30
0.0
 10
-7.684716118706596
 20
-0.7953864203559027
 30
0.0
 10
-7.486278618706597
 20
-0.7953864203559027
 30
0.0
 10
-7.287841118706597
 20
-0.9276780870225694
 30
0.0
 10
-7.089403618706597
 20
-0.9938239203559027
 30
0.0
 10
-6.824820285373264
 20
-1.126115587022569
 30
0.0
 10
-6.494091118706597
 20
-1.258407253689236
 30
0.0
 10
-6.229507785373263
 20
-1.390698920355903
 30
0.0
 10
-4.77429945203993
 20
-2.052157253689236
 30
0.0
 10
-3.58367445203993
 20
-2.713615587022569
 30
0.0
 10
-1.533153618706597
 20
-2.382886420355903
 30
0.0
  0
SPLINE
  5
10A
330
102
100
AcDbEntity
  8
LAYER_1
 62
     7
100
AcDbSpline
210
0.0
220
0.0
230
1.0
 70
     8
 71
     3
 72
    14
 73
    10
 74
     0
 42
0.0000000001
 43
0.0000000001
 40
0.0
 40
0.0
 40
0.0
 40
0.0
 40
1.0
 40
1.0
 40
1.0
 40
2.0
 40
2.0
 40
2.0
 40
3.0
 40
3.0
 40
3.0
 40
3.0
 10
-1.334716118706597
 20
3.570238579644097
 30
0.0
 10
0.1866380479600694
 20
3.570238579644097
 30
0.0
 10
1.707992214626736
 20
3.702530246310764
 30
0.0
 10
3.295492214626736
 20
3.504092746310763
 30
0.0
 10
3.427783881293403
 20
3.504092746310763
 30
0.0
 10
3.692367214626736
 20
3.305655246310764
 30
0.0
 10
3.890804714626736
 20
3.173363579644097
 30
0.0
 10
5.610596381293402
 20
2.04888441297743
 30
0.0
 10
7.528825547960069
 20
1.453571912977431
 30
0.0
 10
9.182471381293402
 20
0.3290927463107639
 30
0.0
  0
SPLINE
  5
109
330
102
100
AcDbEntity
  8
LAYER_1
 62
     7
100
AcDbSpline
210
0.0
220
0.0
230
1.0
 70
     8
 71
     3
 72
    20
 73
    16
 74
     0
 42
0.0000000001
 43
0.0000000001
 40
0.0
 40
0.0
 40
0.0
 40
0.0
 40
1.0
 40
1.0
 40
1.0
 40
2.0
 40
2.0
 40
2.0
 40
3.0
 40
3.0
 40
3.0
 40
4.0
 40
4.0
 40
4.0
 40
5.0
 40
5.0
 40
5.0
 40
5.0
 10
-1.070132785373264
 20
1.85044691297743
 30
0.0
 10
0.3850755479600694
 20
1.718155246310764
 30
0.0
 10
1.707992214626736
 20
2.24732191297743
 30
0.0
 10
3.163200547960069
 20
1.982738579644097
 30
0.0
 10
3.427783881293403
 20
1.982738579644097
 30
0.0
 10
3.626221381293402
 20
1.718155246310764
 30
0.0
 10
3.824658881293403
 20
1.65200941297743
 30
0.0
 10
5.147575547960069
 20
0.9905510796440972
 30
0.0
 10
6.272054714626735
 20
0.0645094129774306
 30
0.0
 10
7.528825547960069
 20
-0.5308030870225694
 30
0.0
 10
7.859554714626736
 20
-0.7292405870225693
 30
0.0
 10
8.124138047960068
 20
-0.861532253689236
 30
0.0
 10
8.454867214626736
 20
-1.059969753689236
 30
0.0
 10
8.653304714626735
 20
-1.192261420355903
 30
0.0
 10
8.917888047960069
 20
-1.192261420355903
 30
0.0
 10
9.050179714626735
 20
-1.390698920355903
 30
0.0
  0
SPLINE
  5
108
330
102
100
AcDbEntity
  8
LAYER_1
 62
     7
100
AcDbSpline
210
0.0
220
0.0
230
1.0
 70
     8
 71
     3
 72
    26
 73
    22
 74
     0
 42
0.0000000001
 43
0.0000000001
 40
0.0
 40
0.0
 40
0.0
 40
0.0
 40
1.0
 40
1.0
 40
1.0
 40
2.0
 40
2.0
 40
2.0
 40
3.0
 40
3.0
 40
3.0
 40
4.0
 40
4.0
 40
4.0
 40
5.0
 40
5.0
 40
5.0
 40
6.0
 40
6.0
 40
6.0
 40
7.0
 40
7.0
 40
7.0
 40
7.0
 10
-1.202424452039931
 20
-0.0016364203559028
 30
0.0
 10
0.4512213812934027
 20
0.0645094129774306
 30
0.0
 10
2.038721381293402
 20
0.1968010796440972
 30
0.0
 10
3.692367214626736
 20
0.0645094129774306
 30
0.0
 10
3.824658881293403
 20
0.0645094129774306
 30
0.0
 10
4.023096381293402
 20
-0.2000739203559028
 30
0.0
 10
4.155388047960069
 20
-0.3323655870225694
 30
0.0
 10
4.419971381293403
 20
-0.3985114203559028
 30
0.0
 10
4.684554714626736
 20
-0.5308030870225694
 30
0.0
 10
4.949138047960069
 20
-0.6630947536892361
 30
0.0
 10
5.147575547960069
 20
-0.861532253689236
 30
0.0
 10
5.412158881293403
 20
-0.9938239203559027
 30
0.0
 10
5.610596381293402
 20
-1.258407253689236
 30
0.0
 10
6.007471381293402
 20
-1.589136420355903
 30
0.0
 10
6.470492214626735
 20
-1.853719753689236
 30
0.0
 10
6.933513047960068
 20
-2.118303087022569
 30
0.0
 10
7.264242214626735
 20
-2.316740587022569
 30
0.0
 10
7.594971381293402
 20
-2.515178087022569
 30
0.0
 10
7.991846381293402
 20
-2.647469753689236
 30
0.0
 10
8.388721381293403
 20
-2.912053087022569
 30
0.0
 10
8.719450547960069
 20
-3.242782253689236
 30
0.0
 10
9.182471381293402
 20
-3.507365587022569
 30
0.0
  0
SPLINE
  5
107
330
102
100
AcDbEntity
  8
LAYER_1
 62
     7
100
AcDbSpline
210
0.0
220
0.0
230
1.0
 70
     8
 71
     3
 72
    23
 73
    19
 74
     0
 42
0.0000000001
 43
0.0000000001
 40
0.0
 40
0.0
 40
0.0
 40
0.0
 40
1.0
 40
1.0
 40
1.0
 40
2.0
 40
2.0
 40
2.0
 40
3.0
 40
3.0
 40
3.0
 40
4.0
 40
4.0
 40
4.0
 40
5.0
 40
5.0
 40
5.0
 40
6.0
 40
6.0
 40
6.0
 40
6.0
 10
-1.202424452039931
 20
-1.853719753689236
 30
0.0
 10
-0.1440911187065972
 20
-1.853719753689236
 30
0.0
 10
0.9142422146267361
 20
-2.052157253689236
 30
0.0
 10
1.906429714626736
 20
-1.721428087022569
 30
0.0
 10
2.435596381293403
 20
-1.589136420355903
 30
0.0
 10
3.097054714626736
 20
-1.456844753689236
 30
0.0
 10
3.493929714626736
 20
-1.655282253689236
 30
0.0
 10
4.221533881293403
 20
-1.986011420355903
 30
0.0
 10
4.882992214626736
 20
-2.515178087022569
 30
0.0
 10
5.544450547960069
 20
-2.912053087022569
 30
0.0
 10
6.205908881293402
 20
-3.308928087022569
 30
0.0
 10
6.867367214626736
 20
-3.771948920355902
 30
0.0
 10
7.661117214626735
 20
-3.970386420355903
 30
0.0
 10
7.925700547960068
 20
-4.102678087022569
 30
0.0
 10
8.190283881293402
 20
-4.168823920355902
 30
0.0
 10
8.454867214626736
 20
-4.30111558702257
 30
0.0
 10
8.785596381293402
 20
-4.433407253689236
 30
0.0
 10
9.050179714626735
 20
-4.764136420355903
 30
0.0
 10
9.380908881293403
 20
-4.962573920355903
 30
0.0
  0
SPLINE
  5
106
330
102
100
AcDbEntity
  8
LAYER_1
 62
     7
100
AcDbSpline
210
0.0
220
0.0
230
1.0
 70
     8
 71
     3
 72
    23
 73
    19
 74
     0
 42
0.0000000001
 43
0.0000000001
 40
0.0
 40
0.0
 40
0.0
 40
0.0
 40
1.0
 40
1.0
 40
1.0
 40
2.0
 40
2.0
 40
2.0
 40
3.0
 40
3.0
 40
3.0
 40
4.0
 40
4.0
 40
4.0
 40
5.0
 40
5.0
 40
5.0
 40
6.0
 40
6.0
 40
6.0
 40
6.0
 10
-1.136278618706597
 20
-3.705803087022569
 30
0.0
 10
0.3189297146267361
 20
-3.705803087022569
 30
0.0
 10
1.774138047960069
 20
-3.639657253689236
 30
0.0
 10
3.229346381293403
 20
-3.639657253689236
 30
0.0
 10
3.493929714626736
 20
-3.639657253689236
 30
0.0
 10
3.824658881293403
 20
-4.036532253689236
 30
0.0
 10
4.089242214626736
 20
-4.30111558702257
 30
0.0
 10
4.419971381293403
 20
-4.565698920355902
 30
0.0
 10
4.816846381293402
 20
-4.565698920355902
 30
0.0
 10
5.147575547960069
 20
-4.830282253689235
 30
0.0
 10
5.676742214626736
 20
-5.161011420355902
 30
0.0
 10
6.139763047960069
 20
-5.557886420355902
 30
0.0
 10
6.668929714626736
 20
-5.756323920355903
 30
0.0
 10
7.264242214626735
 20
-6.020907253689235
 30
0.0
 10
7.925700547960068
 20
-6.087053087022569
 30
0.0
 10
8.521013047960068
 20
-6.219344753689236
 30
0.0
 10
8.851742214626736
 20
-6.351636420355902
 30
0.0
 10
8.917888047960069
 20
-6.682365587022569
 30
0.0
 10
9.182471381293402
 20
-6.880803087022569
 30
0.0
  0
SPLINE
  5
105
330
102
100
AcDbEntity
  8
LAYER_1
 62
     7
100
AcDbSpline
210
0.0
220
0.0
230
1.0
 70
     8
 71
     3
 72
    20
 73
    16
 74
     0
 42
0.0000000001
 43
0.0000000001
 40
0.0
 40
0.0
 40
0.0
 40
0.0
 40
1.0
 40
1.0
 40
1.0
 40
2.0
 40
2.0
 40
2.0
 40
3.0
 40
3.0
 40
3.0
 40
4.0
 40
4.0
 40
4.0
 40
5.0
 40
5.0
 40
5.0
 40
5.0
 10
-1.202424452039931
 20
-5.756323920355903
 30
0.0
 10
0.3189297146267361
 20
-5.756323920355903
 30
0.0
 10
1.906429714626736
 20
-5.624032253689236
 30
0.0
 10
3.427783881293403
 20
-5.822469753689235
 30
0.0
 10
3.626221381293402
 20
-5.822469753689235
 30
0.0
 10
3.890804714626736
 20
-6.020907253689235
 30
0.0
 10
4.089242214626736
 20
-6.153198920355902
 30
0.0
 10
4.552263047960069
 20
-6.351636420355902
 30
0.0
 10
5.015283881293402
 20
-6.483928087022569
 30
0.0
 10
5.478304714626735
 20
-6.682365587022569
 30
0.0
 10
6.404346381293403
 20
-7.079240587022569
 30
0.0
 10
7.396533881293403
 20
-7.608407253689236
 30
0.0
 10
8.388721381293403
 20
-8.071428087022568
 30
0.0
 10
8.653304714626735
 20
-8.203719753689235
 30
0.0
 10
8.917888047960069
 20
-8.468303087022569
 30
0.0
 10
9.182471381293402
 20
-8.600594753689235
 30
0.0
  0
ENDBLK
  5
111
330
102
100
AcDbEntity
  8
LAYER_1
100
AcDbBlockEnd
  0
BLOCK
  5
11A
330
118
100
AcDbEntity
  8
LAYER_1
 62
     7
100
AcDbBlockBegin
  2
AI9-BLK16
 70
     0
 10
0.0
 20
0.0
 30
0.0
  3
AI9-BLK16
  1

  4

  0
SPLINE
  5
123
330
118
100
AcDbEntity
  8
LAYER_1
 62
     7
100
AcDbSpline
210
0.0
220
0.0
230
1.0
 70
     8
 71
     3
 72
    17
 73
    13
 74
     0
 42
0.0000000001
 43
0.0000000001
 40
0.0
 40
0.0
 40
0.0
 40
0.0
 40
1.0
 40
1.0
 40
1.0
 40
2.0
 40
2.0
 40
2.0
 40
3.0
 40
3.0
 40
3.0
 40
4.0
 40
4.0
 40
4.0
 40
4.0
 10
-9.117445203993055
 20
8.598872205946179
 30
0.0
 10
-8.191403537326389
 20
8.334288872612847
 30
0.0
 10
-7.397653537326388
 20
7.937413872612846
 30
0.0
 10
-6.471611870659721
 20
7.672830539279513
 30
0.0
 10
-5.545570203993055
 20
7.275955539279513
 30
0.0
 10
-4.751820203993055
 20
6.482205539279513
 30
0.0
 10
-3.825778537326388
 20
5.953038872612846
 30
0.0
 10
-2.899736870659722
 20
5.556163872612847
 30
0.0
 10
-1.841403537326389
 20
5.953038872612846
 30
0.0
 10
-0.7830702039930555
 20
5.82074720594618
 30
0.0
 10
-0.7830702039930555
 20
5.82074720594618
 30
0.0
 10
-0.7830702039930555
 20
5.953038872612846
 30
0.0
 10
-0.7830702039930555
 20
5.953038872612846
 30
0.0
  0
SPLINE
  5
122
330
118
100
AcDbEntity
  8
LAYER_1
 62
     7
100
AcDbSpline
210
0.0
220
0.0
230
1.0
 70
     8
 71
     3
 72
    20
 73
    16
 74
     0
 42
0.0000000001
 43
0.0000000001
 40
0.0
 40
0.0
 40
0.0
 40
0.0
 40
1.0
 40
1.0
 40
1.0
 40
2.0
 40
2.0
 40
2.0
 40
3.0
 40
3.0
 40
3.0
 40
4.0
 40
4.0
 40
4.0
 40
5.0
 40
5.0
 40
5.0
 40
5.0
 10
-9.249736870659721
 20
5.556163872612847
 30
0.0
 10
-8.985153537326388
 20
5.556163872612847
 30
0.0
 10
-8.720570203993054
 20
5.688455539279514
 30
0.0
 10
-8.588278537326389
 20
5.556163872612847
 30
0.0
 10
-8.455986870659721
 20
5.291580539279513
 30
0.0
 10
-8.191403537326389
 20
5.02699720594618
 30
0.0
 10
-7.926820203993055
 20
4.894705539279514
 30
0.0
 10
-6.868486870659722
 20
4.497830539279513
 30
0.0
 10
-5.677861870659722
 20
4.63012220594618
 30
0.0
 10
-4.619528537326389
 20
4.233247205946181
 30
0.0
 10
-4.487236870659721
 20
4.233247205946181
 30
0.0
 10
-4.090361870659722
 20
3.968663872612847
 30
0.0
 10
-3.825778537326388
 20
3.571788872612847
 30
0.0
 10
-3.693486870659722
 20
3.174913872612847
 30
0.0
 10
-3.032028537326389
 20
3.43949720594618
 30
0.0
 10
-2.502861870659722
 20
3.43949720594618
 30
0.0
  0
SPLINE
  5
121
330
118
100
AcDbEntity
  8
LAYER_1
 62
     7
100
AcDbSpline
210
0.0
220
0.0
230
1.0
 70
     8
 71
     3
 72
    14
 73
    10
 74
     0
 42
0.0000000001
 43
0.0000000001
 40
0.0
 40
0.0
 40
0.0
 40
0.0
 40
1.0
 40
1.0
 40
1.0
 40
2.0
 40
2.0
 40
2.0
 40
3.0
 40
3.0
 40
3.0
 40
3.0
 10
-8.985153537326388
 20
3.571788872612847
 30
0.0
 10
-8.720570203993054
 20
3.571788872612847
 30
0.0
 10
-8.455986870659721
 20
3.571788872612847
 30
0.0
 10
-8.323695203993054
 20
3.571788872612847
 30
0.0
 10
-7.926820203993055
 20
2.64574720594618
 30
0.0
 10
-7.133070203993055
 20
1.85199720594618
 30
0.0
 10
-6.339320203993055
 20
1.587413872612847
 30
0.0
 10
-5.016403537326388
 20
1.190538872612847
 30
0.0
 10
-3.693486870659722
 20
1.190538872612847
 30
0.0
 10
-2.370570203993055
 20
0.7936638726128471
 30
0.0
  0
SPLINE
  5
120
330
118
100
AcDbEntity
  8
LAYER_1
 62
     7
100
AcDbSpline
210
0.0
220
0.0
230
1.0
 70
     8
 71
     3
 72
     8
 73
     4
 74
     0
 42
0.0000000001
 43
0.0000000001
 40
0.0
 40
0.0
 40
0.0
 40
0.0
 40
1.0
 40
1.0
 40
1.0
 40
1.0
 10
-9.249736870659721
 20
0.7936638726128471
 30
0.0
 10
-7.133070203993055
 20
-0.2646694607204861
 30
0.0
 10
-4.884111870659722
 20
-1.719877794053819
 30
0.0
 10
-2.502861870659722
 20
-1.852169460720486
 30
0.0
  0
SPLINE
  5
11F
330
118
100
AcDbEntity
  8
LAYER_1
 62
     7
100
AcDbSpline
210
0.0
220
0.0
230
1.0
 70
     8
 71
     3
 72
    14
 73
    10
 74
     0
 42
0.0000000001
 43
0.0000000001
 40
0.0
 40
0.0
 40
0.0
 40
0.0
 40
1.0
 40
1.0
 40
1.0
 40
2.0
 40
2.0
 40
2.0
 40
3.0
 40
3.0
 40
3.0
 40
3.0
 10
-1.973695203993055
 20
2.64574720594618
 30
0.0
 10
-0.3861952039930555
 20
2.513455539279514
 30
0.0
 10
1.201304796006944
 20
3.174913872612847
 30
0.0
 10
2.524221462673611
 20
2.64574720594618
 30
0.0
 10
3.942222764756944
 20
2.03803236219618
 30
0.0
 10
4.707895236545139
 20
2.126915825737847
 30
0.0
 10
6.625263129340278
 20
0.5290805392795138
 30
0.0
 10
6.889846462673611
 20
0.3967888726128472
 30
0.0
 10
8.609638129340278
 20
-0.7938361273871527
 30
0.0
 10
8.87422146267361
 20
-0.661544460720486
 30
0.0
  0
SPLINE
  5
11E
330
118
100
AcDbEntity
  8
LAYER_1
 62
     7
100
AcDbSpline
210
0.0
220
0.0
230
1.0
 70
     8
 71
     3
 72
    20
 73
    16
 74
     0
 42
0.0000000001
 43
0.0000000001
 40
0.0
 40
0.0
 40
0.0
 40
0.0
 40
1.0
 40
1.0
 40
1.0
 40
2.0
 40
2.0
 40
2.0
 40
3.0
 40
3.0
 40
3.0
 40
4.0
 40
4.0
 40
4.0
 40
5.0
 40
5.0
 40
5.0
 40
5.0
 10
-1.841403537326389
 20
0.2644972059461805
 30
0.0
 10
-1.444528537326389
 20
0.2644972059461805
 30
0.0
 10
-1.047653537326389
 20
0.1322055392795139
 30
0.0
 10
-0.6507785373263888
 20
0.2644972059461805
 30
0.0
 10
0.0106797960069444
 20
0.6613722059461805
 30
0.0
 10
0.6721381293402777
 20
0.5290805392795138
 30
0.0
 10
1.333596462673611
 20
0.7936638726128471
 30
0.0
 10
1.862763129340278
 20
0.9259555392795138
 30
0.0
 10
2.656513129340278
 20
0.9259555392795138
 30
0.0
 10
3.185679796006944
 20
0.6613722059461805
 30
0.0
 10
4.111721462673611
 20
0.1322055392795139
 30
0.0
 10
5.037763129340277
 20
-0.3969611273871527
 30
0.0
 10
5.963804796006944
 20
-0.9261277940538194
 30
0.0
 10
7.022138129340277
 20
-1.719877794053819
 30
0.0
 10
7.948179796006944
 20
-1.719877794053819
 30
0.0
 10
9.006513129340277
 20
-2.249044460720486
 30
0.0
  0
SPLINE
  5
11D
330
118
100
AcDbEntity
  8
LAYER_1
 62
     7
100
AcDbSpline
210
0.0
220
0.0
230
1.0
 70
     8
 71
     3
 72
    14
 73
    10
 74
     0
 42
0.0000000001
 43
0.0000000001
 40
0.0
 40
0.0
 40
0.0
 40
0.0
 40
1.0
 40
1.0
 40
1.0
 40
2.0
 40
2.0
 40
2.0
 40
3.0
 40
3.0
 40
3.0
 40
3.0
 10
-1.841403537326389
 20
-1.587586127387153
 30
0.0
 10
-0.2539035373263889
 20
-1.455294460720486
 30
0.0
 10
1.201304796006944
 20
-0.7938361273871527
 30
0.0
 10
2.656513129340278
 20
-1.323002794053819
 30
0.0
 10
3.317971462673611
 20
-1.587586127387153
 30
0.0
 10
3.979429796006944
 20
-2.116752794053819
 30
0.0
 10
4.640888129340278
 20
-2.513627794053819
 30
0.0
 10
5.963804796006944
 20
-3.175086127387153
 30
0.0
 10
7.286721462673611
 20
-3.571961127387152
 30
0.0
 10
8.47734646267361
 20
-4.365711127387153
 30
0.0
  0
SPLINE
  5
11C
330
118
100
AcDbEntity
  8
LAYER_1
 62
     7
100
AcDbSpline
210
0.0
220
0.0
230
1.0
 70
     8
 71
     3
 72
    17
 73
    13
 74
     0
 42
0.0000000001
 43
0.0000000001
 40
0.0
 40
0.0
 40
0.0
 40
0.0
 40
1.0
 40
1.0
 40
1.0
 40
2.0
 40
2.0
 40
2.0
 40
3.0
 40
3.0
 40
3.0
 40
4.0
 40
4.0
 40
4.0
 40
4.0
 10
-1.973695203993055
 20
-4.101127794053819
 30
0.0
 10
-0.5184868706597222
 20
-3.704252794053819
 30
0.0
 10
-0.9153618706597222
 20
-3.968836127387152
 30
0.0
 10
-0.5184868706597222
 20
-3.704252794053819
 30
0.0
 10
0.2752631293402778
 20
-3.175086127387153
 30
0.0
 10
1.862763129340278
 20
-3.042794460720486
 30
0.0
 10
2.788804796006944
 20
-3.439669460720486
 30
0.0
 10
5.037763129340277
 20
-4.101127794053819
 30
0.0
 10
6.096096462673611
 20
-5.027169460720486
 30
0.0
 10
7.815888129340277
 20
-6.085502794053819
 30
0.0
 10
7.92854275173611
 20
-6.154749213324652
 30
0.0
 10
9.006513129340277
 20
-6.482377794053819
 30
0.0
 10
9.138804796006944
 20
-6.482377794053819
 30
0.0
  0
SPLINE
  5
11B
330
118
100
AcDbEntity
  8
LAYER_1
 62
     7
100
AcDbSpline
210
0.0
220
0.0
230
1.0
 70
     8
 71
     3
 72
    17
 73
    13
 74
     0
 42
0.0000000001
 43
0.0000000001
 40
0.0
 40
0.0
 40
0.0
 40
0.0
 40
1.0
 40
1.0
 40
1.0
 40
2.0
 40
2.0
 40
2.0
 40
3.0
 40
3.0
 40
3.0
 40
4.0
 40
4.0
 40
4.0
 40
4.0
 10
-2.105986870659722
 20
-5.820919460720486
 30
0.0
 10
-1.312236870659722
 20
-5.820919460720486
 30
0.0
 10
-0.5184868706597222
 20
-5.688627794053819
 30
0.0
 10
0.2752631293402778
 20
-5.556336127387152
 30
0.0
 10
1.333596462673611
 20
-5.291752794053819
 30
0.0
 10
2.64014892578125
 20
-5.00684339735243
 30
0.0
 10
3.582554796006944
 20
-5.556336127387152
 30
0.0
 10
5.170054796006944
 20
-6.482377794053819
 30
0.0
 10
6.49297146267361
 20
-7.011544460720486
 30
0.0
 10
7.948179796006944
 20
-7.937586127387152
 30
0.0
 10
8.212763129340278
 20
-8.069877794053818
 30
0.0
 10
9.006513129340277
 20
-8.599044460720485
 30
0.0
 10
9.27109646267361
 20
-8.599044460720485
 30
0.0
  0
ENDBLK
  5
124
330
118
100
AcDbEntity
  8
LAYER_1
100
AcDbBlockEnd
  0
ENDSEC
  0
SECTION
  2
ENTITIES
  0
LWPOLYLINE
  5
15E
330
A
100
AcDbEntity
  8
LAYER_1
 62
     7
100
AcDbPolyline
 90
        5
 70
     1
 43
0.0
 10
152.782233344184
 20
163.8487413194444
 10
155.312311469184
 20
165.4693142361111
 10
155.312311469184
 20
163.5510850694444
 10
153.8074937608507
 20
162.9557725694444
 10
153.1129625108507
 20
163.0549913194444
  0
LWPOLYLINE
  5
153
330
A
100
AcDbEntity
  8
LAYER_1
 62
     7
100
AcDbPolyline
 90
        9
 70
     0
 43
0.0
 10
145.1093166775173
 20
166.1858940972222
 10
155.2077528211806
 20
165.4803385416666
 10
153.0468166775173
 20
163.2754774305556
 10
157.1035888671875
 20
163.6282552083333
 10
165.0741617838542
 20
161.5005642361111
 10
165.0741617838542
 20
151.2700086805556
 10
161.3369222005208
 20
150.3990885416667
 10
161.3369222005208
 20
140.344921875
 10
144.9327555338542
 20
136.5305121527778
  0
SPLINE
  5
152
330
A
100
AcDbEntity
  8
LAYER_1
 62
     7
100
AcDbSpline
210
0.0
220
0.0
230
1.0
 70
     8
 71
     3
 72
    35
 73
    31
 74
     0
 42
0.0000000001
 43
0.0000000001
 40
0.0
 40
0.0
 40
0.0
 40
0.0
 40
1.0
 40
1.0
 40
1.0
 40
2.0
 40
2.0
 40
2.0
 40
3.0
 40
3.0
 40
3.0
 40
4.0
 40
4.0
 40
4.0
 40
5.0
 40
5.0
 40
5.0
 40
6.0
 40
6.0
 40
6.0
 40
7.0
 40
7.0
 40
7.0
 40
8.0
 40
8.0
 40
8.0
 40
9.0
 40
9.0
 40
9.0
 40
10.0
 40
10.0
 40
10.0
 40
10.0
 10
88.43611789279512
 20
123.5008165147569
 30
0.0
 10
88.43611789279512
 20
123.5008165147569
 30
0.0
 10
64.67598334418402
 20
118.4726996527778
 30
0.0
 10
64.67598334418402
 20
118.4726996527778
 30
0.0
 10
64.67598334418402
 20
118.4726996527778
 30
0.0
 10
58.19369167751736
 20
121.6476996527778
 30
0.0
 10
57.79681667751736
 20
121.6476996527778
 30
0.0
 10
57.39994167751735
 20
121.6476996527778
 30
0.0
 10
53.56348334418402
 20
121.6476996527778
 30
0.0
 10
53.56348334418402
 20
121.6476996527778
 30
0.0
 10
53.56348334418402
 20
121.6476996527778
 30
0.0
 10
53.43119167751735
 20
124.8226996527778
 30
0.0
 10
53.43119167751735
 20
124.8226996527778
 30
0.0
 10
53.43119167751735
 20
124.8226996527778
 30
0.0
 10
52.24056667751736
 20
124.8226996527778
 30
0.0
 10
52.24056667751736
 20
124.8226996527778
 30
0.0
 10
52.24056667751736
 20
124.8226996527778
 30
0.0
 10
46.02285834418402
 20
128.2622829861111
 30
0.0
 10
46.02285834418402
 20
128.2622829861111
 30
0.0
 10
46.02285834418402
 20
128.2622829861111
 30
0.0
 10
46.02285834418402
 20
139.6393663194444
 30
0.0
 10
46.02285834418402
 20
139.6393663194444
 30
0.0
 10
46.02285834418402
 20
139.6393663194444
 30
0.0
 10
52.90202501085069
 20
141.0945746527778
 30
0.0
 10
52.90202501085069
 20
141.0945746527778
 30
0.0
 10
52.90202501085069
 20
141.0945746527778
 30
0.0
 10
53.03431667751735
 20
152.3393663194444
 30
0.0
 10
53.03431667751735
 20
152.3393663194444
 30
0.0
 10
53.03431667751735
 20
152.3393663194444
 30
0.0
 10
78.56660834418402
 20
156.3081163194444
 30
0.0
 10
78.56660834418402
 20
156.3081163194444
 30
0.0
  0
LWPOLYLINE
  5
14C
330
A
100
AcDbEntity
  8
LAYER_1
 62
     7
100
AcDbPolyline
 90
        4
 70
     0
 43
0.0
 10
148.9900444878472
 20
104.0088107638889
 10
135.7608778211805
 20
99.59908854166666
 10
107.1858778211805
 20
127.4685329861111
 10
94.83142089843749
 20
124.8540500217014
  0
SPLINE
  5
14B
330
A
100
AcDbEntity
  8
LAYER_1
 62
     7
100
AcDbSpline
210
0.0
220
0.0
230
1.0
 70
     8
 71
     3
 72
    20
 73
    16
 74
     0
 42
0.0000000001
 43
0.0000000001
 40
0.0
 40
0.0
 40
0.0
 40
0.0
 40
1.0
 40
1.0
 40
1.0
 40
2.0
 40
2.0
 40
2.0
 40
3.0
 40
3.0
 40
3.0
 40
4.0
 40
4.0
 40
4.0
 40
5.0
 40
5.0
 40
5.0
 40
5.0
 10
65.56895209418403
 20
186.2721788194444
 30
0.0
 10
65.56895209418403
 20
186.2721788194444
 30
0.0
 10
71.02598334418403
 20
202.7545491536458
 30
0.0
 10
71.02598334418403
 20
203.1393663194444
 30
0.0
 10
71.02598334418403
 20
204.1976996527778
 30
0.0
 10
69.17390001085069
 20
208.4310329861111
 30
0.0
 10
69.17390001085069
 20
208.4310329861111
 30
0.0
 10
69.17390001085069
 20
208.4310329861111
 30
0.0
 10
75.78848334418402
 20
207.0640190972222
 30
0.0
 10
75.78848334418402
 20
207.0640190972222
 30
0.0
 10
75.78848334418402
 20
207.0640190972222
 30
0.0
 10
73.40723334418402
 20
210.0185329861111
 30
0.0
 10
73.40723334418402
 20
210.0185329861111
 30
0.0
 10
73.40723334418402
 20
210.0185329861111
 30
0.0
 10
81.87390001085069
 20
232.4200080023871
 30
0.0
 10
81.87390001085069
 20
232.4200080023871
 30
0.0
  0
LWPOLYLINE
  5
146
330
A
100
AcDbEntity
  8
LAYER_1
 62
     7
100
AcDbPolyline
 90
        3
 70
     0
 43
0.0
 10
82.97650282118055
 20
242.6504774305555
 10
95.72025553385416
 20
243.5434461805555
 10
148.9900444878472
 20
204.0323350694444
  0
LINE
  5
145
330
A
100
AcDbEntity
  8
LAYER_1
 62
     7
100
AcDbLine
 10
148.9900444878472
 20
203.9331163194444
 30
0.0
 11
135.7608778211805
 21
201.463671875
 31
0.0
  0
LINE
  5
144
330
A
100
AcDbEntity
  8
LAYER_1
 62
     7
100
AcDbLine
 10
164.688483344184
 20
161.3351996527778
 30
0.0
 11
145.1093166775173
 21
157.8735677083333
 31
0.0
  0
LINE
  5
143
330
A
100
AcDbEntity
  8
LAYER_1
 62
     7
100
AcDbLine
 10
161.3369222005208
 20
150.3990885416667
 30
0.0
 11
145.1093166775173
 21
146.9595052083333
 31
0.0
  0
LINE
  5
142
330
A
100
AcDbEntity
  8
LAYER_1
 62
     7
100
AcDbLine
 10
155.3069715711806
 20
164.6204427083333
 30
0.0
 11
154.072077094184
 21
163.4849392361111
 31
0.0
  0
LWPOLYLINE
  5
139
330
A
100
AcDbEntity
  8
LAYER_1
 62
     7
100
AcDbPolyline
 90
        7
 70
     0
 43
0.0
 10
86.81950683593749
 20
134.5959187825521
 10
64.67598334418402
 20
130.1143663194444
 10
58.06140001085069
 20
133.4216579861111
 10
53.29890001085069
 20
133.2893663194444
 10
56.34160834418402
 20
136.0674913194444
 10
52.37285834418402
 20
136.1997829861111
 10
46.02285834418402
 20
139.6393663194444
  0
LWPOLYLINE
  5
134
330
A
100
AcDbEntity
  8
LAYER_1
 62
     7
100
AcDbPolyline
 90
        3
 70
     0
 43
0.0
 10
107.4061916775174
 20
127.2700954861111
 10
98.01348334418402
 20
136.8612413194445
 10
96.30953911675347
 20
136.516559516059
  0
LWPOLYLINE
  5
12B
330
A
100
AcDbEntity
  8
LAYER_1
 62
     7
100
AcDbPolyline
 90
        7
 70
     0
 43
0.0
 10
86.79504665798611
 20
147.1713785807291
 10
71.55515001085068
 20
144.1042100694444
 10
65.86660834418402
 20
146.7831163194444
 10
61.10410834418402
 20
146.6508246527778
 10
64.01452501085069
 20
149.5612413194444
 10
58.85515001085069
 20
149.6935329861111
 10
53.23275417751736
 20
152.2070746527778
  0
LWPOLYLINE
  5
126
330
A
100
AcDbEntity
  8
LAYER_1
 62
     7
100
AcDbPolyline
 90
        3
 70
     0
 43
0.0
 10
98.01348334418402
 20
136.8612413194445
 10
98.01348334418402
 20
149.4289496527778
 10
96.53898247612847
 20
149.1321546766493
  0
LINE
  5
125
330
A
100
AcDbEntity
  8
LAYER_1
 62
     7
100
AcDbLine
 10
64.67598334418402
 20
130.1143663194444
 30
0.0
 11
64.67598334418402
 21
118.2081163194444
 31
0.0
  0
INSERT
  5
119
330
A
100
AcDbEntity
  8
LAYER_1
 62
     7
100
AcDbBlockReference
  2
AI9-BLK16
 10
55.40488688151041
 20
128.9238274468316
 30
0.0
  0
LINE
  5
117
330
A
100
AcDbEntity
  8
LAYER_1
 62
     7
100
AcDbLine
 10
58.78900417751736
 20
149.6604600694444
 30
0.0
 11
58.78900417751736
 21
138.3164496527778
 31
0.0
  0
LINE
  5
116
330
A
100
AcDbEntity
  8
LAYER_1
 62
     7
100
AcDbLine
 10
65.33744167751736
 20
134.7445746527778
 30
0.0
 11
65.33744167751736
 21
146.6508246527778
 31
0.0
  0
LINE
  5
115
330
A
100
AcDbEntity
  8
LAYER_1
 62
     7
100
AcDbLine
 10
61.10410834418402
 20
134.6784288194444
 30
0.0
 11
61.10410834418402
 21
146.6508246527778
 31
0.0
  0
LINE
  5
114
330
A
100
AcDbEntity
  8
LAYER_1
 62
     7
100
AcDbLine
 10
53.43119167751735
 20
133.1570746527778
 30
0.0
 11
53.43119167751735
 21
124.9549913194444
 31
0.0
  0
LINE
  5
113
330
A
100
AcDbEntity
  8
LAYER_1
 62
     7
100
AcDbLine
 10
97.00320909288193
 20
149.7863783094618
 30
0.0
 11
98.01348334418402
 21
149.4289496527778
 31
0.0
  0
LINE
  5
112
330
A
100
AcDbEntity
  8
LAYER_1
 62
     7
100
AcDbLine
 10
78.56660834418402
 20
156.3081163194444
 30
0.0
 11
89.11221788194443
 21
152.577594672309
 31
0.0
  0
INSERT
  5
103
330
A
100
AcDbEntity
  8
LAYER_1
 62
     7
100
AcDbBlockReference
  2
AI9-BLK15
 10
62.24038696289062
 20
142.2868360731337
 30
0.0
  0
SPLINE
  5
101
330
A
100
AcDbEntity
  8
LAYER_1
 62
     7
100
AcDbSpline
210
0.0
220
0.0
230
1.0
 70
     8
 71
     3
 72
    23
 73
    19
 74
     0
 42
0.0000000001
 43
0.0000000001
 40
0.0
 40
0.0
 40
0.0
 40
0.0
 40
1.0
 40
1.0
 40
1.0
 40
2.0
 40
2.0
 40
2.0
 40
3.0
 40
3.0
 40
3.0
 40
4.0
 40
4.0
 40
4.0
 40
5.0
 40
5.0
 40
5.0
 40
6.0
 40
6.0
 40
6.0
 40
6.0
 10
52.90202501085069
 20
141.0945746527778
 30
0.0
 10
52.90202501085069
 20
141.0945746527778
 30
0.0
 10
58.52442084418402
 20
137.9857204861111
 30
0.0
 10
58.72285834418403
 20
137.9195746527778
 30
0.0
 10
58.72285834418403
 20
137.9195746527778
 30
0.0
 10
61.10410834418402
 20
137.7211371527778
 30
0.0
 10
61.10410834418402
 20
137.7211371527778
 30
0.0
 10
61.10410834418402
 20
137.7211371527778
 30
0.0
 10
61.10410834418402
 20
134.6784288194444
 30
0.0
 10
61.10410834418402
 20
134.6784288194444
 30
0.0
 10
61.10410834418402
 20
134.6784288194444
 30
0.0
 10
65.27129584418402
 20
134.6122829861111
 30
0.0
 10
65.27129584418402
 20
134.6122829861111
 30
0.0
 10
65.27129584418402
 20
134.6122829861111
 30
0.0
 10
71.55515001085068
 20
131.5695746527778
 30
0.0
 10
71.55515001085068
 20
131.5695746527778
 30
0.0
 10
71.55515001085068
 20
131.5695746527778
 30
0.0
 10
71.55515001085068
 20
144.1042100694444
 30
0.0
 10
71.55515001085068
 20
144.1042100694444
 30
0.0
  0
LINE
  5
100
330
A
100
AcDbEntity
  8
LAYER_1
 62
     7
100
AcDbLine
 10
52.30671251085069
 20
136.1667100694444
 30
0.0
 11
52.30671251085069
 21
124.8226996527778
 31
0.0
  0
LINE
  5
FF
330
A
100
AcDbEntity
  8
LAYER_1
 62
     7
100
AcDbLine
 10
57.53223334418402
 20
133.2562934027778
 30
0.0
 11
57.53223334418402
 21
121.9122829861111
 31
0.0
  0
LWPOLYLINE
  5
F9
330
A
100
AcDbEntity
  8
LAYER_1
 62
     7
100
AcDbPolyline
 90
        4
 70
     1
 43
0.0
 10
135.7384847005208
 20
190.0424913194444
 10
135.6392659505208
 20
201.4857204861111
 10
82.85489095052083
 20
242.7056850857205
 10
79.66921115451389
 20
234.3601996527778
  0
LWPOLYLINE
  5
F1
330
A
100
AcDbEntity
  8
LAYER_1
 62
     7
100
AcDbPolyline
 90
        6
 70
     0
 43
0.0
 10
144.8409437391493
 20
192.0449530707465
 10
148.9676513671875
 20
192.9529079861111
 10
148.9676513671875
 20
203.8669704861111
 10
135.7384847005208
 20
201.4857204861111
 10
135.7384847005208
 20
190.0424913194444
 10
140.9063001844618
 20
191.1793728298611
  0
LWPOLYLINE
  5
E9
330
A
100
AcDbEntity
  8
LAYER_1
 62
     7
100
AcDbPolyline
 90
        6
 70
     0
 43
0.0
 10
140.8578965928819
 20
113.774622938368
 10
135.7827541775174
 20
112.3872829861111
 10
135.7608778211805
 20
99.59908854166666
 10
149.011920844184
 20
103.8544704861111
 10
149.011920844184
 20
116.0032552083333
 10
144.9842597113715
 20
114.9023749457465
  0
LWPOLYLINE
  5
E3
330
A
100
AcDbEntity
  8
LAYER_1
 62
     7
100
AcDbPolyline
 90
        4
 70
     1
 43
0.0
 10
144.9327555338542
 20
108.7492621527778
 10
144.9108791775174
 20
196.9767795138889
 10
140.875983344184
 20
196.2161024305555
 10
140.875983344184
 20
107.6909288194444
  0
LWPOLYLINE
  5
DC
330
A
100
AcDbEntity
  8
LAYER_1
 62
     7
100
AcDbPolyline
 90
        5
 70
     0
 43
0.0
 10
91.57494439019096
 20
155.8993557400173
 10
61.53405626085069
 20
185.4674045138889
 10
58.41400553385416
 20
176.857421875
 10
78.56660834418402
 20
156.3081163194444
 10
89.11221788194443
 20
152.577594672309
  0
LWPOLYLINE
  5
D4
330
A
100
AcDbEntity
  8
LAYER_1
 62
     7
100
AcDbPolyline
 90
        6
 70
     0
 43
0.0
 10
97.00320909288193
 20
149.7863783094618
 10
98.01348334418402
 20
149.4289496527778
 10
98.01348334418402
 20
136.8612413194445
 10
135.7608778211805
 20
99.59908854166666
 10
135.7827541775174
 20
112.3872829861111
 10
97.50188666449652
 20
150.0657755533854
  0
LWPOLYLINE
  5
CE
330
A
100
AcDbEntity
  8
LAYER_1
 62
     7
100
AcDbPolyline
 90
        4
 70
     0
 43
0.0
 10
97.49637451171874
 20
150.0604356553819
 10
135.7827541775174
 20
112.3872829861111
 10
140.5233778211805
 20
113.6220052083333
 10
121.2113783094618
 20
132.3219835069444
  0
LWPOLYLINE
  5
C8
330
A
100
AcDbEntity
  8
LAYER_1
 62
     7
100
AcDbPolyline
 90
        4
 70
     0
 43
0.0
 10
91.01098225911457
 20
161.5655042860243
 10
65.38171115451388
 20
186.382421875
 10
61.46791042751735
 20
185.5115017361111
 10
91.56857096354166
 20
155.8931545681423
  0
LWPOLYLINE
  5
C3
330
A
100
AcDbEntity
  8
LAYER_1
 62
     7
100
AcDbPolyline
 90
        3
 70
     1
 43
0.0
 10
144.943952094184
 20
118.6049913194444
 10
149.0449937608507
 20
116.1245225694444
 10
144.9770250108507
 20
114.9338975694444
  0
LWPOLYLINE
  5
BC
330
A
100
AcDbEntity
  8
LAYER_1
 62
     7
100
AcDbPolyline
 90
        5
 70
     0
 43
0.0
 10
117.063483344184
 20
203.3596801757812
 10
117.063483344184
 20
131.1726996527778
 10
121.2087944878472
 20
132.3192274305555
 10
121.2087944878472
 20
201.4195746527778
 10
118.0093343098958
 20
203.8702433268229
  0
LWPOLYLINE
  5
B7
330
A
100
AcDbEntity
  8
LAYER_1
 62
     7
100
AcDbPolyline
 90
        3
 70
     0
 43
0.0
 10
97.50584852430555
 20
150.0699096679687
 10
117.063483344184
 20
130.9081163194445
 10
117.063483344184
 20
203.3598524305556
  0
LWPOLYLINE
  5
B2
330
A
100
AcDbEntity
  8
LAYER_1
 62
     7
100
AcDbPolyline
 90
        3
 70
     0
 43
0.0
 10
90.93587917751735
 20
223.8430121527778
 10
90.93587917751735
 20
156.5065538194444
 10
91.56564263237847
 20
155.8897094726563
  0
LWPOLYLINE
  5
AB
330
A
100
AcDbEntity
  8
LAYER_1
 62
     7
100
AcDbPolyline
 90
        5
 70
     0
 43
0.0
 10
117.1468546549479
 20
204.6979275173611
 10
92.32494167751736
 20
224.1737413194444
 10
91.20046251085068
 20
223.9091579861111
 10
117.063483344184
 20
203.3598524305556
 10
118.1805555555555
 20
203.7291666666667
  0
SPLINE
  5
AA
330
A
100
AcDbEntity
  8
LAYER_1
 62
     7
100
AcDbSpline
210
0.0
220
0.0
230
1.0
 70
     8
 71
     3
 72
     8
 73
     4
 74
     0
 42
0.0000000001
 43
0.0000000001
 40
0.0
 40
0.0
 40
0.0
 40
0.0
 40
1.0
 40
1.0
 40
1.0
 40
1.0
 10
135.7608778211805
 20
110.7115885416667
 30
0.0
 10
137.5686916775173
 20
112.1226996527778
 30
0.0
 10
139.5087972005208
 20
111.6817274305555
 30
0.0
 10
140.8317138671875
 20
112.4754774305555
 30
0.0
  0
SPLINE
  5
A9
330
A
100
AcDbEntity
  8
LAYER_1
 62
     7
100
AcDbSpline
210
0.0
220
0.0
230
1.0
 70
     8
 71
     3
 72
     8
 73
     4
 74
     0
 42
0.0000000001
 43
0.0000000001
 40
0.0
 40
0.0
 40
0.0
 40
0.0
 40
1.0
 40
1.0
 40
1.0
 40
1.0
 10
145.1093166775173
 20
113.2692274305556
 30
0.0
 10
146.2119194878472
 20
114.0629774305556
 30
0.0
 10
148.0640028211805
 20
114.0188802083333
 30
0.0
 10
148.8577528211806
 20
114.548046875
 30
0.0
  0
SPLINE
  5
A8
330
A
100
AcDbEntity
  8
LAYER_1
 62
     7
100
AcDbSpline
210
0.0
220
0.0
230
1.0
 70
     8
 71
     3
 72
    14
 73
    10
 74
     0
 42
0.0000000001
 43
0.0000000001
 40
0.0
 40
0.0
 40
0.0
 40
0.0
 40
1.0
 40
1.0
 40
1.0
 40
2.0
 40
2.0
 40
2.0
 40
3.0
 40
3.0
 40
3.0
 40
3.0
 10
135.9811916775174
 20
109.3445746527778
 30
0.0
 10
136.0692138671875
 20
109.3445746527778
 30
0.0
 10
136.5546278211805
 20
109.8296440972222
 30
0.0
 10
136.8192111545139
 20
109.8737413194444
 30
0.0
 10
137.6129611545139
 20
110.0501302083333
 30
0.0
 10
138.4067111545139
 20
109.8737413194444
 30
0.0
 10
139.2004611545139
 20
110.0060329861111
 30
0.0
 10
139.7296278211805
 20
110.0942274305556
 30
0.0
 10
140.2587944878472
 20
110.0942274305556
 30
0.0
 10
140.6556694878472
 20
110.4911024305555
 30
0.0
  0
SPLINE
  5
A7
330
A
100
AcDbEntity
  8
LAYER_1
 62
     7
100
AcDbSpline
210
0.0
220
0.0
230
1.0
 70
     8
 71
     3
 72
    17
 73
    13
 74
     0
 42
0.0000000001
 43
0.0000000001
 40
0.0
 40
0.0
 40
0.0
 40
0.0
 40
1.0
 40
1.0
 40
1.0
 40
2.0
 40
2.0
 40
2.0
 40
3.0
 40
3.0
 40
3.0
 40
4.0
 40
4.0
 40
4.0
 40
4.0
 10
145.0650472005208
 20
111.4612413194444
 30
0.0
 10
145.241608344184
 20
111.5494357638889
 30
0.0
 10
145.3296305338542
 20
111.7258246527778
 30
0.0
 10
145.4619222005208
 20
111.8140190972222
 30
0.0
 10
145.7707750108507
 20
111.9463107638889
 30
0.0
 10
146.0796278211805
 20
112.0786024305556
 30
0.0
 10
146.432233344184
 20
112.1226996527778
 30
0.0
 10
147.0056694878472
 20
112.2990885416667
 30
0.0
 10
147.5785888671875
 20
112.3872829861111
 30
0.0
 10
148.1520250108507
 20
112.6077690972222
 30
0.0
 10
148.3723388671875
 20
112.6959635416667
 30
0.0
 10
148.6811916775174
 20
112.6959635416667
 30
0.0
 10
148.8577528211806
 20
112.9164496527778
 30
0.0
  0
SPLINE
  5
A6
330
A
100
AcDbEntity
  8
LAYER_1
 62
     7
100
AcDbSpline
210
0.0
220
0.0
230
1.0
 70
     8
 71
     3
 72
    14
 73
    10
 74
     0
 42
0.0000000001
 43
0.0000000001
 40
0.0
 40
0.0
 40
0.0
 40
0.0
 40
1.0
 40
1.0
 40
1.0
 40
2.0
 40
2.0
 40
2.0
 40
3.0
 40
3.0
 40
3.0
 40
3.0
 10
135.8931694878472
 20
107.6688802083333
 30
0.0
 10
136.113483344184
 20
107.9334635416667
 30
0.0
 10
136.2015055338542
 20
108.2421440972222
 30
0.0
 10
136.5983805338541
 20
108.3744357638889
 30
0.0
 10
136.7306722005208
 20
108.3744357638889
 30
0.0
 10
136.7749416775174
 20
108.594921875
 30
0.0
 10
136.907233344184
 20
108.594921875
 30
0.0
 10
138.1421278211805
 20
108.991796875
 30
0.0
 10
139.5087972005208
 20
108.6831163194444
 30
0.0
 10
140.6994222005208
 20
109.2563802083333
 30
0.0
  0
SPLINE
  5
A5
330
A
100
AcDbEntity
  8
LAYER_1
 62
     7
100
AcDbSpline
210
0.0
220
0.0
230
1.0
 70
     8
 71
     3
 72
    17
 73
    13
 74
     0
 42
0.0000000001
 43
0.0000000001
 40
0.0
 40
0.0
 40
0.0
 40
0.0
 40
1.0
 40
1.0
 40
1.0
 40
2.0
 40
2.0
 40
2.0
 40
3.0
 40
3.0
 40
3.0
 40
4.0
 40
4.0
 40
4.0
 40
4.0
 10
145.0650472005208
 20
109.9619357638889
 30
0.0
 10
145.4181694878472
 20
110.0060329861111
 30
0.0
 10
145.7265055338542
 20
110.182421875
 30
0.0
 10
146.0796278211805
 20
110.2265190972222
 30
0.0
 10
146.6525472005208
 20
110.2706163194444
 30
0.0
 10
147.225983344184
 20
110.3588107638889
 30
0.0
 10
147.7994194878472
 20
110.4911024305555
 30
0.0
 10
147.9317111545139
 20
110.5351996527778
 30
0.0
 10
148.1077555338542
 20
110.6233940972222
 30
0.0
 10
148.2400472005208
 20
110.7115885416667
 30
0.0
 10
148.4608778211805
 20
110.8438802083333
 30
0.0
 10
148.7254611545139
 20
110.9320746527778
 30
0.0
 10
148.9015055338542
 20
111.0643663194444
 30
0.0
  0
SPLINE
  5
A4
330
A
100
AcDbEntity
  8
LAYER_1
 62
     7
100
AcDbSpline
210
0.0
220
0.0
230
1.0
 70
     8
 71
     3
 72
    26
 73
    22
 74
     0
 42
0.0000000001
 43
0.0000000001
 40
0.0
 40
0.0
 40
0.0
 40
0.0
 40
1.0
 40
1.0
 40
1.0
 40
2.0
 40
2.0
 40
2.0
 40
3.0
 40
3.0
 40
3.0
 40
4.0
 40
4.0
 40
4.0
 40
5.0
 40
5.0
 40
5.0
 40
6.0
 40
6.0
 40
6.0
 40
7.0
 40
7.0
 40
7.0
 40
7.0
 10
135.9811916775174
 20
105.9931857638889
 30
0.0
 10
137.1275472005208
 20
106.0372829861111
 30
0.0
 10
138.1421278211805
 20
106.3900607638889
 30
0.0
 10
139.288483344184
 20
106.6546440972222
 30
0.0
 10
139.5087972005208
 20
106.6987413194444
 30
0.0
 10
139.685358344184
 20
106.9192274305556
 30
0.0
 10
139.9942111545139
 20
106.9633246527778
 30
0.0
 10
140.1265028211805
 20
107.007421875
 30
0.0
 10
140.2145250108507
 20
107.1838107638889
 30
0.0
 10
140.3025472005208
 20
107.2279079861111
 30
0.0
 10
140.9202528211806
 20
107.404296875
 30
0.0
 10
141.4494194878472
 20
107.6688802083333
 30
0.0
 10
142.1108778211805
 20
107.7129774305555
 30
0.0
 10
142.1989000108507
 20
107.7129774305555
 30
0.0
 10
142.2869222005208
 20
107.7570746527778
 30
0.0
 10
142.3859686957465
 20
107.7929036458333
 30
0.0
 10
144.0067138671875
 20
107.9334635416667
 30
0.0
 10
145.5942138671875
 20
108.1539496527778
 30
0.0
 10
147.0936916775173
 20
108.7272135416667
 30
0.0
 10
147.7108805338542
 20
108.991796875
 30
0.0
 10
148.2843166775174
 20
109.2563802083333
 30
0.0
 10
148.9457750108507
 20
109.4327690972222
 30
0.0
  0
SPLINE
  5
A3
330
A
100
AcDbEntity
  8
LAYER_1
 62
     7
100
AcDbSpline
210
0.0
220
0.0
230
1.0
 70
     8
 71
     3
 72
    41
 73
    37
 74
     0
 42
0.0000000001
 43
0.0000000001
 40
0.0
 40
0.0
 40
0.0
 40
0.0
 40
1.0
 40
1.0
 40
1.0
 40
2.0
 40
2.0
 40
2.0
 40
3.0
 40
3.0
 40
3.0
 40
4.0
 40
4.0
 40
4.0
 40
5.0
 40
5.0
 40
5.0
 40
6.0
 40
6.0
 40
6.0
 40
7.0
 40
7.0
 40
7.0
 40
8.0
 40
8.0
 40
8.0
 40
9.0
 40
9.0
 40
9.0
 40
10.0
 40
10.0
 40
10.0
 40
11.0
 40
11.0
 40
11.0
 40
12.0
 40
12.0
 40
12.0
 40
12.0
 10
135.9811916775174
 20
103.832421875
 30
0.0
 10
136.0692138671875
 20
103.832421875
 30
0.0
 10
136.2015055338542
 20
103.8765190972222
 30
0.0
 10
136.2900444878472
 20
103.8765190972222
 30
0.0
 10
136.9515028211806
 20
104.2733940972222
 30
0.0
 10
137.5686916775173
 20
104.6702690972222
 30
0.0
 10
138.1858805338542
 20
105.1994357638889
 30
0.0
 10
138.2744194878472
 20
105.2435329861111
 30
0.0
 10
138.4504638671875
 20
105.2435329861111
 30
0.0
 10
138.4504638671875
 20
105.2876302083333
 30
0.0
 10
138.7593166775174
 20
105.5522135416667
 30
0.0
 10
139.0681694878472
 20
105.5963107638889
 30
0.0
 10
139.4207750108507
 20
105.6404079861111
 30
0.0
 10
140.5671305338541
 20
105.8608940972222
 30
0.0
 10
141.6254638671875
 20
105.5963107638889
 30
0.0
 10
142.7723361545139
 20
105.816796875
 30
0.0
 10
142.9926500108507
 20
105.8608940972222
 30
0.0
 10
143.2129638671875
 20
105.9049913194444
 30
0.0
 10
143.4775472005208
 20
105.9049913194444
 30
0.0
 10
143.5218166775173
 20
105.9490885416667
 30
0.0
 10
143.6098388671875
 20
105.9931857638889
 30
0.0
 10
143.654108344184
 20
105.9931857638889
 30
0.0
 10
144.0067138671875
 20
106.0372829861111
 30
0.0
 10
144.3155666775174
 20
106.213671875
 30
0.0
 10
144.6244194878472
 20
106.3018663194444
 30
0.0
 10
145.1973388671875
 20
106.5223524305555
 30
0.0
 10
145.8150444878472
 20
106.4341579861111
 30
0.0
 10
146.2999416775174
 20
106.6987413194444
 30
0.0
 10
146.7410861545139
 20
106.9192274305556
 30
0.0
 10
147.1379611545139
 20
107.0956163194444
 30
0.0
 10
147.5785888671875
 20
107.2720052083333
 30
0.0
 10
147.6671278211805
 20
107.3161024305556
 30
0.0
 10
147.7994194878472
 20
107.2279079861111
 30
0.0
 10
147.8874416775174
 20
107.2720052083333
 30
0.0
 10
148.2400472005208
 20
107.4924913194444
 30
0.0
 10
148.5931694878472
 20
107.5365885416667
 30
0.0
 10
148.9015055338542
 20
107.7570746527778
 30
0.0
  0
SPLINE
  5
A2
330
A
100
AcDbEntity
  8
LAYER_1
 62
     7
100
AcDbSpline
210
0.0
220
0.0
230
1.0
 70
     8
 71
     3
 72
    41
 73
    37
 74
     0
 42
0.0000000001
 43
0.0000000001
 40
0.0
 40
0.0
 40
0.0
 40
0.0
 40
1.0
 40
1.0
 40
1.0
 40
2.0
 40
2.0
 40
2.0
 40
3.0
 40
3.0
 40
3.0
 40
4.0
 40
4.0
 40
4.0
 40
5.0
 40
5.0
 40
5.0
 40
6.0
 40
6.0
 40
6.0
 40
7.0
 40
7.0
 40
7.0
 40
8.0
 40
8.0
 40
8.0
 40
9.0
 40
9.0
 40
9.0
 40
10.0
 40
10.0
 40
10.0
 40
11.0
 40
11.0
 40
11.0
 40
12.0
 40
12.0
 40
12.0
 40
12.0
 10
135.8931694878472
 20
101.6275607638889
 30
0.0
 10
135.9369222005208
 20
101.6716579861111
 30
0.0
 10
135.9811916775174
 20
101.7157552083333
 30
0.0
 10
135.9811916775174
 20
101.7598524305555
 30
0.0
 10
136.3337972005208
 20
101.8921440972222
 30
0.0
 10
136.6869194878472
 20
102.0244357638889
 30
0.0
 10
136.9952555338542
 20
102.1567274305556
 30
0.0
 10
137.1275472005208
 20
102.244921875
 30
0.0
 10
137.2598388671875
 20
102.2890190972222
 30
0.0
 10
137.3921305338542
 20
102.2890190972222
 30
0.0
 10
137.5244222005208
 20
102.3331163194444
 30
0.0
 10
137.6129611545139
 20
102.5095052083333
 30
0.0
 10
137.700983344184
 20
102.5536024305555
 30
0.0
 10
138.5827555338541
 20
102.8181857638889
 30
0.0
 10
139.4207750108507
 20
103.0827690972222
 30
0.0
 10
140.3468166775174
 20
103.2591579861111
 30
0.0
 10
140.5671305338541
 20
103.3032552083333
 30
0.0
 10
140.7879611545139
 20
103.2150607638889
 30
0.0
 10
141.0082750108507
 20
103.2591579861111
 30
0.0
 10
141.5374416775173
 20
103.3914496527778
 30
0.0
 10
142.1108778211805
 20
103.2591579861111
 30
0.0
 10
142.5957750108507
 20
103.5678385416667
 30
0.0
 10
143.0369194878472
 20
103.832421875
 30
0.0
 10
143.3015028211806
 20
104.4056857638889
 30
0.0
 10
143.7864000108507
 20
104.626171875
 30
0.0
 10
144.8004638671875
 20
105.1553385416667
 30
0.0
 10
145.9910888671875
 20
104.9348524305556
 30
0.0
 10
147.1379611545139
 20
105.1994357638889
 30
0.0
 10
147.3582750108507
 20
105.2435329861111
 30
0.0
 10
147.622858344184
 20
105.2435329861111
 30
0.0
 10
147.8431722005208
 20
105.3317274305556
 30
0.0
 10
147.9754638671875
 20
105.3758246527778
 30
0.0
 10
148.0640028211805
 20
105.5081163194444
 30
0.0
 10
148.1962944878472
 20
105.5522135416667
 30
0.0
 10
148.4608778211805
 20
105.5963107638889
 30
0.0
 10
148.6811916775174
 20
105.6845052083333
 30
0.0
 10
148.9015055338542
 20
105.7286024305555
 30
0.0
  0
LINE
  5
A1
330
A
100
AcDbEntity
  8
LAYER_1
 62
     7
100
AcDbLine
 10
141.9343166775174
 20
196.1279079861111
 30
0.0
 11
141.9343166775174
 21
107.7129774305555
 31
0.0
  0
LINE
  5
A0
330
A
100
AcDbEntity
  8
LAYER_1
 62
     7
100
AcDbLine
 10
143.0145263671875
 20
196.7673177083333
 30
0.0
 11
143.0145263671875
 21
108.2641927083333
 31
0.0
  0
LINE
  5
9F
330
A
100
AcDbEntity
  8
LAYER_1
 62
     7
100
AcDbLine
 10
143.9736409505208
 20
196.899609375
 30
0.0
 11
143.9736409505208
 21
108.396484375
 31
0.0
  0
LINE
  5
9E
330
A
100
AcDbEntity
  8
LAYER_1
 62
     7
100
AcDbLine
 10
118.055670844184
 20
203.9331163194444
 30
0.0
 11
118.055670844184
 21
131.7018663194444
 31
0.0
  0
LINE
  5
9D
330
A
100
AcDbEntity
  8
LAYER_1
 62
     7
100
AcDbLine
 10
119.1140041775173
 20
203.2716579861111
 30
0.0
 11
119.1140041775173
 21
131.7018663194444
 31
0.0
  0
LINE
  5
9C
330
A
100
AcDbEntity
  8
LAYER_1
 62
     7
100
AcDbLine
 10
120.1723375108507
 20
202.1251302083333
 30
0.0
 11
120.1723375108507
 21
132.2310329861111
 31
0.0
  0
SPLINE
  5
9B
330
A
100
AcDbEntity
  8
LAYER_1
 62
     7
100
AcDbSpline
210
0.0
220
0.0
230
1.0
 70
     8
 71
     3
 72
    32
 73
    28
 74
     0
 42
0.0000000001
 43
0.0000000001
 40
0.0
 40
0.0
 40
0.0
 40
0.0
 40
1.0
 40
1.0
 40
1.0
 40
2.0
 40
2.0
 40
2.0
 40
3.0
 40
3.0
 40
3.0
 40
4.0
 40
4.0
 40
4.0
 40
5.0
 40
5.0
 40
5.0
 40
6.0
 40
6.0
 40
6.0
 40
7.0
 40
7.0
 40
7.0
 40
8.0
 40
8.0
 40
8.0
 40
9.0
 40
9.0
 40
9.0
 40
9.0
 10
91.31087782118055
 20
213.5022135416666
 30
0.0
 10
92.72181667751735
 20
211.2091579861111
 30
0.0
 10
94.83848334418401
 20
209.6216579861111
 30
0.0
 10
96.77858886718749
 20
207.6813802083333
 30
0.0
 10
97.13171115451388
 20
207.5049913194444
 30
0.0
 10
97.66087782118055
 20
207.6813802083333
 30
0.0
 10
97.83692220052083
 20
207.5049913194444
 30
0.0
 10
98.36608886718749
 20
206.7994357638889
 30
0.0
 10
99.42442220052082
 20
206.623046875
 30
0.0
 10
99.95358886718749
 20
206.0938802083333
 30
0.0
 10
100.1301500108507
 20
205.7411024305555
 30
0.0
 10
100.1301500108507
 20
205.3883246527778
 30
0.0
 10
100.3067111545139
 20
205.035546875
 30
0.0
 10
100.6593166775174
 20
204.6827690972222
 30
0.0
 10
101.5410888671875
 20
204.8591579861111
 30
0.0
 10
101.5410888671875
 20
204.3299913194444
 30
0.0
 10
101.8942111545139
 20
201.6841579861111
 30
0.0
 10
107.3619222005208
 20
195.907421875
 30
0.0
 10
108.0676500108507
 20
194.319921875
 30
0.0
 10
109.125983344184
 20
192.2032552083333
 30
0.0
 10
110.8900444878472
 20
190.4393663194444
 30
0.0
 10
113.0067111545139
 20
189.2046440972222
 30
0.0
 10
113.5358778211806
 20
189.0282552083333
 30
0.0
 10
114.4176500108507
 20
189.2046440972222
 30
0.0
 10
114.9468166775174
 20
188.8518663194444
 30
0.0
 10
115.6525444878472
 20
188.6754774305555
 30
0.0
 10
116.8869222005208
 20
189.0282552083333
 30
0.0
 10
117.2400444878472
 20
187.7935329861111
 30
0.0
  0
SPLINE
  5
9A
330
A
100
AcDbEntity
  8
LAYER_1
 62
     7
100
AcDbSpline
210
0.0
220
0.0
230
1.0
 70
     8
 71
     3
 72
    11
 73
     7
 74
     0
 42
0.0000000001
 43
0.0000000001
 40
0.0
 40
0.0
 40
0.0
 40
0.0
 40
1.0
 40
1.0
 40
1.0
 40
2.0
 40
2.0
 40
2.0
 40
2.0
 10
99.08818088107638
 20
174.829638671875
 30
0.0
 10
98.80137668185763
 20
174.6973470052083
 30
0.0
 10
98.80723334418401
 20
174.9171440972222
 30
0.0
 10
98.54265001085068
 20
174.7407552083333
 30
0.0
 10
96.24942220052083
 20
173.5060329861111
 30
0.0
 10
93.78015001085069
 20
172.6240885416667
 30
0.0
 10
91.13431667751735
 20
172.8004774305555
 30
0.0
  0
SPLINE
  5
99
330
A
100
AcDbEntity
  8
LAYER_1
 62
     7
100
AcDbSpline
210
0.0
220
0.0
230
1.0
 70
     8
 71
     3
 72
    23
 73
    19
 74
     0
 42
0.0000000001
 43
0.0000000001
 40
0.0
 40
0.0
 40
0.0
 40
0.0
 40
1.0
 40
1.0
 40
1.0
 40
2.0
 40
2.0
 40
2.0
 40
3.0
 40
3.0
 40
3.0
 40
4.0
 40
4.0
 40
4.0
 40
5.0
 40
5.0
 40
5.0
 40
6.0
 40
6.0
 40
6.0
 40
6.0
 10
90.95775553385415
 20
199.0383246527778
 30
0.0
 10
92.72181667751735
 20
196.3924913194444
 30
0.0
 10
100.4827555338542
 20
193.4379774305556
 30
0.0
 10
101.0119222005208
 20
192.732421875
 30
0.0
 10
101.3650444878472
 20
192.2032552083333
 30
0.0
 10
102.2468166775174
 20
191.8504774305555
 30
0.0
 10
102.775983344184
 20
191.4976996527778
 30
0.0
 10
103.8343166775174
 20
190.9685329861111
 30
0.0
 10
104.8926500108507
 20
190.0865885416667
 30
0.0
 10
105.4218166775174
 20
188.8518663194444
 30
0.0
 10
105.950983344184
 20
187.6171440972222
 30
0.0
 10
107.538483344184
 20
186.5588107638889
 30
0.0
 10
108.2442111545139
 20
185.3240885416666
 30
0.0
 10
109.8317111545139
 20
182.5018663194444
 30
0.0
 10
109.6551500108507
 20
179.3268663194444
 30
0.0
 10
109.6551500108507
 20
176.3282552083333
 30
0.0
 10
109.0197021484375
 20
176.1039794921875
 30
0.0
 10
108.3763305664062
 20
175.9510172526042
 30
0.0
 10
107.7267578125
 20
175.8457695855035
 30
0.0
  0
SPLINE
  5
98
330
A
100
AcDbEntity
  8
LAYER_1
 62
     7
100
AcDbSpline
210
0.0
220
0.0
230
1.0
 70
     8
 71
     3
 72
    14
 73
    10
 74
     0
 42
0.0000000001
 43
0.0000000001
 40
0.0
 40
0.0
 40
0.0
 40
0.0
 40
1.0
 40
1.0
 40
1.0
 40
2.0
 40
2.0
 40
2.0
 40
3.0
 40
3.0
 40
3.0
 40
3.0
 10
104.7748277452257
 20
160.9684692382812
 30
0.0
 10
105.2845296223958
 20
160.9552056206597
 30
0.0
 10
105.7940592447917
 20
160.8804470486111
 30
0.0
 10
106.3035888671875
 20
160.982421875
 30
0.0
 10
108.4202555338542
 20
161.5115885416666
 30
0.0
 10
110.713483344184
 20
161.6879774305556
 30
0.0
 10
112.4775444878472
 20
162.569921875
 30
0.0
 10
113.888483344184
 20
163.2754774305556
 30
0.0
 10
115.6525444878472
 20
163.2754774305556
 30
0.0
 10
116.7108778211806
 20
164.5101996527778
 30
0.0
  0
SPLINE
  5
97
330
A
100
AcDbEntity
  8
LAYER_1
 62
     7
100
AcDbSpline
210
0.0
220
0.0
230
1.0
 70
     8
 71
     3
 72
     8
 73
     4
 74
     0
 42
0.0000000001
 43
0.0000000001
 40
0.0
 40
0.0
 40
0.0
 40
0.0
 40
1.0
 40
1.0
 40
1.0
 40
1.0
 10
91.13431667751735
 20
159.2185329861111
 30
0.0
 10
92.11392957899305
 20
159.2185329861111
 30
0.0
 10
93.09302571614583
 20
159.3294650607639
 30
0.0
 10
94.07263861762152
 20
159.4633070203993
 30
0.0
  0
SPLINE
  5
96
330
A
100
AcDbEntity
  8
LAYER_1
 62
     7
100
AcDbSpline
210
0.0
220
0.0
230
1.0
 70
     8
 71
     3
 72
    14
 73
    10
 74
     0
 42
0.0000000001
 43
0.0000000001
 40
0.0
 40
0.0
 40
0.0
 40
0.0
 40
1.0
 40
1.0
 40
1.0
 40
2.0
 40
2.0
 40
2.0
 40
3.0
 40
3.0
 40
3.0
 40
3.0
 10
104.8926500108507
 20
143.3435329861111
 30
0.0
 10
106.4801500108507
 20
143.3435329861111
 30
0.0
 10
108.2442111545139
 20
143.519921875
 30
0.0
 10
109.8317111545139
 20
143.1671440972222
 30
0.0
 10
110.5369222005208
 20
142.9907552083333
 30
0.0
 10
111.2426500108507
 20
142.6379774305555
 30
0.0
 10
111.9483778211805
 20
142.4615885416667
 30
0.0
 10
113.5358778211806
 20
141.932421875
 30
0.0
 10
115.1233778211805
 20
141.932421875
 30
0.0
 10
116.7108778211806
 20
141.932421875
 30
0.0
  0
INSERT
  5
82
330
A
100
AcDbEntity
  8
LAYER_1
 62
     7
100
AcDbBlockReference
  2
AI9-BLK13
 10
97.30629136827255
 20
154.9657348632812
 30
0.0
  0
SPLINE
  5
80
330
A
100
AcDbEntity
  8
LAYER_1
 62
     7
100
AcDbSpline
210
0.0
220
0.0
230
1.0
 70
     8
 71
     3
 72
    23
 73
    19
 74
     0
 42
0.0000000001
 43
0.0000000001
 40
0.0
 40
0.0
 40
0.0
 40
0.0
 40
1.0
 40
1.0
 40
1.0
 40
2.0
 40
2.0
 40
2.0
 40
3.0
 40
3.0
 40
3.0
 40
4.0
 40
4.0
 40
4.0
 40
5.0
 40
5.0
 40
5.0
 40
6.0
 40
6.0
 40
6.0
 40
6.0
 10
108.5968166775174
 20
210.1067274305555
 30
0.0
 10
108.4202555338542
 20
209.2247829861111
 30
0.0
 10
108.5968166775174
 20
208.0341579861111
 30
0.0
 10
108.7733778211806
 20
207.1522135416666
 30
0.0
 10
108.9494222005208
 20
206.2702690972222
 30
0.0
 10
109.3025444878472
 20
205.3883246527778
 30
0.0
 10
109.8317111545139
 20
204.5063802083333
 30
0.0
 10
110.0077555338542
 20
203.9772135416667
 30
0.0
 10
110.3608778211806
 20
203.2716579861111
 30
0.0
 10
110.8900444878472
 20
202.9188802083333
 30
0.0
 10
111.0660888671875
 20
202.5661024305555
 30
0.0
 10
111.7718166775174
 20
202.5661024305555
 30
0.0
 10
112.1244222005208
 20
202.2133246527778
 30
0.0
 10
113.3593166775174
 20
201.5077690972222
 30
0.0
 10
114.4176500108507
 20
200.4494357638889
 30
0.0
 10
115.475983344184
 20
199.3911024305556
 30
0.0
 10
116.1817111545139
 20
199.0383246527778
 30
0.0
 10
116.4900472005208
 20
197.5390190972222
 30
0.0
 10
116.8431694878472
 20
196.6570746527778
 30
0.0
  0
LWPOLYLINE
  5
7B
330
A
100
AcDbEntity
  8
LAYER_1
 62
     7
100
AcDbPolyline
 90
        3
 70
     1
 43
0.0
 10
74.20098334418402
 20
209.1365885416666
 10
75.78848334418402
 20
207.0640190972222
 10
69.17390001085069
 20
208.4310329861111
  0
SPLINE
  5
7A
330
A
100
AcDbEntity
  8
LAYER_1
 62
     7
100
AcDbSpline
210
0.0
220
0.0
230
1.0
 70
     8
 71
     3
 72
    14
 73
    10
 74
     0
 42
0.0000000001
 43
0.0000000001
 40
0.0
 40
0.0
 40
0.0
 40
0.0
 40
1.0
 40
1.0
 40
1.0
 40
2.0
 40
2.0
 40
2.0
 40
3.0
 40
3.0
 40
3.0
 40
3.0
 10
135.716608344184
 20
200.4935329861111
 30
0.0
 10
136.6426500108507
 20
200.4935329861111
 30
0.0
 10
137.700983344184
 20
200.2289496527778
 30
0.0
 10
138.6270250108507
 20
200.6258246527778
 30
0.0
 10
139.0239000108507
 20
200.8904079861111
 30
0.0
 10
140.1265028211805
 20
201.6400607638889
 30
0.0
 10
140.5233778211805
 20
201.6400607638889
 30
0.0
 10
143.5660861545139
 20
202.3015190972222
 30
0.0
 10
149.0337972005208
 20
202.257421875
 30
0.0
 10
149.0337972005208
 20
202.3897135416667
 30
0.0
  0
SPLINE
  5
79
330
A
100
AcDbEntity
  8
LAYER_1
 62
     7
100
AcDbSpline
210
0.0
220
0.0
230
1.0
 70
     8
 71
     3
 72
    20
 73
    16
 74
     0
 42
0.0000000001
 43
0.0000000001
 40
0.0
 40
0.0
 40
0.0
 40
0.0
 40
1.0
 40
1.0
 40
1.0
 40
2.0
 40
2.0
 40
2.0
 40
3.0
 40
3.0
 40
3.0
 40
4.0
 40
4.0
 40
4.0
 40
5.0
 40
5.0
 40
5.0
 40
5.0
 10
135.8489000108507
 20
198.6414496527778
 30
0.0
 10
137.0395250108507
 20
198.5091579861111
 30
0.0
 10
138.494733344184
 20
198.5091579861111
 30
0.0
 10
139.685358344184
 20
198.9060329861111
 30
0.0
 10
140.2145250108507
 20
199.0383246527778
 30
0.0
 10
140.6114000108507
 20
199.5674913194444
 30
0.0
 10
141.1405666775173
 20
199.8320746527778
 30
0.0
 10
142.1989000108507
 20
200.2289496527778
 30
0.0
 10
143.257233344184
 20
199.9643663194444
 30
0.0
 10
144.3155666775174
 20
200.2289496527778
 30
0.0
 10
144.7124416775174
 20
200.2289496527778
 30
0.0
 10
145.1093166775173
 20
200.6258246527778
 30
0.0
 10
145.3739000108507
 20
200.7581163194444
 30
0.0
 10
146.2999416775174
 20
201.1549913194444
 30
0.0
 10
147.8874416775174
 20
200.8904079861111
 30
0.0
 10
148.9457750108507
 20
200.8904079861111
 30
0.0
  0
SPLINE
  5
78
330
A
100
AcDbEntity
  8
LAYER_1
 62
     7
100
AcDbSpline
210
0.0
220
0.0
230
1.0
 70
     8
 71
     3
 72
    11
 73
     7
 74
     0
 42
0.0000000001
 43
0.0000000001
 40
0.0
 40
0.0
 40
0.0
 40
0.0
 40
1.0
 40
1.0
 40
1.0
 40
2.0
 40
2.0
 40
2.0
 40
2.0
 10
135.716608344184
 20
197.1862413194444
 30
0.0
 10
137.304108344184
 20
197.0539496527778
 30
0.0
 10
138.7593166775174
 20
197.8476996527778
 30
0.0
 10
140.2145250108507
 20
198.2445746527778
 30
0.0
 10
142.9926500108507
 20
198.9060329861111
 30
0.0
 10
146.2119194878472
 20
198.4209635416667
 30
0.0
 10
148.9900444878472
 20
198.8178385416667
 30
0.0
  0
SPLINE
  5
77
330
A
100
AcDbEntity
  8
LAYER_1
 62
     7
100
AcDbSpline
210
0.0
220
0.0
230
1.0
 70
     8
 71
     3
 72
     8
 73
     4
 74
     0
 42
0.0000000001
 43
0.0000000001
 40
0.0
 40
0.0
 40
0.0
 40
0.0
 40
1.0
 40
1.0
 40
1.0
 40
1.0
 10
135.716608344184
 20
195.4664496527778
 30
0.0
 10
137.4364000108507
 20
195.5987413194444
 30
0.0
 10
139.1561916775173
 20
196.1279079861111
 30
0.0
 10
140.875983344184
 20
196.2161024305555
 30
0.0
  0
SPLINE
  5
76
330
A
100
AcDbEntity
  8
LAYER_1
 62
     7
100
AcDbSpline
210
0.0
220
0.0
230
1.0
 70
     8
 71
     3
 72
    11
 73
     7
 74
     0
 42
0.0000000001
 43
0.0000000001
 40
0.0
 40
0.0
 40
0.0
 40
0.0
 40
1.0
 40
1.0
 40
1.0
 40
2.0
 40
2.0
 40
2.0
 40
2.0
 10
145.1093166775173
 20
196.5247829861111
 30
0.0
 10
145.638483344184
 20
196.5247829861111
 30
0.0
 10
146.035358344184
 20
196.6570746527778
 30
0.0
 10
146.432233344184
 20
196.9216579861111
 30
0.0
 10
147.0936916775173
 20
197.3185329861111
 30
0.0
 10
148.5046305338541
 20
197.0539496527778
 30
0.0
 10
149.1660888671875
 20
197.3185329861111
 30
0.0
  0
SPLINE
  5
75
330
A
100
AcDbEntity
  8
LAYER_1
 62
     7
100
AcDbSpline
210
0.0
220
0.0
230
1.0
 70
     8
 71
     3
 72
     8
 73
     4
 74
     0
 42
0.0000000001
 43
0.0000000001
 40
0.0
 40
0.0
 40
0.0
 40
0.0
 40
1.0
 40
1.0
 40
1.0
 40
1.0
 10
135.8489000108507
 20
193.8789496527778
 30
0.0
 10
136.2311333550347
 20
193.8789496527778
 30
0.0
 10
139.2442138671875
 20
195.2900607638889
 30
0.0
 10
140.8317138671875
 20
194.7608940972222
 30
0.0
  0
SPLINE
  5
74
330
A
100
AcDbEntity
  8
LAYER_1
 62
     7
100
AcDbSpline
210
0.0
220
0.0
230
1.0
 70
     8
 71
     3
 72
    11
 73
     7
 74
     0
 42
0.0000000001
 43
0.0000000001
 40
0.0
 40
0.0
 40
0.0
 40
0.0
 40
1.0
 40
1.0
 40
1.0
 40
2.0
 40
2.0
 40
2.0
 40
2.0
 10
145.1093166775173
 20
195.2018663194444
 30
0.0
 10
145.7707750108507
 20
195.2018663194444
 30
0.0
 10
146.5645250108507
 20
195.0695746527778
 30
0.0
 10
147.225983344184
 20
195.3341579861111
 30
0.0
 10
147.4905666775173
 20
195.5987413194444
 30
0.0
 10
148.4608778211805
 20
195.8633246527778
 30
0.0
 10
148.8577528211806
 20
195.8633246527778
 30
0.0
  0
SPLINE
  5
73
330
A
100
AcDbEntity
  8
LAYER_1
 62
     7
100
AcDbSpline
210
0.0
220
0.0
230
1.0
 70
     8
 71
     3
 72
    11
 73
     7
 74
     0
 42
0.0000000001
 43
0.0000000001
 40
0.0
 40
0.0
 40
0.0
 40
0.0
 40
1.0
 40
1.0
 40
1.0
 40
2.0
 40
2.0
 40
2.0
 40
2.0
 10
135.7608778211805
 20
191.8945746527778
 30
0.0
 10
137.6567138671875
 20
192.9088107638889
 30
0.0
 10
138.7593166775174
 20
192.2914496527778
 30
0.0
 10
140.2145250108507
 20
192.6883246527778
 30
0.0
 10
140.2145250108507
 20
192.6883246527778
 30
0.0
 10
140.7436916775174
 20
192.8206163194444
 30
0.0
 10
140.875983344184
 20
192.9529079861111
 30
0.0
  0
SPLINE
  5
72
330
A
100
AcDbEntity
  8
LAYER_1
 62
     7
100
AcDbSpline
210
0.0
220
0.0
230
1.0
 70
     8
 71
     3
 72
     8
 73
     4
 74
     0
 42
0.0000000001
 43
0.0000000001
 40
0.0
 40
0.0
 40
0.0
 40
0.0
 40
1.0
 40
1.0
 40
1.0
 40
1.0
 10
145.0212944878472
 20
193.5702690972222
 30
0.0
 10
146.0796278211805
 20
193.4379774305556
 30
0.0
 10
147.7994194878472
 20
194.0112413194444
 30
0.0
 10
148.8577528211806
 20
194.2758246527778
 30
0.0
  0
SPLINE
  5
71
330
A
100
AcDbEntity
  8
LAYER_1
 62
     7
100
AcDbSpline
210
0.0
220
0.0
230
1.0
 70
     8
 71
     3
 72
    23
 73
    19
 74
     0
 42
0.0000000001
 43
0.0000000001
 40
0.0
 40
0.0
 40
0.0
 40
0.0
 40
1.0
 40
1.0
 40
1.0
 40
2.0
 40
2.0
 40
2.0
 40
3.0
 40
3.0
 40
3.0
 40
4.0
 40
4.0
 40
4.0
 40
5.0
 40
5.0
 40
5.0
 40
6.0
 40
6.0
 40
6.0
 40
6.0
 10
140.875983344184
 20
179.1504774305555
 30
0.0
 10
137.700983344184
 20
179.8560329861111
 30
0.0
 10
134.1733778211805
 20
179.1504774305555
 30
0.0
 10
130.9983778211806
 20
180.2088107638889
 30
0.0
 10
129.9400444878472
 20
180.5615885416667
 30
0.0
 10
128.5285888671875
 20
181.2671440972222
 30
0.0
 10
128.175983344184
 20
180.2088107638889
 30
0.0
 10
127.4702555338542
 20
178.7976996527778
 30
0.0
 10
127.4702555338542
 20
177.0338107638889
 30
0.0
 10
127.8233778211805
 20
175.6226996527778
 30
0.0
 10
128.175983344184
 20
174.9171440972222
 30
0.0
 10
129.2343166775173
 20
174.5643663194444
 30
0.0
 10
129.5869222005208
 20
173.8588107638889
 30
0.0
 10
130.2926500108507
 20
172.4476996527778
 30
0.0
 10
129.9400444878472
 20
171.0365885416667
 30
0.0
 10
130.6452555338542
 20
169.6254774305556
 30
0.0
 10
133.8202555338542
 20
165.3921440972222
 30
0.0
 10
137.3483778211806
 20
160.585546875
 30
0.0
 10
140.875983344184
 20
156.7049913194444
 30
0.0
  0
SPLINE
  5
70
330
A
100
AcDbEntity
  8
LAYER_1
 62
     7
100
AcDbSpline
210
0.0
220
0.0
230
1.0
 70
     8
 71
     3
 72
    14
 73
    10
 74
     0
 42
0.0000000001
 43
0.0000000001
 40
0.0
 40
0.0
 40
0.0
 40
0.0
 40
1.0
 40
1.0
 40
1.0
 40
2.0
 40
2.0
 40
2.0
 40
3.0
 40
3.0
 40
3.0
 40
3.0
 10
140.5233778211805
 20
189.3810329861111
 30
0.0
 10
138.7593166775174
 20
189.7338107638889
 30
0.0
 10
137.3483778211806
 20
189.3810329861111
 30
0.0
 10
135.7384847005208
 20
190.0424913194444
 30
0.0
 10
132.7619222005208
 20
190.7921440972222
 30
0.0
 10
129.2343166775173
 20
189.3810329861111
 30
0.0
 10
126.4119222005208
 20
190.4393663194444
 30
0.0
 10
125.000983344184
 20
190.7921440972222
 30
0.0
 10
123.2369222005208
 20
190.4393663194444
 30
0.0
 10
121.4733778211806
 20
190.7921440972222
 30
0.0
  0
SPLINE
  5
6F
330
A
100
AcDbEntity
  8
LAYER_1
 62
     7
100
AcDbSpline
210
0.0
220
0.0
230
1.0
 70
     8
 71
     3
 72
    14
 73
    10
 74
     0
 42
0.0000000001
 43
0.0000000001
 40
0.0
 40
0.0
 40
0.0
 40
0.0
 40
1.0
 40
1.0
 40
1.0
 40
2.0
 40
2.0
 40
2.0
 40
3.0
 40
3.0
 40
3.0
 40
3.0
 10
121.1202555338542
 20
174.5643663194444
 30
0.0
 10
123.2369222005208
 20
170.6838107638889
 30
0.0
 10
126.0593166775173
 20
167.1560329861111
 30
0.0
 10
127.1176500108507
 20
163.2754774305556
 30
0.0
 10
127.8233778211805
 20
161.1588107638889
 30
0.0
 10
128.8817111545139
 20
159.394921875
 30
0.0
 10
129.9400444878472
 20
157.9838107638889
 30
0.0
 10
133.1150444878472
 20
153.044921875
 30
0.0
 10
138.0535888671875
 20
147.6209635416666
 30
0.0
 10
140.875983344184
 20
142.6820746527778
 30
0.0
  0
SPLINE
  5
6E
330
A
100
AcDbEntity
  8
LAYER_1
 62
     7
100
AcDbSpline
210
0.0
220
0.0
230
1.0
 70
     8
 71
     3
 72
     8
 73
     4
 74
     0
 42
0.0000000001
 43
0.0000000001
 40
0.0
 40
0.0
 40
0.0
 40
0.0
 40
1.0
 40
1.0
 40
1.0
 40
1.0
 10
126.7650444878472
 20
197.1421440972222
 30
0.0
 10
125.000983344184
 20
197.1421440972222
 30
0.0
 10
123.0608778211805
 20
197.0539496527778
 30
0.0
 10
121.2968166775174
 20
197.0539496527778
 30
0.0
  0
SPLINE
  5
6D
330
A
100
AcDbEntity
  8
LAYER_1
 62
     7
100
AcDbSpline
210
0.0
220
0.0
230
1.0
 70
     8
 71
     3
 72
    26
 73
    22
 74
     0
 42
0.0000000001
 43
0.0000000001
 40
0.0
 40
0.0
 40
0.0
 40
0.0
 40
1.0
 40
1.0
 40
1.0
 40
2.0
 40
2.0
 40
2.0
 40
3.0
 40
3.0
 40
3.0
 40
4.0
 40
4.0
 40
4.0
 40
5.0
 40
5.0
 40
5.0
 40
6.0
 40
6.0
 40
6.0
 40
7.0
 40
7.0
 40
7.0
 40
7.0
 10
121.4733778211806
 20
160.4532552083333
 30
0.0
 10
122.8843166775174
 20
158.3365885416667
 30
0.0
 10
123.2369222005208
 20
155.8671440972222
 30
0.0
 10
124.2952555338542
 20
153.7504774305556
 30
0.0
 10
124.6483778211806
 20
153.044921875
 30
0.0
 10
126.0593166775173
 20
152.3393663194444
 30
0.0
 10
126.0593166775173
 20
151.6338107638889
 30
0.0
 10
126.7650444878472
 20
149.1643663194444
 30
0.0
 10
127.8233778211805
 20
147.0476996527778
 30
0.0
 10
128.8817111545139
 20
144.9310329861111
 30
0.0
 10
129.2343166775173
 20
144.5782552083333
 30
0.0
 10
130.9983778211806
 20
144.2254774305555
 30
0.0
 10
131.350983344184
 20
143.1671440972222
 30
0.0
 10
131.350983344184
 20
142.4615885416667
 30
0.0
 10
131.7035888671875
 20
141.7560329861111
 30
0.0
 10
132.0567111545139
 20
141.0504774305555
 30
0.0
 10
132.7619222005208
 20
139.9921440972222
 30
0.0
 10
134.1733778211805
 20
138.9338107638889
 30
0.0
 10
134.8785888671875
 20
137.8754774305556
 30
0.0
 10
136.6426500108507
 20
133.6421440972222
 30
0.0
 10
138.6270250108507
 20
129.3647135416667
 30
0.0
 10
140.7436916775174
 20
125.4841579861111
 30
0.0
  0
SPLINE
  5
6C
330
A
100
AcDbEntity
  8
LAYER_1
 62
     7
100
AcDbSpline
210
0.0
220
0.0
230
1.0
 70
     8
 71
     3
 72
    20
 73
    16
 74
     0
 42
0.0000000001
 43
0.0000000001
 40
0.0
 40
0.0
 40
0.0
 40
0.0
 40
1.0
 40
1.0
 40
1.0
 40
2.0
 40
2.0
 40
2.0
 40
3.0
 40
3.0
 40
3.0
 40
4.0
 40
4.0
 40
4.0
 40
5.0
 40
5.0
 40
5.0
 40
5.0
 10
121.1202555338542
 20
142.4615885416667
 30
0.0
 10
121.825983344184
 20
141.4032552083333
 30
0.0
 10
122.1785888671875
 20
141.0504774305555
 30
0.0
 10
122.5317111545139
 20
139.9921440972222
 30
0.0
 10
123.5900444878472
 20
140.344921875
 30
0.0
 10
123.9426500108507
 20
139.2865885416667
 30
0.0
 10
124.2952555338542
 20
138.9338107638889
 30
0.0
 10
125.000983344184
 20
136.8171440972222
 30
0.0
 10
126.0593166775173
 20
134.7004774305555
 30
0.0
 10
127.4702555338542
 20
132.5838107638889
 30
0.0
 10
127.8233778211805
 20
131.8782552083333
 30
0.0
 10
127.4702555338542
 20
130.819921875
 30
0.0
 10
127.8233778211805
 20
130.4671440972222
 30
0.0
 10
132.4659884982639
 20
125.4376491970486
 30
0.0
 10
136.171533203125
 20
120.0514146592882
 30
0.0
 10
139.0239000108507
 20
115.2976996527778
 30
0.0
  0
SPLINE
  5
6B
330
A
100
AcDbEntity
  8
LAYER_1
 62
     7
100
AcDbSpline
210
0.0
220
0.0
230
1.0
 70
     8
 71
     3
 72
    14
 73
    10
 74
     0
 42
0.0000000001
 43
0.0000000001
 40
0.0
 40
0.0
 40
0.0
 40
0.0
 40
1.0
 40
1.0
 40
1.0
 40
2.0
 40
2.0
 40
2.0
 40
3.0
 40
3.0
 40
3.0
 40
3.0
 10
90.78171115451389
 20
209.4893663194444
 30
0.0
 10
89.37025553385416
 20
209.8421440972222
 30
0.0
 10
85.45197618272569
 20
211.2029568142361
 30
0.0
 10
85.57806667751736
 20
209.7539496527778
 30
0.0
 10
85.84265001085069
 20
206.7112413194444
 30
0.0
 10
87.31249999999999
 20
203.1460842556423
 30
0.0
 10
87.60671115451387
 20
200.3171440972222
 30
0.0
 10
87.95931667751735
 20
196.9216579861111
 30
0.0
 10
90.5994656032986
 20
188.8492824978299
 30
0.0
 10
90.84027777777777
 20
188.2069444444444
 30
0.0
  0
SPLINE
  5
6A
330
A
100
AcDbEntity
  8
LAYER_1
 62
     7
100
AcDbSpline
210
0.0
220
0.0
230
1.0
 70
     8
 71
     3
 72
    17
 73
    13
 74
     0
 42
0.0000000001
 43
0.0000000001
 40
0.0
 40
0.0
 40
0.0
 40
0.0
 40
1.0
 40
1.0
 40
1.0
 40
2.0
 40
2.0
 40
2.0
 40
3.0
 40
3.0
 40
3.0
 40
4.0
 40
4.0
 40
4.0
 40
4.0
 10
91.00202501085069
 20
217.0299913194444
 30
0.0
 10
87.47441948784721
 20
218.7939663357205
 30
0.0
 10
81.96192220052083
 20
218.6615885416667
 30
0.0
 10
78.08171115451388
 20
219.0143663194444
 30
0.0
 10
77.7285888671875
 20
216.8976996527778
 30
0.0
 10
77.37598334418402
 20
214.4282552083333
 30
0.0
 10
78.08171115451388
 20
212.3115885416667
 30
0.0
 10
79.14004448784722
 20
209.1365885416666
 30
0.0
 10
80.55098334418402
 20
205.9615885416667
 30
0.0
 10
80.90358886718749
 20
202.7865885416667
 30
0.0
 10
82.66765001085069
 20
191.8504774305555
 30
0.0
 10
86.50410834418402
 20
179.0181857638889
 30
0.0
 10
90.73744167751735
 20
169.1404079861111
 30
0.0
  0
SPLINE
  5
69
330
A
100
AcDbEntity
  8
LAYER_1
 62
     7
100
AcDbSpline
210
0.0
220
0.0
230
1.0
 70
     8
 71
     3
 72
     8
 73
     4
 74
     0
 42
0.0000000001
 43
0.0000000001
 40
0.0
 40
0.0
 40
0.0
 40
0.0
 40
1.0
 40
1.0
 40
1.0
 40
1.0
 10
87.95931667751735
 20
227.8337246365017
 30
0.0
 10
85.49004448784721
 20
227.4810329861111
 30
0.0
 10
82.75567220052082
 20
228.8039496527778
 30
0.0
 10
80.28640001085068
 20
227.7456163194444
 30
0.0
  0
SPLINE
  5
68
330
A
100
AcDbEntity
  8
LAYER_1
 62
     7
100
AcDbSpline
210
0.0
220
0.0
230
1.0
 70
     8
 71
     3
 72
    20
 73
    16
 74
     0
 42
0.0000000001
 43
0.0000000001
 40
0.0
 40
0.0
 40
0.0
 40
0.0
 40
1.0
 40
1.0
 40
1.0
 40
2.0
 40
2.0
 40
2.0
 40
3.0
 40
3.0
 40
3.0
 40
4.0
 40
4.0
 40
4.0
 40
5.0
 40
5.0
 40
5.0
 40
5.0
 10
83.72598334418402
 20
168.919921875
 30
0.0
 10
83.72598334418402
 20
169.9782552083333
 30
0.0
 10
84.07858886718749
 20
171.0365885416667
 30
0.0
 10
83.72598334418402
 20
171.7421440972222
 30
0.0
 10
83.02025553385415
 20
173.1532552083333
 30
0.0
 10
81.96192220052083
 20
174.2115885416667
 30
0.0
 10
81.60931667751736
 20
175.6226996527778
 30
0.0
 10
79.49265001085068
 20
181.2671440972222
 30
0.0
 10
80.55098334418402
 20
186.9115885416667
 30
0.0
 10
78.78692220052082
 20
192.5560329861111
 30
0.0
 10
78.43431667751736
 20
193.9671440972222
 30
0.0
 10
77.37598334418402
 20
195.7310329861111
 30
0.0
 10
77.02337782118055
 20
197.494921875
 30
0.0
 10
75.96504448784721
 20
200.3171440972222
 30
0.0
 10
75.34733886718749
 20
204.5504774305555
 30
0.0
 10
73.93640001085069
 20
207.3726996527778
 30
0.0
  0
SPLINE
  5
67
330
A
100
AcDbEntity
  8
LAYER_1
 62
     7
100
AcDbSpline
210
0.0
220
0.0
230
1.0
 70
     8
 71
     3
 72
    11
 73
     7
 74
     0
 42
0.0000000001
 43
0.0000000001
 40
0.0
 40
0.0
 40
0.0
 40
0.0
 40
1.0
 40
1.0
 40
1.0
 40
2.0
 40
2.0
 40
2.0
 40
2.0
 10
72.43692220052083
 20
179.5032552083333
 30
0.0
 10
72.43692220052083
 20
184.794921875
 30
0.0
 10
73.49525553385416
 20
190.0865885416667
 30
0.0
 10
72.08431667751735
 20
195.0254774305555
 30
0.0
 10
71.37858886718749
 20
196.4365885416667
 30
0.0
 10
71.20254448784722
 20
199.2147135416666
 30
0.0
 10
70.49681667751736
 20
200.6258246527778
 30
0.0
  0
INSERT
  5
62
330
A
100
AcDbEntity
  8
LAYER_1
 62
     7
100
AcDbBlockReference
  2
AI9-BLK12
 10
93.92587754991318
 20
126.9089633517795
 30
0.0
  0
INSERT
  5
5C
330
A
100
AcDbEntity
  8
LAYER_1
 62
     7
100
AcDbBlockReference
  2
AI9-BLK11
 10
101.0524020724826
 20
183.1152655707465
 30
0.0
  0
INSERT
  5
56
330
A
100
AcDbEntity
  8
LAYER_1
 62
     7
100
AcDbBlockReference
  2
AI9-BLK10
 10
93.90064222547743
 20
134.5021260579427
 30
0.0
  0
INSERT
  5
50
330
A
100
AcDbEntity
  8
LAYER_1
 62
     7
100
AcDbBlockReference
  2
AI9-BLK9
 10
91.72592569986978
 20
128.6547654893663
 30
0.0
  0
INSERT
  5
4A
330
A
100
AcDbEntity
  8
LAYER_1
 62
     7
100
AcDbBlockReference
  2
AI9-BLK8
 10
89.41400824652777
 20
131.2741577148437
 30
0.0
  0
INSERT
  5
44
330
A
100
AcDbEntity
  8
LAYER_1
 62
     7
100
AcDbBlockReference
  2
AI9-BLK7
 10
102.9532335069444
 20
180.6978420681423
 30
0.0
  0
INSERT
  5
3E
330
A
100
AcDbEntity
  8
LAYER_1
 62
     7
100
AcDbBlockReference
  2
AI9-BLK6
 10
105.0739481608073
 20
178.3153001573351
 30
0.0
  0
INSERT
  5
38
330
A
100
AcDbEntity
  8
LAYER_1
 62
     7
100
AcDbBlockReference
  2
AI9-BLK5
 10
101.8986036512587
 20
176.7226325141059
 30
0.0
  0
INSERT
  5
32
330
A
100
AcDbEntity
  8
LAYER_1
 62
     7
100
AcDbBlockReference
  2
AI9-BLK4
 10
102.6002834743924
 20
170.8201504177517
 30
0.0
  0
INSERT
  5
23
330
A
100
AcDbEntity
  8
LAYER_1
 62
     7
100
AcDbBlockReference
  2
AI9-BLK1
 10
91.39890001085068
 20
141.62236328125
 30
0.0
  0
ENDSEC
  0
SECTION
  2
OBJECTS
  0
DICTIONARY
  5
19
330
0
100
AcDbDictionary
281
     1
  3
ACAD_COLOR
350
19B
  3
ACAD_GROUP
350
1A
  3
ACAD_LAYOUT
350
168
  3
ACAD_MATERIAL
350
19D
  3
ACAD_MLINESTYLE
350
1B
  3
ACAD_PLOTSETTINGS
350
169
  3
ACAD_PLOTSTYLENAME
350
166
  3
ACDBHEADERROUNDTRIPXREC
350
19A
  0
DICTIONARY
  5
19B
102
{ACAD_REACTORS
330
19
102
}
330
19
100
AcDbDictionary
281
     1
  0
DICTIONARY
  5
1A
102
{ACAD_REACTORS
330
19
102
}
330
19
100
AcDbDictionary
281
     1
  0
DICTIONARY
  5
168
102
{ACAD_REACTORS
330
19
102
}
330
19
100
AcDbDictionary
281
     1
  3
Layout1
350
16B
  3
Model
350
16A
  0
DICTIONARY
  5
19D
102
{ACAD_REACTORS
330
19
102
}
330
19
100
AcDbDictionary
281
     1
  0
DICTIONARY
  5
1B
102
{ACAD_REACTORS
330
19
102
}
330
19
100
AcDbDictionary
281
     1
  3
STANDARD
350
1C
  0
DICTIONARY
  5
169
102
{ACAD_REACTORS
330
19
102
}
330
19
100
AcDbDictionary
281
     1
  0
ACDBDICTIONARYWDFLT
  5
166
102
{ACAD_REACTORS
330
19
102
}
330
19
100
AcDbDictionary
281
     1
  3
Normal
350
167
100
AcDbDictionaryWithDefault
340
167
  0
DICTIONARY
  5
19A
102
{ACAD_REACTORS
330
19
102
}
330
19
100
AcDbDictionary
281
     1
  3
COLORDICT
350
19C
  3
MATERIALDICT
350
19E
  0
LAYOUT
  5
16B
102
{ACAD_REACTORS
330
168
102
}
102
{ACAD_XDICTIONARY
360
19F
102
}
330
168
100
AcDbPlotSettings
  1

  2
Support Center HP LaserJet 4
  4

  6

 40
0.0
 41
0.0
 42
0.0
 43
0.0
 44
0.0
 45
0.0
 46
0.0
 47
0.0
 48
0.0
 49
0.0
140
0.0
141
0.0
142
1.0
143
1.0
 70
   688
 72
     0
 73
     0
 74
     5
  7

 75
    16
147
1.0
148
0.0
149
0.0
100
AcDbLayout
  1
Layout1
 70
     0
 71
     1
 10
0.0
 20
0.0
 11
12.0
 21
9.0
 12
0.0
 22
0.0
 32
0.0
 14
1.000000000000000E+20
 24
1.000000000000000E+20
 34
1.000000000000000E+20
 15
-1.000000000000000E+20
 25
-1.000000000000000E+20
 35
-1.000000000000000E+20
146
0.0
 13
0.0
 23
0.0
 33
0.0
 16
1.0
 26
0.0
 36
0.0
 17
0.0
 27
1.0
 37
0.0
 76
     0
330
B
  0
LAYOUT
  5
16A
102
{ACAD_REACTORS
330
168
102
}
102
{ACAD_XDICTIONARY
360
1A1
102
}
330
168
100
AcDbPlotSettings
  1

  2
Support Center HP LaserJet 4
  4

  6

 40
0.0
 41
0.0
 42
0.0
 43
0.0
 44
0.0
 45
0.0
 46
0.0
 47
0.0
 48
0.0
 49
0.0
140
0.0
141
0.0
142
1.0
143
1.0
 70
  1712
 72
     0
 73
     0
 74
     0
  7

 75
     0
147
1.0
148
0.0
149
0.0
100
AcDbLayout
  1
Model
 70
     1
 71
     0
 10
0.0
 20
0.0
 11
12.0
 21
9.0
 12
0.0
 22
0.0
 32
0.0
 14
0.0
 24
0.0
 34
0.0
 15
0.0
 25
0.0
 35
0.0
146
0.0
 13
0.0
 23
0.0
 33
0.0
 16
1.0
 26
0.0
 36
0.0
 17
0.0
 27
1.0
 37
0.0
 76
     0
330
A
  0
MLINESTYLE
  5
1C
102
{ACAD_REACTORS
330
1B
102
}
330
1B
100
AcDbMlineStyle
  2
STANDARD
 70
     0
  3

 62
     0
 51
90.0000000000002
 52
90.0000000000002
 71
     2
 49
0.5
 62
   256
  6
BYLAYER
 49
-0.5
 62
   256
  6
BYLAYER
  0
ACDBPLACEHOLDER
  5
167
102
{ACAD_REACTORS
330
166
102
}
330
166
  0
XRECORD
  5
19C
102
{ACAD_REACTORS
330
19A
102
}
330
19A
100
AcDbXrecord
340
19B
  0
XRECORD
  5
19E
102
{ACAD_REACTORS
330
19A
102
}
330
19A
100
AcDbXrecord
340
19D
  0
DICTIONARY
  5
19F
330
16B
100
AcDbDictionary
280
     1
281
     1
  3
ACAD_XREC_ROUNDTRIP
360
1A0
  0
DICTIONARY
  5
1A1
330
16A
100
AcDbDictionary
280
     1
281
     1
  3
ACAD_XREC_ROUNDTRIP
360
1A2
  0
XRECORD
  5
1A0
102
{ACAD_REACTORS
330
19F
102
}
330
19F
100
AcDbXrecord
102
SHADEPLOT
 70
     0
102
SHADEPLOTRESLEVEL
 70
     0
102
SHADEPLOTCUSTOMDPI
 70
     0
  0
XRECORD
  5
1A2
102
{ACAD_REACTORS
330
1A1
102
}
330
1A1
100
AcDbXrecord
102
SHADEPLOT
 70
     0
102
SHADEPLOTRESLEVEL
 70
     0
102
SHADEPLOTCUSTOMDPI
 70
     0
  0
ENDSEC
  0
EOF
