  0
SECTION
  2
HEADER
  9
$ACADVER
  1
AC1015
  9
$ACADMAINTVER
 70
     6
  9
$DWGCODEPAGE
  3
ISO8859-1
  9
$INSBASE
 10
0.0
 20
0.0
 30
0.0
  9
$EXTMIN
 10
2.979305
 20
-6.063683563376956
 30
0.0
  9
$EXTMAX
 10
10.03529995238095
 20
3.434714
 30
0.0
  9
$LIMMIN
 10
0.0
 20
0.0
  9
$LIMMAX
 10
12.0
 20
9.0
  9
$ORTHOMODE
 70
     0
  9
$REGENMODE
 70
     0
  9
$FILLMODE
 70
     1
  9
$QTEXTMODE
 70
     0
  9
$MIRRTEXT
 70
     1
  9
$LTSCALE
 40
0.5
  9
$ATTMODE
 70
     1
  9
$TEXTSIZE
 40
0.2
  9
$TRACEWID
 40
0.05
  9
$TEXTSTYLE
  7
STANDARD
  9
$CLAYER
  8
0
  9
$CELTYPE
  6
ByLayer
  9
$CECOLOR
 62
   256
  9
$CELTSCALE
 40
1.0
  9
$DISPSILH
 70
     0
  9
$DIMSCALE
 40
1.0
  9
$DIMASZ
 40
0.125
  9
$DIMEXO
 40
0.0625
  9
$DIMDLI
 40
0.38
  9
$DIMRND
 40
0.0
  9
$DIMDLE
 40
0.0
  9
$DIMEXE
 40
0.1
  9
$DIMTP
 40
0.0
  9
$DIMTM
 40
0.0
  9
$DIMTXT
 40
0.125
  9
$DIMCEN
 40
0.09
  9
$DIMTSZ
 40
0.0
  9
$DIMTOL
 70
     0
  9
$DIMLIM
 70
     0
  9
$DIMTIH
 70
     0
  9
$DIMTOH
 70
     0
  9
$DIMSE1
 70
     0
  9
$DIMSE2
 70
     0
  9
$DIMTAD
 70
     1
  9
$DIMZIN
 70
     0
  9
$DIMBLK
  1

  9
$DIMASO
 70
     1
  9
$DIMSHO
 70
     1
  9
$DIMPOST
  1

  9
$DIMAPOST
  1

  9
$DIMALT
 70
     0
  9
$DIMALTD
 70
     2
  9
$DIMALTF
 40
25.4
  9
$DIMLFAC
 40
1.0
  9
$DIMTOFL
 70
     0
  9
$DIMTVP
 40
0.0
  9
$DIMTIX
 70
     0
  9
$DIMSOXD
 70
     0
  9
$DIMSAH
 70
     0
  9
$DIMBLK1
  1

  9
$DIMBLK2
  1

  9
$DIMSTYLE
  2
Standard
  9
$DIMCLRD
 70
     0
  9
$DIMCLRE
 70
     0
  9
$DIMCLRT
 70
     0
  9
$DIMTFAC
 40
1.0
  9
$DIMGAP
 40
0.09
  9
$DIMJUST
 70
     0
  9
$DIMSD1
 70
     0
  9
$DIMSD2
 70
     0
  9
$DIMTOLJ
 70
     1
  9
$DIMTZIN
 70
     0
  9
$DIMALTZ
 70
     0
  9
$DIMALTTZ
 70
     0
  9
$DIMUPT
 70
     0
  9
$DIMDEC
 70
     4
  9
$DIMTDEC
 70
     4
  9
$DIMALTU
 70
     2
  9
$DIMALTTD
 70
     2
  9
$DIMTXSTY
  7
STANDARD
  9
$DIMAUNIT
 70
     0
  9
$DIMADEC
 70
     0
  9
$DIMALTRND
 40
0.0
  9
$DIMAZIN
 70
     0
  9
$DIMDSEP
 70
    46
  9
$DIMATFIT
 70
     3
  9
$DIMFRAC
 70
     0
  9
$DIMLDRBLK
  1

  9
$DIMLUNIT
 70
     2
  9
$DIMLWD
 70
    -2
  9
$DIMLWE
 70
    -2
  9
$DIMTMOVE
 70
     0
  9
$LUNITS
 70
     2
  9
$LUPREC
 70
     4
  9
$SKETCHINC
 40
0.1
  9
$FILLETRAD
 40
0.0
  9
$AUNITS
 70
     0
  9
$AUPREC
 70
     0
  9
$MENU
  1
acad
  9
$ELEVATION
 40
0.0
  9
$PELEVATION
 40
0.0
  9
$THICKNESS
 40
0.0
  9
$LIMCHECK
 70
     0
  9
$CHAMFERA
 40
0.0
  9
$CHAMFERB
 40
0.0
  9
$CHAMFERC
 40
1.0
  9
$CHAMFERD
 40
0.0
  9
$SKPOLY
 70
     0
  9
$TDCREATE
 40
2453955.561704421
  9
$TDUCREATE
 40
2453955.895037754
  9
$TDUPDATE
 40
2453955.6033711
  9
$TDUUPDATE
 40
2453955.895037766
  9
$TDINDWG
 40
0.0000000116
  9
$TDUSRTIMER
 40
0.0000000116
  9
$USRTIMER
 70
     1
  9
$ANGBASE
 50
0.0
  9
$ANGDIR
 70
     0
  9
$PDMODE
 70
     0
  9
$PDSIZE
 40
0.0
  9
$PLINEWID
 40
0.0
  9
$SPLFRAME
 70
     0
  9
$SPLINETYPE
 70
     6
  9
$SPLINESEGS
 70
     8
  9
$HANDSEED
  5
1AB5
  9
$SURFTAB1
 70
     6
  9
$SURFTAB2
 70
     6
  9
$SURFTYPE
 70
     6
  9
$SURFU
 70
     6
  9
$SURFV
 70
     6
  9
$UCSBASE
  2

  9
$UCSNAME
  2

  9
$UCSORG
 10
0.0
 20
0.0
 30
0.0
  9
$UCSXDIR
 10
1.0
 20
0.0
 30
0.0
  9
$UCSYDIR
 10
0.0
 20
1.0
 30
0.0
  9
$UCSORTHOREF
  2

  9
$UCSORTHOVIEW
 70
     0
  9
$UCSORGTOP
 10
0.0
 20
0.0
 30
0.0
  9
$UCSORGBOTTOM
 10
0.0
 20
0.0
 30
0.0
  9
$UCSORGLEFT
 10
0.0
 20
0.0
 30
0.0
  9
$UCSORGRIGHT
 10
0.0
 20
0.0
 30
0.0
  9
$UCSORGFRONT
 10
0.0
 20
0.0
 30
0.0
  9
$UCSORGBACK
 10
0.0
 20
0.0
 30
0.0
  9
$PUCSBASE
  2

  9
$PUCSNAME
  2

  9
$PUCSORG
 10
0.0
 20
0.0
 30
0.0
  9
$PUCSXDIR
 10
1.0
 20
0.0
 30
0.0
  9
$PUCSYDIR
 10
0.0
 20
1.0
 30
0.0
  9
$PUCSORTHOREF
  2

  9
$PUCSORTHOVIEW
 70
     0
  9
$PUCSORGTOP
 10
0.0
 20
0.0
 30
0.0
  9
$PUCSORGBOTTOM
 10
0.0
 20
0.0
 30
0.0
  9
$PUCSORGLEFT
 10
0.0
 20
0.0
 30
0.0
  9
$PUCSORGRIGHT
 10
0.0
 20
0.0
 30
0.0
  9
$PUCSORGFRONT
 10
0.0
 20
0.0
 30
0.0
  9
$PUCSORGBACK
 10
0.0
 20
0.0
 30
0.0
  9
$USERI1
 70
     0
  9
$USERI2
 70
     0
  9
$USERI3
 70
     0
  9
$USERI4
 70
     0
  9
$USERI5
 70
     0
  9
$USERR1
 40
0.0
  9
$USERR2
 40
0.0
  9
$USERR3
 40
0.0
  9
$USERR4
 40
0.0
  9
$USERR5
 40
0.0
  9
$WORLDVIEW
 70
     1
  9
$SHADEDGE
 70
     3
  9
$SHADEDIF
 70
    70
  9
$TILEMODE
 70
     1
  9
$MAXACTVP
 70
    16
  9
$PINSBASE
 10
0.0
 20
0.0
 30
0.0
  9
$PLIMCHECK
 70
     0
  9
$PEXTMIN
 10
1.000000000000000E+20
 20
1.000000000000000E+20
 30
1.000000000000000E+20
  9
$PEXTMAX
 10
-1.000000000000000E+20
 20
-1.000000000000000E+20
 30
-1.000000000000000E+20
  9
$PLIMMIN
 10
0.0
 20
0.0
  9
$PLIMMAX
 10
12.0
 20
9.0
  9
$UNITMODE
 70
     0
  9
$VISRETAIN
 70
     0
  9
$PLINEGEN
 70
     0
  9
$PSLTSCALE
 70
     1
  9
$TREEDEPTH
 70
  3020
  9
$CMLSTYLE
  2
Standard
  9
$CMLJUST
 70
     0
  9
$CMLSCALE
 40
1.0
  9
$PROXYGRAPHICS
 70
     1
  9
$MEASUREMENT
 70
     0
  9
$CELWEIGHT
370
    -1
  9
$ENDCAPS
280
     0
  9
$JOINSTYLE
280
     0
  9
$LWDISPLAY
290
     0
  9
$INSUNITS
 70
     1
  9
$HYPERLINKBASE
  1

  9
$STYLESHEET
  1

  9
$XEDIT
290
     1
  9
$CEPSNTYPE
380
     0
  9
$PSTYLEMODE
290
     0
  9
$FINGERPRINTGUID
  2
{FAEB1C30-E019-11D5-929B-00C0DF256EC4}
  9
$VERSIONGUID
  2
{FAEB1C32-E019-11D5-929B-00C0DF256EC4}
  9
$EXTNAMES
290
     1
  9
$PSVPSCALE
 40
0.0
  9
$OLESTARTUP
290
     0
  0
ENDSEC
  0
SECTION
  2
CLASSES
  0
CLASS
  1
ACDBDICTIONARYWDFLT
  2
AcDbDictionaryWithDefault
  3
AutoCAD 2000
 90
        0
280
     0
281
     0
  0
CLASS
  1
ACDBPLACEHOLDER
  2
AcDbPlaceHolder
  3
ObjectDBX Classes
 90
        0
280
     0
281
     0
  0
CLASS
  1
LAYOUT
  2
AcDbLayout
  3
ObjectDBX Classes
 90
        0
280
     0
281
     0
  0
ENDSEC
  0
SECTION
  2
TABLES
  0
TABLE
  2
VPORT
  5
1A74
330
0
100
AcDbSymbolTable
 70
     2
  0
VPORT
  5
1A8B
330
1A74
100
AcDbSymbolTableRecord
100
AcDbViewportTableRecord
  2
*ACTIVE
 70
     0
 10
0.0
 20
0.0
 11
1.0
 21
1.0
 12
10.44974658815375
 22
1.468158218311522
 13
0.0
 23
0.0
 14
1.0
 24
1.0
 15
0.0
 25
0.0
 16
0.0
 26
0.0
 36
1.0
 17
0.0
 27
0.0
 37
0.0
 40
15.06368356337696
 41
0.7207678883071553
 42
50.0
 43
0.0
 44
0.0
 50
0.0
 51
0.0
 71
     0
 72
  2000
 73
     1
 74
     0
 75
     0
 76
     0
 77
     0
 78
     0
281
     0
 65
     1
110
0.0
120
0.0
130
0.0
111
1.0
121
0.0
131
0.0
112
0.0
122
1.0
132
0.0
 79
     0
146
0.0
  0
ENDTAB
  0
TABLE
  2
LTYPE
  5
1A71
330
0
100
AcDbSymbolTable
 70
     2
  0
LTYPE
  5
1A7C
330
1A71
100
AcDbSymbolTableRecord
100
AcDbLinetypeTableRecord
  2
ByBlock
 70
     0
  3

 72
    65
 73
     0
 40
0.0
  0
LTYPE
  5
1A7D
330
1A71
100
AcDbSymbolTableRecord
100
AcDbLinetypeTableRecord
  2
ByLayer
 70
     0
  3

 72
    65
 73
     0
 40
0.0
  0
LTYPE
  5
1A87
330
1A71
100
AcDbSymbolTableRecord
100
AcDbLinetypeTableRecord
  2
CONTINUOUS
 70
     0
  3
Solid line
 72
    65
 73
     0
 40
0.0
  0
LTYPE
  5
1A88
330
1A71
100
AcDbSymbolTableRecord
100
AcDbLinetypeTableRecord
  2
HIDDEN
 70
     0
  3
__ __ __ __ __ __ __ __ __ __ __ __ __ __ __ __
 72
    65
 73
     2
 40
0.375
 49
0.25
 74
     0
 49
-0.125
 74
     0
  0
ENDTAB
  0
TABLE
  2
LAYER
  5
1A6E
330
0
100
AcDbSymbolTable
 70
     1
  0
LAYER
  5
1A89
330
1A6E
100
AcDbSymbolTableRecord
100
AcDbLayerTableRecord
  2
0
 70
     0
 62
     7
  6
CONTINUOUS
370
    -3
390
1A7B
  0
ENDTAB
  0
TABLE
  2
STYLE
  5
1A6F
330
0
100
AcDbSymbolTable
 70
     1
  0
STYLE
  5
1A8D
330
1A6F
100
AcDbSymbolTableRecord
100
AcDbTextStyleTableRecord
  2
STANDARD
 70
     0
 40
0.0
 41
1.0
 50
0.0
 71
     0
 42
0.2
  3
ROMANS.shx
  4

  0
ENDTAB
  0
TABLE
  2
VIEW
  5
1A72
330
0
100
AcDbSymbolTable
 70
     0
  0
ENDTAB
  0
TABLE
  2
UCS
  5
1A73
330
0
100
AcDbSymbolTable
 70
     0
  0
ENDTAB
  0
TABLE
  2
APPID
  5
1A75
330
0
100
AcDbSymbolTable
 70
     1
  0
APPID
  5
1A8C
330
1A75
100
AcDbSymbolTableRecord
100
AcDbRegAppTableRecord
  2
ACAD
 70
     0
  0
ENDTAB
  0
TABLE
  2
DIMSTYLE
  5
1A76
330
0
100
AcDbSymbolTable
 70
     1
100
AcDbDimStyleTable
  0
DIMSTYLE
105
1A8E
330
1A76
100
AcDbSymbolTableRecord
100
AcDbDimStyleTableRecord
  2
Standard
 70
     0
  3

  4

340
1A8D
  0
ENDTAB
  0
TABLE
  2
BLOCK_RECORD
  5
1A6D
330
0
100
AcDbSymbolTable
 70
     0
  0
BLOCK_RECORD
  5
1A84
330
1A6D
100
AcDbSymbolTableRecord
100
AcDbBlockTableRecord
  2
*Model_Space
340
1A85
  0
BLOCK_RECORD
  5
1A82
330
1A6D
100
AcDbSymbolTableRecord
100
AcDbBlockTableRecord
  2
*Paper_Space
340
1A83
  0
ENDTAB
  0
ENDSEC
  0
SECTION
  2
BLOCKS
  0
BLOCK
  5
1AAA
330
1A84
100
AcDbEntity
  8
0
100
AcDbBlockBegin
  2
*Model_Space
 70
     0
 10
0.0
 20
0.0
 30
0.0
  3
*Model_Space
  1

  4

  0
ENDBLK
  5
1AAB
330
1A84
100
AcDbEntity
  8
0
100
AcDbBlockEnd
  0
BLOCK
  5
1AA8
330
1A82
100
AcDbEntity
 67
     1
  8
0
100
AcDbBlockBegin
  2
*Paper_Space
 70
     0
 10
0.0
 20
0.0
 30
0.0
  3
*Paper_Space
  1

  4

  0
ENDBLK
  5
1AA9
330
1A82
100
AcDbEntity
 67
     1
  8
0
100
AcDbBlockEnd
  0
ENDSEC
  0
SECTION
  2
ENTITIES
  0
LINE
  5
8
330
1A84
100
AcDbEntity
  8
0
100
AcDbLine
 10
4.876701000000001
 20
3.205814
 30
0.0
 11
4.876701000000001
 21
-0.368454
 31
0.0
  0
LINE
  5
B
330
1A84
100
AcDbEntity
  8
0
100
AcDbLine
 10
3.844727
 20
0.255004
 30
0.0
 11
7.108019000000001
 21
-1.716487
 31
0.0
  0
LINE
  5
C
330
1A84
100
AcDbEntity
  8
0
100
AcDbLine
 10
7.108019000000001
 20
-1.716487
 30
0.0
 11
7.108019000000001
 21
-2.257511
 31
0.0
  0
LINE
  5
D
330
1A84
100
AcDbEntity
  8
0
100
AcDbLine
 10
7.108019000000001
 20
-2.257511
 30
0.0
 11
3.844727
 21
-0.237688
 31
0.0
  0
LINE
  5
E
330
1A84
100
AcDbEntity
  8
0
100
AcDbLine
 10
3.844727
 20
-0.237688
 30
0.0
 11
3.844727
 21
0.255004
 31
0.0
  0
LINE
  5
F
330
1A84
100
AcDbEntity
  8
0
100
AcDbLine
 10
7.108019000000001
 20
-1.716487
 30
0.0
 11
7.515789
 21
-1.529301
 31
0.0
  0
LINE
  5
10
330
1A84
100
AcDbEntity
  8
0
100
AcDbLine
 10
8.202781
 20
-1.213937
 30
0.0
 11
7.257752
 21
-0.738929
 31
0.0
  0
LINE
  5
11
330
1A84
100
AcDbEntity
  8
0
100
AcDbLine
 10
7.108019000000001
 20
-2.257511
 30
0.0
 11
7.515789
 21
-2.05803
 31
0.0
  0
LINE
  5
12
330
1A84
100
AcDbEntity
  8
0
100
AcDbLine
 10
8.203576
 20
-1.721566
 30
0.0
 11
8.203576
 21
-1.213572
 31
0.0
  0
LINE
  5
13
330
1A84
100
AcDbEntity
  8
0
100
AcDbLine
 10
4.876701000000001
 20
3.205814
 30
0.0
 11
5.641243
 21
3.117982
 31
0.0
  0
LINE
  5
14
330
1A84
100
AcDbEntity
  8
0
100
AcDbLine
 10
5.641243
 20
3.117982
 30
0.0
 11
5.641243
 21
-0.830347
 31
0.0
  0
LINE
  5
15
330
1A84
100
AcDbEntity
  8
0
100
AcDbLine
 10
5.641243
 20
3.117982
 30
0.0
 11
6.136806
 21
3.149265
 31
0.0
  0
LINE
  5
16
330
1A84
100
AcDbEntity
  8
0
100
AcDbLine
 10
6.791606
 20
3.1906
 30
0.0
 11
6.791606
 21
0.6633100000000001
 31
0.0
  0
LINE
  5
18
330
1A84
100
AcDbEntity
  8
0
100
AcDbLine
 10
4.876701000000001
 20
0.486304
 30
0.0
 11
4.761766000000001
 21
0.522014
 31
0.0
  0
LINE
  5
19
330
1A84
100
AcDbEntity
  8
0
100
AcDbLine
 10
4.761766000000001
 20
0.522014
 30
0.0
 11
4.54648
 21
0.45933
 31
0.0
  0
LINE
  5
1A
330
1A84
100
AcDbEntity
  8
0
100
AcDbLine
 10
4.266932
 20
0.377935
 30
0.0
 11
4.424084
 21
0.358963
 31
0.0
  0
LINE
  5
1B
330
1A84
100
AcDbEntity
  8
0
100
AcDbLine
 10
4.424084
 20
0.358963
 30
0.0
 11
4.330162000000001
 21
0.4893939999999999
 31
0.0
  0
LINE
  5
1C
330
1A84
100
AcDbEntity
  8
0
100
AcDbLine
 10
4.330162000000001
 20
0.4893939999999999
 30
0.0
 11
4.54648
 21
0.45933
 31
0.0
  0
LINE
  5
1D
330
1A84
100
AcDbEntity
  8
0
100
AcDbLine
 10
4.266932
 20
0.377935
 30
0.0
 11
3.844727
 21
0.255004
 31
0.0
  0
LINE
  5
1E
330
1A84
100
AcDbEntity
  8
0
100
AcDbLine
 10
4.330162000000001
 20
0.4893939999999999
 30
0.0
 11
4.330162000000001
 21
0.370302
 31
0.0
  0
LINE
  5
20
330
1A84
100
AcDbEntity
  8
0
100
AcDbLine
 10
2.981433
 20
-1.054897
 30
0.0
 11
5.949001
 21
-3.208182
 31
0.0
  0
LWPOLYLINE
  5
21
330
1A84
100
AcDbEntity
  8
0
100
AcDbPolyline
 90
      104
 70
     0
 43
0.0
 10
3.844727
 20
0.046786
 10
3.697806
 20
-0.006673
 10
3.613045
 20
-0.087246
 10
3.512585
 20
-0.110203
 10
3.428015
 20
-0.128692
 10
3.42754
 20
-0.146729
 10
3.482453
 20
-0.244254
 10
3.514963
 20
-0.260327
 10
3.512063
 20
-0.332505
 10
3.540417
 20
-0.377736
 10
3.558155
 20
-0.402251
 10
3.53196
 20
-0.431051
 10
3.553458
 20
-0.48149
 10
3.430367
 20
-0.518124
 10
3.367982
 20
-0.5419729999999999
 10
3.302274
 20
-0.554904
 10
3.253391
 20
-0.5953810000000001
 10
3.253821
 20
-0.6444310000000001
 10
3.261268
 20
-0.762366
 10
3.24537
 20
-0.800879
 10
3.191768
 20
-0.88555
 10
3.116953
 20
-0.963831
 10
3.041817
 20
-1.031107
 10
3.041817
 20
-1.031107
 10
2.981433
 20
-1.054897
 10
2.981433
 20
-2.083717
 10
2.979305
 20
-2.114322
 10
3.038928
 20
-2.201696
 10
3.048683
 20
-2.261489
 10
3.086151
 20
-2.344504
 10
3.149783
 20
-2.397718
 10
3.180906
 20
-2.434858
 10
3.191369
 20
-2.484617
 10
3.172879
 20
-2.537224
 10
3.155155
 20
-2.581798
 10
3.166736
 20
-2.635529
 10
3.148953
 20
-2.678102
 10
3.132026
 20
-2.715644
 10
3.130104
 20
-2.752748
 10
3.139743
 20
-2.808538
 10
3.163883
 20
-2.880928
 10
3.210084
 20
-2.98872
 10
3.240228
 20
-3.060935
 10
3.2694
 20
-3.134179
 10
3.238195
 20
-3.197169
 10
3.259743
 20
-3.283652
 10
3.286652
 20
-3.347951
 10
3.311902
 20
-3.458357
 10
3.325067
 20
-3.532068
 10
3.342555
 20
-3.616667
 10
3.40434
 20
-3.640898
 10
3.476239
 20
-3.702882
 10
3.536579
 20
-3.746179
 10
3.591412
 20
-3.806659
 10
3.643164
 20
-3.830181
 10
3.709447
 20
-3.871302
 10
3.768261
 20
-3.896621
 10
3.800588
 20
-3.940735
 10
3.842349
 20
-4.033638
 10
3.882037
 20
-4.055509
 10
3.929379
 20
-4.065142
 10
4.001257
 20
-4.092082
 10
4.072833999999999
 20
-4.143061
 10
4.132961
 20
-4.213399
 10
4.183472
 20
-4.262991
 10
4.254078
 20
-4.315
 10
4.316368
 20
-4.322194000000001
 10
4.380475
 20
-4.357371
 10
4.431708
 20
-4.466018
 10
4.516028
 20
-4.507614
 10
4.608565000000001
 20
-4.521936
 10
4.711814
 20
-4.525932
 10
4.752664
 20
-4.484687999999999
 10
4.798546
 20
-4.444299
 10
4.836125
 20
-4.428183
 10
4.870936
 20
-4.420159
 10
4.931108
 20
-4.423409
 10
4.992113
 20
-4.386584
 10
5.031613
 20
-4.333364
 10
5.048899
 20
-4.273784
 10
5.042912
 20
-4.205871
 10
5.05708
 20
-4.142377
 10
5.076658
 20
-4.092741999999999
 10
5.061105
 20
-4.040128
 10
5.073768
 20
-3.993699
 10
5.157367
 20
-3.97624
 10
5.18979
 20
-3.989312
 10
5.246071
 20
-3.893549
 10
5.258655
 20
-3.810075
 10
5.265711000000001
 20
-3.708739
 10
5.287627
 20
-3.601963
 10
5.3037
 20
-3.569453
 10
5.371526
 20
-3.560465
 10
5.405519
 20
-3.524428
 10
5.43857
 20
-3.490421
 10
5.515604
 20
-3.488173
 10
5.582516
 20
-3.482215
 10
5.665757
 20
-3.486795
 10
5.708046
 20
-3.460529
 10
5.744799
 20
-3.450445
 10
5.836898000000001
 20
-3.44976
 10
5.876347
 20
-3.360496
 10
5.938135
 20
-3.24755
 10
5.949001
 20
-3.208182
  0
LWPOLYLINE
  5
8D
330
1A84
100
AcDbEntity
  8
0
100
AcDbPolyline
 90
       39
 70
     0
 43
0.0
 10
5.949001
 20
-3.208182
 10
6.011648999999999
 20
-3.193338
 10
6.189464
 20
-3.179137
 10
6.311576000000001
 20
-3.177577
 10
6.390581
 20
-3.17427
 10
6.50336
 20
-3.196011
 10
6.587996
 20
-3.14548
 10
6.660414
 20
-3.12234
 10
6.756982000000001
 20
-3.137545
 10
6.853395
 20
-3.181792
 10
6.923572
 20
-3.184751
 10
7.015524
 20
-3.179064
 10
7.098414
 20
-3.171638
 10
7.141024000000001
 20
-3.156377
 10
7.223681
 20
-3.140948
 10
7.246203
 20
-3.089225
 10
7.262692
 20
-3.036677
 10
7.30082
 20
-2.936437
 10
7.330257000000001
 20
-2.881509
 10
7.393614
 20
-2.85663
 10
7.512732000000001
 20
-2.821113
 10
7.622466
 20
-2.772853
 10
7.638481
 20
-2.738342
 10
7.67495
 20
-2.68421
 10
7.749458
 20
-2.664012
 10
7.846266
 20
-2.653177
 10
7.916947
 20
-2.639099
 10
7.931457000000001
 20
-2.621654
 10
8.008791
 20
-2.595366
 10
8.112844000000001
 20
-2.558286
 10
8.205308000000001
 20
-2.501519
 10
8.250344
 20
-2.432117
 10
8.276349
 20
-2.328226
 10
8.266698
 20
-2.203346
 10
8.270080999999999
 20
-2.079088
 10
8.292844000000001
 20
-2.001325
 10
8.364307
 20
-1.911126
 10
8.422202
 20
-1.836343
 10
8.203576
 20
-1.721566
  0
LINE
  5
EB
330
1A84
100
AcDbEntity
  8
0
100
AcDbLine
 10
3.428015
 20
-0.128692
 30
0.0
 11
3.428015
 21
-0.5190229999999999
 31
0.0
  0
LINE
  5
EC
330
1A84
100
AcDbEntity
  8
0
100
AcDbLine
 10
4.381441000000001
 20
0.418183
 30
0.0
 11
4.341051
 21
0.368988
 31
0.0
  0
LINE
  5
ED
330
1A84
100
AcDbEntity
  8
0
100
AcDbLine
 10
4.876701000000001
 20
3.205814
 30
0.0
 11
5.372262999999999
 21
3.237097
 31
0.0
  0
LINE
  5
EE
330
1A84
100
AcDbEntity
  8
0
100
AcDbLine
 10
6.285933
 20
3.248693
 30
0.0
 11
6.791606
 21
3.1906
 31
0.0
  0
LINE
  5
EF
330
1A84
100
AcDbEntity
  8
0
100
AcDbLine
 10
6.136806
 20
3.149265
 30
0.0
 11
6.245349
 21
3.346882
 31
0.0
  0
LINE
  5
F0
330
1A84
100
AcDbEntity
  8
0
100
AcDbLine
 10
6.245349
 20
3.346882
 30
0.0
 11
6.357393
 21
3.075799
 31
0.0
  0
LINE
  5
F1
330
1A84
100
AcDbEntity
  8
0
100
AcDbLine
 10
6.357393
 20
3.075799
 30
0.0
 11
6.415873
 21
3.166882
 31
0.0
  0
LINE
  5
F2
330
1A84
100
AcDbEntity
  8
0
100
AcDbLine
 10
6.415873
 20
3.166882
 30
0.0
 11
6.791606
 21
3.1906
 31
0.0
  0
LINE
  5
F4
330
1A84
100
AcDbEntity
  8
0
100
AcDbLine
 10
5.372262999999999
 20
3.237097
 30
0.0
 11
5.480807
 21
3.434714
 31
0.0
  0
LINE
  5
F7
330
1A84
100
AcDbEntity
  8
0
100
AcDbLine
 10
5.480807
 20
3.434714
 30
0.0
 11
6.245349
 21
3.346882
 31
0.0
  0
LINE
  5
F8
330
1A84
100
AcDbEntity
  8
0
100
AcDbLine
 10
6.415873
 20
3.166882
 30
0.0
 11
6.314955
 21
3.178475
 31
0.0
  0
LINE
  5
F9
330
1A84
100
AcDbEntity
  8
0
100
AcDbLine
 10
6.136806
 20
3.149265
 30
0.0
 11
5.372262999999999
 21
3.237097
 31
0.0
  0
LINE
  5
123
330
1A84
100
AcDbEntity
  8
0
100
AcDbLine
 10
5.817955
 20
2.689581
 30
0.0
 11
5.817955
 21
1.863238
 31
0.0
  0
LINE
  5
124
330
1A84
100
AcDbEntity
  8
0
100
AcDbLine
 10
5.843699
 20
1.802298
 30
0.0
 11
5.850054
 21
1.796118
 31
0.0
  0
LINE
  5
125
330
1A84
100
AcDbEntity
  8
0
100
AcDbLine
 10
5.875797
 20
1.735179
 30
0.0
 11
5.875797
 21
0.9001620000000001
 31
0.0
  0
LINE
  5
126
330
1A84
100
AcDbEntity
  8
0
100
AcDbLine
 10
5.743392
 20
0.646782
 30
0.0
 11
5.743392
 21
-0.5293640000000001
 31
0.0
  0
LINE
  5
127
330
1A84
100
AcDbEntity
  8
0
100
AcDbLine
 10
5.743392
 20
-0.5293640000000001
 30
0.0
 11
5.806907
 21
-0.809239
 31
0.0
  0
LINE
  5
128
330
1A84
100
AcDbEntity
  8
0
100
AcDbLine
 10
5.806907
 20
-0.809239
 30
0.0
 11
6.364772
 21
-1.127697
 31
0.0
  0
LINE
  5
129
330
1A84
100
AcDbEntity
  8
0
100
AcDbLine
 10
6.420894000000001
 20
-1.129786
 30
0.0
 11
7.214606
 21
-0.816841
 31
0.0
  0
LINE
  5
12A
330
1A84
100
AcDbEntity
  8
0
100
AcDbLine
 10
6.734317999999999
 20
0.835385
 30
0.0
 11
7.255346
 21
-0.7296090000000001
 31
0.0
  0
LINE
  5
12B
330
1A84
100
AcDbEntity
  8
0
100
AcDbLine
 10
6.328248
 20
-1.085036
 30
0.0
 11
5.792241000000001
 21
0.677129
 31
0.0
  0
LINE
  5
12C
330
1A84
100
AcDbEntity
  8
0
100
AcDbLine
 10
5.815625
 20
1.774337
 30
0.0
 11
5.815625
 21
0.8367030000000001
 31
0.0
  0
LINE
  5
12F
330
1A84
100
AcDbEntity
  8
0
100
AcDbLine
 10
5.886189
 20
2.667073
 30
0.0
 11
5.886189
 21
1.889982
 31
0.0
  0
LINE
  5
130
330
1A84
100
AcDbEntity
  8
0
100
AcDbLine
 10
5.934165
 20
1.771618
 30
0.0
 11
5.934165
 21
0.911959
 31
0.0
  0
LINE
  5
131
330
1A84
100
AcDbEntity
  8
0
100
AcDbLine
 10
6.362509999999999
 20
-1.016984
 30
0.0
 11
5.846051999999999
 21
0.6809149999999999
 31
0.0
  0
LINE
  5
132
330
1A84
100
AcDbEntity
  8
0
100
AcDbLine
 10
5.817955
 20
2.689581
 30
0.0
 11
6.646799000000001
 21
2.765834
 31
0.0
  0
LINE
  5
133
330
1A84
100
AcDbEntity
  8
0
100
AcDbLine
 10
6.646799000000001
 20
2.765834
 30
0.0
 11
6.706554
 21
2.742546
 31
0.0
  0
LINE
  5
134
330
1A84
100
AcDbEntity
  8
0
100
AcDbLine
 10
5.817955
 20
2.689581
 30
0.0
 11
6.646799000000001
 21
2.765834
 31
0.0
  0
LINE
  5
135
330
1A84
100
AcDbEntity
  8
0
100
AcDbLine
 10
5.886189
 20
2.667073
 30
0.0
 11
6.706554
 21
2.742546
 31
0.0
  0
LINE
  5
136
330
1A84
100
AcDbEntity
  8
0
100
AcDbLine
 10
5.886189
 20
2.667073
 30
0.0
 11
5.817955
 21
2.689581
 31
0.0
  0
LINE
  5
137
330
1A84
100
AcDbEntity
  8
0
100
AcDbLine
 10
6.706554
 20
2.742546
 30
0.0
 11
6.706554
 21
1.965455
 31
0.0
  0
LINE
  5
138
330
1A84
100
AcDbEntity
  8
0
100
AcDbLine
 10
5.641243
 20
-0.830347
 30
0.0
 11
5.7964
 21
-0.762942
 31
0.0
  0
LINE
  5
139
330
1A84
100
AcDbEntity
  8
0
100
AcDbLine
 10
5.853494
 20
0.747686
 30
0.0
 11
5.923044
 21
0.869924
 31
0.0
  0
LINE
  5
13A
330
1A84
100
AcDbEntity
  8
0
100
AcDbLine
 10
5.799684
 20
0.743899
 30
0.0
 11
5.864676
 21
0.8581280000000001
 31
0.0
  0
ARC
  5
140
330
1A84
100
AcDbEntity
  8
0
100
AcDbCircle
 10
5.953273
 20
0.6369550000000001
 30
0.0
 40
0.210111
100
AcDbArc
 50
122.867715
 51
177.319298
  0
ARC
  5
141
330
1A84
100
AcDbEntity
  8
0
100
AcDbCircle
 10
5.927373
 20
0.705651
 30
0.0
 40
0.085
100
AcDbArc
 50
150.361488
 51
196.918449
  0
ARC
  5
142
330
1A84
100
AcDbEntity
  8
0
100
AcDbCircle
 10
5.873562000000001
 20
0.701864
 30
0.0
 40
0.085
100
AcDbArc
 50
150.361488
 51
196.918449
  0
ARC
  5
143
330
1A84
100
AcDbEntity
  8
0
100
AcDbCircle
 10
5.790797
 20
0.9001620000000001
 30
0.0
 40
0.085
100
AcDbArc
 50
330.361488
 51
0.0
  0
ARC
  5
144
330
1A84
100
AcDbEntity
  8
0
100
AcDbCircle
 10
5.849165
 20
0.911959
 30
0.0
 40
0.085
100
AcDbArc
 50
330.361488
 51
0.0
  0
LINE
  5
145
330
1A84
100
AcDbEntity
  8
0
100
AcDbLine
 10
5.815625
 20
0.8367030000000001
 30
0.0
 11
5.838823000000001
 21
0.812689
 31
0.0
  0
ARC
  5
147
330
1A84
100
AcDbEntity
  8
0
100
AcDbCircle
 10
5.971189
 20
1.889982
 30
0.0
 40
0.085
100
AcDbArc
 50
180.0
 51
224.127673
  0
ARC
  5
148
330
1A84
100
AcDbEntity
  8
0
100
AcDbCircle
 10
5.849165
 20
1.771618
 30
0.0
 40
0.085
100
AcDbArc
 50
0.0
 51
44.127673
  0
ARC
  5
149
330
1A84
100
AcDbEntity
  8
0
100
AcDbCircle
 10
5.790797
 20
1.735179
 30
0.0
 40
0.085
100
AcDbArc
 50
0.0
 51
45.802215
  0
ARC
  5
14A
330
1A84
100
AcDbEntity
  8
0
100
AcDbCircle
 10
5.902955
 20
1.863238
 30
0.0
 40
0.085
100
AcDbArc
 50
180.0
 51
225.802215
  0
LINE
  5
14B
330
1A84
100
AcDbEntity
  8
0
100
AcDbLine
 10
5.815625
 20
1.774337
 30
0.0
 11
5.844343
 21
1.801672
 31
0.0
  0
ARC
  5
14C
330
1A84
100
AcDbEntity
  8
0
100
AcDbCircle
 10
6.791554
 20
1.965455
 30
0.0
 40
0.085
100
AcDbArc
 50
180.0
 51
224.127673
  0
ARC
  5
14D
330
1A84
100
AcDbEntity
  8
0
100
AcDbCircle
 10
6.66953
 20
1.847091
 30
0.0
 40
0.085
100
AcDbArc
 50
0.0
 51
44.127673
  0
LINE
  5
14E
330
1A84
100
AcDbEntity
  8
0
100
AcDbLine
 10
6.75453
 20
1.847091
 30
0.0
 11
6.75453
 21
0.8609389999999999
 31
0.0
  0
LINE
  5
14F
330
1A84
100
AcDbEntity
  8
0
100
AcDbLine
 10
6.75453
 20
0.8609389999999999
 30
0.0
 11
6.05883
 21
-0.018613
 31
0.0
  0
LINE
  5
150
330
1A84
100
AcDbEntity
  8
0
100
AcDbLine
 10
5.971271
 20
1.861985
 30
0.0
 11
6.625359
 21
1.922125
 31
0.0
  0
LINE
  5
151
330
1A84
100
AcDbEntity
  8
0
100
AcDbLine
 10
6.022599
 20
1.784381
 30
0.0
 11
6.678891999999999
 21
1.837576
 31
0.0
  0
LINE
  5
152
330
1A84
100
AcDbEntity
  8
0
100
AcDbLine
 10
6.455156
 20
-1.061734
 30
0.0
 11
7.208548
 21
-0.764687
 31
0.0
  0
LINE
  5
153
330
1A84
100
AcDbEntity
  8
0
100
AcDbLine
 10
6.699689
 20
0.791606
 30
0.0
 11
7.166989
 21
-0.612004
 31
0.0
  0
ARC
  5
15A
330
1A84
100
AcDbEntity
  8
0
100
AcDbCircle
 10
6.395218
 20
-1.064665
 30
0.0
 40
0.07
100
AcDbArc
 50
196.918449
 51
291.518321
  0
ARC
  5
15B
330
1A84
100
AcDbEntity
  8
0
100
AcDbCircle
 10
6.42948
 20
-0.996613
 30
0.0
 40
0.07
100
AcDbArc
 50
196.918449
 51
291.518321
  0
ARC
  5
15C
330
1A84
100
AcDbEntity
  8
0
100
AcDbCircle
 10
7.18893
 20
-0.7517199999999999
 30
0.0
 40
0.07
100
AcDbArc
 50
291.518321
 51
18.413995
  0
LINE
  5
15E
330
1A84
100
AcDbEntity
  8
0
100
AcDbLine
 10
6.440626
 20
-0.908899
 30
0.0
 11
7.208548
 21
-0.6321640000000001
 31
0.0
  0
LINE
  5
15F
330
1A84
100
AcDbEntity
  8
0
100
AcDbLine
 10
7.208548
 20
-0.6321640000000001
 30
0.0
 11
7.208548
 21
-0.764687
 31
0.0
  0
LINE
  5
160
330
1A84
100
AcDbEntity
  8
0
100
AcDbLine
 10
6.440626
 20
-0.908899
 30
0.0
 11
6.440626
 21
-1.06572
 31
0.0
  0
LINE
  5
161
330
1A84
100
AcDbEntity
  8
0
100
AcDbLine
 10
6.440626
 20
-0.908899
 30
0.0
 11
6.311448
 21
-0.8491129999999999
 31
0.0
  0
LINE
  5
162
330
1A84
100
AcDbEntity
  8
0
100
AcDbLine
 10
7.208548
 20
-0.6321640000000001
 30
0.0
 11
6.906447
 21
-0.485619
 31
0.0
  0
LINE
  5
163
330
1A84
100
AcDbEntity
  8
0
100
AcDbLine
 10
6.683897
 20
0.705266
 30
0.0
 11
6.683897
 21
-0.133354
 31
0.0
  0
LINE
  5
164
330
1A84
100
AcDbEntity
  8
0
100
AcDbLine
 10
6.71718
 20
0.594093
 30
0.0
 11
6.71718
 21
-0.067983
 31
0.0
  0
LINE
  5
165
330
1A84
100
AcDbEntity
  8
0
100
AcDbLine
 10
6.274326
 20
0.253832
 30
0.0
 11
6.657448
 21
-0.172633
 31
0.0
  0
LINE
  5
166
330
1A84
100
AcDbEntity
  8
0
100
AcDbLine
 10
6.657448
 20
-0.172633
 30
0.0
 11
6.715951
 21
-0.393212
 31
0.0
  0
LINE
  5
167
330
1A84
100
AcDbEntity
  8
0
100
AcDbLine
 10
6.474826
 20
1.419091
 30
0.0
 11
6.331777
 21
1.345828
 31
0.0
  0
LINE
  5
168
330
1A84
100
AcDbEntity
  8
0
100
AcDbLine
 10
6.331777
 20
1.345828
 30
0.0
 11
6.331777
 21
1.152919
 31
0.0
  0
LINE
  5
169
330
1A84
100
AcDbEntity
  8
0
100
AcDbLine
 10
6.331777
 20
1.152919
 30
0.0
 11
6.47501
 21
1.085712
 31
0.0
  0
LINE
  5
16A
330
1A84
100
AcDbEntity
  8
0
100
AcDbLine
 10
6.47501
 20
1.085712
 30
0.0
 11
6.584431
 21
1.176903
 31
0.0
  0
LINE
  5
16C
330
1A84
100
AcDbEntity
  8
0
100
AcDbLine
 10
6.584431
 20
1.350125
 30
0.0
 11
6.474826
 21
1.419091
 31
0.0
  0
LINE
  5
16D
330
1A84
100
AcDbEntity
  8
0
100
AcDbLine
 10
6.331777
 20
1.345828
 30
0.0
 11
6.234005000000001
 21
1.368007
 31
0.0
  0
LINE
  5
16E
330
1A84
100
AcDbEntity
  8
0
100
AcDbLine
 10
6.377053
 20
1.44127
 30
0.0
 11
6.234005000000001
 21
1.368007
 31
0.0
  0
LINE
  5
16F
330
1A84
100
AcDbEntity
  8
0
100
AcDbLine
 10
6.234005000000001
 20
1.368007
 30
0.0
 11
6.234005000000001
 21
1.175098
 31
0.0
  0
LINE
  5
170
330
1A84
100
AcDbEntity
  8
0
100
AcDbLine
 10
6.234005000000001
 20
1.175098
 30
0.0
 11
6.322533999999999
 21
1.120301
 31
0.0
  0
LINE
  5
171
330
1A84
100
AcDbEntity
  8
0
100
AcDbLine
 10
6.474826
 20
1.419091
 30
0.0
 11
6.377053
 21
1.44127
 31
0.0
  0
LINE
  5
172
330
1A84
100
AcDbEntity
  8
0
100
AcDbLine
 10
6.331777
 20
1.152919
 30
0.0
 11
6.234005000000001
 21
1.175098
 31
0.0
  0
LINE
  5
174
330
1A84
100
AcDbEntity
  8
0
100
AcDbLine
 10
6.584431
 20
1.176903
 30
0.0
 11
6.584431
 21
1.350125
 31
0.0
  0
LINE
  5
175
330
1A84
100
AcDbEntity
  8
0
100
AcDbLine
 10
6.47501
 20
1.085712
 30
0.0
 11
6.322533999999999
 21
1.120301
 31
0.0
  0
LINE
  5
177
330
1A84
100
AcDbEntity
  8
0
100
AcDbLine
 10
6.710933
 20
-0.461446
 30
0.0
 11
6.710933
 21
-0.608744
 31
0.0
  0
LINE
  5
178
330
1A84
100
AcDbEntity
  8
0
100
AcDbLine
 10
6.314498
 20
-0.461446
 30
0.0
 11
6.314498
 21
-0.608744
 31
0.0
  0
LINE
  5
18B
330
1A84
100
AcDbEntity
  8
0
100
AcDbLine
 10
6.429973
 20
-0.525392
 30
0.0
 11
6.429973
 21
-0.672689
 31
0.0
  0
LINE
  5
18C
330
1A84
100
AcDbEntity
  8
0
100
AcDbLine
 10
6.630614
 20
-0.517967
 30
0.0
 11
6.630614
 21
-0.665265
 31
0.0
  0
LWPOLYLINE
  5
1A0
330
1A84
100
AcDbEntity
  8
0
100
AcDbPolyline
 90
        9
 70
     0
 43
0.0
 10
6.314498
 20
-0.608744
 42
0.219451
 10
6.324595
 20
-0.630641
 42
0.091949
 10
6.372555
 20
-0.658312
 42
0.048656
 10
6.431625
 20
-0.672936
 42
0.036379
 10
6.512716
 20
-0.678844
 42
0.036379
 10
6.593806
 20
-0.672936
 42
0.048656
 10
6.652877
 20
-0.658312
 42
0.091949
 10
6.700836
 20
-0.630641
 42
0.219451
 10
6.710933
 20
-0.608744
 42
0.219451
  0
LWPOLYLINE
  5
1AC
330
1A84
100
AcDbEntity
  8
0
100
AcDbPolyline
 90
       16
 70
     1
 43
0.0
 10
6.05818
 20
-0.601649
 42
0.180962
 10
6.042199
 20
-0.607629
 42
0.102969
 10
6.024453
 20
-0.630999
 42
0.06248
 10
6.014448000000001
 20
-0.661243
 42
0.048706
 10
6.010483
 20
-0.701854
 42
0.048706
 10
6.014448000000001
 20
-0.742464
 42
0.06248
 10
6.024453
 20
-0.772709
 42
0.102969
 10
6.042199
 20
-0.796078
 42
0.180962
 10
6.05818
 20
-0.8020579999999999
 42
0.180962
 10
6.074161
 20
-0.796078
 42
0.102969
 10
6.091907
 20
-0.772709
 42
0.06248
 10
6.101912
 20
-0.742464
 42
0.048706
 10
6.105878
 20
-0.701854
 42
0.048706
 10
6.101912
 20
-0.661243
 42
0.06248
 10
6.091907
 20
-0.630999
 42
0.102969
 10
6.074161
 20
-0.607629
 42
0.180962
  0
LWPOLYLINE
  5
1D1
330
1A84
100
AcDbEntity
  8
0
100
AcDbPolyline
 90
        6
 70
     0
 43
0.0
 10
6.866324000000001
 20
-0.33075
 42
0.180962
 10
6.850344000000001
 20
-0.336729
 42
0.102969
 10
6.832597
 20
-0.360099
 42
0.06248
 10
6.822592
 20
-0.390343
 42
0.048706
 10
6.818627
 20
-0.430954
 42
0.014583
 10
6.818984
 20
-0.443192
 42
0.06248
  0
LWPOLYLINE
  5
1D9
330
1A84
100
AcDbEntity
  8
0
100
AcDbPolyline
 90
        7
 70
     0
 43
0.0
 10
6.906447
 20
-0.485619
 42
0.028372
 10
6.910056
 20
-0.471564
 42
0.048706
 10
6.914022
 20
-0.430954
 42
0.048706
 10
6.910056
 20
-0.390343
 42
0.06248
 10
6.900051
 20
-0.360099
 42
0.102969
 10
6.882305000000001
 20
-0.336729
 42
0.180962
 10
6.866324000000001
 20
-0.33075
 42
0.180962
  0
LWPOLYLINE
  5
1F7
330
1A84
100
AcDbEntity
  8
0
100
AcDbPolyline
 90
        9
 70
     0
 43
0.0
 10
6.818984
 20
-0.443192
 42
0.19067
 10
6.818416
 20
-0.450768
 42
0.100709
 10
6.825171000000001
 20
-0.463054
 42
0.058778
 10
6.836359
 20
-0.473475
 42
0.04524
 10
6.853352
 20
-0.483708
 42
0.04524
 10
6.871908
 20
-0.490719
 42
0.058778
 10
6.887017
 20
-0.493055
 42
0.100709
 10
6.900848
 20
-0.490755
 42
0.19067
 10
6.906447
 20
-0.485619
 42
0.19067
  0
LINE
  5
202
330
1A84
100
AcDbEntity
  8
0
100
AcDbLine
 10
6.818984
 20
-0.443192
 30
0.0
 11
6.715951
 21
-0.393212
 31
0.0
  0
LINE
  5
221
330
1A84
100
AcDbEntity
  8
0
  6
HIDDEN
100
AcDbLine
 10
6.412024
 20
-0.8843549999999999
 30
0.0
 11
6.412024
 21
-0.6694250000000001
 31
0.0
  0
LWPOLYLINE
  5
222
330
1A84
100
AcDbEntity
  8
0
100
AcDbPolyline
 90
       16
 70
     1
 43
0.0
 10
6.620152
 20
-0.193693
 42
0.178964
 10
6.613896
 20
-0.176775
 42
0.103383
 10
6.589672
 20
-0.158114
 42
0.063261
 10
6.558235000000001
 20
-0.147556
 42
0.049456
 10
6.516088
 20
-0.143377
 42
0.049456
 10
6.473941
 20
-0.147556
 42
0.063261
 10
6.442504000000001
 20
-0.158114
 42
0.103383
 10
6.41828
 20
-0.176775
 42
0.178964
 10
6.412024
 20
-0.193693
 42
0.178964
 10
6.41828
 20
-0.210611
 42
0.103383
 10
6.442504000000001
 20
-0.229272
 42
0.063261
 10
6.473941
 20
-0.23983
 42
0.049456
 10
6.516088
 20
-0.244009
 42
0.049456
 10
6.558235000000001
 20
-0.23983
 42
0.063261
 10
6.589672
 20
-0.229272
 42
0.103383
 10
6.613896
 20
-0.210611
 42
0.178964
  0
LWPOLYLINE
  5
24B
330
1A84
100
AcDbEntity
  8
0
100
AcDbPolyline
 90
        9
 70
     0
 43
0.0
 10
6.412024
 20
-0.446825
 42
0.178964
 10
6.41828
 20
-0.463742
 42
0.103383
 10
6.442504000000001
 20
-0.482403
 42
0.063261
 10
6.473941
 20
-0.492962
 42
0.049456
 10
6.516088
 20
-0.497141
 42
0.049456
 10
6.558235000000001
 20
-0.492962
 42
0.063261
 10
6.589672
 20
-0.482403
 42
0.103383
 10
6.613896
 20
-0.463742
 42
0.178964
 10
6.620152
 20
-0.446825
 42
0.178964
  0
LWPOLYLINE
  5
26C
330
1A84
100
AcDbEntity
  8
0
100
AcDbPolyline
 90
        9
 70
     0
 43
0.0
 10
6.412024
 20
-0.231547
 42
0.178964
 10
6.420615
 20
-0.247407
 42
0.103383
 10
6.447239
 20
-0.262445
 42
0.063261
 10
6.479856
 20
-0.268441
 42
0.049456
 10
6.52217
 20
-0.266603
 42
0.049456
 10
6.563299000000001
 20
-0.256492
 42
0.063261
 10
6.592922
 20
-0.241584
 42
0.103383
 10
6.614256
 20
-0.219677
 42
0.178964
 10
6.61805
 20
-0.202044
 42
0.178964
  0
LWPOLYLINE
  5
277
330
1A84
100
AcDbEntity
  8
0
100
AcDbPolyline
 90
        9
 70
     0
 43
0.0
 10
6.412024
 20
-0.2694
 42
0.178964
 10
6.420615
 20
-0.28526
 42
0.103383
 10
6.447239
 20
-0.300299
 42
0.063261
 10
6.479856
 20
-0.306294
 42
0.049456
 10
6.52217
 20
-0.304456
 42
0.049456
 10
6.563299000000001
 20
-0.294345
 42
0.063261
 10
6.592922
 20
-0.279437
 42
0.103383
 10
6.614256
 20
-0.257531
 42
0.178964
 10
6.61805
 20
-0.239897
 42
0.178964
  0
LWPOLYLINE
  5
282
330
1A84
100
AcDbEntity
  8
0
100
AcDbPolyline
 90
        9
 70
     0
 43
0.0
 10
6.412024
 20
-0.307253
 42
0.178964
 10
6.420615
 20
-0.323113
 42
0.103383
 10
6.447239
 20
-0.338152
 42
0.063261
 10
6.479856
 20
-0.344148
 42
0.049456
 10
6.52217
 20
-0.34231
 42
0.049456
 10
6.563299000000001
 20
-0.332199
 42
0.063261
 10
6.592922
 20
-0.317291
 42
0.103383
 10
6.614256
 20
-0.295384
 42
0.178964
 10
6.61805
 20
-0.277751
 42
0.178964
  0
LWPOLYLINE
  5
28D
330
1A84
100
AcDbEntity
  8
0
100
AcDbPolyline
 90
        9
 70
     0
 43
0.0
 10
6.412024
 20
-0.345107
 42
0.178964
 10
6.420615
 20
-0.360967
 42
0.103383
 10
6.447239
 20
-0.376006
 42
0.063261
 10
6.479856
 20
-0.382001
 42
0.049456
 10
6.52217
 20
-0.380163
 42
0.049456
 10
6.563299000000001
 20
-0.370052
 42
0.063261
 10
6.592922
 20
-0.355144
 42
0.103383
 10
6.614256
 20
-0.333238
 42
0.178964
 10
6.61805
 20
-0.315604
 42
0.178964
  0
LWPOLYLINE
  5
298
330
1A84
100
AcDbEntity
  8
0
100
AcDbPolyline
 90
        9
 70
     0
 43
0.0
 10
6.412024
 20
-0.38296
 42
0.178964
 10
6.420615
 20
-0.39882
 42
0.103383
 10
6.447239
 20
-0.413859
 42
0.063261
 10
6.479856
 20
-0.419854
 42
0.049456
 10
6.52217
 20
-0.418017
 42
0.049456
 10
6.563299000000001
 20
-0.407905
 42
0.063261
 10
6.592922
 20
-0.392998
 42
0.103383
 10
6.614256
 20
-0.371091
 42
0.178964
 10
6.61805
 20
-0.353457
 42
0.178964
  0
LWPOLYLINE
  5
2A3
330
1A84
100
AcDbEntity
  8
0
100
AcDbPolyline
 90
        9
 70
     0
 43
0.0
 10
6.412024
 20
-0.420814
 42
0.178964
 10
6.420615
 20
-0.436674
 42
0.103383
 10
6.447239
 20
-0.451712
 42
0.063261
 10
6.479856
 20
-0.457708
 42
0.049456
 10
6.52217
 20
-0.45587
 42
0.049456
 10
6.563299000000001
 20
-0.445759
 42
0.063261
 10
6.592922
 20
-0.430851
 42
0.103383
 10
6.614256
 20
-0.408944
 42
0.178964
 10
6.61805
 20
-0.391311
 42
0.178964
  0
LWPOLYLINE
  5
2B9
330
1A84
100
AcDbEntity
  8
0
100
AcDbPolyline
 90
        6
 70
     0
 43
0.0
 10
6.492929
 20
-0.495887
 42
0.034193
 10
6.52217
 20
-0.493723
 42
0.049456
 10
6.563299000000001
 20
-0.483612
 42
0.063261
 10
6.592922
 20
-0.468704
 42
0.103383
 10
6.614256
 20
-0.446798
 42
0.178964
 10
6.61805
 20
-0.4291640000000001
 42
0.178964
  0
ARC
  5
2E1
330
1A84
100
AcDbEntity
  8
0
100
AcDbCircle
 10
6.487729
 20
-0.21262
 30
0.0
 40
0.078035
100
AcDbArc
 50
165.963343
 51
194.036657
  0
ARC
  5
2E2
330
1A84
100
AcDbEntity
  8
0
100
AcDbCircle
 10
6.487729
 20
-0.250473
 30
0.0
 40
0.078035
100
AcDbArc
 50
165.963343
 51
194.036657
  0
ARC
  5
2E3
330
1A84
100
AcDbEntity
  8
0
100
AcDbCircle
 10
6.487729
 20
-0.288327
 30
0.0
 40
0.078035
100
AcDbArc
 50
165.963343
 51
194.036657
  0
ARC
  5
2E4
330
1A84
100
AcDbEntity
  8
0
100
AcDbCircle
 10
6.487729
 20
-0.32618
 30
0.0
 40
0.078035
100
AcDbArc
 50
165.963343
 51
194.036657
  0
ARC
  5
2E5
330
1A84
100
AcDbEntity
  8
0
100
AcDbCircle
 10
6.487729
 20
-0.364033
 30
0.0
 40
0.078035
100
AcDbArc
 50
165.963343
 51
194.036657
  0
ARC
  5
2E6
330
1A84
100
AcDbEntity
  8
0
100
AcDbCircle
 10
6.487729
 20
-0.401887
 30
0.0
 40
0.078035
100
AcDbArc
 50
165.963343
 51
194.036657
  0
ARC
  5
2E7
330
1A84
100
AcDbEntity
  8
0
100
AcDbCircle
 10
6.439632
 20
-0.433819
 30
0.0
 40
0.030518
100
AcDbArc
 50
154.775756
 51
205.224244
  0
ARC
  5
2EC
330
1A84
100
AcDbEntity
  8
0
100
AcDbCircle
 10
6.54252
 20
-0.213312
 30
0.0
 40
0.080072
100
AcDbArc
 50
340.608638
 51
14.182601
  0
ARC
  5
2F1
330
1A84
100
AcDbEntity
  8
0
100
AcDbCircle
 10
6.581709
 20
-0.258824
 30
0.0
 40
0.040975
100
AcDbArc
 50
332.489327
 51
27.510673
  0
ARC
  5
2F2
330
1A84
100
AcDbEntity
  8
0
100
AcDbCircle
 10
6.581709
 20
-0.296677
 30
0.0
 40
0.040975
100
AcDbArc
 50
332.489327
 51
27.510673
  0
ARC
  5
2F3
330
1A84
100
AcDbEntity
  8
0
100
AcDbCircle
 10
6.581709
 20
-0.334531
 30
0.0
 40
0.040975
100
AcDbArc
 50
332.489327
 51
27.510673
  0
ARC
  5
2F4
330
1A84
100
AcDbEntity
  8
0
100
AcDbCircle
 10
6.581709
 20
-0.372384
 30
0.0
 40
0.040975
100
AcDbArc
 50
332.489327
 51
27.510673
  0
ARC
  5
2F5
330
1A84
100
AcDbEntity
  8
0
100
AcDbCircle
 10
6.581709
 20
-0.410238
 30
0.0
 40
0.040975
100
AcDbArc
 50
332.489327
 51
27.510673
  0
ARC
  5
2F6
330
1A84
100
AcDbEntity
  8
0
100
AcDbCircle
 10
6.598367999999999
 20
-0.440462
 30
0.0
 40
0.022694
100
AcDbArc
 50
343.717315
 51
29.855679
  0
LWPOLYLINE
  5
2F7
330
1A84
100
AcDbEntity
  8
0
100
AcDbPolyline
 90
       12
 70
     0
 43
0.0
 10
6.314498
 20
-0.461446
 42
0.219451
 10
6.324595
 20
-0.483343
 42
0.091949
 10
6.372555
 20
-0.5110140000000001
 42
0.048656
 10
6.431625
 20
-0.5256380000000001
 42
0.036379
 10
6.512716
 20
-0.531546
 42
0.036379
 10
6.593806
 20
-0.5256380000000001
 42
0.048656
 10
6.652877
 20
-0.5110140000000001
 42
0.091949
 10
6.700836
 20
-0.483343
 42
0.219451
 10
6.710933
 20
-0.461446
 42
0.219451
 10
6.700836
 20
-0.439549
 42
0.091949
 10
6.652877
 20
-0.411878
 42
0.02572
 10
6.621986
 20
-0.40271
 42
0.036379
  0
LWPOLYLINE
  5
305
330
1A84
100
AcDbEntity
  8
0
100
AcDbPolyline
 90
        4
 70
     0
 43
0.0
 10
6.409697
 20
-0.401267
 42
0.030842
 10
6.372555
 20
-0.411878
 42
0.091949
 10
6.324595
 20
-0.439549
 42
0.219451
 10
6.314498
 20
-0.461446
 42
0.219451
  0
LWPOLYLINE
  5
30B
330
1A84
100
AcDbEntity
  8
0
100
AcDbPolyline
 90
       16
 70
     1
 43
0.0
 10
6.352601
 20
2.07337
 42
0.120246
 10
6.336037999999999
 20
2.069328
 42
0.105002
 10
6.321005
 20
2.056974
 42
0.088815
 10
6.311452
 20
2.03934
 42
0.079997
 10
6.307918
 20
2.01739
 42
0.079997
 10
6.311452
 20
1.995439
 42
0.088815
 10
6.321005
 20
1.977805
 42
0.105002
 10
6.336037999999999
 20
1.965451
 42
0.120246
 10
6.352601
 20
1.961409
 42
0.120246
 10
6.369164
 20
1.965451
 42
0.105002
 10
6.384197
 20
1.977805
 42
0.088815
 10
6.39375
 20
1.995439
 42
0.079997
 10
6.397284
 20
2.01739
 42
0.079997
 10
6.39375
 20
2.03934
 42
0.088815
 10
6.384197
 20
2.056974
 42
0.105002
 10
6.369164
 20
2.069328
 42
0.120246
  0
LINE
  5
340
330
1A84
100
AcDbEntity
  8
0
100
AcDbLine
 10
6.345587999999999
 20
1.962099
 30
0.0
 11
6.307044
 21
1.969763
 31
0.0
  0
LWPOLYLINE
  5
341
330
1A84
100
AcDbEntity
  8
0
100
AcDbPolyline
 90
        9
 70
     0
 43
0.0
 10
6.314057
 20
2.081034
 42
0.120246
 10
6.297493
 20
2.076992
 42
0.105002
 10
6.282461
 20
2.064638
 42
0.088815
 10
6.272908
 20
2.047004
 42
0.079997
 10
6.269373000000001
 20
2.025053
 42
0.079997
 10
6.272908
 20
2.003103
 42
0.088815
 10
6.282461
 20
1.985469
 42
0.105002
 10
6.297493
 20
1.973114
 42
0.070721
 10
6.307044
 20
1.969763
 42
0.120246
  0
LINE
  5
34C
330
1A84
100
AcDbEntity
  8
0
100
AcDbLine
 10
6.359083999999999
 20
2.072781
 30
0.0
 11
6.314057
 21
2.081034
 31
0.0
  0
LWPOLYLINE
  5
369
330
1A84
100
AcDbEntity
  8
0
100
AcDbPolyline
 90
        6
 70
     1
 43
0.0
 10
6.345236
 20
2.199602
 10
6.480765
 20
2.242434
 10
6.511437
 20
2.381222
 10
6.406579
 20
2.477178
 10
6.271049
 20
2.434346
 10
6.240378
 20
2.295558
  0
LINE
  5
371
330
1A84
100
AcDbEntity
  8
0
100
AcDbLine
 10
6.271049
 20
2.434346
 30
0.0
 11
6.213509999999999
 21
2.447798
 31
0.0
  0
LINE
  5
37A
330
1A84
100
AcDbEntity
  8
0
100
AcDbLine
 10
6.345236
 20
2.199602
 30
0.0
 11
6.287697000000001
 21
2.213054
 31
0.0
  0
LINE
  5
37B
330
1A84
100
AcDbEntity
  8
0
100
AcDbLine
 10
6.406579
 20
2.477178
 30
0.0
 11
6.349039
 21
2.49063
 31
0.0
  0
LWPOLYLINE
  5
38E
330
1A84
100
AcDbEntity
  8
0
100
AcDbPolyline
 90
        4
 70
     0
 43
0.0
 10
6.349039
 20
2.49063
 10
6.213509999999999
 20
2.447798
 10
6.182839
 20
2.30901
 10
6.287697000000001
 20
2.213054
  0
LWPOLYLINE
  5
3F4
330
1A84
100
AcDbEntity
  8
0
100
AcDbPolyline
 90
        9
 70
     0
 43
0.0
 10
5.779567
 20
-5.877043000000001
 42
0.25206
 10
5.772679
 20
-5.880751
 42
0.079266
 10
5.762976999999999
 20
-5.902191999999999
 42
0.038526
 10
5.758096
 20
-5.927609
 42
0.028182
 10
5.756105000000001
 20
-5.962908000000001
 42
0.028182
 10
5.758096
 20
-5.998207
 42
0.038526
 10
5.762976999999999
 20
-6.023623000000001
 42
0.079266
 10
5.772679
 20
-6.045065
 42
0.25206
 10
5.779567
 20
-6.048772000000001
 42
0.25206
  0
LWPOLYLINE
  5
3FF
330
1A84
100
AcDbEntity
  8
0
100
AcDbPolyline
 90
       29
 70
     0
 43
0.0
 10
7.97507
 20
-2.606829
 10
7.939716000000001
 20
-2.664468
 10
7.913301
 20
-2.754354
 10
7.905953
 20
-2.845685
 10
7.881394
 20
-2.93051
 10
7.830502
 20
-3.005089
 10
7.800831
 20
-3.052014
 10
7.769627000000001
 20
-3.115004
 10
7.741482
 20
-3.179908
 10
7.672181
 20
-3.206963
 10
7.624094
 20
-3.240407
 10
7.539925
 20
-3.306945
 10
7.480483
 20
-3.328706
 10
7.426969000000001
 20
-3.416378
 10
7.416912
 20
-3.517801
 10
7.395295
 20
-3.600538
 10
7.344053
 20
-3.663112
 10
7.309622
 20
-3.684142
 10
7.217778
 20
-3.727875
 10
7.11084
 20
-3.769044
 10
7.051916
 20
-3.842856
 10
6.999169
 20
-3.922496
 10
6.969148
 20
-3.957416
 10
6.93552
 20
-3.93737
 10
6.868563000000001
 20
-4.010415
 10
6.825237
 20
-4.069754
 10
6.747896000000001
 20
-4.130086
 10
6.487708000000001
 20
-4.203763
 10
6.238437
 20
-4.239342
  0
LWPOLYLINE
  5
41E
330
1A84
100
AcDbEntity
  8
0
100
AcDbPolyline
 90
       17
 70
     0
 43
0.0
 10
6.067278
 20
-4.263772
 10
6.038001
 20
-4.267951
 10
5.880923999999999
 20
-4.306579
 10
5.795025
 20
-4.348135
 10
5.739131
 20
-4.42286
 10
5.647361
 20
-4.400506
 10
5.520489
 20
-4.376172
 10
5.418248
 20
-4.338103
 10
5.359448
 20
-4.381873000000001
 10
5.318539
 20
-4.421115
 10
5.250297
 20
-4.450142
 10
5.130683
 20
-4.468651
 10
5.03678
 20
-4.510441999999999
 10
4.977659
 20
-4.543207
 10
4.911163
 20
-4.529126
 10
4.825017
 20
-4.493591
 10
4.769873000000001
 20
-4.46954
  0
LINE
  5
431
330
1A84
100
AcDbEntity
  8
0
100
AcDbLine
 10
6.203778
 20
-0.4951390000000001
 30
0.0
 11
6.316989
 21
-0.4497310000000001
 31
0.0
  0
LINE
  5
432
330
1A84
100
AcDbEntity
  8
0
100
AcDbLine
 10
7.883847
 20
-1.360344
 30
0.0
 11
7.759263000000001
 21
-1.490217
 31
0.0
  0
LINE
  5
433
330
1A84
100
AcDbEntity
  8
0
100
AcDbLine
 10
7.759263000000001
 20
-1.490217
 30
0.0
 11
7.604006
 21
-1.419651
 31
0.0
  0
LINE
  5
434
330
1A84
100
AcDbEntity
  8
0
100
AcDbLine
 10
7.604006
 20
-1.419651
 30
0.0
 11
7.515789
 21
-1.529301
 31
0.0
  0
LINE
  5
438
330
1A84
100
AcDbEntity
  8
0
100
AcDbLine
 10
7.515789
 20
-1.529301
 30
0.0
 11
7.515789
 21
-2.05803
 31
0.0
  0
LINE
  5
439
330
1A84
100
AcDbEntity
  8
0
100
AcDbLine
 10
7.759263000000001
 20
-1.490217
 30
0.0
 11
7.759263000000001
 21
-2.018947
 31
0.0
  0
LINE
  5
43A
330
1A84
100
AcDbEntity
  8
0
100
AcDbLine
 10
7.883847
 20
-1.360344
 30
0.0
 11
7.883847
 21
-1.877977
 31
0.0
  0
LINE
  5
43B
330
1A84
100
AcDbEntity
  8
0
100
AcDbLine
 10
7.604006
 20
-1.419651
 30
0.0
 11
7.604006
 21
-1.948381
 31
0.0
  0
LINE
  5
43D
330
1A84
100
AcDbEntity
  8
0
100
AcDbLine
 10
7.759263000000001
 20
-2.018947
 30
0.0
 11
7.604006
 21
-1.948381
 31
0.0
  0
LINE
  5
43E
330
1A84
100
AcDbEntity
  8
0
100
AcDbLine
 10
7.759263000000001
 20
-2.018947
 30
0.0
 11
7.883847
 21
-1.877977
 31
0.0
  0
LINE
  5
43F
330
1A84
100
AcDbEntity
  8
0
100
AcDbLine
 10
7.883847
 20
-1.877977
 30
0.0
 11
8.203576
 21
-1.721566
 31
0.0
  0
LINE
  5
440
330
1A84
100
AcDbEntity
  8
0
100
AcDbLine
 10
7.604006
 20
-1.948381
 30
0.0
 11
7.515789
 21
-2.05803
 31
0.0
  0
LINE
  5
441
330
1A84
100
AcDbEntity
  8
0
100
AcDbLine
 10
7.883847
 20
-1.360344
 30
0.0
 11
8.203576
 21
-1.213572
 31
0.0
  0
LINE
  5
4F3
330
1A84
100
AcDbEntity
  8
0
100
AcDbLine
 10
7.759263000000001
 20
-1.933498
 30
0.0
 11
7.901053
 21
-1.812373
 31
0.0
  0
LINE
  5
5B8
330
1A84
100
AcDbEntity
  8
0
 62
     0
100
AcDbLine
 10
6.404088
 20
-4.112539
 30
0.0
 11
6.442655
 21
-4.066577
 31
0.0
  0
LINE
  5
5B9
330
1A84
100
AcDbEntity
  8
0
 62
     0
100
AcDbLine
 10
6.866895
 20
-3.560987
 30
0.0
 11
6.905461999999999
 21
-3.515025
 31
0.0
  0
LINE
  5
5BA
330
1A84
100
AcDbEntity
  8
0
 62
     0
100
AcDbLine
 10
7.329702
 20
-3.009435
 30
0.0
 11
7.368269000000001
 21
-2.963473
 31
0.0
  0
LINE
  5
5BB
330
1A84
100
AcDbEntity
  8
0
 62
     0
100
AcDbLine
 10
7.329702
 20
-3.009435
 30
0.0
 11
7.377519
 21
-3.013619
 31
0.0
  0
LINE
  5
5BC
330
1A84
100
AcDbEntity
  8
0
 62
     0
100
AcDbLine
 10
6.328746
 20
-3.513905
 30
0.0
 11
6.340904
 21
-3.514969
 31
0.0
  0
LINE
  5
5BD
330
1A84
100
AcDbEntity
  8
0
 62
     0
100
AcDbLine
 10
6.866895
 20
-3.560987
 30
0.0
 11
6.914712
 21
-3.565171
 31
0.0
  0
LINE
  5
5BE
330
1A84
100
AcDbEntity
  8
0
 62
     0
100
AcDbLine
 10
6.404088
 20
-4.112539
 30
0.0
 11
6.451905
 21
-4.116723
 31
0.0
  0
LINE
  5
5BF
330
1A84
100
AcDbEntity
  8
0
 62
     0
100
AcDbLine
 10
6.914708999999999
 20
-3.565176
 30
0.0
 11
6.905459
 21
-3.51503
 31
0.0
  0
LINE
  5
5C0
330
1A84
100
AcDbEntity
  8
0
 62
     0
100
AcDbLine
 10
7.377517
 20
-3.013625
 30
0.0
 11
7.368267
 21
-2.963478
 31
0.0
  0
LINE
  5
5C1
330
1A84
100
AcDbEntity
  8
0
 62
     0
100
AcDbLine
 10
6.451902
 20
-4.116728
 30
0.0
 11
6.442652
 21
-4.066582
 31
0.0
  0
LINE
  5
5C2
330
1A84
100
AcDbEntity
  8
0
 62
     0
100
AcDbLine
 10
6.340901000000001
 20
-3.514974
 30
0.0
 11
6.333564
 21
-3.475199
 31
0.0
  0
LINE
  5
5C3
330
1A84
100
AcDbEntity
  8
0
 62
     0
100
AcDbLine
 10
6.335514
 20
-3.459542
 30
0.0
 11
6.357051
 21
-3.437096
 31
0.0
  0
LINE
  5
5C4
330
1A84
100
AcDbEntity
  8
0
 62
     0
100
AcDbLine
 10
7.148533000000001
 20
-3.634452
 30
0.0
 11
7.210843
 21
-3.569511
 31
0.0
  0
LINE
  5
5C5
330
1A84
100
AcDbEntity
  8
0
 62
     0
100
AcDbLine
 10
7.896261999999999
 20
-2.855157
 30
0.0
 11
7.906009
 21
-2.844999
 31
0.0
  0
LINE
  5
5C6
330
1A84
100
AcDbEntity
  8
0
 62
     0
100
AcDbLine
 10
6.365886
 20
-3.513075
 30
0.0
 11
6.357048000000001
 21
-3.437099
 31
0.0
  0
LINE
  5
5C7
330
1A84
100
AcDbEntity
  8
0
 62
     0
100
AcDbLine
 10
7.219678999999999
 20
-3.645491
 30
0.0
 11
7.210839999999999
 21
-3.569515
 31
0.0
  0
LINE
  5
5C8
330
1A84
100
AcDbEntity
  8
0
 62
     0
100
AcDbLine
 10
7.896261999999999
 20
-2.855157
 30
0.0
 11
7.902912
 21
-2.856188
 31
0.0
  0
LINE
  5
5C9
330
1A84
100
AcDbEntity
  8
0
 62
     0
100
AcDbLine
 10
6.329551
 20
-3.507436
 30
0.0
 11
6.365889
 21
-3.513071
 31
0.0
  0
LINE
  5
5CA
330
1A84
100
AcDbEntity
  8
0
 62
     0
100
AcDbLine
 10
7.148533000000001
 20
-3.634452
 30
0.0
 11
7.219682000000001
 21
-3.645487
 31
0.0
  0
LINE
  5
5CB
330
1A84
100
AcDbEntity
  8
0
 62
     0
100
AcDbLine
 10
6.482486
 20
-3.487116
 30
0.0
 11
6.5385
 21
-3.465614
 31
0.0
  0
LINE
  5
5CC
330
1A84
100
AcDbEntity
  8
0
 62
     0
100
AcDbLine
 10
7.154664
 20
-3.229092
 30
0.0
 11
7.210678
 21
-3.207589
 31
0.0
  0
LINE
  5
5CD
330
1A84
100
AcDbEntity
  8
0
 62
     0
100
AcDbLine
 10
7.826841
 20
-2.971067
 30
0.0
 11
7.863257000000001
 21
-2.957088
 31
0.0
  0
LINE
  5
5CE
330
1A84
100
AcDbEntity
  8
0
 62
     0
100
AcDbLine
 10
6.287833
 20
-4.067236
 30
0.0
 11
6.343848
 21
-4.045734
 31
0.0
  0
LINE
  5
5CF
330
1A84
100
AcDbEntity
  8
0
 62
     0
100
AcDbLine
 10
6.960011
 20
-3.809212
 30
0.0
 11
7.016025999999999
 21
-3.787709
 31
0.0
  0
LINE
  5
5D0
330
1A84
100
AcDbEntity
  8
0
 62
     0
100
AcDbLine
 10
6.482486
 20
-3.487116
 30
0.0
 11
6.522279
 21
-3.513958
 31
0.0
  0
LINE
  5
5D1
330
1A84
100
AcDbEntity
  8
0
 62
     0
100
AcDbLine
 10
6.960011
 20
-3.809212
 30
0.0
 11
6.999805
 21
-3.836053
 31
0.0
  0
LINE
  5
5D2
330
1A84
100
AcDbEntity
  8
0
 62
     0
100
AcDbLine
 10
7.154664
 20
-3.229092
 30
0.0
 11
7.194457000000001
 21
-3.255933
 31
0.0
  0
LINE
  5
5D3
330
1A84
100
AcDbEntity
  8
0
 62
     0
100
AcDbLine
 10
7.826841
 20
-2.971067
 30
0.0
 11
7.845247000000001
 21
-2.983481
 31
0.0
  0
LINE
  5
5D4
330
1A84
100
AcDbEntity
  8
0
 62
     0
100
AcDbLine
 10
6.287833
 20
-4.067236
 30
0.0
 11
6.327627
 21
-4.094078
 31
0.0
  0
LINE
  5
5D5
330
1A84
100
AcDbEntity
  8
0
 62
     0
100
AcDbLine
 10
6.327624
 20
-4.094083
 30
0.0
 11
6.343845
 21
-4.045739
 31
0.0
  0
LINE
  5
5D6
330
1A84
100
AcDbEntity
  8
0
 62
     0
100
AcDbLine
 10
6.522277
 20
-3.513963
 30
0.0
 11
6.538498000000001
 21
-3.465619
 31
0.0
  0
LINE
  5
5D7
330
1A84
100
AcDbEntity
  8
0
 62
     0
100
AcDbLine
 10
6.999802000000001
 20
-3.836058
 30
0.0
 11
7.016023
 21
-3.787715
 31
0.0
  0
LINE
  5
5D8
330
1A84
100
AcDbEntity
  8
0
 62
     0
100
AcDbLine
 10
7.194455000000001
 20
-3.255938
 30
0.0
 11
7.210675999999999
 21
-3.207595
 31
0.0
  0
LINE
  5
5D9
330
1A84
100
AcDbEntity
  8
0
 62
     0
100
AcDbLine
 10
6.380704
 20
-3.904835
 30
0.0
 11
6.380704
 21
-3.904835
 31
0.0
  0
LINE
  5
5DA
330
1A84
100
AcDbEntity
  8
0
 62
     0
100
AcDbLine
 10
6.805941000000001
 20
-3.578539
 30
0.0
 11
6.805941000000001
 21
-3.578539
 31
0.0
  0
LINE
  5
5DB
330
1A84
100
AcDbEntity
  8
0
 62
     0
100
AcDbLine
 10
7.226419
 20
-3.255895
 30
0.0
 11
7.226419
 21
-3.255895
 31
0.0
  0
LINE
  5
5DC
330
1A84
100
AcDbEntity
  8
0
 62
     0
100
AcDbLine
 10
7.640232000000001
 20
-2.938365
 30
0.0
 11
7.640232000000001
 21
-2.938365
 31
0.0
  0
LINE
  5
5DD
330
1A84
100
AcDbEntity
  8
0
 62
     0
100
AcDbLine
 10
6.390432
 20
-3.63852
 30
0.0
 11
6.390432
 21
-3.63852
 31
0.0
  0
LINE
  5
5DE
330
1A84
100
AcDbEntity
  8
0
 62
     0
100
AcDbLine
 10
6.815669000000001
 20
-3.312223
 30
0.0
 11
6.815669000000001
 21
-3.312223
 31
0.0
  0
LINE
  5
5DF
330
1A84
100
AcDbEntity
  8
0
 62
     0
100
AcDbLine
 10
6.40016
 20
-3.372204
 30
0.0
 11
6.40016
 21
-3.372204
 31
0.0
  0
LINE
  5
5E0
330
1A84
100
AcDbEntity
  8
0
 62
     0
100
AcDbLine
 10
6.370976000000001
 20
-4.17115
 30
0.0
 11
6.370976000000001
 21
-4.17115
 31
0.0
  0
LINE
  5
5E1
330
1A84
100
AcDbEntity
  8
0
 62
     0
100
AcDbLine
 10
6.796213000000001
 20
-3.844854
 30
0.0
 11
6.796213000000001
 21
-3.844854
 31
0.0
  0
LINE
  5
5E2
330
1A84
100
AcDbEntity
  8
0
 62
     0
100
AcDbLine
 10
7.216691
 20
-3.52221
 30
0.0
 11
7.216691
 21
-3.52221
 31
0.0
  0
LINE
  5
5E3
330
1A84
100
AcDbEntity
  8
0
 62
     0
100
AcDbLine
 10
7.630503999999999
 20
-3.20468
 30
0.0
 11
7.630503999999999
 21
-3.20468
 31
0.0
  0
LINE
  5
5E4
330
1A84
100
AcDbEntity
  8
0
 62
     0
100
AcDbLine
 10
6.727871
 20
-3.431594
 30
0.0
 11
6.727871
 21
-3.431594
 31
0.0
  0
LINE
  5
5E5
330
1A84
100
AcDbEntity
  8
0
 62
     0
100
AcDbLine
 10
6.928143
 20
-3.405228
 30
0.0
 11
6.928143
 21
-3.405228
 31
0.0
  0
LINE
  5
5E6
330
1A84
100
AcDbEntity
  8
0
 62
     0
100
AcDbLine
 10
7.231128
 20
-3.365339
 30
0.0
 11
7.231128
 21
-3.365339
 31
0.0
  0
LINE
  5
5E7
330
1A84
100
AcDbEntity
  8
0
 62
     0
100
AcDbLine
 10
6.433086
 20
-3.182581
 30
0.0
 11
6.433086
 21
-3.182581
 31
0.0
  0
LINE
  5
5E8
330
1A84
100
AcDbEntity
  8
0
 62
     0
100
AcDbLine
 10
7.441584
 20
-3.04981
 30
0.0
 11
7.441584
 21
-3.04981
 31
0.0
  0
LINE
  5
5E9
330
1A84
100
AcDbEntity
  8
0
 62
     0
100
AcDbLine
 10
7.652039
 20
-2.734281
 30
0.0
 11
7.652039
 21
-2.734281
 31
0.0
  0
LINE
  5
5EA
330
1A84
100
AcDbEntity
  8
0
 62
     0
100
AcDbLine
 10
6.517415
 20
-3.747124
 30
0.0
 11
6.517415
 21
-3.747124
 31
0.0
  0
LINE
  5
5EB
330
1A84
100
AcDbEntity
  8
0
 62
     0
100
AcDbLine
 10
6.717687
 20
-3.720757
 30
0.0
 11
6.717687
 21
-3.720757
 31
0.0
  0
LINE
  5
5EC
330
1A84
100
AcDbEntity
  8
0
 62
     0
100
AcDbLine
 10
7.020673
 20
-3.680869
 30
0.0
 11
7.020673
 21
-3.680869
 31
0.0
  0
LINE
  5
5ED
330
1A84
100
AcDbEntity
  8
0
 62
     0
100
AcDbLine
 10
6.30696
 20
-4.062653
 30
0.0
 11
6.30696
 21
-4.062653
 31
0.0
  0
LINE
  5
5EE
330
1A84
100
AcDbEntity
  8
0
 62
     0
100
AcDbLine
 10
6.507231
 20
-4.036287000000001
 30
0.0
 11
6.507231
 21
-4.036287000000001
 31
0.0
  0
LINE
  5
5EF
330
1A84
100
AcDbEntity
  8
0
 62
     0
100
AcDbLine
 10
6.810217
 20
-3.996398
 30
0.0
 11
6.810217
 21
-3.996398
 31
0.0
  0
LINE
  5
5F0
330
1A84
100
AcDbEntity
  8
0
 62
     0
100
AcDbLine
 10
6.404634
 20
-3.177767
 30
0.0
 11
6.404634
 21
-3.177767
 31
0.0
  0
LINE
  5
5F1
330
1A84
100
AcDbEntity
  8
0
 62
     0
100
AcDbLine
 10
7.102962
 20
-3.622651
 30
0.0
 11
7.102962
 21
-3.622651
 31
0.0
  0
LINE
  5
5F2
330
1A84
100
AcDbEntity
  8
0
 62
     0
100
AcDbLine
 10
6.831691999999999
 20
-3.195811
 30
0.0
 11
6.831691999999999
 21
-3.195811
 31
0.0
  0
LINE
  5
5F3
330
1A84
100
AcDbEntity
  8
0
 62
     0
100
AcDbLine
 10
7.25875
 20
-3.213855
 30
0.0
 11
7.25875
 21
-3.213855
 31
0.0
  0
LINE
  5
5F4
330
1A84
100
AcDbEntity
  8
0
 62
     0
100
AcDbLine
 10
7.586589999999999
 20
-2.914668
 30
0.0
 11
7.586589999999999
 21
-2.914668
 31
0.0
  0
LINE
  5
5F5
330
1A84
100
AcDbEntity
  8
0
 62
     0
100
AcDbLine
 10
7.84497
 20
-2.825252
 30
0.0
 11
7.84497
 21
-2.825252
 31
0.0
  0
LINE
  5
5F6
330
1A84
100
AcDbEntity
  8
0
 62
     0
100
AcDbLine
 10
6.675905
 20
-3.604608
 30
0.0
 11
6.675905
 21
-3.604608
 31
0.0
  0
LINE
  5
5F7
330
1A84
100
AcDbEntity
  8
0
 62
     0
100
AcDbLine
 10
6.844583
 20
-3.712067
 30
0.0
 11
6.844583
 21
-3.712067
 31
0.0
  0
LINE
  5
5F8
330
1A84
100
AcDbEntity
  8
0
 62
     0
100
AcDbLine
 10
6.417525
 20
-3.694024
 30
0.0
 11
6.417525
 21
-3.694024
 31
0.0
  0
LINE
  5
5F9
330
1A84
100
AcDbEntity
  8
0
 62
     0
100
AcDbLine
 10
6.516743
 20
-4.011255
 30
0.0
 11
6.516743
 21
-4.011255
 31
0.0
  0
LINE
  5
5FA
330
1A84
100
AcDbEntity
  8
0
 62
     0
100
AcDbLine
 10
6.761069
 20
-3.386574
 30
0.0
 11
6.761069
 21
-3.386574
 31
0.0
  0
LINE
  5
5FB
330
1A84
100
AcDbEntity
  8
0
 62
     0
100
AcDbLine
 10
7.227618
 20
-3.30649
 30
0.0
 11
7.227618
 21
-3.30649
 31
0.0
  0
LINE
  5
5FC
330
1A84
100
AcDbEntity
  8
0
 62
     0
100
AcDbLine
 10
7.388639
 20
-2.946442
 30
0.0
 11
7.388639
 21
-2.946442
 31
0.0
  0
LINE
  5
5FD
330
1A84
100
AcDbEntity
  8
0
 62
     0
100
AcDbLine
 10
7.855188
 20
-2.866358
 30
0.0
 11
7.855188
 21
-2.866358
 31
0.0
  0
LINE
  5
5FE
330
1A84
100
AcDbEntity
  8
0
 62
     0
100
AcDbLine
 10
6.728039
 20
-3.863905
 30
0.0
 11
6.728039
 21
-3.863905
 31
0.0
  0
LINE
  5
5FF
330
1A84
100
AcDbEntity
  8
0
 62
     0
100
AcDbLine
 10
6.453182
 20
-4.119643
 30
0.0
 11
6.453182
 21
-4.119643
 31
0.0
  0
LINE
  5
66A
330
1A84
100
AcDbEntity
  8
0
100
AcDbLine
 10
5.256472000000001
 20
-4.012136
 30
0.0
 11
5.295039
 21
-3.966173
 31
0.0
  0
LINE
  5
66B
330
1A84
100
AcDbEntity
  8
0
100
AcDbLine
 10
5.719279
 20
-3.460583999999999
 30
0.0
 11
5.722698
 21
-3.456509
 31
0.0
  0
LINE
  5
66C
330
1A84
100
AcDbEntity
  8
0
100
AcDbLine
 10
5.83028
 20
-4.062338
 30
0.0
 11
5.868847
 21
-4.016375
 31
0.0
  0
LINE
  5
66D
330
1A84
100
AcDbEntity
  8
0
100
AcDbLine
 10
5.719279
 20
-3.460583999999999
 30
0.0
 11
5.767096
 21
-3.464767
 31
0.0
  0
LINE
  5
66E
330
1A84
100
AcDbEntity
  8
0
100
AcDbLine
 10
5.256472000000001
 20
-4.012136
 30
0.0
 11
5.304289
 21
-4.016319
 31
0.0
  0
LINE
  5
66F
330
1A84
100
AcDbEntity
  8
0
100
AcDbLine
 10
5.83028
 20
-4.062338
 30
0.0
 11
5.878097
 21
-4.066521
 31
0.0
  0
LINE
  5
670
330
1A84
100
AcDbEntity
  8
0
100
AcDbLine
 10
5.304286
 20
-4.016323000000001
 30
0.0
 11
5.295036
 21
-3.966177
 31
0.0
  0
LINE
  5
671
330
1A84
100
AcDbEntity
  8
0
100
AcDbLine
 10
5.878094
 20
-4.066526000000001
 30
0.0
 11
5.868844
 21
-4.016380000000001
 31
0.0
  0
LINE
  5
672
330
1A84
100
AcDbEntity
  8
0
100
AcDbLine
 10
5.767093
 20
-3.464772
 30
0.0
 11
5.764424
 21
-3.450299
 31
0.0
  0
LINE
  5
673
330
1A84
100
AcDbEntity
  8
0
100
AcDbLine
 10
5.54701
 20
-4.281332
 30
0.0
 11
5.609321
 21
-4.216390000000001
 31
0.0
  0
LINE
  5
674
330
1A84
100
AcDbEntity
  8
0
100
AcDbLine
 10
5.618156
 20
-4.292369
 30
0.0
 11
5.609317
 21
-4.216393
 31
0.0
  0
LINE
  5
675
330
1A84
100
AcDbEntity
  8
0
100
AcDbLine
 10
5.54701
 20
-4.281332
 30
0.0
 11
5.61816
 21
-4.292366
 31
0.0
  0
LINE
  5
676
330
1A84
100
AcDbEntity
  8
0
100
AcDbLine
 10
5.13813
 20
-4.003166
 30
0.0
 11
5.182196
 21
-3.986251
 31
0.0
  0
LINE
  5
677
330
1A84
100
AcDbEntity
  8
0
100
AcDbLine
 10
5.810308
 20
-3.745141
 30
0.0
 11
5.866323
 21
-3.723639
 31
0.0
  0
LINE
  5
678
330
1A84
100
AcDbEntity
  8
0
100
AcDbLine
 10
5.615655
 20
-4.325261
 30
0.0
 11
5.67167
 21
-4.303758999999999
 31
0.0
  0
LINE
  5
679
330
1A84
100
AcDbEntity
  8
0
100
AcDbLine
 10
5.810308
 20
-3.745141
 30
0.0
 11
5.850102
 21
-3.771983
 31
0.0
  0
LINE
  5
67A
330
1A84
100
AcDbEntity
  8
0
100
AcDbLine
 10
6.043205
 20
-3.190818
 30
0.0
 11
6.044754
 21
-3.191863
 31
0.0
  0
LINE
  5
67B
330
1A84
100
AcDbEntity
  8
0
100
AcDbLine
 10
5.13813
 20
-4.003166
 30
0.0
 11
5.177924
 21
-4.030008000000001
 31
0.0
  0
LINE
  5
67C
330
1A84
100
AcDbEntity
  8
0
100
AcDbLine
 10
5.615655
 20
-4.325261
 30
0.0
 11
5.655449
 21
-4.352103
 31
0.0
  0
LINE
  5
67D
330
1A84
100
AcDbEntity
  8
0
100
AcDbLine
 10
5.177919999999999
 20
-4.030012
 30
0.0
 11
5.193954
 21
-3.982227
 31
0.0
  0
LINE
  5
67E
330
1A84
100
AcDbEntity
  8
0
100
AcDbLine
 10
5.655446
 20
-4.352107
 30
0.0
 11
5.671667
 21
-4.303764
 31
0.0
  0
LINE
  5
67F
330
1A84
100
AcDbEntity
  8
0
100
AcDbLine
 10
5.850098
 20
-3.771987
 30
0.0
 11
5.866319
 21
-3.723644
 31
0.0
  0
LINE
  5
680
330
1A84
100
AcDbEntity
  8
0
100
AcDbLine
 10
6.044751
 20
-3.191867
 30
0.0
 11
6.045156
 21
-3.190662
 31
0.0
  0
LINE
  5
681
330
1A84
100
AcDbEntity
  8
0
100
AcDbLine
 10
5.15036
 20
-4.072359
 30
0.0
 11
5.15036
 21
-4.072359
 31
0.0
  0
LINE
  5
682
330
1A84
100
AcDbEntity
  8
0
100
AcDbLine
 10
5.575597
 20
-3.746063
 30
0.0
 11
5.575597
 21
-3.746063
 31
0.0
  0
LINE
  5
683
330
1A84
100
AcDbEntity
  8
0
100
AcDbLine
 10
5.996074
 20
-3.423419
 30
0.0
 11
5.996074
 21
-3.423419
 31
0.0
  0
LINE
  5
684
330
1A84
100
AcDbEntity
  8
0
100
AcDbLine
 10
5.140632
 20
-4.338674
 30
0.0
 11
5.140632
 21
-4.338674
 31
0.0
  0
LINE
  5
685
330
1A84
100
AcDbEntity
  8
0
100
AcDbLine
 10
5.565869
 20
-4.012378
 30
0.0
 11
5.565869
 21
-4.012378
 31
0.0
  0
LINE
  5
686
330
1A84
100
AcDbEntity
  8
0
100
AcDbLine
 10
5.986347
 20
-3.689734
 30
0.0
 11
5.986347
 21
-3.689734
 31
0.0
  0
LINE
  5
687
330
1A84
100
AcDbEntity
  8
0
100
AcDbLine
 10
5.556141
 20
-4.278693
 30
0.0
 11
5.556141
 21
-4.278693
 31
0.0
  0
LINE
  5
688
330
1A84
100
AcDbEntity
  8
0
100
AcDbLine
 10
5.976619
 20
-3.95605
 30
0.0
 11
5.976619
 21
-3.95605
 31
0.0
  0
LINE
  5
689
330
1A84
100
AcDbEntity
  8
0
100
AcDbLine
 10
5.966891
 20
-4.222365
 30
0.0
 11
5.966891
 21
-4.222365
 31
0.0
  0
LINE
  5
68A
330
1A84
100
AcDbEntity
  8
0
100
AcDbLine
 10
5.719373
 20
-3.564366
 30
0.0
 11
5.719373
 21
-3.564366
 31
0.0
  0
LINE
  5
68B
330
1A84
100
AcDbEntity
  8
0
100
AcDbLine
 10
5.919645
 20
-3.537999
 30
0.0
 11
5.919645
 21
-3.537999
 31
0.0
  0
LINE
  5
68C
330
1A84
100
AcDbEntity
  8
0
100
AcDbLine
 10
6.130101
 20
-3.22247
 30
0.0
 11
6.130101
 21
-3.22247
 31
0.0
  0
LINE
  5
68D
330
1A84
100
AcDbEntity
  8
0
100
AcDbLine
 10
5.508916999999999
 20
-3.879895
 30
0.0
 11
5.508916999999999
 21
-3.879895
 31
0.0
  0
LINE
  5
68E
330
1A84
100
AcDbEntity
  8
0
100
AcDbLine
 10
5.709189
 20
-3.853529
 30
0.0
 11
5.709189
 21
-3.853529
 31
0.0
  0
LINE
  5
68F
330
1A84
100
AcDbEntity
  8
0
100
AcDbLine
 10
6.012175
 20
-3.81364
 30
0.0
 11
6.012175
 21
-3.81364
 31
0.0
  0
LINE
  5
690
330
1A84
100
AcDbEntity
  8
0
100
AcDbLine
 10
5.298462000000001
 20
-4.195424
 30
0.0
 11
5.298462000000001
 21
-4.195424
 31
0.0
  0
LINE
  5
691
330
1A84
100
AcDbEntity
  8
0
100
AcDbLine
 10
5.498734
 20
-4.169058000000001
 30
0.0
 11
5.498734
 21
-4.169058000000001
 31
0.0
  0
LINE
  5
692
330
1A84
100
AcDbEntity
  8
0
100
AcDbLine
 10
5.801719
 20
-4.129169
 30
0.0
 11
5.801719
 21
-4.129169
 31
0.0
  0
LINE
  5
693
330
1A84
100
AcDbEntity
  8
0
100
AcDbLine
 10
5.394731
 20
-3.550476
 30
0.0
 11
5.394731
 21
-3.550476
 31
0.0
  0
LINE
  5
694
330
1A84
100
AcDbEntity
  8
0
100
AcDbLine
 10
5.563409
 20
-3.657936
 30
0.0
 11
5.563409
 21
-3.657936
 31
0.0
  0
LINE
  5
695
330
1A84
100
AcDbEntity
  8
0
100
AcDbLine
 10
6.089685
 20
-3.993211
 30
0.0
 11
6.089685
 21
-3.993211
 31
0.0
  0
LINE
  5
696
330
1A84
100
AcDbEntity
  8
0
100
AcDbLine
 10
5.821789
 20
-3.56852
 30
0.0
 11
5.821789
 21
-3.56852
 31
0.0
  0
LINE
  5
697
330
1A84
100
AcDbEntity
  8
0
100
AcDbLine
 10
5.990467
 20
-3.675980000000001
 30
0.0
 11
5.990467
 21
-3.675980000000001
 31
0.0
  0
LINE
  5
698
330
1A84
100
AcDbEntity
  8
0
100
AcDbLine
 10
5.662627
 20
-3.975167
 30
0.0
 11
5.662627
 21
-3.975167
 31
0.0
  0
LINE
  5
699
330
1A84
100
AcDbEntity
  8
0
100
AcDbLine
 10
5.235569
 20
-3.957123
 30
0.0
 11
5.235569
 21
-3.957123
 31
0.0
  0
LINE
  5
69A
330
1A84
100
AcDbEntity
  8
0
100
AcDbLine
 10
5.079782
 20
-4.365919
 30
0.0
 11
5.079782
 21
-4.365919
 31
0.0
  0
LINE
  5
69B
330
1A84
100
AcDbEntity
  8
0
100
AcDbLine
 10
4.821402
 20
-4.455335
 30
0.0
 11
4.821402
 21
-4.455335
 31
0.0
  0
LINE
  5
69C
330
1A84
100
AcDbEntity
  8
0
100
AcDbLine
 10
5.328392
 20
-4.104157
 30
0.0
 11
5.328392
 21
-4.104157
 31
0.0
  0
LINE
  5
69D
330
1A84
100
AcDbEntity
  8
0
100
AcDbLine
 10
5.520085
 20
-4.279811000000001
 30
0.0
 11
5.520085
 21
-4.279811000000001
 31
0.0
  0
LINE
  5
69E
330
1A84
100
AcDbEntity
  8
0
100
AcDbLine
 10
5.361422
 20
-3.626826
 30
0.0
 11
5.361422
 21
-3.626826
 31
0.0
  0
LINE
  5
69F
330
1A84
100
AcDbEntity
  8
0
100
AcDbLine
 10
5.794941000000001
 20
-4.024073000000001
 30
0.0
 11
5.794941000000001
 21
-4.024073000000001
 31
0.0
  0
LINE
  5
6A0
330
1A84
100
AcDbEntity
  8
0
100
AcDbLine
 10
5.986633
 20
-4.199726999999999
 30
0.0
 11
5.986633
 21
-4.199726999999999
 31
0.0
  0
LINE
  5
6A1
330
1A84
100
AcDbEntity
  8
0
100
AcDbLine
 10
5.827971
 20
-3.546742
 30
0.0
 11
5.827971
 21
-3.546742
 31
0.0
  0
LINE
  5
6A2
330
1A84
100
AcDbEntity
  8
0
100
AcDbLine
 10
5.053536
 20
-4.359895
 30
0.0
 11
5.053536
 21
-4.359895
 31
0.0
  0
LINE
  5
17A8
330
1A84
100
AcDbEntity
  8
0
100
AcDbLine
 10
6.656318
 20
-2.793068
 30
0.0
 11
6.656318
 21
-2.793068
 31
0.0
  0
LINE
  5
17A9
330
1A84
100
AcDbEntity
  8
0
100
AcDbLine
 10
6.978617999999999
 20
-2.545759
 30
0.0
 11
6.978617999999999
 21
-2.545759
 31
0.0
  0
LINE
  5
17AA
330
1A84
100
AcDbEntity
  8
0
100
AcDbLine
 10
7.280092
 20
-2.31443
 30
0.0
 11
7.280092
 21
-2.31443
 31
0.0
  0
LINE
  5
17AB
330
1A84
100
AcDbEntity
  8
0
100
AcDbLine
 10
7.617267999999999
 20
-2.055706
 30
0.0
 11
7.617267999999999
 21
-2.055706
 31
0.0
  0
LINE
  5
17AC
330
1A84
100
AcDbEntity
  8
0
100
AcDbLine
 10
6.640569999999999
 20
-2.311362
 30
0.0
 11
6.640569999999999
 21
-2.311362
 31
0.0
  0
LINE
  5
17AD
330
1A84
100
AcDbEntity
  8
0
100
AcDbLine
 10
6.994366
 20
-3.027465
 30
0.0
 11
6.994366
 21
-3.027465
 31
0.0
  0
LINE
  5
17AE
330
1A84
100
AcDbEntity
  8
0
100
AcDbLine
 10
7.295841
 20
-2.796136
 30
0.0
 11
7.295841
 21
-2.796136
 31
0.0
  0
LINE
  5
17AF
330
1A84
100
AcDbEntity
  8
0
100
AcDbLine
 10
7.633016000000001
 20
-2.537412
 30
0.0
 11
7.633016000000001
 21
-2.537412
 31
0.0
  0
LINE
  5
17B0
330
1A84
100
AcDbEntity
  8
0
100
AcDbLine
 10
7.955316000000001
 20
-2.290103
 30
0.0
 11
7.955316000000001
 21
-2.290103
 31
0.0
  0
LINE
  5
17B1
330
1A84
100
AcDbEntity
  8
0
100
AcDbLine
 10
8.256789999999999
 20
-2.058773
 30
0.0
 11
8.256789999999999
 21
-2.058773
 31
0.0
  0
LINE
  5
17B2
330
1A84
100
AcDbEntity
  8
0
100
AcDbLine
 10
6.536041
 20
-2.375952
 30
0.0
 11
6.536041
 21
-2.375952
 31
0.0
  0
LINE
  5
17B3
330
1A84
100
AcDbEntity
  8
0
100
AcDbLine
 10
6.739286999999999
 20
-2.349194
 30
0.0
 11
6.739286999999999
 21
-2.349194
 31
0.0
  0
LINE
  5
17B4
330
1A84
100
AcDbEntity
  8
0
100
AcDbLine
 10
7.078857000000001
 20
-2.304489
 30
0.0
 11
7.078857000000001
 21
-2.304489
 31
0.0
  0
LINE
  5
17B5
330
1A84
100
AcDbEntity
  8
0
100
AcDbLine
 10
7.208984
 20
-2.287357
 30
0.0
 11
7.208984
 21
-2.287357
 31
0.0
  0
LINE
  5
17B6
330
1A84
100
AcDbEntity
  8
0
100
AcDbLine
 10
7.41223
 20
-2.2606
 30
0.0
 11
7.41223
 21
-2.2606
 31
0.0
  0
LINE
  5
17B7
330
1A84
100
AcDbEntity
  8
0
100
AcDbLine
 10
7.7518
 20
-2.215894
 30
0.0
 11
7.7518
 21
-2.215894
 31
0.0
  0
LINE
  5
17B8
330
1A84
100
AcDbEntity
  8
0
100
AcDbLine
 10
7.881927
 20
-2.198763
 30
0.0
 11
7.881927
 21
-2.198763
 31
0.0
  0
LINE
  5
17B9
330
1A84
100
AcDbEntity
  8
0
100
AcDbLine
 10
8.085172999999999
 20
-2.172005
 30
0.0
 11
8.085172999999999
 21
-2.172005
 31
0.0
  0
LINE
  5
17BA
330
1A84
100
AcDbEntity
  8
0
100
AcDbLine
 10
6.636413
 20
-3.010026
 30
0.0
 11
6.636413
 21
-3.010026
 31
0.0
  0
LINE
  5
17BB
330
1A84
100
AcDbEntity
  8
0
100
AcDbLine
 10
6.766539999999999
 20
-2.992894
 30
0.0
 11
6.766539999999999
 21
-2.992894
 31
0.0
  0
LINE
  5
17BC
330
1A84
100
AcDbEntity
  8
0
100
AcDbLine
 10
6.969786
 20
-2.966136
 30
0.0
 11
6.969786
 21
-2.966136
 31
0.0
  0
LINE
  5
17BD
330
1A84
100
AcDbEntity
  8
0
100
AcDbLine
 10
6.728412
 20
-2.492784
 30
0.0
 11
6.728412
 21
-2.492784
 31
0.0
  0
LINE
  5
17BE
330
1A84
100
AcDbEntity
  8
0
100
AcDbLine
 10
6.833836
 20
-2.559947
 30
0.0
 11
6.833836
 21
-2.559947
 31
0.0
  0
LINE
  5
17BF
330
1A84
100
AcDbEntity
  8
0
100
AcDbLine
 10
7.213361999999999
 20
-2.801731
 30
0.0
 11
7.213361999999999
 21
-2.801731
 31
0.0
  0
LINE
  5
17C0
330
1A84
100
AcDbEntity
  8
0
100
AcDbLine
 10
7.506948
 20
-2.491369
 30
0.0
 11
7.506948
 21
-2.491369
 31
0.0
  0
LINE
  5
17C1
330
1A84
100
AcDbEntity
  8
0
100
AcDbLine
 10
7.612371
 20
-2.558532
 30
0.0
 11
7.612371
 21
-2.558532
 31
0.0
  0
LINE
  5
17C2
330
1A84
100
AcDbEntity
  8
0
100
AcDbLine
 10
7.789991000000001
 20
-2.174291
 30
0.0
 11
7.789991000000001
 21
-2.174291
 31
0.0
  0
LINE
  5
17C3
330
1A84
100
AcDbEntity
  8
0
100
AcDbLine
 10
8.083575999999999
 20
-1.863929
 30
0.0
 11
8.083575999999999
 21
-1.863929
 31
0.0
  0
LINE
  5
17C4
330
1A84
100
AcDbEntity
  8
0
100
AcDbLine
 10
8.189
 20
-1.931091
 30
0.0
 11
8.189
 21
-1.931091
 31
0.0
  0
LINE
  5
17C5
330
1A84
100
AcDbEntity
  8
0
100
AcDbLine
 10
6.434826999999999
 20
-2.803146
 30
0.0
 11
6.434826999999999
 21
-2.803146
 31
0.0
  0
LINE
  5
17C6
330
1A84
100
AcDbEntity
  8
0
100
AcDbLine
 10
6.930319
 20
-3.11881
 30
0.0
 11
6.930319
 21
-3.11881
 31
0.0
  0
LINE
  5
17C7
330
1A84
100
AcDbEntity
  8
0
100
AcDbLine
 10
7.300589
 20
-2.431175
 30
0.0
 11
7.300589
 21
-2.431175
 31
0.0
  0
LINE
  5
17C8
330
1A84
100
AcDbEntity
  8
0
100
AcDbLine
 10
7.54942
 20
-2.659187
 30
0.0
 11
7.54942
 21
-2.659187
 31
0.0
  0
LINE
  5
17C9
330
1A84
100
AcDbEntity
  8
0
100
AcDbLine
 10
7.5955
 20
-2.701411
 30
0.0
 11
7.5955
 21
-2.701411
 31
0.0
  0
LINE
  5
17CA
330
1A84
100
AcDbEntity
  8
0
100
AcDbLine
 10
7.834624000000001
 20
-2.012457
 30
0.0
 11
7.834624000000001
 21
-2.012457
 31
0.0
  0
LINE
  5
17CB
330
1A84
100
AcDbEntity
  8
0
100
AcDbLine
 10
8.052121000000001
 20
-2.211757
 30
0.0
 11
8.052121000000001
 21
-2.211757
 31
0.0
  0
LINE
  5
17CC
330
1A84
100
AcDbEntity
  8
0
100
AcDbLine
 10
6.549057
 20
-2.650594
 30
0.0
 11
6.549057
 21
-2.650594
 31
0.0
  0
LINE
  5
17CD
330
1A84
100
AcDbEntity
  8
0
100
AcDbLine
 10
6.797889
 20
-2.878606
 30
0.0
 11
6.797889
 21
-2.878606
 31
0.0
  0
LINE
  5
17CE
330
1A84
100
AcDbEntity
  8
0
100
AcDbLine
 10
6.843967999999999
 20
-2.92083
 30
0.0
 11
6.843967999999999
 21
-2.92083
 31
0.0
  0
LINE
  5
17CF
330
1A84
100
AcDbEntity
  8
0
100
AcDbLine
 10
7.061464999999999
 20
-3.120129
 30
0.0
 11
7.061464999999999
 21
-3.120129
 31
0.0
  0
LINE
  5
18DA
330
1A84
100
AcDbEntity
  8
0
100
AcDbLine
 10
3.726226
 20
-3.560037
 30
0.0
 11
3.726226
 21
-3.560037
 31
0.0
  0
LINE
  5
18DB
330
1A84
100
AcDbEntity
  8
0
100
AcDbLine
 10
4.048525
 20
-3.312728
 30
0.0
 11
4.048525
 21
-3.312728
 31
0.0
  0
LINE
  5
18DC
330
1A84
100
AcDbEntity
  8
0
100
AcDbLine
 10
4.35
 20
-3.081399
 30
0.0
 11
4.35
 21
-3.081399
 31
0.0
  0
LINE
  5
18DD
330
1A84
100
AcDbEntity
  8
0
100
AcDbLine
 10
4.687175
 20
-2.822675
 30
0.0
 11
4.687175
 21
-2.822675
 31
0.0
  0
LINE
  5
18DE
330
1A84
100
AcDbEntity
  8
0
100
AcDbLine
 10
5.009475
 20
-2.575366
 30
0.0
 11
5.009475
 21
-2.575366
 31
0.0
  0
LINE
  5
18DF
330
1A84
100
AcDbEntity
  8
0
100
AcDbLine
 10
5.310949
 20
-2.344037
 30
0.0
 11
5.310949
 21
-2.344037
 31
0.0
  0
LINE
  5
18E0
330
1A84
100
AcDbEntity
  8
0
100
AcDbLine
 10
5.648124
 20
-2.085313
 30
0.0
 11
5.648124
 21
-2.085313
 31
0.0
  0
LINE
  5
18E1
330
1A84
100
AcDbEntity
  8
0
100
AcDbLine
 10
5.970424
 20
-1.838004
 30
0.0
 11
5.970424
 21
-1.838004
 31
0.0
  0
LINE
  5
18E2
330
1A84
100
AcDbEntity
  8
0
100
AcDbLine
 10
3.373302
 20
-3.337055
 30
0.0
 11
3.373302
 21
-3.337055
 31
0.0
  0
LINE
  5
18E3
330
1A84
100
AcDbEntity
  8
0
100
AcDbLine
 10
3.710477
 20
-3.078332
 30
0.0
 11
3.710477
 21
-3.078332
 31
0.0
  0
LINE
  5
18E4
330
1A84
100
AcDbEntity
  8
0
100
AcDbLine
 10
4.032776999999999
 20
-2.831022
 30
0.0
 11
4.032776999999999
 21
-2.831022
 31
0.0
  0
LINE
  5
18E5
330
1A84
100
AcDbEntity
  8
0
100
AcDbLine
 10
4.334251
 20
-2.599693
 30
0.0
 11
4.334251
 21
-2.599693
 31
0.0
  0
LINE
  5
18E6
330
1A84
100
AcDbEntity
  8
0
100
AcDbLine
 10
4.671426
 20
-2.340969
 30
0.0
 11
4.671426
 21
-2.340969
 31
0.0
  0
LINE
  5
18E7
330
1A84
100
AcDbEntity
  8
0
100
AcDbLine
 10
4.993726000000001
 20
-2.09366
 30
0.0
 11
4.993726000000001
 21
-2.09366
 31
0.0
  0
LINE
  5
18E8
330
1A84
100
AcDbEntity
  8
0
100
AcDbLine
 10
5.295201000000001
 20
-1.862331
 30
0.0
 11
5.295201000000001
 21
-1.862331
 31
0.0
  0
LINE
  5
18E9
330
1A84
100
AcDbEntity
  8
0
100
AcDbLine
 10
5.632376
 20
-1.603607
 30
0.0
 11
5.632376
 21
-1.603607
 31
0.0
  0
LINE
  5
18EA
330
1A84
100
AcDbEntity
  8
0
100
AcDbLine
 10
3.357554
 20
-2.855349
 30
0.0
 11
3.357554
 21
-2.855349
 31
0.0
  0
LINE
  5
18EB
330
1A84
100
AcDbEntity
  8
0
100
AcDbLine
 10
3.694729
 20
-2.596626
 30
0.0
 11
3.694729
 21
-2.596626
 31
0.0
  0
LINE
  5
18EC
330
1A84
100
AcDbEntity
  8
0
100
AcDbLine
 10
4.017029
 20
-2.349316
 30
0.0
 11
4.017029
 21
-2.349316
 31
0.0
  0
LINE
  5
18ED
330
1A84
100
AcDbEntity
  8
0
100
AcDbLine
 10
4.318503
 20
-2.117987
 30
0.0
 11
4.318503
 21
-2.117987
 31
0.0
  0
LINE
  5
18EE
330
1A84
100
AcDbEntity
  8
0
100
AcDbLine
 10
4.655678
 20
-1.859263
 30
0.0
 11
4.655678
 21
-1.859263
 31
0.0
  0
LINE
  5
18EF
330
1A84
100
AcDbEntity
  8
0
100
AcDbLine
 10
4.977978
 20
-1.611954
 30
0.0
 11
4.977978
 21
-1.611954
 31
0.0
  0
LINE
  5
18F0
330
1A84
100
AcDbEntity
  8
0
100
AcDbLine
 10
5.279452
 20
-1.380625
 30
0.0
 11
5.279452
 21
-1.380625
 31
0.0
  0
LINE
  5
18F1
330
1A84
100
AcDbEntity
  8
0
100
AcDbLine
 10
3.341805
 20
-2.373643
 30
0.0
 11
3.341805
 21
-2.373643
 31
0.0
  0
LINE
  5
18F2
330
1A84
100
AcDbEntity
  8
0
100
AcDbLine
 10
3.678981
 20
-2.11492
 30
0.0
 11
3.678981
 21
-2.11492
 31
0.0
  0
LINE
  5
18F3
330
1A84
100
AcDbEntity
  8
0
100
AcDbLine
 10
4.00128
 20
-1.86761
 30
0.0
 11
4.00128
 21
-1.86761
 31
0.0
  0
LINE
  5
18F4
330
1A84
100
AcDbEntity
  8
0
100
AcDbLine
 10
4.302755
 20
-1.636281
 30
0.0
 11
4.302755
 21
-1.636281
 31
0.0
  0
LINE
  5
18F5
330
1A84
100
AcDbEntity
  8
0
100
AcDbLine
 10
4.639930000000001
 20
-1.377557
 30
0.0
 11
4.639930000000001
 21
-1.377557
 31
0.0
  0
LINE
  5
18F6
330
1A84
100
AcDbEntity
  8
0
100
AcDbLine
 10
4.96223
 20
-1.130248
 30
0.0
 11
4.96223
 21
-1.130248
 31
0.0
  0
LINE
  5
18F7
330
1A84
100
AcDbEntity
  8
0
100
AcDbLine
 10
3.024583
 20
-2.123267
 30
0.0
 11
3.024583
 21
-2.123267
 31
0.0
  0
LINE
  5
18F8
330
1A84
100
AcDbEntity
  8
0
100
AcDbLine
 10
3.326057
 20
-1.891937
 30
0.0
 11
3.326057
 21
-1.891937
 31
0.0
  0
LINE
  5
18F9
330
1A84
100
AcDbEntity
  8
0
100
AcDbLine
 10
3.663232
 20
-1.633214
 30
0.0
 11
3.663232
 21
-1.633214
 31
0.0
  0
LINE
  5
18FA
330
1A84
100
AcDbEntity
  8
0
100
AcDbLine
 10
3.985532
 20
-1.385904
 30
0.0
 11
3.985532
 21
-1.385904
 31
0.0
  0
LINE
  5
18FB
330
1A84
100
AcDbEntity
  8
0
100
AcDbLine
 10
4.287006
 20
-1.154575
 30
0.0
 11
4.287006
 21
-1.154575
 31
0.0
  0
LINE
  5
18FC
330
1A84
100
AcDbEntity
  8
0
100
AcDbLine
 10
4.624181
 20
-0.8958510000000001
 30
0.0
 11
4.624181
 21
-0.8958510000000001
 31
0.0
  0
LINE
  5
18FD
330
1A84
100
AcDbEntity
  8
0
100
AcDbLine
 10
3.008834
 20
-1.641561
 30
0.0
 11
3.008834
 21
-1.641561
 31
0.0
  0
LINE
  5
18FE
330
1A84
100
AcDbEntity
  8
0
100
AcDbLine
 10
3.310309
 20
-1.410231
 30
0.0
 11
3.310309
 21
-1.410231
 31
0.0
  0
LINE
  5
18FF
330
1A84
100
AcDbEntity
  8
0
100
AcDbLine
 10
3.647484
 20
-1.151508
 30
0.0
 11
3.647484
 21
-1.151508
 31
0.0
  0
LINE
  5
1900
330
1A84
100
AcDbEntity
  8
0
100
AcDbLine
 10
3.969784
 20
-0.904198
 30
0.0
 11
3.969784
 21
-0.904198
 31
0.0
  0
LINE
  5
1901
330
1A84
100
AcDbEntity
  8
0
100
AcDbLine
 10
4.271258
 20
-0.6728689999999999
 30
0.0
 11
4.271258
 21
-0.6728689999999999
 31
0.0
  0
LINE
  5
1902
330
1A84
100
AcDbEntity
  8
0
100
AcDbLine
 10
2.993086
 20
-1.159855
 30
0.0
 11
2.993086
 21
-1.159855
 31
0.0
  0
LINE
  5
1903
330
1A84
100
AcDbEntity
  8
0
100
AcDbLine
 10
3.29456
 20
-0.928525
 30
0.0
 11
3.29456
 21
-0.928525
 31
0.0
  0
LINE
  5
1904
330
1A84
100
AcDbEntity
  8
0
100
AcDbLine
 10
3.631736
 20
-0.669802
 30
0.0
 11
3.631736
 21
-0.669802
 31
0.0
  0
LINE
  5
1905
330
1A84
100
AcDbEntity
  8
0
100
AcDbLine
 10
3.954035
 20
-0.422492
 30
0.0
 11
3.954035
 21
-0.422492
 31
0.0
  0
LINE
  5
1906
330
1A84
100
AcDbEntity
  8
0
100
AcDbLine
 10
3.615987
 20
-0.188096
 30
0.0
 11
3.615987
 21
-0.188096
 31
0.0
  0
LINE
  5
1907
330
1A84
100
AcDbEntity
  8
0
100
AcDbLine
 10
4.064274
 20
-3.794434
 30
0.0
 11
4.064274
 21
-3.794434
 31
0.0
  0
LINE
  5
1908
330
1A84
100
AcDbEntity
  8
0
100
AcDbLine
 10
4.365748
 20
-3.563105
 30
0.0
 11
4.365748
 21
-3.563105
 31
0.0
  0
LINE
  5
1909
330
1A84
100
AcDbEntity
  8
0
100
AcDbLine
 10
4.702923
 20
-3.304381
 30
0.0
 11
4.702923
 21
-3.304381
 31
0.0
  0
LINE
  5
190A
330
1A84
100
AcDbEntity
  8
0
100
AcDbLine
 10
5.025223
 20
-3.057072
 30
0.0
 11
5.025223
 21
-3.057072
 31
0.0
  0
LINE
  5
190B
330
1A84
100
AcDbEntity
  8
0
100
AcDbLine
 10
5.326697
 20
-2.825742
 30
0.0
 11
5.326697
 21
-2.825742
 31
0.0
  0
LINE
  5
190C
330
1A84
100
AcDbEntity
  8
0
100
AcDbLine
 10
5.663872000000001
 20
-2.567019
 30
0.0
 11
5.663872000000001
 21
-2.567019
 31
0.0
  0
LINE
  5
190D
330
1A84
100
AcDbEntity
  8
0
100
AcDbLine
 10
5.986172
 20
-2.31971
 30
0.0
 11
5.986172
 21
-2.31971
 31
0.0
  0
LINE
  5
190E
330
1A84
100
AcDbEntity
  8
0
100
AcDbLine
 10
6.287646
 20
-2.08838
 30
0.0
 11
6.287646
 21
-2.08838
 31
0.0
  0
LINE
  5
190F
330
1A84
100
AcDbEntity
  8
0
100
AcDbLine
 10
4.381496
 20
-4.044811
 30
0.0
 11
4.381496
 21
-4.044811
 31
0.0
  0
LINE
  5
1910
330
1A84
100
AcDbEntity
  8
0
100
AcDbLine
 10
4.718671
 20
-3.786087
 30
0.0
 11
4.718671
 21
-3.786087
 31
0.0
  0
LINE
  5
1911
330
1A84
100
AcDbEntity
  8
0
100
AcDbLine
 10
5.040971
 20
-3.538778
 30
0.0
 11
5.040971
 21
-3.538778
 31
0.0
  0
LINE
  5
1912
330
1A84
100
AcDbEntity
  8
0
100
AcDbLine
 10
5.342446
 20
-3.307448
 30
0.0
 11
5.342446
 21
-3.307448
 31
0.0
  0
LINE
  5
1913
330
1A84
100
AcDbEntity
  8
0
100
AcDbLine
 10
5.679621
 20
-3.048725
 30
0.0
 11
5.679621
 21
-3.048725
 31
0.0
  0
LINE
  5
1914
330
1A84
100
AcDbEntity
  8
0
100
AcDbLine
 10
6.00192
 20
-2.801415
 30
0.0
 11
6.00192
 21
-2.801415
 31
0.0
  0
LINE
  5
1915
330
1A84
100
AcDbEntity
  8
0
100
AcDbLine
 10
4.73442
 20
-4.267793
 30
0.0
 11
4.73442
 21
-4.267793
 31
0.0
  0
LINE
  5
1916
330
1A84
100
AcDbEntity
  8
0
100
AcDbLine
 10
5.056719999999999
 20
-4.020484
 30
0.0
 11
5.056719999999999
 21
-4.020484
 31
0.0
  0
LINE
  5
1917
330
1A84
100
AcDbEntity
  8
0
100
AcDbLine
 10
3.144072
 20
-2.175226
 30
0.0
 11
3.144072
 21
-2.175226
 31
0.0
  0
LINE
  5
1918
330
1A84
100
AcDbEntity
  8
0
100
AcDbLine
 10
3.483642
 20
-2.13052
 30
0.0
 11
3.483642
 21
-2.13052
 31
0.0
  0
LINE
  5
1919
330
1A84
100
AcDbEntity
  8
0
100
AcDbLine
 10
3.613769000000001
 20
-2.113389
 30
0.0
 11
3.613769000000001
 21
-2.113389
 31
0.0
  0
LINE
  5
191A
330
1A84
100
AcDbEntity
  8
0
100
AcDbLine
 10
3.817015
 20
-2.086631
 30
0.0
 11
3.817015
 21
-2.086631
 31
0.0
  0
LINE
  5
191B
330
1A84
100
AcDbEntity
  8
0
100
AcDbLine
 10
4.156585
 20
-2.041926
 30
0.0
 11
4.156585
 21
-2.041926
 31
0.0
  0
LINE
  5
191C
330
1A84
100
AcDbEntity
  8
0
100
AcDbLine
 10
4.286712000000001
 20
-2.024794
 30
0.0
 11
4.286712000000001
 21
-2.024794
 31
0.0
  0
LINE
  5
191D
330
1A84
100
AcDbEntity
  8
0
100
AcDbLine
 10
4.489958000000001
 20
-1.998036
 30
0.0
 11
4.489958000000001
 21
-1.998036
 31
0.0
  0
LINE
  5
191E
330
1A84
100
AcDbEntity
  8
0
100
AcDbLine
 10
4.829528
 20
-1.953331
 30
0.0
 11
4.829528
 21
-1.953331
 31
0.0
  0
LINE
  5
191F
330
1A84
100
AcDbEntity
  8
0
100
AcDbLine
 10
4.959655000000001
 20
-1.9362
 30
0.0
 11
4.959655000000001
 21
-1.9362
 31
0.0
  0
LINE
  5
1920
330
1A84
100
AcDbEntity
  8
0
100
AcDbLine
 10
5.162901000000001
 20
-1.909442
 30
0.0
 11
5.162901000000001
 21
-1.909442
 31
0.0
  0
LINE
  5
1921
330
1A84
100
AcDbEntity
  8
0
100
AcDbLine
 10
5.502471
 20
-1.864736
 30
0.0
 11
5.502471
 21
-1.864736
 31
0.0
  0
LINE
  5
1922
330
1A84
100
AcDbEntity
  8
0
100
AcDbLine
 10
5.632598000000001
 20
-1.847605
 30
0.0
 11
5.632598000000001
 21
-1.847605
 31
0.0
  0
LINE
  5
1923
330
1A84
100
AcDbEntity
  8
0
100
AcDbLine
 10
5.835845
 20
-1.820847
 30
0.0
 11
5.835845
 21
-1.820847
 31
0.0
  0
LINE
  5
1924
330
1A84
100
AcDbEntity
  8
0
100
AcDbLine
 10
6.175415
 20
-1.776142
 30
0.0
 11
6.175415
 21
-1.776142
 31
0.0
  0
LINE
  5
1925
330
1A84
100
AcDbEntity
  8
0
100
AcDbLine
 10
3.253143
 20
-1.513579
 30
0.0
 11
3.253143
 21
-1.513579
 31
0.0
  0
LINE
  5
1926
330
1A84
100
AcDbEntity
  8
0
100
AcDbLine
 10
3.38327
 20
-1.496447
 30
0.0
 11
3.38327
 21
-1.496447
 31
0.0
  0
LINE
  5
1927
330
1A84
100
AcDbEntity
  8
0
100
AcDbLine
 10
3.586516000000001
 20
-1.469689
 30
0.0
 11
3.586516000000001
 21
-1.469689
 31
0.0
  0
LINE
  5
1928
330
1A84
100
AcDbEntity
  8
0
100
AcDbLine
 10
3.926086
 20
-1.424984
 30
0.0
 11
3.926086
 21
-1.424984
 31
0.0
  0
LINE
  5
1929
330
1A84
100
AcDbEntity
  8
0
100
AcDbLine
 10
4.056213
 20
-1.407852
 30
0.0
 11
4.056213
 21
-1.407852
 31
0.0
  0
LINE
  5
192A
330
1A84
100
AcDbEntity
  8
0
100
AcDbLine
 10
4.259459
 20
-1.381094
 30
0.0
 11
4.259459
 21
-1.381094
 31
0.0
  0
LINE
  5
192B
330
1A84
100
AcDbEntity
  8
0
100
AcDbLine
 10
4.599029
 20
-1.336389
 30
0.0
 11
4.599029
 21
-1.336389
 31
0.0
  0
LINE
  5
192C
330
1A84
100
AcDbEntity
  8
0
100
AcDbLine
 10
4.729156
 20
-1.319258
 30
0.0
 11
4.729156
 21
-1.319258
 31
0.0
  0
LINE
  5
192D
330
1A84
100
AcDbEntity
  8
0
100
AcDbLine
 10
4.932402
 20
-1.2925
 30
0.0
 11
4.932402
 21
-1.2925
 31
0.0
  0
LINE
  5
192E
330
1A84
100
AcDbEntity
  8
0
100
AcDbLine
 10
5.271972
 20
-1.247795
 30
0.0
 11
5.271972
 21
-1.247795
 31
0.0
  0
LINE
  5
192F
330
1A84
100
AcDbEntity
  8
0
100
AcDbLine
 10
5.402099
 20
-1.230663
 30
0.0
 11
5.402099
 21
-1.230663
 31
0.0
  0
LINE
  5
1930
330
1A84
100
AcDbEntity
  8
0
100
AcDbLine
 10
3.356017
 20
-0.8527469999999999
 30
0.0
 11
3.356017
 21
-0.8527469999999999
 31
0.0
  0
LINE
  5
1931
330
1A84
100
AcDbEntity
  8
0
100
AcDbLine
 10
3.695587
 20
-0.808042
 30
0.0
 11
3.695587
 21
-0.808042
 31
0.0
  0
LINE
  5
1932
330
1A84
100
AcDbEntity
  8
0
100
AcDbLine
 10
3.825714
 20
-0.79091
 30
0.0
 11
3.825714
 21
-0.79091
 31
0.0
  0
LINE
  5
1933
330
1A84
100
AcDbEntity
  8
0
100
AcDbLine
 10
4.02896
 20
-0.764153
 30
0.0
 11
4.02896
 21
-0.764153
 31
0.0
  0
LINE
  5
1934
330
1A84
100
AcDbEntity
  8
0
100
AcDbLine
 10
4.368530000000001
 20
-0.7194470000000001
 30
0.0
 11
4.368530000000001
 21
-0.7194470000000001
 31
0.0
  0
LINE
  5
1935
330
1A84
100
AcDbEntity
  8
0
100
AcDbLine
 10
4.498657
 20
-0.7023159999999999
 30
0.0
 11
4.498657
 21
-0.7023159999999999
 31
0.0
  0
LINE
  5
1936
330
1A84
100
AcDbEntity
  8
0
100
AcDbLine
 10
3.465088
 20
-0.1911
 30
0.0
 11
3.465088
 21
-0.1911
 31
0.0
  0
LINE
  5
1937
330
1A84
100
AcDbEntity
  8
0
100
AcDbLine
 10
3.595215
 20
-0.173969
 30
0.0
 11
3.595215
 21
-0.173969
 31
0.0
  0
LINE
  5
1938
330
1A84
100
AcDbEntity
  8
0
100
AcDbLine
 10
3.798461
 20
-0.147211
 30
0.0
 11
3.798461
 21
-0.147211
 31
0.0
  0
LINE
  5
1939
330
1A84
100
AcDbEntity
  8
0
100
AcDbLine
 10
3.171325
 20
-2.818925
 30
0.0
 11
3.171325
 21
-2.818925
 31
0.0
  0
LINE
  5
193A
330
1A84
100
AcDbEntity
  8
0
100
AcDbLine
 10
3.374571
 20
-2.792167
 30
0.0
 11
3.374571
 21
-2.792167
 31
0.0
  0
LINE
  5
193B
330
1A84
100
AcDbEntity
  8
0
100
AcDbLine
 10
3.714141
 20
-2.747462
 30
0.0
 11
3.714141
 21
-2.747462
 31
0.0
  0
LINE
  5
193C
330
1A84
100
AcDbEntity
  8
0
100
AcDbLine
 10
3.844268
 20
-2.730331
 30
0.0
 11
3.844268
 21
-2.730331
 31
0.0
  0
LINE
  5
193D
330
1A84
100
AcDbEntity
  8
0
100
AcDbLine
 10
4.047514
 20
-2.703573
 30
0.0
 11
4.047514
 21
-2.703573
 31
0.0
  0
LINE
  5
193E
330
1A84
100
AcDbEntity
  8
0
100
AcDbLine
 10
4.387084
 20
-2.658868
 30
0.0
 11
4.387084
 21
-2.658868
 31
0.0
  0
LINE
  5
193F
330
1A84
100
AcDbEntity
  8
0
100
AcDbLine
 10
4.517211
 20
-2.641736
 30
0.0
 11
4.517211
 21
-2.641736
 31
0.0
  0
LINE
  5
1940
330
1A84
100
AcDbEntity
  8
0
100
AcDbLine
 10
4.720457
 20
-2.614978
 30
0.0
 11
4.720457
 21
-2.614978
 31
0.0
  0
LINE
  5
1941
330
1A84
100
AcDbEntity
  8
0
100
AcDbLine
 10
5.060027
 20
-2.570273
 30
0.0
 11
5.060027
 21
-2.570273
 31
0.0
  0
LINE
  5
1942
330
1A84
100
AcDbEntity
  8
0
100
AcDbLine
 10
5.190154
 20
-2.553141
 30
0.0
 11
5.190154
 21
-2.553141
 31
0.0
  0
LINE
  5
1943
330
1A84
100
AcDbEntity
  8
0
100
AcDbLine
 10
5.393401
 20
-2.526384
 30
0.0
 11
5.393401
 21
-2.526384
 31
0.0
  0
LINE
  5
1944
330
1A84
100
AcDbEntity
  8
0
100
AcDbLine
 10
5.73297
 20
-2.481678
 30
0.0
 11
5.73297
 21
-2.481678
 31
0.0
  0
LINE
  5
1945
330
1A84
100
AcDbEntity
  8
0
100
AcDbLine
 10
5.863098
 20
-2.464547
 30
0.0
 11
5.863098
 21
-2.464547
 31
0.0
  0
LINE
  5
1946
330
1A84
100
AcDbEntity
  8
0
100
AcDbLine
 10
6.066344
 20
-2.437789
 30
0.0
 11
6.066344
 21
-2.437789
 31
0.0
  0
LINE
  5
1947
330
1A84
100
AcDbEntity
  8
0
100
AcDbLine
 10
3.401824
 20
-3.435867
 30
0.0
 11
3.401824
 21
-3.435867
 31
0.0
  0
LINE
  5
1948
330
1A84
100
AcDbEntity
  8
0
100
AcDbLine
 10
3.60507
 20
-3.409109
 30
0.0
 11
3.60507
 21
-3.409109
 31
0.0
  0
LINE
  5
1949
330
1A84
100
AcDbEntity
  8
0
100
AcDbLine
 10
3.94464
 20
-3.364404
 30
0.0
 11
3.94464
 21
-3.364404
 31
0.0
  0
LINE
  5
194A
330
1A84
100
AcDbEntity
  8
0
100
AcDbLine
 10
4.074767
 20
-3.347273
 30
0.0
 11
4.074767
 21
-3.347273
 31
0.0
  0
LINE
  5
194B
330
1A84
100
AcDbEntity
  8
0
100
AcDbLine
 10
4.278013
 20
-3.320515
 30
0.0
 11
4.278013
 21
-3.320515
 31
0.0
  0
LINE
  5
194C
330
1A84
100
AcDbEntity
  8
0
100
AcDbLine
 10
4.617583
 20
-3.275809
 30
0.0
 11
4.617583
 21
-3.275809
 31
0.0
  0
LINE
  5
194D
330
1A84
100
AcDbEntity
  8
0
100
AcDbLine
 10
4.74771
 20
-3.258678
 30
0.0
 11
4.74771
 21
-3.258678
 31
0.0
  0
LINE
  5
194E
330
1A84
100
AcDbEntity
  8
0
100
AcDbLine
 10
4.950956
 20
-3.23192
 30
0.0
 11
4.950956
 21
-3.23192
 31
0.0
  0
LINE
  5
194F
330
1A84
100
AcDbEntity
  8
0
100
AcDbLine
 10
5.290526
 20
-3.187215
 30
0.0
 11
5.290526
 21
-3.187215
 31
0.0
  0
LINE
  5
1950
330
1A84
100
AcDbEntity
  8
0
100
AcDbLine
 10
5.420653
 20
-3.170083
 30
0.0
 11
5.420653
 21
-3.170083
 31
0.0
  0
LINE
  5
1951
330
1A84
100
AcDbEntity
  8
0
100
AcDbLine
 10
5.6239
 20
-3.143325
 30
0.0
 11
5.6239
 21
-3.143325
 31
0.0
  0
LINE
  5
1952
330
1A84
100
AcDbEntity
  8
0
100
AcDbLine
 10
5.963469
 20
-3.09862
 30
0.0
 11
5.963469
 21
-3.09862
 31
0.0
  0
LINE
  5
1953
330
1A84
100
AcDbEntity
  8
0
100
AcDbLine
 10
6.093597
 20
-3.081489
 30
0.0
 11
6.093597
 21
-3.081489
 31
0.0
  0
LINE
  5
1954
330
1A84
100
AcDbEntity
  8
0
100
AcDbLine
 10
4.175139
 20
-3.981346
 30
0.0
 11
4.175139
 21
-3.981346
 31
0.0
  0
LINE
  5
1955
330
1A84
100
AcDbEntity
  8
0
100
AcDbLine
 10
4.305266000000001
 20
-3.964214
 30
0.0
 11
4.305266000000001
 21
-3.964214
 31
0.0
  0
LINE
  5
1956
330
1A84
100
AcDbEntity
  8
0
100
AcDbLine
 10
4.508512000000001
 20
-3.937457
 30
0.0
 11
4.508512000000001
 21
-3.937457
 31
0.0
  0
LINE
  5
1957
330
1A84
100
AcDbEntity
  8
0
100
AcDbLine
 10
4.848082
 20
-3.892751
 30
0.0
 11
4.848082
 21
-3.892751
 31
0.0
  0
LINE
  5
1958
330
1A84
100
AcDbEntity
  8
0
100
AcDbLine
 10
4.978209
 20
-3.87562
 30
0.0
 11
4.978209
 21
-3.87562
 31
0.0
  0
LINE
  5
1959
330
1A84
100
AcDbEntity
  8
0
100
AcDbLine
 10
5.181455000000001
 20
-3.848862
 30
0.0
 11
5.181455000000001
 21
-3.848862
 31
0.0
  0
LINE
  5
195A
330
1A84
100
AcDbEntity
  8
0
100
AcDbLine
 10
3.493499
 20
-0.929314
 30
0.0
 11
3.493499
 21
-0.929314
 31
0.0
  0
LINE
  5
195B
330
1A84
100
AcDbEntity
  8
0
100
AcDbLine
 10
3.988992
 20
-1.244977
 30
0.0
 11
3.988992
 21
-1.244977
 31
0.0
  0
LINE
  5
195C
330
1A84
100
AcDbEntity
  8
0
100
AcDbLine
 10
4.094415000000001
 20
-1.31214
 30
0.0
 11
4.094415000000001
 21
-1.31214
 31
0.0
  0
LINE
  5
195D
330
1A84
100
AcDbEntity
  8
0
100
AcDbLine
 10
4.473942
 20
-1.553925
 30
0.0
 11
4.473942
 21
-1.553925
 31
0.0
  0
LINE
  5
195E
330
1A84
100
AcDbEntity
  8
0
100
AcDbLine
 10
4.969434
 20
-1.869588
 30
0.0
 11
4.969434
 21
-1.869588
 31
0.0
  0
LINE
  5
195F
330
1A84
100
AcDbEntity
  8
0
100
AcDbLine
 10
5.074858
 20
-1.936751
 30
0.0
 11
5.074858
 21
-1.936751
 31
0.0
  0
LINE
  5
1960
330
1A84
100
AcDbEntity
  8
0
100
AcDbLine
 10
5.454383999999999
 20
-2.178535
 30
0.0
 11
5.454383999999999
 21
-2.178535
 31
0.0
  0
LINE
  5
1961
330
1A84
100
AcDbEntity
  8
0
100
AcDbLine
 10
5.949877
 20
-2.494199
 30
0.0
 11
5.949877
 21
-2.494199
 31
0.0
  0
LINE
  5
1962
330
1A84
100
AcDbEntity
  8
0
100
AcDbLine
 10
6.055301
 20
-2.561361
 30
0.0
 11
6.055301
 21
-2.561361
 31
0.0
  0
LINE
  5
1963
330
1A84
100
AcDbEntity
  8
0
100
AcDbLine
 10
3.787084
 20
-0.6189520000000001
 30
0.0
 11
3.787084
 21
-0.6189520000000001
 31
0.0
  0
LINE
  5
1964
330
1A84
100
AcDbEntity
  8
0
100
AcDbLine
 10
3.892508
 20
-0.686114
 30
0.0
 11
3.892508
 21
-0.686114
 31
0.0
  0
LINE
  5
1965
330
1A84
100
AcDbEntity
  8
0
100
AcDbLine
 10
4.272034
 20
-0.927899
 30
0.0
 11
4.272034
 21
-0.927899
 31
0.0
  0
LINE
  5
1966
330
1A84
100
AcDbEntity
  8
0
100
AcDbLine
 10
4.767526999999999
 20
-1.243563
 30
0.0
 11
4.767526999999999
 21
-1.243563
 31
0.0
  0
LINE
  5
1967
330
1A84
100
AcDbEntity
  8
0
100
AcDbLine
 10
4.872951000000001
 20
-1.310725
 30
0.0
 11
4.872951000000001
 21
-1.310725
 31
0.0
  0
LINE
  5
1968
330
1A84
100
AcDbEntity
  8
0
100
AcDbLine
 10
5.252477
 20
-1.55251
 30
0.0
 11
5.252477
 21
-1.55251
 31
0.0
  0
LINE
  5
1969
330
1A84
100
AcDbEntity
  8
0
100
AcDbLine
 10
5.74797
 20
-1.868173
 30
0.0
 11
5.74797
 21
-1.868173
 31
0.0
  0
LINE
  5
196A
330
1A84
100
AcDbEntity
  8
0
100
AcDbLine
 10
5.853393
 20
-1.935336
 30
0.0
 11
5.853393
 21
-1.935336
 31
0.0
  0
LINE
  5
196B
330
1A84
100
AcDbEntity
  8
0
100
AcDbLine
 10
6.23292
 20
-2.177121
 30
0.0
 11
6.23292
 21
-2.177121
 31
0.0
  0
LINE
  5
196C
330
1A84
100
AcDbEntity
  8
0
100
AcDbLine
 10
3.690601
 20
-0.060089
 30
0.0
 11
3.690601
 21
-0.060089
 31
0.0
  0
LINE
  5
196D
330
1A84
100
AcDbEntity
  8
0
100
AcDbLine
 10
3.210456
 20
-1.246392
 30
0.0
 11
3.210456
 21
-1.246392
 31
0.0
  0
LINE
  5
196E
330
1A84
100
AcDbEntity
  8
0
100
AcDbLine
 10
3.31588
 20
-1.313555
 30
0.0
 11
3.31588
 21
-1.313555
 31
0.0
  0
LINE
  5
196F
330
1A84
100
AcDbEntity
  8
0
100
AcDbLine
 10
3.695406
 20
-1.555339
 30
0.0
 11
3.695406
 21
-1.555339
 31
0.0
  0
LINE
  5
1970
330
1A84
100
AcDbEntity
  8
0
100
AcDbLine
 10
4.190899
 20
-1.871003
 30
0.0
 11
4.190899
 21
-1.871003
 31
0.0
  0
LINE
  5
1971
330
1A84
100
AcDbEntity
  8
0
100
AcDbLine
 10
4.296323
 20
-1.938165
 30
0.0
 11
4.296323
 21
-1.938165
 31
0.0
  0
LINE
  5
1972
330
1A84
100
AcDbEntity
  8
0
100
AcDbLine
 10
4.675849
 20
-2.17995
 30
0.0
 11
4.675849
 21
-2.17995
 31
0.0
  0
LINE
  5
1973
330
1A84
100
AcDbEntity
  8
0
100
AcDbLine
 10
5.171341
 20
-2.495614
 30
0.0
 11
5.171341
 21
-2.495614
 31
0.0
  0
LINE
  5
1974
330
1A84
100
AcDbEntity
  8
0
100
AcDbLine
 10
5.276765
 20
-2.562776
 30
0.0
 11
5.276765
 21
-2.562776
 31
0.0
  0
LINE
  5
1975
330
1A84
100
AcDbEntity
  8
0
100
AcDbLine
 10
5.656291
 20
-2.804561
 30
0.0
 11
5.656291
 21
-2.804561
 31
0.0
  0
LINE
  5
1976
330
1A84
100
AcDbEntity
  8
0
100
AcDbLine
 10
6.151783999999999
 20
-3.120224
 30
0.0
 11
6.151783999999999
 21
-3.120224
 31
0.0
  0
LINE
  5
1977
330
1A84
100
AcDbEntity
  8
0
100
AcDbLine
 10
3.412363
 20
-1.872418
 30
0.0
 11
3.412363
 21
-1.872418
 31
0.0
  0
LINE
  5
1978
330
1A84
100
AcDbEntity
  8
0
100
AcDbLine
 10
3.517787
 20
-1.93958
 30
0.0
 11
3.517787
 21
-1.93958
 31
0.0
  0
LINE
  5
1979
330
1A84
100
AcDbEntity
  8
0
100
AcDbLine
 10
3.897313
 20
-2.181365
 30
0.0
 11
3.897313
 21
-2.181365
 31
0.0
  0
LINE
  5
197A
330
1A84
100
AcDbEntity
  8
0
100
AcDbLine
 10
4.392806
 20
-2.497028
 30
0.0
 11
4.392806
 21
-2.497028
 31
0.0
  0
LINE
  5
197B
330
1A84
100
AcDbEntity
  8
0
100
AcDbLine
 10
4.49823
 20
-2.564191
 30
0.0
 11
4.49823
 21
-2.564191
 31
0.0
  0
LINE
  5
197C
330
1A84
100
AcDbEntity
  8
0
100
AcDbLine
 10
4.877756
 20
-2.805976
 30
0.0
 11
4.877756
 21
-2.805976
 31
0.0
  0
LINE
  5
197D
330
1A84
100
AcDbEntity
  8
0
100
AcDbLine
 10
5.373248
 20
-3.121639
 30
0.0
 11
5.373248
 21
-3.121639
 31
0.0
  0
LINE
  5
197E
330
1A84
100
AcDbEntity
  8
0
100
AcDbLine
 10
5.478672
 20
-3.188802
 30
0.0
 11
5.478672
 21
-3.188802
 31
0.0
  0
LINE
  5
197F
330
1A84
100
AcDbEntity
  8
0
100
AcDbLine
 10
3.118778
 20
-2.18278
 30
0.0
 11
3.118778
 21
-2.18278
 31
0.0
  0
LINE
  5
1980
330
1A84
100
AcDbEntity
  8
0
100
AcDbLine
 10
3.61427
 20
-2.498443
 30
0.0
 11
3.61427
 21
-2.498443
 31
0.0
  0
LINE
  5
1981
330
1A84
100
AcDbEntity
  8
0
100
AcDbLine
 10
3.719694
 20
-2.565606
 30
0.0
 11
3.719694
 21
-2.565606
 31
0.0
  0
LINE
  5
1982
330
1A84
100
AcDbEntity
  8
0
100
AcDbLine
 10
4.09922
 20
-2.80739
 30
0.0
 11
4.09922
 21
-2.80739
 31
0.0
  0
LINE
  5
1983
330
1A84
100
AcDbEntity
  8
0
100
AcDbLine
 10
4.594713
 20
-3.123054
 30
0.0
 11
4.594713
 21
-3.123054
 31
0.0
  0
LINE
  5
1984
330
1A84
100
AcDbEntity
  8
0
100
AcDbLine
 10
4.700137000000001
 20
-3.190216
 30
0.0
 11
4.700137000000001
 21
-3.190216
 31
0.0
  0
LINE
  5
1985
330
1A84
100
AcDbEntity
  8
0
100
AcDbLine
 10
5.079663
 20
-3.432001
 30
0.0
 11
5.079663
 21
-3.432001
 31
0.0
  0
LINE
  5
1986
330
1A84
100
AcDbEntity
  8
0
100
AcDbLine
 10
3.320685
 20
-2.808805
 30
0.0
 11
3.320685
 21
-2.808805
 31
0.0
  0
LINE
  5
1987
330
1A84
100
AcDbEntity
  8
0
100
AcDbLine
 10
3.816177
 20
-3.124469
 30
0.0
 11
3.816177
 21
-3.124469
 31
0.0
  0
LINE
  5
1988
330
1A84
100
AcDbEntity
  8
0
100
AcDbLine
 10
3.921601
 20
-3.191631
 30
0.0
 11
3.921601
 21
-3.191631
 31
0.0
  0
LINE
  5
1989
330
1A84
100
AcDbEntity
  8
0
100
AcDbLine
 10
4.301126999999999
 20
-3.433416
 30
0.0
 11
4.301126999999999
 21
-3.433416
 31
0.0
  0
LINE
  5
198A
330
1A84
100
AcDbEntity
  8
0
100
AcDbLine
 10
4.79662
 20
-3.74908
 30
0.0
 11
4.79662
 21
-3.74908
 31
0.0
  0
LINE
  5
198B
330
1A84
100
AcDbEntity
  8
0
100
AcDbLine
 10
4.902044
 20
-3.816242
 30
0.0
 11
4.902044
 21
-3.816242
 31
0.0
  0
LINE
  5
198C
330
1A84
100
AcDbEntity
  8
0
100
AcDbLine
 10
3.522592
 20
-3.434831
 30
0.0
 11
3.522592
 21
-3.434831
 31
0.0
  0
LINE
  5
198D
330
1A84
100
AcDbEntity
  8
0
100
AcDbLine
 10
4.018084
 20
-3.750494
 30
0.0
 11
4.018084
 21
-3.750494
 31
0.0
  0
LINE
  5
198E
330
1A84
100
AcDbEntity
  8
0
100
AcDbLine
 10
4.123508
 20
-3.817657
 30
0.0
 11
4.123508
 21
-3.817657
 31
0.0
  0
LINE
  5
198F
330
1A84
100
AcDbEntity
  8
0
100
AcDbLine
 10
4.503034
 20
-4.059442
 30
0.0
 11
4.503034
 21
-4.059442
 31
0.0
  0
LINE
  5
1990
330
1A84
100
AcDbEntity
  8
0
100
AcDbLine
 10
4.998526999999999
 20
-4.375105000000001
 30
0.0
 11
4.998526999999999
 21
-4.375105000000001
 31
0.0
  0
LINE
  5
1991
330
1A84
100
AcDbEntity
  8
0
100
AcDbLine
 10
3.484318
 20
-0.7503489999999999
 30
0.0
 11
3.484318
 21
-0.7503489999999999
 31
0.0
  0
LINE
  5
1992
330
1A84
100
AcDbEntity
  8
0
100
AcDbLine
 10
3.530398
 20
-0.792573
 30
0.0
 11
3.530398
 21
-0.792573
 31
0.0
  0
LINE
  5
1993
330
1A84
100
AcDbEntity
  8
0
100
AcDbLine
 10
3.747895
 20
-0.991872
 30
0.0
 11
3.747895
 21
-0.991872
 31
0.0
  0
LINE
  5
1994
330
1A84
100
AcDbEntity
  8
0
100
AcDbLine
 10
3.996726
 20
-1.219884
 30
0.0
 11
3.996726
 21
-1.219884
 31
0.0
  0
LINE
  5
1995
330
1A84
100
AcDbEntity
  8
0
100
AcDbLine
 10
4.042806
 20
-1.262108
 30
0.0
 11
4.042806
 21
-1.262108
 31
0.0
  0
LINE
  5
1996
330
1A84
100
AcDbEntity
  8
0
100
AcDbLine
 10
4.260303
 20
-1.461408
 30
0.0
 11
4.260303
 21
-1.461408
 31
0.0
  0
LINE
  5
1997
330
1A84
100
AcDbEntity
  8
0
100
AcDbLine
 10
4.509134
 20
-1.689419
 30
0.0
 11
4.509134
 21
-1.689419
 31
0.0
  0
LINE
  5
1998
330
1A84
100
AcDbEntity
  8
0
100
AcDbLine
 10
4.555214
 20
-1.731644
 30
0.0
 11
4.555214
 21
-1.731644
 31
0.0
  0
LINE
  5
1999
330
1A84
100
AcDbEntity
  8
0
100
AcDbLine
 10
4.77271
 20
-1.930943
 30
0.0
 11
4.77271
 21
-1.930943
 31
0.0
  0
LINE
  5
199A
330
1A84
100
AcDbEntity
  8
0
100
AcDbLine
 10
5.021541
 20
-2.158954
 30
0.0
 11
5.021541
 21
-2.158954
 31
0.0
  0
LINE
  5
199B
330
1A84
100
AcDbEntity
  8
0
100
AcDbLine
 10
5.067621
 20
-2.201179
 30
0.0
 11
5.067621
 21
-2.201179
 31
0.0
  0
LINE
  5
199C
330
1A84
100
AcDbEntity
  8
0
100
AcDbLine
 10
5.285118
 20
-2.400478
 30
0.0
 11
5.285118
 21
-2.400478
 31
0.0
  0
LINE
  5
199D
330
1A84
100
AcDbEntity
  8
0
100
AcDbLine
 10
5.533949
 20
-2.62849
 30
0.0
 11
5.533949
 21
-2.62849
 31
0.0
  0
LINE
  5
199E
330
1A84
100
AcDbEntity
  8
0
100
AcDbLine
 10
5.580029
 20
-2.670714
 30
0.0
 11
5.580029
 21
-2.670714
 31
0.0
  0
LINE
  5
199F
330
1A84
100
AcDbEntity
  8
0
100
AcDbLine
 10
5.797526
 20
-2.870013
 30
0.0
 11
5.797526
 21
-2.870013
 31
0.0
  0
LINE
  5
19A0
330
1A84
100
AcDbEntity
  8
0
100
AcDbLine
 10
6.046357
 20
-3.098025
 30
0.0
 11
6.046357
 21
-3.098025
 31
0.0
  0
LINE
  5
19A1
330
1A84
100
AcDbEntity
  8
0
100
AcDbLine
 10
6.092437
 20
-3.140249
 30
0.0
 11
6.092437
 21
-3.140249
 31
0.0
  0
LINE
  5
19A2
330
1A84
100
AcDbEntity
  8
0
100
AcDbLine
 10
3.723442
 20
-0.061395
 30
0.0
 11
3.723442
 21
-0.061395
 31
0.0
  0
LINE
  5
19A3
330
1A84
100
AcDbEntity
  8
0
100
AcDbLine
 10
3.769522
 20
-0.103619
 30
0.0
 11
3.769522
 21
-0.103619
 31
0.0
  0
LINE
  5
19A4
330
1A84
100
AcDbEntity
  8
0
100
AcDbLine
 10
4.23585
 20
-0.53093
 30
0.0
 11
4.23585
 21
-0.53093
 31
0.0
  0
LINE
  5
19A5
330
1A84
100
AcDbEntity
  8
0
100
AcDbLine
 10
4.28193
 20
-0.5731539999999999
 30
0.0
 11
4.28193
 21
-0.5731539999999999
 31
0.0
  0
LINE
  5
19A6
330
1A84
100
AcDbEntity
  8
0
100
AcDbLine
 10
4.499426000000001
 20
-0.772454
 30
0.0
 11
4.499426000000001
 21
-0.772454
 31
0.0
  0
LINE
  5
19A7
330
1A84
100
AcDbEntity
  8
0
100
AcDbLine
 10
4.748258
 20
-1.000465
 30
0.0
 11
4.748258
 21
-1.000465
 31
0.0
  0
LINE
  5
19A8
330
1A84
100
AcDbEntity
  8
0
100
AcDbLine
 10
4.794337000000001
 20
-1.04269
 30
0.0
 11
4.794337000000001
 21
-1.04269
 31
0.0
  0
LINE
  5
19A9
330
1A84
100
AcDbEntity
  8
0
100
AcDbLine
 10
5.011834
 20
-1.241989
 30
0.0
 11
5.011834
 21
-1.241989
 31
0.0
  0
LINE
  5
19AA
330
1A84
100
AcDbEntity
  8
0
100
AcDbLine
 10
5.260665
 20
-1.47
 30
0.0
 11
5.260665
 21
-1.47
 31
0.0
  0
LINE
  5
19AB
330
1A84
100
AcDbEntity
  8
0
100
AcDbLine
 10
5.306744999999999
 20
-1.512225
 30
0.0
 11
5.306744999999999
 21
-1.512225
 31
0.0
  0
LINE
  5
19AC
330
1A84
100
AcDbEntity
  8
0
100
AcDbLine
 10
5.524242
 20
-1.711524
 30
0.0
 11
5.524242
 21
-1.711524
 31
0.0
  0
LINE
  5
19AD
330
1A84
100
AcDbEntity
  8
0
100
AcDbLine
 10
5.773073
 20
-1.939536
 30
0.0
 11
5.773073
 21
-1.939536
 31
0.0
  0
LINE
  5
19AE
330
1A84
100
AcDbEntity
  8
0
100
AcDbLine
 10
5.819153
 20
-1.98176
 30
0.0
 11
5.819153
 21
-1.98176
 31
0.0
  0
LINE
  5
19AF
330
1A84
100
AcDbEntity
  8
0
100
AcDbLine
 10
6.03665
 20
-2.181059
 30
0.0
 11
6.03665
 21
-2.181059
 31
0.0
  0
LINE
  5
19B0
330
1A84
100
AcDbEntity
  8
0
100
AcDbLine
 10
6.285481
 20
-2.409071
 30
0.0
 11
6.285481
 21
-2.409071
 31
0.0
  0
LINE
  5
19B1
330
1A84
100
AcDbEntity
  8
0
100
AcDbLine
 10
2.996363
 20
-1.211291
 30
0.0
 11
2.996363
 21
-1.211291
 31
0.0
  0
LINE
  5
19B2
330
1A84
100
AcDbEntity
  8
0
100
AcDbLine
 10
3.245194
 20
-1.439303
 30
0.0
 11
3.245194
 21
-1.439303
 31
0.0
  0
LINE
  5
19B3
330
1A84
100
AcDbEntity
  8
0
100
AcDbLine
 10
3.291274
 20
-1.481527
 30
0.0
 11
3.291274
 21
-1.481527
 31
0.0
  0
LINE
  5
19B4
330
1A84
100
AcDbEntity
  8
0
100
AcDbLine
 10
3.508771
 20
-1.680826
 30
0.0
 11
3.508771
 21
-1.680826
 31
0.0
  0
LINE
  5
19B5
330
1A84
100
AcDbEntity
  8
0
100
AcDbLine
 10
3.757602
 20
-1.908838
 30
0.0
 11
3.757602
 21
-1.908838
 31
0.0
  0
LINE
  5
19B6
330
1A84
100
AcDbEntity
  8
0
100
AcDbLine
 10
3.803682
 20
-1.951063
 30
0.0
 11
3.803682
 21
-1.951063
 31
0.0
  0
LINE
  5
19B7
330
1A84
100
AcDbEntity
  8
0
100
AcDbLine
 10
4.021179
 20
-2.150362
 30
0.0
 11
4.021179
 21
-2.150362
 31
0.0
  0
LINE
  5
19B8
330
1A84
100
AcDbEntity
  8
0
100
AcDbLine
 10
4.27001
 20
-2.378373
 30
0.0
 11
4.27001
 21
-2.378373
 31
0.0
  0
LINE
  5
19B9
330
1A84
100
AcDbEntity
  8
0
100
AcDbLine
 10
4.31609
 20
-2.420598
 30
0.0
 11
4.31609
 21
-2.420598
 31
0.0
  0
LINE
  5
19BA
330
1A84
100
AcDbEntity
  8
0
100
AcDbLine
 10
4.533586
 20
-2.619897
 30
0.0
 11
4.533586
 21
-2.619897
 31
0.0
  0
LINE
  5
19BB
330
1A84
100
AcDbEntity
  8
0
100
AcDbLine
 10
4.782418
 20
-2.847909
 30
0.0
 11
4.782418
 21
-2.847909
 31
0.0
  0
LINE
  5
19BC
330
1A84
100
AcDbEntity
  8
0
100
AcDbLine
 10
4.828497000000001
 20
-2.890133
 30
0.0
 11
4.828497000000001
 21
-2.890133
 31
0.0
  0
LINE
  5
19BD
330
1A84
100
AcDbEntity
  8
0
100
AcDbLine
 10
5.045994
 20
-3.089432
 30
0.0
 11
5.045994
 21
-3.089432
 31
0.0
  0
LINE
  5
19BE
330
1A84
100
AcDbEntity
  8
0
100
AcDbLine
 10
5.294825
 20
-3.317444
 30
0.0
 11
5.294825
 21
-3.317444
 31
0.0
  0
LINE
  5
19BF
330
1A84
100
AcDbEntity
  8
0
100
AcDbLine
 10
5.340905
 20
-3.359668
 30
0.0
 11
5.340905
 21
-3.359668
 31
0.0
  0
LINE
  5
19C0
330
1A84
100
AcDbEntity
  8
0
100
AcDbLine
 10
3.00607
 20
-2.128257
 30
0.0
 11
3.00607
 21
-2.128257
 31
0.0
  0
LINE
  5
19C1
330
1A84
100
AcDbEntity
  8
0
100
AcDbLine
 10
3.05215
 20
-2.170481
 30
0.0
 11
3.05215
 21
-2.170481
 31
0.0
  0
LINE
  5
19C2
330
1A84
100
AcDbEntity
  8
0
100
AcDbLine
 10
3.269647
 20
-2.369781
 30
0.0
 11
3.269647
 21
-2.369781
 31
0.0
  0
LINE
  5
19C3
330
1A84
100
AcDbEntity
  8
0
100
AcDbLine
 10
3.518478
 20
-2.597792
 30
0.0
 11
3.518478
 21
-2.597792
 31
0.0
  0
LINE
  5
19C4
330
1A84
100
AcDbEntity
  8
0
100
AcDbLine
 10
3.564558
 20
-2.640017
 30
0.0
 11
3.564558
 21
-2.640017
 31
0.0
  0
LINE
  5
19C5
330
1A84
100
AcDbEntity
  8
0
100
AcDbLine
 10
3.782055
 20
-2.839316
 30
0.0
 11
3.782055
 21
-2.839316
 31
0.0
  0
LINE
  5
19C6
330
1A84
100
AcDbEntity
  8
0
100
AcDbLine
 10
4.030886
 20
-3.067327
 30
0.0
 11
4.030886
 21
-3.067327
 31
0.0
  0
LINE
  5
19C7
330
1A84
100
AcDbEntity
  8
0
100
AcDbLine
 10
4.076966000000001
 20
-3.109552
 30
0.0
 11
4.076966000000001
 21
-3.109552
 31
0.0
  0
LINE
  5
19C8
330
1A84
100
AcDbEntity
  8
0
100
AcDbLine
 10
4.294463
 20
-3.308851
 30
0.0
 11
4.294463
 21
-3.308851
 31
0.0
  0
LINE
  5
19C9
330
1A84
100
AcDbEntity
  8
0
100
AcDbLine
 10
4.543294
 20
-3.536863
 30
0.0
 11
4.543294
 21
-3.536863
 31
0.0
  0
LINE
  5
19CA
330
1A84
100
AcDbEntity
  8
0
100
AcDbLine
 10
4.589373
 20
-3.579087
 30
0.0
 11
4.589373
 21
-3.579087
 31
0.0
  0
LINE
  5
19CB
330
1A84
100
AcDbEntity
  8
0
100
AcDbLine
 10
4.80687
 20
-3.778386
 30
0.0
 11
4.80687
 21
-3.778386
 31
0.0
  0
LINE
  5
19CC
330
1A84
100
AcDbEntity
  8
0
100
AcDbLine
 10
5.055701
 20
-4.006398
 30
0.0
 11
5.055701
 21
-4.006398
 31
0.0
  0
LINE
  5
19CD
330
1A84
100
AcDbEntity
  8
0
100
AcDbLine
 10
3.279354
 20
-3.286746
 30
0.0
 11
3.279354
 21
-3.286746
 31
0.0
  0
LINE
  5
19CE
330
1A84
100
AcDbEntity
  8
0
100
AcDbLine
 10
3.325434
 20
-3.328971
 30
0.0
 11
3.325434
 21
-3.328971
 31
0.0
  0
LINE
  5
19CF
330
1A84
100
AcDbEntity
  8
0
100
AcDbLine
 10
3.542931
 20
-3.52827
 30
0.0
 11
3.542931
 21
-3.52827
 31
0.0
  0
LINE
  5
19D0
330
1A84
100
AcDbEntity
  8
0
100
AcDbLine
 10
3.791762
 20
-3.756282
 30
0.0
 11
3.791762
 21
-3.756282
 31
0.0
  0
LINE
  5
19D1
330
1A84
100
AcDbEntity
  8
0
100
AcDbLine
 10
3.837842
 20
-3.798506
 30
0.0
 11
3.837842
 21
-3.798506
 31
0.0
  0
LINE
  5
19D2
330
1A84
100
AcDbEntity
  8
0
100
AcDbLine
 10
4.055339
 20
-3.997805000000001
 30
0.0
 11
4.055339
 21
-3.997805000000001
 31
0.0
  0
LINE
  5
19D3
330
1A84
100
AcDbEntity
  8
0
100
AcDbLine
 10
4.30417
 20
-4.225817
 30
0.0
 11
4.30417
 21
-4.225817
 31
0.0
  0
LINE
  5
19D4
330
1A84
100
AcDbEntity
  8
0
100
AcDbLine
 10
4.35025
 20
-4.268041
 30
0.0
 11
4.35025
 21
-4.268041
 31
0.0
  0
LINE
  5
19D5
330
1A84
100
AcDbEntity
  8
0
100
AcDbLine
 10
4.567746
 20
-4.46734
 30
0.0
 11
4.567746
 21
-4.46734
 31
0.0
  0
LINE
  5
19E6
330
1A84
100
AcDbEntity
  8
0
100
AcDbLine
 10
6.303395
 20
-2.570086
 30
0.0
 11
6.303395
 21
-2.570086
 31
0.0
  0
LINE
  5
19E7
330
1A84
100
AcDbEntity
  8
0
100
AcDbLine
 10
6.319143
 20
-3.051792
 30
0.0
 11
6.319143
 21
-3.051792
 31
0.0
  0
LINE
  5
19E8
330
1A84
100
AcDbEntity
  8
0
100
AcDbLine
 10
6.405914
 20
-2.393084
 30
0.0
 11
6.405914
 21
-2.393084
 31
0.0
  0
LINE
  5
19E9
330
1A84
100
AcDbEntity
  8
0
100
AcDbLine
 10
6.296843
 20
-3.054731
 30
0.0
 11
6.296843
 21
-3.054731
 31
0.0
  0
LINE
  5
19EA
330
1A84
100
AcDbEntity
  8
0
100
AcDbLine
 10
6.331561
 20
-2.451295
 30
0.0
 11
6.331561
 21
-2.451295
 31
0.0
  0
LINE
  5
19EB
330
1A84
100
AcDbEntity
  8
0
100
AcDbLine
 10
6.371455999999999
 20
-3.170823
 30
0.0
 11
6.238437
 21
-4.239342
 31
0.0
  0
ARC
  5
19EC
330
1A84
100
AcDbEntity
  8
0
100
AcDbCircle
 10
5.562655
 20
-4.105053
 30
0.0
 40
0.6889960000000001
100
AcDbArc
 50
314.0484
 51
348.760799
  0
ARC
  5
19ED
330
1A84
100
AcDbEntity
  8
0
100
AcDbCircle
 10
5.460447
 20
-3.999393
 30
0.0
 40
0.836001
100
AcDbArc
 50
294.642658
 51
314.0484
  0
ARC
  5
19EE
330
1A84
100
AcDbEntity
  8
0
100
AcDbCircle
 10
5.909349
 20
-4.977953
 30
0.0
 40
0.24061
100
AcDbArc
 50
114.642658
 51
240.947686
  0
ARC
  5
19EF
330
1A84
100
AcDbEntity
  8
0
100
AcDbCircle
 10
28.534241
 20
35.750688
 30
0.0
 40
46.831468
100
AcDbArc
 50
240.947686
 51
241.335778
  0
ARC
  5
19F0
330
1A84
100
AcDbEntity
  8
0
100
AcDbCircle
 10
5.885774
 20
-5.67898
 30
0.0
 40
0.384742
100
AcDbArc
 50
253.975537
 51
61.335778
  0
LINE
  5
19F1
330
1A84
100
AcDbEntity
  8
0
100
AcDbLine
 10
6.209217
 20
-3.178885
 30
0.0
 11
6.080425
 21
-4.213454000000001
 31
0.0
  0
ARC
  5
19F2
330
1A84
100
AcDbEntity
  8
0
100
AcDbCircle
 10
5.562655
 20
-4.105053
 30
0.0
 40
0.528996
100
AcDbArc
 50
314.0484
 51
348.17527
  0
ARC
  5
19F3
330
1A84
100
AcDbEntity
  8
0
100
AcDbCircle
 10
5.460447
 20
-3.999393
 30
0.0
 40
0.6760010000000001
100
AcDbArc
 50
294.642658
 51
314.0484
  0
ARC
  5
19F4
330
1A84
100
AcDbEntity
  8
0
100
AcDbCircle
 10
5.909349
 20
-4.977953
 30
0.0
 40
0.40061
100
AcDbArc
 50
114.642658
 51
240.947686
  0
ARC
  5
19F5
330
1A84
100
AcDbEntity
  8
0
100
AcDbCircle
 10
28.534241
 20
35.750688
 30
0.0
 40
46.991468
100
AcDbArc
 50
240.947686
 51
241.335778
  0
ARC
  5
19F6
330
1A84
100
AcDbEntity
  8
0
100
AcDbCircle
 10
5.885774
 20
-5.67898
 30
0.0
 40
0.224742
100
AcDbArc
 50
241.798518
 51
61.335778
  0
LINE
  5
19F7
330
1A84
100
AcDbEntity
  8
0
  6
HIDDEN
100
AcDbLine
 10
6.620152
 20
-0.667917
 30
0.0
 11
6.620152
 21
-1.413062
 31
0.0
  0
LINE
  5
19F8
330
1A84
100
AcDbEntity
  8
0
  6
HIDDEN
100
AcDbLine
 10
6.620152
 20
-1.413062
 30
0.0
 11
6.371455999999999
 21
-3.170823
 31
0.0
  0
LINE
  5
19F9
330
1A84
100
AcDbEntity
  8
0
  6
HIDDEN
100
AcDbLine
 10
6.460152
 20
-1.114308
 30
0.0
 11
6.460152
 21
-1.4018
 31
0.0
  0
LINE
  5
19FA
330
1A84
100
AcDbEntity
  8
0
  6
HIDDEN
100
AcDbLine
 10
6.460152
 20
-1.4018
 30
0.0
 11
6.212846
 21
-3.149731
 31
0.0
  0
LINE
  5
19FB
330
1A84
100
AcDbEntity
  8
0
  6
HIDDEN
100
AcDbLine
 10
6.212846
 20
-3.149731
 30
0.0
 11
6.209217
 21
-3.178885
 31
0.0
  0
LINE
  5
19FC
330
1A84
100
AcDbEntity
  8
0
100
AcDbLine
 10
7.759263000000001
 20
-1.879796
 30
0.0
 11
7.883847
 21
-1.75857
 31
0.0
  0
LINE
  5
19FD
330
1A84
100
AcDbEntity
  8
0
100
AcDbLine
 10
7.759263000000001
 20
-1.80082
 30
0.0
 11
7.883847
 21
-1.674563
 31
0.0
  0
LINE
  5
19FE
330
1A84
100
AcDbEntity
  8
0
100
AcDbLine
 10
7.759263000000001
 20
-1.712431
 30
0.0
 11
7.883847
 21
-1.613916
 31
0.0
  0
LINE
  5
19FF
330
1A84
100
AcDbEntity
  8
0
100
AcDbLine
 10
7.759263000000001
 20
-1.657465
 30
0.0
 11
7.89092
 21
-1.519055
 31
0.0
  0
LINE
  5
1A00
330
1A84
100
AcDbEntity
  8
0
100
AcDbLine
 10
7.759263000000001
 20
-1.572253
 30
0.0
 11
7.883847
 21
-1.420043
 31
0.0
  0
LINE
  5
1A01
330
1A84
100
AcDbEntity
  8
0
100
AcDbLine
 10
7.200283
 20
-2.212376
 30
0.0
 11
7.302192
 21
-2.091311
 31
0.0
  0
LINE
  5
1A02
330
1A84
100
AcDbEntity
  8
0
100
AcDbLine
 10
7.302192
 20
-2.091311
 30
0.0
 11
7.375269
 21
-2.022092
 31
0.0
  0
LINE
  5
1A03
330
1A84
100
AcDbEntity
  8
0
100
AcDbLine
 10
7.375269
 20
-2.022092
 30
0.0
 11
7.443606
 21
-1.962023
 31
0.0
  0
LINE
  5
1A04
330
1A84
100
AcDbEntity
  8
0
100
AcDbLine
 10
7.443606
 20
-1.962023
 30
0.0
 11
7.503882000000001
 21
-1.900187
 31
0.0
  0
LINE
  5
1A05
330
1A84
100
AcDbEntity
  8
0
100
AcDbLine
 10
7.503882000000001
 20
-1.900187
 30
0.0
 11
7.515789
 21
-1.882713
 31
0.0
  0
LINE
  5
1A06
330
1A84
100
AcDbEntity
  8
0
100
AcDbLine
 10
7.108019000000001
 20
-2.218144
 30
0.0
 11
7.212619999999999
 21
-2.109945
 31
0.0
  0
LINE
  5
1A07
330
1A84
100
AcDbEntity
  8
0
100
AcDbLine
 10
7.212619999999999
 20
-2.109945
 30
0.0
 11
7.295118
 21
-2.020426
 31
0.0
  0
LINE
  5
1A08
330
1A84
100
AcDbEntity
  8
0
100
AcDbLine
 10
7.295118
 20
-2.020426
 30
0.0
 11
7.381829
 21
-1.903749
 31
0.0
  0
LINE
  5
1A09
330
1A84
100
AcDbEntity
  8
0
100
AcDbLine
 10
7.381829
 20
-1.903749
 30
0.0
 11
7.446667999999999
 21
-1.82676
 31
0.0
  0
LINE
  5
1A0A
330
1A84
100
AcDbEntity
  8
0
100
AcDbLine
 10
7.446667999999999
 20
-1.82676
 30
0.0
 11
7.515789
 21
-1.761134
 31
0.0
  0
LINE
  5
1A0B
330
1A84
100
AcDbEntity
  8
0
100
AcDbLine
 10
7.108019000000001
 20
-2.128046
 30
0.0
 11
7.197541999999999
 21
-2.039294
 31
0.0
  0
LINE
  5
1A0C
330
1A84
100
AcDbEntity
  8
0
100
AcDbLine
 10
7.197541999999999
 20
-2.039294
 30
0.0
 11
7.268267999999999
 21
-1.958128
 31
0.0
  0
LINE
  5
1A0D
330
1A84
100
AcDbEntity
  8
0
100
AcDbLine
 10
7.268267999999999
 20
-1.958128
 30
0.0
 11
7.344761999999999
 21
-1.868784
 31
0.0
  0
LINE
  5
1A0E
330
1A84
100
AcDbEntity
  8
0
100
AcDbLine
 10
7.344761999999999
 20
-1.868784
 30
0.0
 11
7.400005999999999
 21
-1.806093
 31
0.0
  0
LINE
  5
1A0F
330
1A84
100
AcDbEntity
  8
0
100
AcDbLine
 10
7.400005999999999
 20
-1.806093
 30
0.0
 11
7.448539
 21
-1.753612
 31
0.0
  0
LINE
  5
1A10
330
1A84
100
AcDbEntity
  8
0
100
AcDbLine
 10
7.448539
 20
-1.753612
 30
0.0
 11
7.496013000000001
 21
-1.699158
 31
0.0
  0
LINE
  5
1A11
330
1A84
100
AcDbEntity
  8
0
100
AcDbLine
 10
7.496013000000001
 20
-1.699158
 30
0.0
 11
7.515789
 21
-1.677507
 31
0.0
  0
LINE
  5
1A12
330
1A84
100
AcDbEntity
  8
0
100
AcDbLine
 10
7.108019000000001
 20
-2.038861
 30
0.0
 11
7.171663000000001
 21
-1.975966
 31
0.0
  0
LINE
  5
1A13
330
1A84
100
AcDbEntity
  8
0
100
AcDbLine
 10
7.171663000000001
 20
-1.975966
 30
0.0
 11
7.262405
 21
-1.860173
 31
0.0
  0
LINE
  5
1A14
330
1A84
100
AcDbEntity
  8
0
100
AcDbLine
 10
7.262405
 20
-1.860173
 30
0.0
 11
7.345019000000001
 21
-1.774655
 31
0.0
  0
LINE
  5
1A15
330
1A84
100
AcDbEntity
  8
0
100
AcDbLine
 10
7.345019000000001
 20
-1.774655
 30
0.0
 11
7.412422
 21
-1.682573
 31
0.0
  0
LINE
  5
1A16
330
1A84
100
AcDbEntity
  8
0
100
AcDbLine
 10
7.412422
 20
-1.682573
 30
0.0
 11
7.483732000000001
 21
-1.621416
 31
0.0
  0
LINE
  5
1A17
330
1A84
100
AcDbEntity
  8
0
100
AcDbLine
 10
7.483732000000001
 20
-1.621416
 30
0.0
 11
7.515789
 21
-1.590148
 31
0.0
  0
LINE
  5
1A18
330
1A84
100
AcDbEntity
  8
0
100
AcDbLine
 10
7.515789
 20
-1.590148
 30
0.0
 11
7.604006
 21
-1.476822
 31
0.0
  0
LINE
  5
1A19
330
1A84
100
AcDbEntity
  8
0
100
AcDbLine
 10
7.604006
 20
-1.476822
 30
0.0
 11
7.689912
 21
-1.458697
 31
0.0
  0
LINE
  5
1A1A
330
1A84
100
AcDbEntity
  8
0
100
AcDbLine
 10
7.108019000000001
 20
-1.951911
 30
0.0
 11
7.158185000000001
 21
-1.857206
 31
0.0
  0
LINE
  5
1A1B
330
1A84
100
AcDbEntity
  8
0
100
AcDbLine
 10
7.158185000000001
 20
-1.857206
 30
0.0
 11
7.234825
 21
-1.772864
 31
0.0
  0
LINE
  5
1A1C
330
1A84
100
AcDbEntity
  8
0
100
AcDbLine
 10
7.234825
 20
-1.772864
 30
0.0
 11
7.304251
 21
-1.715768
 31
0.0
  0
LINE
  5
1A1D
330
1A84
100
AcDbEntity
  8
0
100
AcDbLine
 10
7.304251
 20
-1.715768
 30
0.0
 11
7.372354
 21
-1.647696
 31
0.0
  0
LINE
  5
1A1E
330
1A84
100
AcDbEntity
  8
0
100
AcDbLine
 10
7.372354
 20
-1.647696
 30
0.0
 11
7.435010000000001
 21
-1.598807
 31
0.0
  0
LINE
  5
1A1F
330
1A84
100
AcDbEntity
  8
0
100
AcDbLine
 10
7.435010000000001
 20
-1.598807
 30
0.0
 11
7.468416
 21
-1.551048
 31
0.0
  0
LINE
  5
1A20
330
1A84
100
AcDbEntity
  8
0
100
AcDbLine
 10
7.108019000000001
 20
-1.805351
 30
0.0
 11
7.180109
 21
-1.716386
 31
0.0
  0
LINE
  5
1A21
330
1A84
100
AcDbEntity
  8
0
100
AcDbLine
 10
7.180109
 20
-1.716386
 30
0.0
 11
7.208249
 21
-1.670477
 31
0.0
  0
LINE
  5
1A22
330
1A84
100
AcDbEntity
  8
0
100
AcDbLine
 10
7.604006
 20
-1.592581
 30
0.0
 11
7.759263000000001
 21
-1.555509
 31
0.0
  0
LINE
  5
1A23
330
1A84
100
AcDbEntity
  8
0
100
AcDbLine
 10
7.515789
 20
-1.651846
 30
0.0
 11
7.604006
 21
-1.549708
 31
0.0
  0
LINE
  5
1A24
330
1A84
100
AcDbEntity
  8
0
100
AcDbLine
 10
7.604006
 20
-1.923783
 30
0.0
 11
7.759263000000001
 21
-1.886945
 31
0.0
  0
LINE
  5
1A25
330
1A84
100
AcDbEntity
  8
0
100
AcDbLine
 10
7.604006
 20
-1.858784
 30
0.0
 11
7.759263000000001
 21
-1.828773
 31
0.0
  0
LINE
  5
1A26
330
1A84
100
AcDbEntity
  8
0
100
AcDbLine
 10
7.604006
 20
-1.809938
 30
0.0
 11
7.759263000000001
 21
-1.786726
 31
0.0
  0
LINE
  5
1A27
330
1A84
100
AcDbEntity
  8
0
100
AcDbLine
 10
7.604006
 20
-1.752029
 30
0.0
 11
7.759263000000001
 21
-1.716695
 31
0.0
  0
LINE
  5
1A28
330
1A84
100
AcDbEntity
  8
0
100
AcDbLine
 10
7.604006
 20
-1.673528
 30
0.0
 11
7.759263000000001
 21
-1.639808
 31
0.0
  0
LINE
  5
1A29
330
1A84
100
AcDbEntity
  8
0
100
AcDbLine
 10
7.515789
 20
-1.935531
 30
0.0
 11
7.604006
 21
-1.838038
 31
0.0
  0
LINE
  5
1A2A
330
1A84
100
AcDbEntity
  8
0
100
AcDbLine
 10
7.515789
 20
-1.981697
 30
0.0
 11
7.604006
 21
-1.886884
 31
0.0
  0
LINE
  5
1A2B
330
1A84
100
AcDbEntity
  8
0
100
AcDbLine
 10
7.421338
 20
-2.104236
 30
0.0
 11
7.460473
 21
-2.059657
 31
0.0
  0
LINE
  5
1A2C
330
1A84
100
AcDbEntity
  8
0
100
AcDbLine
 10
7.460473
 20
-2.059657
 30
0.0
 11
7.517010000000001
 21
-2.006942
 31
0.0
  0
LINE
  5
1A2D
330
1A84
100
AcDbEntity
  8
0
100
AcDbLine
 10
7.517010000000001
 20
-2.006942
 30
0.0
 11
7.517010000000001
 21
-2.006942
 31
0.0
  0
LINE
  5
1A2E
330
1A84
100
AcDbEntity
  8
0
100
AcDbLine
 10
7.515789
 20
-1.869503
 30
0.0
 11
7.604006
 21
-1.780633
 31
0.0
  0
LINE
  5
1A2F
330
1A84
100
AcDbEntity
  8
0
100
AcDbLine
 10
7.515789
 20
-1.809856
 30
0.0
 11
7.604006
 21
-1.71784
 31
0.0
  0
LINE
  5
1A30
330
1A84
100
AcDbEntity
  8
0
100
AcDbLine
 10
7.515789
 20
-1.725382
 30
0.0
 11
7.604006
 21
-1.633978
 31
0.0
  0
LINE
  5
1A31
330
1A84
100
AcDbEntity
  8
0
100
AcDbLine
 10
7.660564999999999
 20
-1.974088
 30
0.0
 11
7.759263000000001
 21
-1.952769
 31
0.0
  0
LINE
  5
1A32
330
1A84
100
AcDbEntity
  8
0
100
AcDbLine
 10
7.604006
 20
-1.531613
 30
0.0
 11
7.759263000000001
 21
-1.498484
 31
0.0
  0
LINE
  5
1A33
330
1A84
100
AcDbEntity
  8
0
100
AcDbLine
 10
8.422202
 20
-1.836343
 30
0.0
 11
8.408930999999999
 21
-1.964895
 31
0.0
  0
LINE
  5
1A34
330
1A84
100
AcDbEntity
  8
0
100
AcDbLine
 10
8.408930999999999
 20
-1.964895
 30
0.0
 11
8.378149000000001
 21
-2.110979
 31
0.0
  0
LINE
  5
1A35
330
1A84
100
AcDbEntity
  8
0
100
AcDbLine
 10
8.378149000000001
 20
-2.110979
 30
0.0
 11
8.335327000000001
 21
-2.153282
 31
0.0
  0
LINE
  5
1A36
330
1A84
100
AcDbEntity
  8
0
100
AcDbLine
 10
8.335327000000001
 20
-2.153282
 30
0.0
 11
8.267623
 21
-2.215315
 31
0.0
  0
LINE
  5
1A37
330
1A84
100
AcDbEntity
  8
0
100
AcDbLine
 10
7.883847
 20
-1.743447
 30
0.0
 11
7.998152
 21
-1.647458
 31
0.0
  0
LINE
  5
1A38
330
1A84
100
AcDbEntity
  8
0
100
AcDbLine
 10
7.998152
 20
-1.647458
 30
0.0
 11
8.089703999999999
 21
-1.593721
 31
0.0
  0
LINE
  5
1A39
330
1A84
100
AcDbEntity
  8
0
100
AcDbLine
 10
8.089703999999999
 20
-1.593721
 30
0.0
 11
8.203576
 21
-1.542109
 31
0.0
  0
LINE
  5
1A3A
330
1A84
100
AcDbEntity
  8
0
100
AcDbLine
 10
7.883847
 20
-1.662703
 30
0.0
 11
7.952907000000001
 21
-1.606724
 31
0.0
  0
LINE
  5
1A3B
330
1A84
100
AcDbEntity
  8
0
100
AcDbLine
 10
7.952907000000001
 20
-1.606724
 30
0.0
 11
8.005821000000001
 21
-1.567131
 31
0.0
  0
LINE
  5
1A3C
330
1A84
100
AcDbEntity
  8
0
100
AcDbLine
 10
8.005821000000001
 20
-1.567131
 30
0.0
 11
8.068477
 21
-1.518242
 31
0.0
  0
LINE
  5
1A3D
330
1A84
100
AcDbEntity
  8
0
100
AcDbLine
 10
8.068477
 20
-1.518242
 30
0.0
 11
8.115359
 21
-1.477824
 31
0.0
  0
LINE
  5
1A3E
330
1A84
100
AcDbEntity
  8
0
100
AcDbLine
 10
8.115359
 20
-1.477824
 30
0.0
 11
8.203576
 21
-1.429293
 31
0.0
  0
LINE
  5
1A3F
330
1A84
100
AcDbEntity
  8
0
100
AcDbLine
 10
7.883847
 20
-1.623036
 30
0.0
 11
7.947328999999999
 21
-1.552817
 31
0.0
  0
LINE
  5
1A40
330
1A84
100
AcDbEntity
  8
0
100
AcDbLine
 10
7.947328999999999
 20
-1.552817
 30
0.0
 11
8.016550000000001
 21
-1.488717
 31
0.0
  0
LINE
  5
1A41
330
1A84
100
AcDbEntity
  8
0
100
AcDbLine
 10
8.016550000000001
 20
-1.488717
 30
0.0
 11
8.082564999999999
 21
-1.417702
 31
0.0
  0
LINE
  5
1A42
330
1A84
100
AcDbEntity
  8
0
100
AcDbLine
 10
8.082564999999999
 20
-1.417702
 30
0.0
 11
8.135275
 21
-1.371106
 31
0.0
  0
LINE
  5
1A43
330
1A84
100
AcDbEntity
  8
0
100
AcDbLine
 10
8.135275
 20
-1.371106
 30
0.0
 11
8.203576
 21
-1.342197
 31
0.0
  0
LINE
  5
1A44
330
1A84
100
AcDbEntity
  8
0
100
AcDbLine
 10
7.883847
 20
-1.823182
 30
0.0
 11
7.984414
 21
-1.760003
 31
0.0
  0
LINE
  5
1A45
330
1A84
100
AcDbEntity
  8
0
100
AcDbLine
 10
7.984414
 20
-1.760003
 30
0.0
 11
8.05419
 21
-1.714911
 31
0.0
  0
LINE
  5
1A46
330
1A84
100
AcDbEntity
  8
0
100
AcDbLine
 10
8.05419
 20
-1.714911
 30
0.0
 11
8.116400000000001
 21
-1.68506
 31
0.0
  0
LINE
  5
1A47
330
1A84
100
AcDbEntity
  8
0
100
AcDbLine
 10
8.116400000000001
 20
-1.68506
 30
0.0
 11
8.203576
 21
-1.652186
 31
0.0
  0
LINE
  5
1A48
330
1A84
100
AcDbEntity
  8
0
100
AcDbLine
 10
7.883847
 20
-1.526673
 30
0.0
 11
7.968924
 21
-1.435036
 31
0.0
  0
LINE
  5
1A49
330
1A84
100
AcDbEntity
  8
0
100
AcDbLine
 10
7.968924
 20
-1.435036
 30
0.0
 11
8.045498
 21
-1.382738
 31
0.0
  0
LINE
  5
1A4A
330
1A84
100
AcDbEntity
  8
0
100
AcDbLine
 10
8.045498
 20
-1.382738
 30
0.0
 11
8.10895
 21
-1.326817
 31
0.0
  0
LINE
  5
1A4B
330
1A84
100
AcDbEntity
  8
0
100
AcDbLine
 10
8.10895
 20
-1.326817
 30
0.0
 11
8.203576
 21
-1.271049
 31
0.0
  0
LINE
  5
1A4C
330
1A84
100
AcDbEntity
  8
0
100
AcDbLine
 10
7.883847
 20
-1.477798
 30
0.0
 11
7.939064999999999
 21
-1.40687
 31
0.0
  0
LINE
  5
1A4D
330
1A84
100
AcDbEntity
  8
0
100
AcDbLine
 10
7.939064999999999
 20
-1.40687
 30
0.0
 11
7.995455000000001
 21
-1.349153
 31
0.0
  0
LINE
  5
1A4E
330
1A84
100
AcDbEntity
  8
0
100
AcDbLine
 10
7.995455000000001
 20
-1.349153
 30
0.0
 11
8.063908999999999
 21
-1.293086
 31
0.0
  0
LINE
  5
1A4F
330
1A84
100
AcDbEntity
  8
0
100
AcDbLine
 10
8.063908999999999
 20
-1.293086
 30
0.0
 11
8.142998
 21
-1.24138
 31
0.0
  0
LINE
  5
1A50
330
1A84
100
AcDbEntity
  8
0
100
AcDbLine
 10
5.976046
 20
3.139117
 30
0.0
 11
5.980978
 21
3.167167
 31
0.0
  0
LINE
  5
1A51
330
1A84
100
AcDbEntity
  8
0
100
AcDbLine
 10
5.980978
 20
3.167167
 30
0.0
 11
6.229046
 21
3.348755
 31
0.0
  0
LINE
  5
1A52
330
1A84
100
AcDbEntity
  8
0
100
AcDbLine
 10
5.794152
 20
3.127635
 30
0.0
 11
5.846003
 21
3.182673
 31
0.0
  0
LINE
  5
1A53
330
1A84
100
AcDbEntity
  8
0
100
AcDbLine
 10
5.846003
 20
3.182673
 30
0.0
 11
6.054946
 21
3.368756
 31
0.0
  0
LINE
  5
1A54
330
1A84
100
AcDbEntity
  8
0
100
AcDbLine
 10
5.399655
 20
3.145736
 30
0.0
 11
5.503172
 21
3.222058
 31
0.0
  0
LINE
  5
1A55
330
1A84
100
AcDbEntity
  8
0
100
AcDbLine
 10
5.503172
 20
3.222058
 30
0.0
 11
5.713394999999999
 21
3.407994
 31
0.0
  0
LINE
  5
1A56
330
1A84
100
AcDbEntity
  8
0
100
AcDbLine
 10
5.387026000000001
 20
3.235401
 30
0.0
 11
5.57854
 21
3.423486
 31
0.0
  0
LINE
  5
1A57
330
1A84
100
AcDbEntity
  8
0
100
AcDbLine
 10
5.231198
 20
3.165089
 30
0.0
 11
5.348372
 21
3.235589
 31
0.0
  0
LINE
  5
1A58
330
1A84
100
AcDbEntity
  8
0
100
AcDbLine
 10
5.089869
 20
3.181325
 30
0.0
 11
5.158593
 21
3.223609
 31
0.0
  0
LINE
  5
1A59
330
1A84
100
AcDbEntity
  8
0
100
AcDbLine
 10
5.586964
 20
3.124218
 30
0.0
 11
5.677819
 21
3.201995
 31
0.0
  0
LINE
  5
1A5A
330
1A84
100
AcDbEntity
  8
0
100
AcDbLine
 10
5.677819
 20
3.201995
 30
0.0
 11
5.884958999999999
 21
3.388284
 31
0.0
  0
LINE
  5
1A5B
330
1A84
100
AcDbEntity
  8
0
100
AcDbLine
 10
6.303195
 20
3.206928
 30
0.0
 11
6.481677
 21
3.226206
 31
0.0
  0
LINE
  5
1A5C
330
1A84
100
AcDbEntity
  8
0
100
AcDbLine
 10
6.333764
 20
3.132968
 30
0.0
 11
6.349207
 21
3.174541
 31
0.0
  0
LINE
  5
1A5D
330
1A84
100
AcDbEntity
  8
0
100
AcDbLine
 10
6.349207
 20
3.174541
 30
0.0
 11
6.631306
 21
3.209016
 31
0.0
  0
LINE
  5
1A5F
330
1A84
100
AcDbEntity
  8
0
100
AcDbLine
 10
3.457985
 20
-0.28703
 30
0.0
 11
3.457985
 21
-0.28703
 31
0.0
  0
LINE
  5
1A60
330
1A84
100
AcDbEntity
  8
0
100
AcDbLine
 10
3.448332
 20
-0.328845
 30
0.0
 11
3.448332
 21
-0.328845
 31
0.0
  0
LINE
  5
1A61
330
1A84
100
AcDbEntity
  8
0
100
AcDbLine
 10
3.512183
 20
-0.467085
 30
0.0
 11
3.512183
 21
-0.467085
 31
0.0
  0
LINE
  5
1A62
330
1A84
100
AcDbEntity
  8
0
100
AcDbLine
 10
3.603681
 20
-0.277995
 30
0.0
 11
3.603681
 21
-0.277995
 31
0.0
  0
LINE
  5
1A63
330
1A84
100
AcDbEntity
  8
0
100
AcDbLine
 10
3.496613
 20
-0.433926
 30
0.0
 11
3.496613
 21
-0.433926
 31
0.0
  0
LINE
  5
1A64
330
1A84
100
AcDbEntity
  8
0
100
AcDbLine
 10
3.450533
 20
-0.391701
 30
0.0
 11
3.450533
 21
-0.391701
 31
0.0
  0
LINE
  5
1A65
330
1A84
100
AcDbEntity
  8
0
100
AcDbLine
 10
3.452545
 20
-0.476408
 30
0.0
 11
3.452545
 21
-0.476408
 31
0.0
  0
ARC
  5
1A6A
330
1A84
100
AcDbEntity
  8
0
100
AcDbCircle
 10
6.099103
 20
-0.621374
 30
0.0
 40
0.125148
100
AcDbArc
 50
225.017198
 51
270.241937
  0
TEXT
  5
1A6B
330
1A84
100
AcDbEntity
  8
0
100
AcDbText
 10
6.682919
 20
-4.829823
 30
0.0
 40
0.22
  1
Simpson Strong-Tie
100
AcDbText
  0
TEXT
  5
1A6C
330
1A84
100
AcDbEntity
  8
0
100
AcDbText
 10
6.682919
 20
-5.186014
 30
0.0
 40
0.22
  1
HD5A with SSTB
100
AcDbText
  0
ENDSEC
  0
SECTION
  2
OBJECTS
  0
DICTIONARY
  5
1A78
330
0
100
AcDbDictionary
281
     1
  3
ACAD_COLOR
350
1AAD
  3
ACAD_GROUP
350
1A79
  3
ACAD_LAYOUT
350
1A81
  3
ACAD_MATERIAL
350
1AAF
  3
ACAD_MLINESTYLE
350
1A7E
  3
ACAD_PLOTSETTINGS
350
1A80
  3
ACAD_PLOTSTYLENAME
350
1A7A
  3
ACDBHEADERROUNDTRIPXREC
350
1AAC
  0
DICTIONARY
  5
1AAD
102
{ACAD_REACTORS
330
1A78
102
}
330
1A78
100
AcDbDictionary
281
     1
  0
DICTIONARY
  5
1A79
102
{ACAD_REACTORS
330
1A78
102
}
330
1A78
100
AcDbDictionary
281
     1
  0
DICTIONARY
  5
1A81
102
{ACAD_REACTORS
330
1A78
102
}
330
1A78
100
AcDbDictionary
281
     1
  3
Layout1
350
1A83
  3
Model
350
1A85
  0
DICTIONARY
  5
1AAF
102
{ACAD_REACTORS
330
1A78
102
}
330
1A78
100
AcDbDictionary
281
     1
  0
DICTIONARY
  5
1A7E
102
{ACAD_REACTORS
330
1A78
102
}
330
1A78
100
AcDbDictionary
281
     1
  3
Standard
350
1A7F
  0
DICTIONARY
  5
1A80
102
{ACAD_REACTORS
330
1A78
102
}
330
1A78
100
AcDbDictionary
281
     1
  0
ACDBDICTIONARYWDFLT
  5
1A7A
102
{ACAD_REACTORS
330
1A78
102
}
330
1A78
100
AcDbDictionary
281
     1
  3
Normal
350
1A7B
100
AcDbDictionaryWithDefault
340
1A7B
  0
DICTIONARY
  5
1AAC
102
{ACAD_REACTORS
330
1A78
102
}
330
1A78
100
AcDbDictionary
281
     1
  3
COLORDICT
350
1AAE
  3
MATERIALDICT
350
1AB0
  0
LAYOUT
  5
1A83
102
{ACAD_REACTORS
330
1A81
102
}
102
{ACAD_XDICTIONARY
360
1AB1
102
}
330
1A81
100
AcDbPlotSettings
  1

  2

  4

  6

 40
0.0
 41
0.0
 42
0.0
 43
0.0
 44
0.0
 45
0.0
 46
0.0
 47
0.0
 48
0.0
 49
0.0
140
0.0
141
0.0
142
1.0
143
1.0
 70
   688
 72
     0
 73
     0
 74
     5
  7

 75
    16
147
1.0
148
0.0
149
0.0
100
AcDbLayout
  1
Layout1
 70
     1
 71
     1
 10
0.0
 20
0.0
 11
12.0
 21
9.0
 12
0.0
 22
0.0
 32
0.0
 14
1.000000000000000E+20
 24
1.000000000000000E+20
 34
1.000000000000000E+20
 15
-1.000000000000000E+20
 25
-1.000000000000000E+20
 35
-1.000000000000000E+20
146
0.0
 13
0.0
 23
0.0
 33
0.0
 16
1.0
 26
0.0
 36
0.0
 17
0.0
 27
1.0
 37
0.0
 76
     0
330
1A82
  0
LAYOUT
  5
1A85
102
{ACAD_REACTORS
330
1A81
102
}
102
{ACAD_XDICTIONARY
360
1AB3
102
}
330
1A81
100
AcDbPlotSettings
  1

  2

  4

  6

 40
0.0
 41
0.0
 42
0.0
 43
0.0
 44
0.0
 45
0.0
 46
0.0
 47
0.0
 48
0.0
 49
0.0
140
0.0
141
0.0
142
1.0
143
1.0
 70
  1712
 72
     0
 73
     0
 74
     0
  7

 75
     0
147
1.0
148
0.0
149
0.0
100
AcDbLayout
  1
Model
 70
     1
 71
     0
 10
0.0
 20
0.0
 11
0.0
 21
0.0
 12
0.0
 22
0.0
 32
0.0
 14
0.0
 24
0.0
 34
0.0
 15
0.0
 25
0.0
 35
0.0
146
0.0
 13
0.0
 23
0.0
 33
0.0
 16
1.0
 26
0.0
 36
0.0
 17
0.0
 27
1.0
 37
0.0
 76
     0
330
1A84
  0
MLINESTYLE
  5
1A7F
102
{ACAD_REACTORS
330
1A7E
102
}
330
1A7E
100
AcDbMlineStyle
  2
Standard
 70
     0
  3

 62
   256
 51
90.0
 52
90.0
 71
     2
 49
0.5
 62
   256
  6
BYLAYER
 49
-0.5
 62
   256
  6
BYLAYER
  0
ACDBPLACEHOLDER
  5
1A7B
102
{ACAD_REACTORS
330
1A7A
102
}
330
1A7A
  0
XRECORD
  5
1AAE
102
{ACAD_REACTORS
330
1AAC
102
}
330
1AAC
100
AcDbXrecord
340
1AAD
  0
XRECORD
  5
1AB0
102
{ACAD_REACTORS
330
1AAC
102
}
330
1AAC
100
AcDbXrecord
340
1AAF
  0
DICTIONARY
  5
1AB1
330
1A83
100
AcDbDictionary
280
     1
281
     1
  3
ACAD_XREC_ROUNDTRIP
360
1AB2
  0
DICTIONARY
  5
1AB3
330
1A85
100
AcDbDictionary
280
     1
281
     1
  3
ACAD_XREC_ROUNDTRIP
360
1AB4
  0
XRECORD
  5
1AB2
102
{ACAD_REACTORS
330
1AB1
102
}
330
1AB1
100
AcDbXrecord
102
SHADEPLOT
 70
     0
102
SHADEPLOTRESLEVEL
 70
     0
102
SHADEPLOTCUSTOMDPI
 70
     0
  0
XRECORD
  5
1AB4
102
{ACAD_REACTORS
330
1AB3
102
}
330
1AB3
100
AcDbXrecord
102
SHADEPLOT
 70
     0
102
SHADEPLOTRESLEVEL
 70
     0
102
SHADEPLOTCUSTOMDPI
 70
     0
  0
ENDSEC
  0
EOF
