  0
SECTION
  2
HEADER
  9
$ACADVER
  1
AC1015
  9
$ACADMAINTVER
 70
     6
  9
$DWGCODEPAGE
  3
ISO8859-1
  9
$INSBASE
 10
0.0
 20
0.0
 30
0.0
  9
$EXTMIN
 10
1.600353
 20
0.654316
 30
0.0
  9
$EXTMAX
 10
8.329855952380957
 20
9.475769999999999
 30
0.0
  9
$LIMMIN
 10
0.0
 20
0.0
  9
$LIMMAX
 10
8.5
 20
11.0
  9
$ORTHOMODE
 70
     0
  9
$REGENMODE
 70
     0
  9
$FILLMODE
 70
     1
  9
$QTEXTMODE
 70
     0
  9
$MIRRTEXT
 70
     1
  9
$LTSCALE
 40
0.25
  9
$ATTMODE
 70
     1
  9
$TEXTSIZE
 40
0.22
  9
$TRACEWID
 40
0.05
  9
$TEXTSTYLE
  7
STANDARD
  9
$CLAYER
  8
0
  9
$CELTYPE
  6
ByLayer
  9
$CECOLOR
 62
   256
  9
$CELTSCALE
 40
1.0
  9
$DISPSILH
 70
     0
  9
$DIMSCALE
 40
1.0
  9
$DIMASZ
 40
0.2
  9
$DIMEXO
 40
0.0625
  9
$DIMDLI
 40
0.38
  9
$DIMRND
 40
0.0
  9
$DIMDLE
 40
0.0
  9
$DIMEXE
 40
0.075
  9
$DIMTP
 40
0.0
  9
$DIMTM
 40
0.0
  9
$DIMTXT
 40
0.1
  9
$DIMCEN
 40
0.09
  9
$DIMTSZ
 40
0.0
  9
$DIMTOL
 70
     0
  9
$DIMLIM
 70
     0
  9
$DIMTIH
 70
     0
  9
$DIMTOH
 70
     0
  9
$DIMSE1
 70
     0
  9
$DIMSE2
 70
     0
  9
$DIMTAD
 70
     1
  9
$DIMZIN
 70
     0
  9
$DIMBLK
  1

  9
$DIMASO
 70
     0
  9
$DIMSHO
 70
     1
  9
$DIMPOST
  1

  9
$DIMAPOST
  1

  9
$DIMALT
 70
     0
  9
$DIMALTD
 70
     2
  9
$DIMALTF
 40
25.4
  9
$DIMLFAC
 40
1.0
  9
$DIMTOFL
 70
     0
  9
$DIMTVP
 40
0.0
  9
$DIMTIX
 70
     0
  9
$DIMSOXD
 70
     0
  9
$DIMSAH
 70
     0
  9
$DIMBLK1
  1

  9
$DIMBLK2
  1

  9
$DIMSTYLE
  2
Standard
  9
$DIMCLRD
 70
     0
  9
$DIMCLRE
 70
     0
  9
$DIMCLRT
 70
     0
  9
$DIMTFAC
 40
1.0
  9
$DIMGAP
 40
0.09
  9
$DIMJUST
 70
     0
  9
$DIMSD1
 70
     0
  9
$DIMSD2
 70
     0
  9
$DIMTOLJ
 70
     1
  9
$DIMTZIN
 70
     0
  9
$DIMALTZ
 70
     0
  9
$DIMALTTZ
 70
     0
  9
$DIMUPT
 70
     0
  9
$DIMDEC
 70
     4
  9
$DIMTDEC
 70
     4
  9
$DIMALTU
 70
     2
  9
$DIMALTTD
 70
     2
  9
$DIMTXSTY
  7
STANDARD
  9
$DIMAUNIT
 70
     0
  9
$DIMADEC
 70
     0
  9
$DIMALTRND
 40
0.0
  9
$DIMAZIN
 70
     0
  9
$DIMDSEP
 70
    46
  9
$DIMATFIT
 70
     3
  9
$DIMFRAC
 70
     0
  9
$DIMLDRBLK
  1

  9
$DIMLUNIT
 70
     2
  9
$DIMLWD
 70
    -2
  9
$DIMLWE
 70
    -2
  9
$DIMTMOVE
 70
     0
  9
$LUNITS
 70
     2
  9
$LUPREC
 70
     4
  9
$SKETCHINC
 40
0.1
  9
$FILLETRAD
 40
0.0
  9
$AUNITS
 70
     0
  9
$AUPREC
 70
     0
  9
$MENU
  1
acad
  9
$ELEVATION
 40
0.0
  9
$PELEVATION
 40
0.0
  9
$THICKNESS
 40
0.0
  9
$LIMCHECK
 70
     0
  9
$CHAMFERA
 40
0.0
  9
$CHAMFERB
 40
0.0
  9
$CHAMFERC
 40
1.0
  9
$CHAMFERD
 40
0.0
  9
$SKPOLY
 70
     0
  9
$TDCREATE
 40
2453955.561683982
  9
$TDUCREATE
 40
2453955.895017315
  9
$TDUPDATE
 40
2453955.60335066
  9
$TDUUPDATE
 40
2453955.895017326
  9
$TDINDWG
 40
0.0000000116
  9
$TDUSRTIMER
 40
0.0000000116
  9
$USRTIMER
 70
     1
  9
$ANGBASE
 50
0.0
  9
$ANGDIR
 70
     0
  9
$PDMODE
 70
     0
  9
$PDSIZE
 40
0.0
  9
$PLINEWID
 40
0.0
  9
$SPLFRAME
 70
     0
  9
$SPLINETYPE
 70
     6
  9
$SPLINESEGS
 70
     8
  9
$HANDSEED
  5
DCC
  9
$SURFTAB1
 70
     6
  9
$SURFTAB2
 70
     6
  9
$SURFTYPE
 70
     6
  9
$SURFU
 70
     6
  9
$SURFV
 70
     6
  9
$UCSBASE
  2

  9
$UCSNAME
  2

  9
$UCSORG
 10
0.0
 20
0.0
 30
0.0
  9
$UCSXDIR
 10
1.0
 20
0.0
 30
0.0
  9
$UCSYDIR
 10
0.0
 20
1.0
 30
0.0
  9
$UCSORTHOREF
  2

  9
$UCSORTHOVIEW
 70
     0
  9
$UCSORGTOP
 10
0.0
 20
0.0
 30
0.0
  9
$UCSORGBOTTOM
 10
0.0
 20
0.0
 30
0.0
  9
$UCSORGLEFT
 10
0.0
 20
0.0
 30
0.0
  9
$UCSORGRIGHT
 10
0.0
 20
0.0
 30
0.0
  9
$UCSORGFRONT
 10
0.0
 20
0.0
 30
0.0
  9
$UCSORGBACK
 10
0.0
 20
0.0
 30
0.0
  9
$PUCSBASE
  2

  9
$PUCSNAME
  2

  9
$PUCSORG
 10
0.0
 20
0.0
 30
0.0
  9
$PUCSXDIR
 10
1.0
 20
0.0
 30
0.0
  9
$PUCSYDIR
 10
0.0
 20
1.0
 30
0.0
  9
$PUCSORTHOREF
  2

  9
$PUCSORTHOVIEW
 70
     0
  9
$PUCSORGTOP
 10
0.0
 20
0.0
 30
0.0
  9
$PUCSORGBOTTOM
 10
0.0
 20
0.0
 30
0.0
  9
$PUCSORGLEFT
 10
0.0
 20
0.0
 30
0.0
  9
$PUCSORGRIGHT
 10
0.0
 20
0.0
 30
0.0
  9
$PUCSORGFRONT
 10
0.0
 20
0.0
 30
0.0
  9
$PUCSORGBACK
 10
0.0
 20
0.0
 30
0.0
  9
$USERI1
 70
     0
  9
$USERI2
 70
     0
  9
$USERI3
 70
     0
  9
$USERI4
 70
     0
  9
$USERI5
 70
     0
  9
$USERR1
 40
0.0
  9
$USERR2
 40
0.0
  9
$USERR3
 40
0.0
  9
$USERR4
 40
0.0
  9
$USERR5
 40
0.0
  9
$WORLDVIEW
 70
     1
  9
$SHADEDGE
 70
     3
  9
$SHADEDIF
 70
    70
  9
$TILEMODE
 70
     1
  9
$MAXACTVP
 70
    16
  9
$PINSBASE
 10
0.0
 20
0.0
 30
0.0
  9
$PLIMCHECK
 70
     0
  9
$PEXTMIN
 10
1.000000000000000E+20
 20
1.000000000000000E+20
 30
1.000000000000000E+20
  9
$PEXTMAX
 10
-1.000000000000000E+20
 20
-1.000000000000000E+20
 30
-1.000000000000000E+20
  9
$PLIMMIN
 10
0.0
 20
0.0
  9
$PLIMMAX
 10
12.0
 20
9.0
  9
$UNITMODE
 70
     0
  9
$VISRETAIN
 70
     0
  9
$PLINEGEN
 70
     0
  9
$PSLTSCALE
 70
     1
  9
$TREEDEPTH
 70
  3020
  9
$CMLSTYLE
  2
Standard
  9
$CMLJUST
 70
     0
  9
$CMLSCALE
 40
1.0
  9
$PROXYGRAPHICS
 70
     1
  9
$MEASUREMENT
 70
     0
  9
$CELWEIGHT
370
    -1
  9
$ENDCAPS
280
     0
  9
$JOINSTYLE
280
     0
  9
$LWDISPLAY
290
     0
  9
$INSUNITS
 70
     1
  9
$HYPERLINKBASE
  1

  9
$STYLESHEET
  1

  9
$XEDIT
290
     1
  9
$CEPSNTYPE
380
     0
  9
$PSTYLEMODE
290
     0
  9
$FINGERPRINTGUID
  2
{FAEB1C30-E019-11D5-929B-00C0DF256EC4}
  9
$VERSIONGUID
  2
{FAEB1C32-E019-11D5-929B-00C0DF256EC4}
  9
$EXTNAMES
290
     1
  9
$PSVPSCALE
 40
0.0
  9
$OLESTARTUP
290
     0
  0
ENDSEC
  0
SECTION
  2
CLASSES
  0
CLASS
  1
ACDBDICTIONARYWDFLT
  2
AcDbDictionaryWithDefault
  3
AutoCAD 2000
 90
        0
280
     0
281
     0
  0
CLASS
  1
ACDBPLACEHOLDER
  2
AcDbPlaceHolder
  3
ObjectDBX Classes
 90
        0
280
     0
281
     0
  0
CLASS
  1
LAYOUT
  2
AcDbLayout
  3
ObjectDBX Classes
 90
        0
280
     0
281
     0
  0
ENDSEC
  0
SECTION
  2
TABLES
  0
TABLE
  2
VPORT
  5
8
330
0
100
AcDbSymbolTable
 70
     2
  0
VPORT
  5
1F
330
8
100
AcDbSymbolTableRecord
100
AcDbViewportTableRecord
  2
*ACTIVE
 70
     0
 10
0.0
 20
0.0
 11
1.0
 21
1.0
 12
7.630750605326877
 22
5.5
 13
0.0
 23
0.0
 14
1.0
 24
1.0
 15
0.0
 25
0.0
 16
0.0
 26
0.0
 36
1.0
 17
0.0
 27
0.0
 37
0.0
 40
11.0
 41
0.7207678883071553
 42
50.0
 43
0.0
 44
0.0
 50
0.0
 51
0.0
 71
     0
 72
  2000
 73
     1
 74
     0
 75
     0
 76
     0
 77
     0
 78
     0
281
     0
 65
     1
110
0.0
120
0.0
130
0.0
111
1.0
121
0.0
131
0.0
112
0.0
122
1.0
132
0.0
 79
     0
146
0.0
  0
ENDTAB
  0
TABLE
  2
LTYPE
  5
5
330
0
100
AcDbSymbolTable
 70
     2
  0
LTYPE
  5
10
330
5
100
AcDbSymbolTableRecord
100
AcDbLinetypeTableRecord
  2
ByBlock
 70
     0
  3

 72
    65
 73
     0
 40
0.0
  0
LTYPE
  5
11
330
5
100
AcDbSymbolTableRecord
100
AcDbLinetypeTableRecord
  2
ByLayer
 70
     0
  3

 72
    65
 73
     0
 40
0.0
  0
LTYPE
  5
1B
330
5
100
AcDbSymbolTableRecord
100
AcDbLinetypeTableRecord
  2
CONTINUOUS
 70
     0
  3
Solid line
 72
    65
 73
     0
 40
0.0
  0
LTYPE
  5
1C
330
5
100
AcDbSymbolTableRecord
100
AcDbLinetypeTableRecord
  2
DASHED2
 70
     0
  3
_ _ _ _ _ _ _ _ _ _ _ _ _ _ _ _ _ _ _ _ _ _ _ _
 72
    65
 73
     2
 40
0.375
 49
0.25
 74
     0
 49
-0.125
 74
     0
  0
ENDTAB
  0
TABLE
  2
LAYER
  5
2
330
0
100
AcDbSymbolTable
 70
     1
  0
LAYER
  5
1D
330
2
100
AcDbSymbolTableRecord
100
AcDbLayerTableRecord
  2
0
 70
     0
 62
     7
  6
CONTINUOUS
370
    -3
390
F
  0
ENDTAB
  0
TABLE
  2
STYLE
  5
3
330
0
100
AcDbSymbolTable
 70
     1
  0
STYLE
  5
22
330
3
100
AcDbSymbolTableRecord
100
AcDbTextStyleTableRecord
  2
STANDARD
 70
     0
 40
0.0
 41
1.0
 50
0.0
 71
     0
 42
0.22
  3
ROMANS.SHX
  4

  0
ENDTAB
  0
TABLE
  2
VIEW
  5
6
330
0
100
AcDbSymbolTable
 70
     1
  0
VIEW
  5
21
330
6
100
AcDbSymbolTableRecord
100
AcDbViewTableRecord
  2
1
 70
     0
 40
11.0
 10
7.225941000000001
 20
5.5
 41
14.451883
 11
0.0
 21
0.0
 31
1.0
 12
0.0
 22
0.0
 32
0.0
 42
50.0
 43
0.0
 44
0.0
 50
0.0
 71
     0
281
     0
 72
     0
  0
ENDTAB
  0
TABLE
  2
UCS
  5
7
330
0
100
AcDbSymbolTable
 70
     0
  0
ENDTAB
  0
TABLE
  2
APPID
  5
9
330
0
100
AcDbSymbolTable
 70
     1
  0
APPID
  5
20
330
9
100
AcDbSymbolTableRecord
100
AcDbRegAppTableRecord
  2
ACAD
 70
     0
  0
ENDTAB
  0
TABLE
  2
DIMSTYLE
  5
A
330
0
100
AcDbSymbolTable
 70
     1
100
AcDbDimStyleTable
  0
DIMSTYLE
105
23
330
A
100
AcDbSymbolTableRecord
100
AcDbDimStyleTableRecord
  2
Standard
 70
     0
  3

  4

340
22
  0
ENDTAB
  0
TABLE
  2
BLOCK_RECORD
  5
1
330
0
100
AcDbSymbolTable
 70
     0
  0
BLOCK_RECORD
  5
18
330
1
100
AcDbSymbolTableRecord
100
AcDbBlockTableRecord
  2
*Model_Space
340
19
  0
BLOCK_RECORD
  5
16
330
1
100
AcDbSymbolTableRecord
100
AcDbBlockTableRecord
  2
*Paper_Space
340
17
  0
ENDTAB
  0
ENDSEC
  0
SECTION
  2
BLOCKS
  0
BLOCK
  5
DC1
330
18
100
AcDbEntity
  8
0
100
AcDbBlockBegin
  2
*Model_Space
 70
     0
 10
0.0
 20
0.0
 30
0.0
  3
*Model_Space
  1

  4

  0
ENDBLK
  5
DC2
330
18
100
AcDbEntity
  8
0
100
AcDbBlockEnd
  0
BLOCK
  5
DBF
330
16
100
AcDbEntity
 67
     1
  8
0
100
AcDbBlockBegin
  2
*Paper_Space
 70
     0
 10
0.0
 20
0.0
 30
0.0
  3
*Paper_Space
  1

  4

  0
ENDBLK
  5
DC0
330
16
100
AcDbEntity
 67
     1
  8
0
100
AcDbBlockEnd
  0
ENDSEC
  0
SECTION
  2
ENTITIES
  0
LINE
  5
24
330
18
100
AcDbEntity
  8
0
100
AcDbLine
 10
3.31239
 20
7.671569
 30
0.0
 11
3.31239
 21
5.246844
 31
0.0
  0
LINE
  5
25
330
18
100
AcDbEntity
  8
0
100
AcDbLine
 10
4.004367
 20
7.794071000000001
 30
0.0
 11
4.004367
 21
5.46002
 31
0.0
  0
LINE
  5
26
330
18
100
AcDbEntity
  8
0
100
AcDbLine
 10
4.226218
 20
7.705266
 30
0.0
 11
4.226218
 21
5.344475
 31
0.0
  0
LINE
  5
27
330
18
100
AcDbEntity
  8
0
100
AcDbLine
 10
4.2622
 20
7.690863
 30
0.0
 11
4.2622
 21
5.513132
 31
0.0
  0
LINE
  5
28
330
18
100
AcDbEntity
  8
0
100
AcDbLine
 10
4.4461
 20
7.617249
 30
0.0
 11
4.4461
 21
5.417357
 31
0.0
  0
LINE
  5
29
330
18
100
AcDbEntity
  8
0
100
AcDbLine
 10
4.483064
 20
7.602453
 30
0.0
 11
4.483064
 21
5.594155000000001
 31
0.0
  0
LINE
  5
2A
330
18
100
AcDbEntity
  8
0
100
AcDbLine
 10
4.694989
 20
7.517621000000001
 30
0.0
 11
4.694989
 21
5.483784
 31
0.0
  0
LINE
  5
2B
330
18
100
AcDbEntity
  8
0
100
AcDbLine
 10
2.730323
 20
9.418619999999999
 30
0.0
 11
6.129593
 21
8.234838999999999
 31
0.0
  0
LINE
  5
2C
330
18
100
AcDbEntity
  8
0
100
AcDbLine
 10
2.989399
 20
9.474869
 30
0.0
 11
6.360318
 21
8.30096
 31
0.0
  0
LINE
  5
2D
330
18
100
AcDbEntity
  8
0
100
AcDbLine
 10
2.432749
 20
9.475769999999999
 30
0.0
 11
6.440465000000001
 21
8.0801
 31
0.0
  0
LINE
  5
2E
330
18
100
AcDbEntity
  8
0
100
AcDbLine
 10
2.230183
 20
9.421662
 30
0.0
 11
6.232093
 21
8.028013
 31
0.0
  0
LINE
  5
2F
330
18
100
AcDbEntity
  8
0
100
AcDbLine
 10
2.367454
 20
9.326560000000001
 30
0.0
 11
5.741741
 21
8.151477999999999
 31
0.0
  0
LINE
  5
30
330
18
100
AcDbEntity
  8
0
100
AcDbLine
 10
2.191877
 20
9.258388
 30
0.0
 11
5.509719000000001
 21
8.097489
 31
0.0
  0
LINE
  5
31
330
18
100
AcDbEntity
  8
0
100
AcDbLine
 10
6.974692999999999
 20
3.954311
 30
0.0
 11
5.198983999999999
 21
4.893527
 31
0.0
  0
LINE
  5
32
330
18
100
AcDbEntity
  8
0
100
AcDbLine
 10
6.804713000000001
 20
3.878305
 30
0.0
 11
4.936462000000001
 21
4.841601
 31
0.0
  0
LINE
  5
33
330
18
100
AcDbEntity
  8
0
100
AcDbLine
 10
6.847614999999999
 20
3.813064
 30
0.0
 11
4.882043
 21
4.830837
 31
0.0
  0
LINE
  5
34
330
18
100
AcDbEntity
  8
0
100
AcDbLine
 10
6.637577
 20
3.717505000000001
 30
0.0
 11
4.615277
 21
4.778073
 31
0.0
  0
LINE
  5
35
330
18
100
AcDbEntity
  8
0
100
AcDbLine
 10
6.326737000000001
 20
3.834689
 30
0.0
 11
4.558251
 21
4.766793
 31
0.0
  0
LINE
  5
36
330
18
100
AcDbEntity
  8
0
100
AcDbLine
 10
6.097705
 20
3.746621
 30
0.0
 11
4.351578
 21
4.687118
 31
0.0
  0
LINE
  5
37
330
18
100
AcDbEntity
  8
0
100
AcDbLine
 10
6.097705
 20
2.75926
 30
0.0
 11
3.749524
 21
4.112257
 31
0.0
  0
LINE
  5
38
330
18
100
AcDbEntity
  8
0
100
AcDbLine
 10
1.645321
 20
6.144758
 30
0.0
 11
1.645321
 21
5.861101000000001
 31
0.0
  0
LINE
  5
39
330
18
100
AcDbEntity
  8
0
100
AcDbLine
 10
2.191877
 20
9.258388
 30
0.0
 11
2.191877
 21
9.064597000000001
 31
0.0
  0
LINE
  5
3A
330
18
100
AcDbEntity
  8
0
100
AcDbLine
 10
6.232093
 20
8.028013
 30
0.0
 11
6.232093
 21
7.757522
 31
0.0
  0
LINE
  5
3B
330
18
100
AcDbEntity
  8
0
100
AcDbLine
 10
6.440465000000001
 20
7.189108
 30
0.0
 11
6.440465000000001
 21
7.587524
 31
0.0
  0
LINE
  5
3C
330
18
100
AcDbEntity
  8
0
100
AcDbLine
 10
6.360318
 20
8.30096
 30
0.0
 11
6.360318
 21
8.108010999999999
 31
0.0
  0
LINE
  5
3D
330
18
100
AcDbEntity
  8
0
100
AcDbLine
 10
5.741741
 20
7.262138
 30
0.0
 11
5.741741
 21
7.659822
 31
0.0
  0
LINE
  5
3E
330
18
100
AcDbEntity
  8
0
100
AcDbLine
 10
5.509719000000001
 20
7.191492
 30
0.0
 11
5.509719000000001
 21
7.592617999999999
 31
0.0
  0
LINE
  5
3F
330
18
100
AcDbEntity
  8
0
100
AcDbLine
 10
3.091905
 20
4.491169999999999
 30
0.0
 11
1.925485
 21
4.033921
 31
0.0
  0
LINE
  5
40
330
18
100
AcDbEntity
  8
0
100
AcDbLine
 10
6.653795
 20
4.925714
 30
0.0
 11
5.821122
 21
4.573053
 31
0.0
  0
LINE
  5
41
330
18
100
AcDbEntity
  8
0
100
AcDbLine
 10
6.237194000000001
 20
5.118081
 30
0.0
 11
6.653795
 21
4.925714
 31
0.0
  0
LINE
  5
42
330
18
100
AcDbEntity
  8
0
100
AcDbLine
 10
6.847614999999999
 20
3.813064
 30
0.0
 11
6.847614999999999
 21
3.492979
 31
0.0
  0
LINE
  5
43
330
18
100
AcDbEntity
  8
0
100
AcDbLine
 10
6.637577
 20
3.717505000000001
 30
0.0
 11
6.637577
 21
3.414689
 31
0.0
  0
LINE
  5
44
330
18
100
AcDbEntity
  8
0
100
AcDbLine
 10
6.326737000000001
 20
3.834689
 30
0.0
 11
6.326737000000001
 21
3.521545
 31
0.0
  0
LINE
  5
45
330
18
100
AcDbEntity
  8
0
100
AcDbLine
 10
6.097705
 20
3.746621
 30
0.0
 11
6.096222
 21
3.440655000000001
 31
0.0
  0
LINE
  5
46
330
18
100
AcDbEntity
  8
0
100
AcDbLine
 10
2.989399
 20
9.474869
 30
0.0
 11
2.730323
 21
9.418619999999999
 31
0.0
  0
LINE
  5
47
330
18
100
AcDbEntity
  8
0
100
AcDbLine
 10
2.432749
 20
9.475769999999999
 30
0.0
 11
2.230183
 21
9.421662
 31
0.0
  0
LINE
  5
48
330
18
100
AcDbEntity
  8
0
100
AcDbLine
 10
2.367454
 20
9.326560000000001
 30
0.0
 11
2.191877
 21
9.258388
 31
0.0
  0
LINE
  5
49
330
18
100
AcDbEntity
  8
0
100
AcDbLine
 10
2.730323
 20
9.418619999999999
 30
0.0
 11
2.730323
 21
9.372141000000001
 31
0.0
  0
LINE
  5
4A
330
18
100
AcDbEntity
  8
0
100
AcDbLine
 10
2.230183
 20
9.421662
 30
0.0
 11
2.230183
 21
9.273261
 31
0.0
  0
LINE
  5
4B
330
18
100
AcDbEntity
  8
0
100
AcDbLine
 10
5.509719000000001
 20
7.191492
 30
0.0
 11
3.849004
 21
7.856261
 31
0.0
  0
LINE
  5
4C
330
18
100
AcDbEntity
  8
0
100
AcDbLine
 10
6.232093
 20
7.112528999999999
 30
0.0
 11
5.741741
 21
7.262138
 31
0.0
  0
LINE
  5
4D
330
18
100
AcDbEntity
  8
0
100
AcDbLine
 10
6.360318
 20
8.30096
 30
0.0
 11
6.129593
 21
8.234838999999999
 31
0.0
  0
LINE
  5
4E
330
18
100
AcDbEntity
  8
0
100
AcDbLine
 10
6.129593
 20
8.234838999999999
 30
0.0
 11
6.129593
 21
8.188360000000001
 31
0.0
  0
LINE
  5
4F
330
18
100
AcDbEntity
  8
0
100
AcDbLine
 10
6.440465000000001
 20
7.189108
 30
0.0
 11
6.232093
 21
7.112528999999999
 31
0.0
  0
LINE
  5
50
330
18
100
AcDbEntity
  8
0
100
AcDbLine
 10
5.741741
 20
7.262138
 30
0.0
 11
5.509719000000001
 21
7.191492
 31
0.0
  0
LINE
  5
51
330
18
100
AcDbEntity
  8
0
100
AcDbLine
 10
6.440465000000001
 20
8.0801
 30
0.0
 11
6.232093
 21
8.028013
 31
0.0
  0
LINE
  5
52
330
18
100
AcDbEntity
  8
0
100
AcDbLine
 10
5.741741
 20
8.151477999999999
 30
0.0
 11
5.509719000000001
 21
8.097489
 31
0.0
  0
LINE
  5
53
330
18
100
AcDbEntity
  8
0
100
AcDbLine
 10
2.088634
 20
6.30998
 30
0.0
 11
2.088634
 21
6.277209
 31
0.0
  0
LINE
  5
54
330
18
100
AcDbEntity
  8
0
100
AcDbLine
 10
2.300998
 20
6.386328
 30
0.0
 11
2.088634
 21
6.30998
 31
0.0
  0
LINE
  5
55
330
18
100
AcDbEntity
  8
0
100
AcDbLine
 10
1.928484
 20
6.36019
 30
0.0
 11
1.735375
 21
6.288399
 31
0.0
  0
LINE
  5
56
330
18
100
AcDbEntity
  8
0
100
AcDbLine
 10
1.735375
 20
6.288399
 30
0.0
 11
1.735375
 21
6.182027
 31
0.0
  0
LINE
  5
57
330
18
100
AcDbEntity
  8
0
100
AcDbLine
 10
6.804713000000001
 20
3.878305
 30
0.0
 11
6.804713000000001
 21
3.835279
 31
0.0
  0
LINE
  5
58
330
18
100
AcDbEntity
  8
0
100
AcDbLine
 10
6.974692999999999
 20
3.954311
 30
0.0
 11
6.804713000000001
 21
3.878305
 31
0.0
  0
LINE
  5
59
330
18
100
AcDbEntity
  8
0
100
AcDbLine
 10
6.847614999999999
 20
3.813064
 30
0.0
 11
6.637577
 21
3.717505000000001
 31
0.0
  0
LINE
  5
5A
330
18
100
AcDbEntity
  8
0
100
AcDbLine
 10
6.326737000000001
 20
3.834689
 30
0.0
 11
6.097705
 21
3.746621
 31
0.0
  0
LINE
  5
5B
330
18
100
AcDbEntity
  8
0
100
AcDbLine
 10
6.976725
 20
2.986276
 30
0.0
 11
6.847614999999999
 21
2.917308
 31
0.0
  0
LINE
  5
5C
330
18
100
AcDbEntity
  8
0
100
AcDbLine
 10
6.847614999999999
 20
2.842263
 30
0.0
 11
6.637577
 21
2.727305
 31
0.0
  0
LINE
  5
5D
330
18
100
AcDbEntity
  8
0
100
AcDbLine
 10
6.326737000000001
 20
2.868348
 30
0.0
 11
6.097705
 21
2.75926
 31
0.0
  0
LINE
  5
5E
330
18
100
AcDbEntity
  8
0
100
AcDbLine
 10
6.637577
 20
2.727305
 30
0.0
 11
6.326737000000001
 21
2.868348
 31
0.0
  0
LINE
  5
5F
330
18
100
AcDbEntity
  8
0
100
AcDbLine
 10
4.166226999999999
 20
3.872157
 30
0.0
 11
3.747525
 21
3.694825
 31
0.0
  0
LINE
  5
60
330
18
100
AcDbEntity
  8
0
100
AcDbLine
 10
3.512595
 20
6.737966
 30
0.0
 11
3.512595
 21
4.733802
 31
0.0
  0
LINE
  5
61
330
18
100
AcDbEntity
  8
0
100
AcDbLine
 10
3.747525
 20
6.674616
 30
0.0
 11
3.747525
 21
4.616407
 31
0.0
  0
LINE
  5
62
330
18
100
AcDbEntity
  8
0
100
AcDbLine
 10
1.822783
 20
6.208558
 30
0.0
 11
1.645321
 21
6.144758
 31
0.0
  0
LINE
  5
63
330
18
100
AcDbEntity
  8
0
100
AcDbLine
 10
4.351578
 20
5.279184
 30
0.0
 11
4.351578
 21
4.404469000000001
 31
0.0
  0
LINE
  5
64
330
18
100
AcDbEntity
  8
0
100
AcDbLine
 10
3.451485
 20
5.705421
 30
0.0
 11
3.451485
 21
4.833022
 31
0.0
  0
LINE
  5
65
330
18
100
AcDbEntity
  8
0
100
AcDbLine
 10
4.351578
 20
5.279184
 30
0.0
 11
3.747525
 21
5.59379
 31
0.0
  0
LINE
  5
66
330
18
100
AcDbEntity
  8
0
100
AcDbLine
 10
4.313855
 20
5.256298
 30
0.0
 11
4.313855
 21
4.381583
 31
0.0
  0
LINE
  5
67
330
18
100
AcDbEntity
  8
0
100
AcDbLine
 10
3.31239
 20
5.678995
 30
0.0
 11
2.088634
 21
6.30998
 31
0.0
  0
LINE
  5
68
330
18
100
AcDbEntity
  8
0
100
AcDbLine
 10
3.31239
 20
5.643603
 30
0.0
 11
1.928484
 21
6.36019
 31
0.0
  0
LINE
  5
69
330
18
100
AcDbEntity
  8
0
100
AcDbLine
 10
3.31239
 20
5.423441
 30
0.0
 11
1.822783
 21
6.208558
 31
0.0
  0
LINE
  5
6A
330
18
100
AcDbEntity
  8
0
100
AcDbLine
 10
3.31239
 20
5.461355
 30
0.0
 11
1.735375
 21
6.288399
 31
0.0
  0
LINE
  5
6B
330
18
100
AcDbEntity
  8
0
100
AcDbLine
 10
3.451485
 20
5.171925
 30
0.0
 11
1.645321
 21
6.144758
 31
0.0
  0
LINE
  5
6C
330
18
100
AcDbEntity
  8
0
100
AcDbLine
 10
4.313855
 20
5.256298
 30
0.0
 11
3.747525
 21
5.551243
 31
0.0
  0
LINE
  5
6D
330
18
100
AcDbEntity
  8
0
100
AcDbLine
 10
4.313855
 20
5.256298
 30
0.0
 11
4.351578
 21
5.279184
 31
0.0
  0
LINE
  5
6E
330
18
100
AcDbEntity
  8
0
100
AcDbLine
 10
4.313855
 20
4.381583
 30
0.0
 11
4.351578
 21
4.404469000000001
 31
0.0
  0
LINE
  5
6F
330
18
100
AcDbEntity
  8
0
100
AcDbLine
 10
3.451485
 20
5.705421
 30
0.0
 11
3.512725
 21
5.716079
 31
0.0
  0
LINE
  5
70
330
18
100
AcDbEntity
  8
0
100
AcDbLine
 10
4.445916
 20
5.392433000000001
 30
0.0
 11
4.226218
 21
5.506851999999999
 31
0.0
  0
LINE
  5
71
330
18
100
AcDbEntity
  8
0
100
AcDbLine
 10
4.474619000000001
 20
5.402504
 30
0.0
 11
4.226218
 21
5.531872
 31
0.0
  0
LINE
  5
72
330
18
100
AcDbEntity
  8
0
100
AcDbLine
 10
4.671084
 20
5.471442
 30
0.0
 11
4.4461
 21
5.588614
 31
0.0
  0
LINE
  5
73
330
18
100
AcDbEntity
  8
0
100
AcDbLine
 10
4.699526000000001
 20
5.481422
 30
0.0
 11
4.4461
 21
5.613406
 31
0.0
  0
LINE
  5
74
330
18
100
AcDbEntity
  8
0
100
AcDbLine
 10
4.949604
 20
5.544155
 30
0.0
 11
4.694989
 21
5.67676
 31
0.0
  0
LINE
  5
75
330
18
100
AcDbEntity
  8
0
100
AcDbLine
 10
4.983048
 20
5.551497
 30
0.0
 11
4.694989
 21
5.701519
 31
0.0
  0
LINE
  5
76
330
18
100
AcDbEntity
  8
0
100
AcDbLine
 10
6.066106
 20
5.065038
 30
0.0
 11
4.351578
 21
4.725914
 31
0.0
  0
LINE
  5
77
330
18
100
AcDbEntity
  8
0
100
AcDbLine
 10
5.918851999999999
 20
5.641775
 30
0.0
 11
4.338707
 21
5.285887000000001
 31
0.0
  0
LINE
  5
78
330
18
100
AcDbEntity
  8
0
100
AcDbLine
 10
6.277824
 20
5.753454000000001
 30
0.0
 11
4.282175
 21
5.315331
 31
0.0
  0
LINE
  5
79
330
18
100
AcDbEntity
  8
0
100
AcDbLine
 10
6.494644
 20
5.84048
 30
0.0
 11
4.4421
 21
5.391094
 31
0.0
  0
LINE
  5
7A
330
18
100
AcDbEntity
  8
0
100
AcDbLine
 10
6.590524
 20
5.904368
 30
0.0
 11
4.759182
 21
5.502354
 31
0.0
  0
LINE
  5
7B
330
18
100
AcDbEntity
  8
0
100
AcDbLine
 10
5.918851999999999
 20
5.641775
 30
0.0
 11
5.960013
 21
5.480564
 31
0.0
  0
LINE
  5
7C
330
18
100
AcDbEntity
  8
0
100
AcDbLine
 10
6.156061
 20
5.726722000000001
 30
0.0
 11
6.202861
 21
5.547192
 31
0.0
  0
LINE
  5
7D
330
18
100
AcDbEntity
  8
0
100
AcDbLine
 10
6.277824
 20
5.753454000000001
 30
0.0
 11
6.325663
 21
5.566091
 31
0.0
  0
LINE
  5
7E
330
18
100
AcDbEntity
  8
0
100
AcDbLine
 10
6.494644
 20
5.84048
 30
0.0
 11
6.544237
 21
5.629948000000001
 31
0.0
  0
LINE
  5
7F
330
18
100
AcDbEntity
  8
0
100
AcDbLine
 10
6.590524
 20
5.904368
 30
0.0
 11
6.644549000000001
 21
5.694374
 31
0.0
  0
LINE
  5
80
330
18
100
AcDbEntity
  8
0
100
AcDbLine
 10
6.642355
 20
5.254284999999999
 30
0.0
 11
6.428341000000001
 21
5.16394
 31
0.0
  0
LINE
  5
81
330
18
100
AcDbEntity
  8
0
100
AcDbLine
 10
6.308924
 20
5.140319
 30
0.0
 11
6.066106
 21
5.065038
 31
0.0
  0
LINE
  5
82
330
18
100
AcDbEntity
  8
0
100
AcDbLine
 10
6.428341000000001
 20
5.16394
 30
0.0
 11
6.308924
 21
5.140319
 31
0.0
  0
LINE
  5
83
330
18
100
AcDbEntity
  8
0
100
AcDbLine
 10
6.736041999999999
 20
5.338749
 30
0.0
 11
6.630601
 21
5.300174
 31
0.0
  0
LINE
  5
84
330
18
100
AcDbEntity
  8
0
100
AcDbLine
 10
5.918851999999999
 20
5.641775
 30
0.0
 11
6.156061
 21
5.726722000000001
 31
0.0
  0
LINE
  5
85
330
18
100
AcDbEntity
  8
0
100
AcDbLine
 10
6.277824
 20
5.753454000000001
 30
0.0
 11
6.494644
 21
5.84048
 31
0.0
  0
LINE
  5
86
330
18
100
AcDbEntity
  8
0
100
AcDbLine
 10
6.386945
 20
5.8169
 30
0.0
 11
6.590524
 21
5.904368
 31
0.0
  0
LINE
  5
87
330
18
100
AcDbEntity
  8
0
100
AcDbLine
 10
4.759182
 20
5.502354
 30
0.0
 11
4.259636
 21
5.327069
 31
0.0
  0
LINE
  5
88
330
18
100
AcDbEntity
  8
0
100
AcDbLine
 10
3.31239
 20
5.865343
 30
0.0
 11
2.300998
 21
6.386328
 31
0.0
  0
LINE
  5
89
330
18
100
AcDbEntity
  8
0
100
AcDbLine
 10
3.849004
 20
8.302146000000001
 30
0.0
 11
3.849004
 21
7.512923
 31
0.0
  0
LINE
  5
8A
330
18
100
AcDbEntity
  8
0
100
AcDbLine
 10
2.948884
 20
8.599571000000001
 30
0.0
 11
2.948884
 21
7.805014999999999
 31
0.0
  0
LINE
  5
8B
330
18
100
AcDbEntity
  8
0
100
AcDbLine
 10
3.000624
 20
8.612678000000001
 30
0.0
 11
3.849004
 21
8.302146000000001
 31
0.0
  0
LINE
  5
8C
330
18
100
AcDbEntity
  8
0
100
AcDbLine
 10
3.813003
 20
7.487789
 30
0.0
 11
2.948884
 21
7.805014999999999
 31
0.0
  0
LINE
  5
8D
330
18
100
AcDbEntity
  8
0
100
AcDbLine
 10
2.948884
 20
8.216571
 30
0.0
 11
2.191877
 21
8.519594
 31
0.0
  0
LINE
  5
8E
330
18
100
AcDbEntity
  8
0
100
AcDbLine
 10
3.813003
 20
8.282346
 30
0.0
 11
3.849004
 21
8.302146000000001
 31
0.0
  0
LINE
  5
8F
330
18
100
AcDbEntity
  8
0
100
AcDbLine
 10
3.813003
 20
7.487789
 30
0.0
 11
3.849004
 21
7.512923
 31
0.0
  0
LINE
  5
90
330
18
100
AcDbEntity
  8
0
100
AcDbLine
 10
3.070656
 20
7.760312
 30
0.0
 11
2.295569
 21
7.582458
 31
0.0
  0
LINE
  5
91
330
18
100
AcDbEntity
  8
0
100
AcDbLine
 10
2.784329
 20
8.282441
 30
0.0
 11
2.167431
 21
8.140886
 31
0.0
  0
LINE
  5
92
330
18
100
AcDbEntity
  8
0
100
AcDbLine
 10
2.76918
 20
8.288505000000001
 30
0.0
 11
2.026712
 21
8.118136
 31
0.0
  0
LINE
  5
93
330
18
100
AcDbEntity
  8
0
100
AcDbLine
 10
2.290124
 20
7.606186
 30
0.0
 11
2.151485
 21
7.574373
 31
0.0
  0
LINE
  5
94
330
18
100
AcDbEntity
  8
0
100
AcDbLine
 10
2.167431
 20
8.140886
 30
0.0
 11
2.212595
 21
7.944061000000001
 31
0.0
  0
LINE
  5
95
330
18
100
AcDbEntity
  8
0
100
AcDbLine
 10
2.026712
 20
8.118136
 30
0.0
 11
2.069338
 21
7.932369
 31
0.0
  0
LINE
  5
96
330
18
100
AcDbEntity
  8
0
100
AcDbLine
 10
2.212595
 20
7.944061000000001
 30
0.0
 11
2.179732
 21
7.890844
 31
0.0
  0
LINE
  5
97
330
18
100
AcDbEntity
  8
0
100
AcDbLine
 10
2.179732
 20
7.890844
 30
0.0
 11
2.284512
 21
7.847563
 31
0.0
  0
LINE
  5
98
330
18
100
AcDbEntity
  8
0
100
AcDbLine
 10
2.284512
 20
7.847563
 30
0.0
 11
2.243364
 21
7.809969000000001
 31
0.0
  0
LINE
  5
99
330
18
100
AcDbEntity
  8
0
100
AcDbLine
 10
2.069338
 20
7.932369
 30
0.0
 11
2.030153
 21
7.871014999999999
 31
0.0
  0
LINE
  5
9A
330
18
100
AcDbEntity
  8
0
100
AcDbLine
 10
2.030153
 20
7.871014999999999
 30
0.0
 11
2.128934
 21
7.838774000000001
 31
0.0
  0
LINE
  5
9B
330
18
100
AcDbEntity
  8
0
100
AcDbLine
 10
2.128934
 20
7.838774000000001
 30
0.0
 11
2.103861
 21
7.78192
 31
0.0
  0
LINE
  5
9C
330
18
100
AcDbEntity
  8
0
100
AcDbLine
 10
2.243364
 20
7.809969000000001
 30
0.0
 11
2.295569
 21
7.582458
 31
0.0
  0
LINE
  5
9D
330
18
100
AcDbEntity
  8
0
100
AcDbLine
 10
2.103861
 20
7.78192
 30
0.0
 11
2.151485
 21
7.574373
 31
0.0
  0
LINE
  5
9E
330
18
100
AcDbEntity
  8
0
100
AcDbLine
 10
2.191877
 20
9.064597000000001
 30
0.0
 11
2.134391
 21
9.007052
 31
0.0
  0
LINE
  5
9F
330
18
100
AcDbEntity
  8
0
100
AcDbLine
 10
2.134391
 20
9.007052
 30
0.0
 11
2.240475
 21
8.929721000000001
 31
0.0
  0
LINE
  5
A0
330
18
100
AcDbEntity
  8
0
100
AcDbLine
 10
2.240475
 20
8.929721000000001
 30
0.0
 11
2.191877
 21
8.894911000000001
 31
0.0
  0
LINE
  5
A1
330
18
100
AcDbEntity
  8
0
100
AcDbLine
 10
2.191877
 20
8.894911000000001
 30
0.0
 11
2.191877
 21
8.519594
 31
0.0
  0
LINE
  5
A2
330
18
100
AcDbEntity
  8
0
100
AcDbLine
 10
1.645321
 20
5.861101000000001
 30
0.0
 11
1.600353
 21
5.817911000000001
 31
0.0
  0
LINE
  5
A3
330
18
100
AcDbEntity
  8
0
100
AcDbLine
 10
1.600353
 20
5.817911000000001
 30
0.0
 11
1.67029
 21
5.725544999999999
 31
0.0
  0
LINE
  5
A4
330
18
100
AcDbEntity
  8
0
100
AcDbLine
 10
1.67029
 20
5.725544999999999
 30
0.0
 11
1.645321
 21
5.703406
 31
0.0
  0
LINE
  5
A5
330
18
100
AcDbEntity
  8
0
100
AcDbLine
 10
1.645321
 20
5.703406
 30
0.0
 11
1.645321
 21
5.324676
 31
0.0
  0
LINE
  5
A6
330
18
100
AcDbEntity
  8
0
100
AcDbLine
 10
3.747525
 20
6.674616
 30
0.0
 11
3.558859
 21
6.753449000000001
 31
0.0
  0
LINE
  5
A7
330
18
100
AcDbEntity
  8
0
100
AcDbLine
 10
3.715402
 20
6.653224000000001
 30
0.0
 11
3.715402
 21
4.598549
 31
0.0
  0
LINE
  5
A8
330
18
100
AcDbEntity
  8
0
100
AcDbLine
 10
3.715402
 20
6.653224000000001
 30
0.0
 11
3.512595
 21
6.737966
 31
0.0
  0
LINE
  5
A9
330
18
100
AcDbEntity
  8
0
100
AcDbLine
 10
3.715402
 20
6.653224000000001
 30
0.0
 11
3.747525
 21
6.674616
 31
0.0
  0
LINE
  5
AA
330
18
100
AcDbEntity
  8
0
100
AcDbLine
 10
3.512595
 20
6.737966
 30
0.0
 11
3.558859
 21
6.753449000000001
 31
0.0
  0
LINE
  5
AB
330
18
100
AcDbEntity
  8
0
100
AcDbLine
 10
3.512595
 20
5.673595
 30
0.0
 11
3.451485
 21
5.705421
 31
0.0
  0
LINE
  5
AC
330
18
100
AcDbEntity
  8
0
100
AcDbLine
 10
4.313855
 20
4.381583
 30
0.0
 11
3.747525
 21
4.678049
 31
0.0
  0
LINE
  5
AD
330
18
100
AcDbEntity
  8
0
100
AcDbLine
 10
6.096222
 20
3.440655000000001
 30
0.0
 11
6.134768
 21
3.330426
 31
0.0
  0
LINE
  5
AE
330
18
100
AcDbEntity
  8
0
100
AcDbLine
 10
6.134768
 20
3.330426
 30
0.0
 11
6.051462
 21
3.340168
 31
0.0
  0
LINE
  5
AF
330
18
100
AcDbEntity
  8
0
100
AcDbLine
 10
6.051462
 20
3.340168
 30
0.0
 11
6.097705
 21
3.218773
 31
0.0
  0
LINE
  5
B0
330
18
100
AcDbEntity
  8
0
100
AcDbLine
 10
6.326737000000001
 20
3.521545
 30
0.0
 11
6.366696
 21
3.425264
 31
0.0
  0
LINE
  5
B1
330
18
100
AcDbEntity
  8
0
100
AcDbLine
 10
6.283557
 20
3.389953
 30
0.0
 11
6.326737000000001
 21
3.308298
 31
0.0
  0
LINE
  5
B2
330
18
100
AcDbEntity
  8
0
100
AcDbLine
 10
6.637577
 20
3.414689
 30
0.0
 11
6.670195
 21
3.317409
 31
0.0
  0
LINE
  5
B3
330
18
100
AcDbEntity
  8
0
100
AcDbLine
 10
6.603795
 20
3.289541
 30
0.0
 11
6.637084
 21
3.210916
 31
0.0
  0
LINE
  5
B4
330
18
100
AcDbEntity
  8
0
100
AcDbLine
 10
6.974692999999999
 20
3.585067
 30
0.0
 11
7.007211
 21
3.513915
 31
0.0
  0
LINE
  5
B5
330
18
100
AcDbEntity
  8
0
100
AcDbLine
 10
7.007211
 20
3.513915
 30
0.0
 11
6.951326
 21
3.460236
 31
0.0
  0
LINE
  5
B6
330
18
100
AcDbEntity
  8
0
100
AcDbLine
 10
6.951326
 20
3.460236
 30
0.0
 11
6.976725
 21
3.399423000000001
 31
0.0
  0
LINE
  5
B7
330
18
100
AcDbEntity
  8
0
100
AcDbLine
 10
6.326737000000001
 20
3.521545
 30
0.0
 11
6.096222
 21
3.440655000000001
 31
0.0
  0
LINE
  5
B8
330
18
100
AcDbEntity
  8
0
100
AcDbLine
 10
6.366696
 20
3.425264
 30
0.0
 11
6.134768
 21
3.330426
 31
0.0
  0
LINE
  5
B9
330
18
100
AcDbEntity
  8
0
100
AcDbLine
 10
6.326737000000001
 20
3.308298
 30
0.0
 11
6.097705
 21
3.218773
 31
0.0
  0
LINE
  5
BA
330
18
100
AcDbEntity
  8
0
100
AcDbLine
 10
6.847614999999999
 20
3.296414
 30
0.0
 11
6.637577
 21
3.212005
 31
0.0
  0
LINE
  5
BB
330
18
100
AcDbEntity
  8
0
100
AcDbLine
 10
6.670195
 20
3.317409
 30
0.0
 11
6.603795
 21
3.289541
 31
0.0
  0
LINE
  5
BC
330
18
100
AcDbEntity
  8
0
100
AcDbLine
 10
6.847614999999999
 20
3.492979
 30
0.0
 11
6.637577
 21
3.414689
 31
0.0
  0
LINE
  5
BD
330
18
100
AcDbEntity
  8
0
100
AcDbLine
 10
6.976725
 20
3.399423000000001
 30
0.0
 11
6.832747
 21
3.332758
 31
0.0
  0
LINE
  5
BE
330
18
100
AcDbEntity
  8
0
100
AcDbLine
 10
6.097705
 20
3.218773
 30
0.0
 11
6.097705
 21
2.75926
 31
0.0
  0
LINE
  5
BF
330
18
100
AcDbEntity
  8
0
100
AcDbLine
 10
6.326737000000001
 20
3.308298
 30
0.0
 11
6.326737000000001
 21
2.868348
 31
0.0
  0
LINE
  5
C0
330
18
100
AcDbEntity
  8
0
100
AcDbLine
 10
6.815111999999999
 20
3.375869
 30
0.0
 11
6.847614999999999
 21
3.296414
 31
0.0
  0
LINE
  5
C1
330
18
100
AcDbEntity
  8
0
100
AcDbLine
 10
6.847614999999999
 20
3.492979
 30
0.0
 11
6.879841000000001
 21
3.401981
 31
0.0
  0
LINE
  5
C2
330
18
100
AcDbEntity
  8
0
100
AcDbLine
 10
6.879841000000001
 20
3.401981
 30
0.0
 11
6.670195
 21
3.317409
 31
0.0
  0
LINE
  5
C3
330
18
100
AcDbEntity
  8
0
100
AcDbLine
 10
6.637577
 20
3.212005
 30
0.0
 11
6.637577
 21
2.727305
 31
0.0
  0
LINE
  5
C4
330
18
100
AcDbEntity
  8
0
100
AcDbLine
 10
6.847614999999999
 20
3.296414
 30
0.0
 11
6.847614999999999
 21
2.842263
 31
0.0
  0
LINE
  5
C5
330
18
100
AcDbEntity
  8
0
100
AcDbLine
 10
6.976725
 20
3.399423000000001
 30
0.0
 11
6.976725
 21
2.986276
 31
0.0
  0
LINE
  5
C6
330
18
100
AcDbEntity
  8
0
100
AcDbLine
 10
6.974692999999999
 20
3.585067
 30
0.0
 11
6.847614999999999
 21
3.535362
 31
0.0
  0
LINE
  5
C7
330
18
100
AcDbEntity
  8
0
100
AcDbLine
 10
7.007211
 20
3.513915
 30
0.0
 11
6.862252000000001
 21
3.451649
 31
0.0
  0
LINE
  5
C8
330
18
100
AcDbEntity
  8
0
100
AcDbLine
 10
6.951326
 20
3.460236
 30
0.0
 11
6.871685
 21
3.42501
 31
0.0
  0
LINE
  5
C9
330
18
100
AcDbEntity
  8
0
100
AcDbLine
 10
5.741741
 20
7.881569
 30
0.0
 11
5.509719000000001
 21
7.816312
 31
0.0
  0
LINE
  5
CA
330
18
100
AcDbEntity
  8
0
100
AcDbLine
 10
5.762375
 20
7.785294
 30
0.0
 11
5.543735
 21
7.715053
 31
0.0
  0
LINE
  5
CB
330
18
100
AcDbEntity
  8
0
100
AcDbLine
 10
5.741741
 20
7.659822
 30
0.0
 11
5.509719000000001
 21
7.592617999999999
 31
0.0
  0
LINE
  5
CC
330
18
100
AcDbEntity
  8
0
100
AcDbLine
 10
5.699781
 20
7.717264999999999
 30
0.0
 11
5.482082
 21
7.650339
 31
0.0
  0
LINE
  5
CD
330
18
100
AcDbEntity
  8
0
100
AcDbLine
 10
6.456679
 20
7.729197999999999
 30
0.0
 11
6.254841000000001
 21
7.674046000000001
 31
0.0
  0
LINE
  5
CE
330
18
100
AcDbEntity
  8
0
100
AcDbLine
 10
6.395308999999999
 20
7.658107000000001
 30
0.0
 11
6.186976000000001
 21
7.603627
 31
0.0
  0
LINE
  5
CF
330
18
100
AcDbEntity
  8
0
100
AcDbLine
 10
6.440465000000001
 20
7.587524
 30
0.0
 11
6.232093
 21
7.534178
 31
0.0
  0
LINE
  5
D0
330
18
100
AcDbEntity
  8
0
100
AcDbLine
 10
6.232093
 20
7.757522
 30
0.0
 11
6.254841000000001
 21
7.674046000000001
 31
0.0
  0
LINE
  5
D1
330
18
100
AcDbEntity
  8
0
100
AcDbLine
 10
6.254841000000001
 20
7.674046000000001
 30
0.0
 11
6.186976000000001
 21
7.603627
 31
0.0
  0
LINE
  5
D2
330
18
100
AcDbEntity
  8
0
100
AcDbLine
 10
6.186976000000001
 20
7.603627
 30
0.0
 11
6.232093
 21
7.534178
 31
0.0
  0
LINE
  5
D3
330
18
100
AcDbEntity
  8
0
100
AcDbLine
 10
6.440465000000001
 20
7.807322
 30
0.0
 11
6.456679
 21
7.729197999999999
 31
0.0
  0
LINE
  5
D4
330
18
100
AcDbEntity
  8
0
100
AcDbLine
 10
6.456679
 20
7.729197999999999
 30
0.0
 11
6.395308999999999
 21
7.658107000000001
 31
0.0
  0
LINE
  5
D5
330
18
100
AcDbEntity
  8
0
100
AcDbLine
 10
6.395308999999999
 20
7.658107000000001
 30
0.0
 11
6.440465000000001
 21
7.587524
 31
0.0
  0
LINE
  5
D6
330
18
100
AcDbEntity
  8
0
100
AcDbLine
 10
5.741741
 20
7.881569
 30
0.0
 11
5.764398
 21
7.787112
 31
0.0
  0
LINE
  5
D7
330
18
100
AcDbEntity
  8
0
100
AcDbLine
 10
5.764398
 20
7.787112
 30
0.0
 11
5.699781
 21
7.717264999999999
 31
0.0
  0
LINE
  5
D8
330
18
100
AcDbEntity
  8
0
100
AcDbLine
 10
5.699781
 20
7.717264999999999
 30
0.0
 11
5.741741
 21
7.659822
 31
0.0
  0
LINE
  5
D9
330
18
100
AcDbEntity
  8
0
100
AcDbLine
 10
5.509719000000001
 20
7.816312
 30
0.0
 11
5.543735
 21
7.715053
 31
0.0
  0
LINE
  5
DA
330
18
100
AcDbEntity
  8
0
100
AcDbLine
 10
5.543735
 20
7.715053
 30
0.0
 11
5.482082
 21
7.650339
 31
0.0
  0
LINE
  5
DB
330
18
100
AcDbEntity
  8
0
100
AcDbLine
 10
5.482082
 20
7.650339
 30
0.0
 11
5.509719000000001
 21
7.592617999999999
 31
0.0
  0
LINE
  5
DC
330
18
100
AcDbEntity
  8
0
100
AcDbLine
 10
5.509719000000001
 20
7.816312
 30
0.0
 11
5.509719000000001
 21
8.097489
 31
0.0
  0
LINE
  5
DD
330
18
100
AcDbEntity
  8
0
100
AcDbLine
 10
5.741741
 20
7.881569
 30
0.0
 11
5.741741
 21
8.151477999999999
 31
0.0
  0
LINE
  5
DE
330
18
100
AcDbEntity
  8
0
100
AcDbLine
 10
6.232093
 20
7.534178
 30
0.0
 11
6.232093
 21
7.112528999999999
 31
0.0
  0
LINE
  5
DF
330
18
100
AcDbEntity
  8
0
100
AcDbLine
 10
6.440465000000001
 20
7.807322
 30
0.0
 11
6.440465000000001
 21
8.0801
 31
0.0
  0
LINE
  5
E0
330
18
100
AcDbEntity
  8
0
100
AcDbLine
 10
6.440465000000001
 20
7.807322
 30
0.0
 11
6.232093
 21
7.757522
 31
0.0
  0
LINE
  5
E1
330
18
100
AcDbEntity
  8
0
100
AcDbLine
 10
6.202861
 20
5.547192
 30
0.0
 11
5.960013
 21
5.480564
 31
0.0
  0
LINE
  5
E2
330
18
100
AcDbEntity
  8
0
100
AcDbLine
 10
6.242025
 20
5.471814
 30
0.0
 11
6.017069
 21
5.397985
 31
0.0
  0
LINE
  5
E3
330
18
100
AcDbEntity
  8
0
100
AcDbLine
 10
6.207397
 20
5.388156
 30
0.0
 11
5.981559
 21
5.315603
 31
0.0
  0
LINE
  5
E4
330
18
100
AcDbEntity
  8
0
100
AcDbLine
 10
6.260175
 20
5.327325
 30
0.0
 11
6.018708
 21
5.250679
 31
0.0
  0
LINE
  5
E5
330
18
100
AcDbEntity
  8
0
100
AcDbLine
 10
6.544237
 20
5.629948000000001
 30
0.0
 11
6.325663
 21
5.566091
 31
0.0
  0
LINE
  5
E6
330
18
100
AcDbEntity
  8
0
100
AcDbLine
 10
6.578958
 20
5.566326999999999
 30
0.0
 11
6.368389
 21
5.497402
 31
0.0
  0
LINE
  5
E7
330
18
100
AcDbEntity
  8
0
100
AcDbLine
 10
6.560802000000001
 20
5.497824
 30
0.0
 11
6.329917
 21
5.426162000000001
 31
0.0
  0
LINE
  5
E8
330
18
100
AcDbEntity
  8
0
100
AcDbLine
 10
6.597941000000001
 20
5.430543
 30
0.0
 11
6.376233999999999
 21
5.368024
 31
0.0
  0
LINE
  5
E9
330
18
100
AcDbEntity
  8
0
100
AcDbLine
 10
6.644549000000001
 20
5.694374
 30
0.0
 11
6.537835
 21
5.657127
 31
0.0
  0
LINE
  5
EA
330
18
100
AcDbEntity
  8
0
100
AcDbLine
 10
6.629058000000001
 20
5.623365
 30
0.0
 11
6.561564999999999
 21
5.598198
 31
0.0
  0
LINE
  5
EB
330
18
100
AcDbEntity
  8
0
100
AcDbLine
 10
6.684564
 20
5.575003
 30
0.0
 11
6.570558
 21
5.534633
 31
0.0
  0
LINE
  5
EC
330
18
100
AcDbEntity
  8
0
100
AcDbLine
 10
5.960013
 20
5.480564
 30
0.0
 11
6.017069
 21
5.397985
 31
0.0
  0
LINE
  5
ED
330
18
100
AcDbEntity
  8
0
100
AcDbLine
 10
6.017069
 20
5.397985
 30
0.0
 11
5.981559
 21
5.315603
 31
0.0
  0
LINE
  5
EE
330
18
100
AcDbEntity
  8
0
100
AcDbLine
 10
5.981559
 20
5.315603
 30
0.0
 11
6.018708
 21
5.250679
 31
0.0
  0
LINE
  5
EF
330
18
100
AcDbEntity
  8
0
100
AcDbLine
 10
6.202861
 20
5.547192
 30
0.0
 11
6.242025
 21
5.471814
 31
0.0
  0
LINE
  5
F0
330
18
100
AcDbEntity
  8
0
100
AcDbLine
 10
6.242025
 20
5.471814
 30
0.0
 11
6.206375
 21
5.385687
 31
0.0
  0
LINE
  5
F1
330
18
100
AcDbEntity
  8
0
100
AcDbLine
 10
6.206375
 20
5.385687
 30
0.0
 11
6.260175
 21
5.327325
 31
0.0
  0
LINE
  5
F2
330
18
100
AcDbEntity
  8
0
100
AcDbLine
 10
6.325663
 20
5.566091
 30
0.0
 11
6.368389
 21
5.497402
 31
0.0
  0
LINE
  5
F3
330
18
100
AcDbEntity
  8
0
100
AcDbLine
 10
6.368389
 20
5.497402
 30
0.0
 11
6.329917
 21
5.426162000000001
 31
0.0
  0
LINE
  5
F4
330
18
100
AcDbEntity
  8
0
100
AcDbLine
 10
6.329917
 20
5.426162000000001
 30
0.0
 11
6.376233999999999
 21
5.368024
 31
0.0
  0
LINE
  5
F5
330
18
100
AcDbEntity
  8
0
100
AcDbLine
 10
6.644549000000001
 20
5.694374
 30
0.0
 11
6.629058000000001
 21
5.623365
 31
0.0
  0
LINE
  5
F6
330
18
100
AcDbEntity
  8
0
100
AcDbLine
 10
6.629058000000001
 20
5.623365
 30
0.0
 11
6.684564
 21
5.575003
 31
0.0
  0
LINE
  5
F7
330
18
100
AcDbEntity
  8
0
100
AcDbLine
 10
6.684564
 20
5.575003
 30
0.0
 11
6.687644000000001
 21
5.526868
 31
0.0
  0
LINE
  5
F8
330
18
100
AcDbEntity
  8
0
100
AcDbLine
 10
6.544237
 20
5.629948000000001
 30
0.0
 11
6.578958
 21
5.566326999999999
 31
0.0
  0
LINE
  5
F9
330
18
100
AcDbEntity
  8
0
100
AcDbLine
 10
6.578958
 20
5.566326999999999
 30
0.0
 11
6.560802000000001
 21
5.497824
 31
0.0
  0
LINE
  5
FA
330
18
100
AcDbEntity
  8
0
100
AcDbLine
 10
6.560802000000001
 20
5.497824
 30
0.0
 11
6.597941000000001
 21
5.430543
 31
0.0
  0
LINE
  5
FB
330
18
100
AcDbEntity
  8
0
100
AcDbLine
 10
6.018708
 20
5.250679
 30
0.0
 11
6.066106
 21
5.065038
 31
0.0
  0
LINE
  5
FC
330
18
100
AcDbEntity
  8
0
100
AcDbLine
 10
6.260175
 20
5.327325
 30
0.0
 11
6.308924
 21
5.140319
 31
0.0
  0
LINE
  5
FD
330
18
100
AcDbEntity
  8
0
100
AcDbLine
 10
6.376233999999999
 20
5.368024
 30
0.0
 11
6.428341000000001
 21
5.16394
 31
0.0
  0
LINE
  5
FE
330
18
100
AcDbEntity
  8
0
100
AcDbLine
 10
6.597941000000001
 20
5.430543
 30
0.0
 11
6.642355
 21
5.254284999999999
 31
0.0
  0
LINE
  5
FF
330
18
100
AcDbEntity
  8
0
100
AcDbLine
 10
6.687644000000001
 20
5.526868
 30
0.0
 11
6.736041999999999
 21
5.338749
 31
0.0
  0
LINE
  5
100
330
18
100
AcDbEntity
  8
0
100
AcDbLine
 10
6.687644000000001
 20
5.526868
 30
0.0
 11
6.571107000000001
 21
5.479154
 31
0.0
  0
LINE
  5
101
330
18
100
AcDbEntity
  8
0
100
AcDbLine
 10
3.69681
 20
4.610948000000001
 30
0.0
 11
3.696999
 21
4.46675
 31
0.0
  0
LINE
  5
102
330
18
100
AcDbEntity
  8
0
100
AcDbLine
 10
3.512595
 20
4.733802
 30
0.0
 11
3.535434
 21
4.718571
 31
0.0
  0
LINE
  5
103
330
18
100
AcDbEntity
  8
0
100
AcDbLine
 10
3.715402
 20
4.454476000000001
 30
0.0
 11
3.715402
 21
4.10128
 31
0.0
  0
LINE
  5
104
330
18
100
AcDbEntity
  8
0
100
AcDbLine
 10
3.747525
 20
4.472335
 30
0.0
 11
3.747525
 21
4.119491
 31
0.0
  0
LINE
  5
105
330
18
100
AcDbEntity
  8
0
100
AcDbLine
 10
3.715402
 20
4.454476000000001
 30
0.0
 11
3.747525
 21
4.472335
 31
0.0
  0
LINE
  5
106
330
18
100
AcDbEntity
  8
0
100
AcDbLine
 10
3.715402
 20
4.598549
 30
0.0
 11
3.747525
 21
4.616407
 31
0.0
  0
LINE
  5
107
330
18
100
AcDbEntity
  8
0
100
AcDbLine
 10
3.512595
 20
4.58973
 30
0.0
 11
3.535434
 21
4.574498999999999
 31
0.0
  0
LINE
  5
108
330
18
100
AcDbEntity
  8
0
100
AcDbLine
 10
3.729098000000001
 20
4.484624
 30
0.0
 11
3.747525
 21
4.472335
 31
0.0
  0
LINE
  5
109
330
18
100
AcDbEntity
  8
0
100
AcDbLine
 10
3.696999
 20
4.46675
 30
0.0
 11
3.729098000000001
 21
4.484624
 31
0.0
  0
LINE
  5
10A
330
18
100
AcDbEntity
  8
0
100
AcDbLine
 10
3.72894
 20
4.606075
 30
0.0
 11
3.72894
 21
4.484535
 31
0.0
  0
LINE
  5
10B
330
18
100
AcDbEntity
  8
0
100
AcDbLine
 10
3.535434
 20
4.718571
 30
0.0
 11
3.535434
 21
4.574498999999999
 31
0.0
  0
LINE
  5
10C
330
18
100
AcDbEntity
  8
0
100
AcDbLine
 10
3.69681
 20
4.610948000000001
 30
0.0
 11
3.715402
 21
4.598549
 31
0.0
  0
LINE
  5
10D
330
18
100
AcDbEntity
  8
0
100
AcDbLine
 10
3.696999
 20
4.46675
 30
0.0
 11
3.715402
 21
4.454476000000001
 31
0.0
  0
LINE
  5
10E
330
18
100
AcDbEntity
  8
0
100
AcDbLine
 10
3.512595
 20
4.58973
 30
0.0
 11
3.512595
 21
4.209466
 31
0.0
  0
LWPOLYLINE
  5
10F
330
18
100
AcDbEntity
  8
0
100
AcDbPolyline
 90
       16
 70
     1
 43
0.0
 10
3.613039
 20
4.777801
 42
0.120333
 10
3.607934
 20
4.775548000000001
 42
0.105019
 10
3.603798
 20
4.7707
 42
0.088774
 10
3.601733
 20
4.764465
 42
0.079934
 10
3.601854
 20
4.757181
 42
0.079934
 10
3.604254
 20
4.750304
 42
0.088774
 10
3.608345
 20
4.745165
 42
0.105019
 10
3.6139
 20
4.742043
 42
0.120333
 10
3.619469
 20
4.74169
 42
0.120333
 10
3.624574
 20
4.743944
 42
0.105019
 10
3.62871
 20
4.748791000000001
 42
0.088774
 10
3.630775
 20
4.755027
 42
0.079934
 10
3.630654
 20
4.76231
 42
0.079934
 10
3.628254
 20
4.769187000000001
 42
0.088774
 10
3.624163
 20
4.774326
 42
0.105019
 10
3.618608
 20
4.777448000000001
 42
0.120333
  0
LWPOLYLINE
  5
122
330
18
100
AcDbEntity
  8
0
100
AcDbPolyline
 90
        3
 70
     0
 43
0.0
 10
3.616747
 20
4.781821
 42
0.120333
 10
3.611642
 20
4.779568
 42
0.087661
 10
3.608041000000001
 20
4.775629
 42
0.088774
  0
LWPOLYLINE
  5
128
330
18
100
AcDbEntity
  8
0
100
AcDbPolyline
 90
        9
 70
     0
 43
0.0
 10
3.628175
 20
4.747882
 42
0.002863
 10
3.628282
 20
4.747964
 42
0.105019
 10
3.632418
 20
4.752811
 42
0.088774
 10
3.634484
 20
4.759047
 42
0.079934
 10
3.634362
 20
4.76633
 42
0.079934
 10
3.631962
 20
4.773207
 42
0.088774
 10
3.627871
 20
4.778346
 42
0.105019
 10
3.622316000000001
 20
4.781468
 42
0.120333
 10
3.616747
 20
4.781821
 42
0.120333
  0
LWPOLYLINE
  5
134
330
18
100
AcDbEntity
  8
0
100
AcDbPolyline
 90
       16
 70
     1
 43
0.0
 10
3.699985
 20
4.451080999999999
 42
0.120333
 10
3.69488
 20
4.448827
 42
0.105019
 10
3.690745
 20
4.443979
 42
0.088774
 10
3.688679
 20
4.437744
 42
0.079934
 10
3.6888
 20
4.430461
 42
0.079934
 10
3.6912
 20
4.423583
 42
0.088774
 10
3.695291000000001
 20
4.418444999999999
 42
0.105019
 10
3.700846
 20
4.415322
 42
0.120333
 10
3.706415
 20
4.414969
 42
0.120333
 10
3.71152
 20
4.417223
 42
0.105019
 10
3.715656
 20
4.422071
 42
0.088774
 10
3.717721
 20
4.428306
 42
0.079934
 10
3.7176
 20
4.435589
 42
0.079934
 10
3.7152
 20
4.442467
 42
0.088774
 10
3.711109
 20
4.447605
 42
0.105019
 10
3.705554
 20
4.450728
 42
0.120333
  0
LWPOLYLINE
  5
147
330
18
100
AcDbEntity
  8
0
100
AcDbPolyline
 90
        3
 70
     0
 43
0.0
 10
3.703693
 20
4.455101
 42
0.120333
 10
3.698588
 20
4.452847
 42
0.087661
 10
3.694987
 20
4.448909
 42
0.088774
  0
LWPOLYLINE
  5
14D
330
18
100
AcDbEntity
  8
0
100
AcDbPolyline
 90
        9
 70
     0
 43
0.0
 10
3.715121
 20
4.421161
 42
0.002863
 10
3.715228
 20
4.421243
 42
0.105019
 10
3.719364
 20
4.426091
 42
0.088774
 10
3.72143
 20
4.432326
 42
0.079934
 10
3.721308
 20
4.439609
 42
0.079934
 10
3.718908
 20
4.446487
 42
0.088774
 10
3.714817
 20
4.451625
 42
0.105019
 10
3.709262
 20
4.454748
 42
0.120333
 10
3.703693
 20
4.455101
 42
0.120333
  0
LWPOLYLINE
  5
159
330
18
100
AcDbEntity
  8
0
100
AcDbPolyline
 90
       16
 70
     1
 43
0.0
 10
3.613039
 20
4.273966000000001
 42
0.120333
 10
3.607934
 20
4.271712
 42
0.105019
 10
3.603798
 20
4.266865
 42
0.088774
 10
3.601733
 20
4.260629
 42
0.079934
 10
3.601854
 20
4.253346
 42
0.079934
 10
3.604254
 20
4.246469
 42
0.088774
 10
3.608345
 20
4.241330000000001
 42
0.105019
 10
3.6139
 20
4.238208
 42
0.120333
 10
3.619469
 20
4.237855000000001
 42
0.120333
 10
3.624574
 20
4.240108
 42
0.105019
 10
3.62871
 20
4.244956
 42
0.088774
 10
3.630775
 20
4.251191
 42
0.079934
 10
3.630654
 20
4.258475
 42
0.079934
 10
3.628254
 20
4.265352
 42
0.088774
 10
3.624163
 20
4.270491000000001
 42
0.105019
 10
3.618608
 20
4.273613
 42
0.120333
  0
LWPOLYLINE
  5
16C
330
18
100
AcDbEntity
  8
0
100
AcDbPolyline
 90
        3
 70
     0
 43
0.0
 10
3.616747
 20
4.277986
 42
0.120333
 10
3.611642
 20
4.275732
 42
0.087661
 10
3.608041000000001
 20
4.271794
 42
0.088774
  0
LWPOLYLINE
  5
172
330
18
100
AcDbEntity
  8
0
100
AcDbPolyline
 90
        9
 70
     0
 43
0.0
 10
3.628175
 20
4.244047
 42
0.002863
 10
3.628282
 20
4.244128
 42
0.105019
 10
3.632418
 20
4.248976
 42
0.088774
 10
3.634484
 20
4.255211
 42
0.079934
 10
3.634362
 20
4.262495
 42
0.079934
 10
3.631962
 20
4.269372
 42
0.088774
 10
3.627871
 20
4.274511
 42
0.105019
 10
3.622316000000001
 20
4.277633
 42
0.120333
 10
3.616747
 20
4.277986
 42
0.120333
  0
LWPOLYLINE
  5
17E
330
18
100
AcDbEntity
  8
0
100
AcDbPolyline
 90
       16
 70
     1
 43
0.0
 10
3.664532
 20
4.992881
 42
0.120333
 10
3.659427
 20
4.990628
 42
0.105019
 10
3.655292
 20
4.98578
 42
0.088774
 10
3.653226
 20
4.979545
 42
0.079934
 10
3.653348
 20
4.972261000000001
 42
0.079934
 10
3.655748
 20
4.965383999999999
 42
0.088774
 10
3.659839
 20
4.960245
 42
0.105019
 10
3.665394
 20
4.957123
 42
0.120333
 10
3.670963
 20
4.95677
 42
0.120333
 10
3.676067
 20
4.959023999999999
 42
0.105019
 10
3.680203
 20
4.963871
 42
0.088774
 10
3.682269
 20
4.970107
 42
0.079934
 10
3.682147
 20
4.97739
 42
0.079934
 10
3.679747
 20
4.984267
 42
0.088774
 10
3.675656
 20
4.989406
 42
0.105019
 10
3.670101
 20
4.992528
 42
0.120333
  0
LWPOLYLINE
  5
191
330
18
100
AcDbEntity
  8
0
100
AcDbPolyline
 90
        3
 70
     0
 43
0.0
 10
3.668241000000001
 20
4.996901
 42
0.120333
 10
3.663136
 20
4.994648000000001
 42
0.087661
 10
3.659535
 20
4.990709
 42
0.088774
  0
LWPOLYLINE
  5
197
330
18
100
AcDbEntity
  8
0
100
AcDbPolyline
 90
        9
 70
     0
 43
0.0
 10
3.679668
 20
4.962962
 42
0.002863
 10
3.679776
 20
4.963044
 42
0.105019
 10
3.683911
 20
4.967891000000001
 42
0.088774
 10
3.685977
 20
4.974126999999999
 42
0.079934
 10
3.685855
 20
4.981409999999999
 42
0.079934
 10
3.683455
 20
4.988287000000001
 42
0.088774
 10
3.679364
 20
4.993426
 42
0.105019
 10
3.67381
 20
4.996548000000001
 42
0.120333
 10
3.668241000000001
 20
4.996901
 42
0.120333
  0
LWPOLYLINE
  5
1A3
330
18
100
AcDbEntity
  8
0
100
AcDbPolyline
 90
       16
 70
     1
 43
0.0
 10
3.613579
 20
5.060148000000001
 42
0.120333
 10
3.608474
 20
5.057894
 42
0.105019
 10
3.604338
 20
5.053046
 42
0.088774
 10
3.602273
 20
5.046811
 42
0.079934
 10
3.602394
 20
5.039528
 42
0.079934
 10
3.604794
 20
5.032651
 42
0.088774
 10
3.608885
 20
5.027512000000001
 42
0.105019
 10
3.61444
 20
5.024389
 42
0.120333
 10
3.620009
 20
5.024036
 42
0.120333
 10
3.625114
 20
5.02629
 42
0.105019
 10
3.62925
 20
5.031137999999999
 42
0.088774
 10
3.631315
 20
5.037373000000001
 42
0.079934
 10
3.631194
 20
5.044656
 42
0.079934
 10
3.628794
 20
5.051533999999999
 42
0.088774
 10
3.624703
 20
5.056673
 42
0.105019
 10
3.619148000000001
 20
5.059794999999999
 42
0.120333
  0
LWPOLYLINE
  5
1B6
330
18
100
AcDbEntity
  8
0
100
AcDbPolyline
 90
        3
 70
     0
 43
0.0
 10
3.617287
 20
5.064168
 42
0.120333
 10
3.612182
 20
5.061914
 42
0.087661
 10
3.608581
 20
5.057976
 42
0.088774
  0
LWPOLYLINE
  5
1BC
330
18
100
AcDbEntity
  8
0
100
AcDbPolyline
 90
        9
 70
     0
 43
0.0
 10
3.628715
 20
5.030229
 42
0.002863
 10
3.628822
 20
5.03031
 42
0.105019
 10
3.632958
 20
5.035158
 42
0.088774
 10
3.635024
 20
5.041393
 42
0.079934
 10
3.634902
 20
5.048676
 42
0.079934
 10
3.632502
 20
5.055554
 42
0.088774
 10
3.628411
 20
5.060693
 42
0.105019
 10
3.622856
 20
5.063815
 42
0.120333
 10
3.617287
 20
5.064168
 42
0.120333
  0
LWPOLYLINE
  5
1C8
330
18
100
AcDbEntity
  8
0
100
AcDbPolyline
 90
       16
 70
     1
 43
0.0
 10
3.566577
 20
5.15649
 42
0.120333
 10
3.561472
 20
5.154237
 42
0.105019
 10
3.557336
 20
5.149389
 42
0.088774
 10
3.555271
 20
5.143153
 42
0.079934
 10
3.555392
 20
5.13587
 42
0.079934
 10
3.557792
 20
5.128993
 42
0.088774
 10
3.561883
 20
5.123854
 42
0.105019
 10
3.567438
 20
5.120732
 42
0.120333
 10
3.573007
 20
5.120379
 42
0.120333
 10
3.578112
 20
5.122632
 42
0.105019
 10
3.582248
 20
5.12748
 42
0.088774
 10
3.584313
 20
5.133716000000001
 42
0.079934
 10
3.584192
 20
5.140999
 42
0.079934
 10
3.581792
 20
5.147876
 42
0.088774
 10
3.577701
 20
5.153015
 42
0.105019
 10
3.572146
 20
5.156137
 42
0.120333
  0
LWPOLYLINE
  5
1DB
330
18
100
AcDbEntity
  8
0
100
AcDbPolyline
 90
        3
 70
     0
 43
0.0
 10
3.570285
 20
5.16051
 42
0.120333
 10
3.56518
 20
5.158256
 42
0.087661
 10
3.561579
 20
5.154318
 42
0.088774
  0
LWPOLYLINE
  5
1E1
330
18
100
AcDbEntity
  8
0
100
AcDbPolyline
 90
        9
 70
     0
 43
0.0
 10
3.581713
 20
5.126571
 42
0.002863
 10
3.58182
 20
5.126652
 42
0.105019
 10
3.585956
 20
5.1315
 42
0.088774
 10
3.588022
 20
5.137735
 42
0.079934
 10
3.5879
 20
5.145019000000001
 42
0.079934
 10
3.5855
 20
5.151896
 42
0.088774
 10
3.581409
 20
5.157035
 42
0.105019
 10
3.575854
 20
5.160157
 42
0.120333
 10
3.570285
 20
5.16051
 42
0.120333
  0
LWPOLYLINE
  5
1ED
330
18
100
AcDbEntity
  8
0
100
AcDbPolyline
 90
       16
 70
     1
 43
0.0
 10
3.657073000000001
 20
5.358922
 42
0.120333
 10
3.651968
 20
5.356669
 42
0.105019
 10
3.647832
 20
5.351821
 42
0.088774
 10
3.645767
 20
5.345586
 42
0.079934
 10
3.645888
 20
5.338302
 42
0.079934
 10
3.648288
 20
5.331425
 42
0.088774
 10
3.652379
 20
5.326286
 42
0.105019
 10
3.657934
 20
5.323164
 42
0.120333
 10
3.663503
 20
5.322811
 42
0.120333
 10
3.668608
 20
5.325065
 42
0.105019
 10
3.672744
 20
5.329912
 42
0.088774
 10
3.674809
 20
5.336148000000001
 42
0.079934
 10
3.674688
 20
5.343431
 42
0.079934
 10
3.672288
 20
5.350308
 42
0.088774
 10
3.668197
 20
5.355447
 42
0.105019
 10
3.662642
 20
5.358569
 42
0.120333
  0
LWPOLYLINE
  5
200
330
18
100
AcDbEntity
  8
0
100
AcDbPolyline
 90
        3
 70
     0
 43
0.0
 10
3.660781
 20
5.362941999999999
 42
0.120333
 10
3.655676
 20
5.360689
 42
0.087661
 10
3.652075
 20
5.35675
 42
0.088774
  0
LWPOLYLINE
  5
206
330
18
100
AcDbEntity
  8
0
100
AcDbPolyline
 90
        9
 70
     0
 43
0.0
 10
3.672209
 20
5.329003
 42
0.002863
 10
3.672316
 20
5.329085
 42
0.105019
 10
3.676452
 20
5.333932
 42
0.088774
 10
3.678518
 20
5.340168
 42
0.079934
 10
3.678396
 20
5.347451
 42
0.079934
 10
3.675996
 20
5.354328
 42
0.088774
 10
3.671905
 20
5.359467
 42
0.105019
 10
3.66635
 20
5.362589
 42
0.120333
 10
3.660781
 20
5.362941999999999
 42
0.120333
  0
LWPOLYLINE
  5
212
330
18
100
AcDbEntity
  8
0
100
AcDbPolyline
 90
       16
 70
     1
 43
0.0
 10
3.558129
 20
5.515512999999999
 42
0.120333
 10
3.553024
 20
5.513259
 42
0.105019
 10
3.548889
 20
5.508411
 42
0.088774
 10
3.546823
 20
5.502176
 42
0.079934
 10
3.546945
 20
5.494893
 42
0.079934
 10
3.549345
 20
5.488016
 42
0.088774
 10
3.553436
 20
5.482876999999999
 42
0.105019
 10
3.55899
 20
5.479755
 42
0.120333
 10
3.564559
 20
5.479401999999999
 42
0.120333
 10
3.569664
 20
5.481655
 42
0.105019
 10
3.5738
 20
5.486503
 42
0.088774
 10
3.575866
 20
5.492738
 42
0.079934
 10
3.575744
 20
5.500021
 42
0.079934
 10
3.573344
 20
5.506899
 42
0.088774
 10
3.569253
 20
5.512038
 42
0.105019
 10
3.563698000000001
 20
5.51516
 42
0.120333
  0
LWPOLYLINE
  5
225
330
18
100
AcDbEntity
  8
0
100
AcDbPolyline
 90
        3
 70
     0
 43
0.0
 10
3.561837
 20
5.519533
 42
0.120333
 10
3.556733
 20
5.517279
 42
0.087661
 10
3.553132
 20
5.513341000000001
 42
0.088774
  0
LWPOLYLINE
  5
22B
330
18
100
AcDbEntity
  8
0
100
AcDbPolyline
 90
        9
 70
     0
 43
0.0
 10
3.573265
 20
5.485594
 42
0.002863
 10
3.573373
 20
5.485675
 42
0.105019
 10
3.577508
 20
5.490523000000001
 42
0.088774
 10
3.579574
 20
5.496758
 42
0.079934
 10
3.579452
 20
5.504041
 42
0.079934
 10
3.577052
 20
5.510919
 42
0.088774
 10
3.572961
 20
5.516058
 42
0.105019
 10
3.567406
 20
5.51918
 42
0.120333
 10
3.561837
 20
5.519533
 42
0.120333
  0
LWPOLYLINE
  5
237
330
18
100
AcDbEntity
  8
0
100
AcDbPolyline
 90
       16
 70
     1
 43
0.0
 10
3.604854
 20
5.631769
 42
0.120333
 10
3.599749
 20
5.629515000000001
 42
0.105019
 10
3.595613
 20
5.624668
 42
0.088774
 10
3.593547
 20
5.618432
 42
0.079934
 10
3.593669
 20
5.611149
 42
0.079934
 10
3.596069
 20
5.604272
 42
0.088774
 10
3.60016
 20
5.599133
 42
0.105019
 10
3.605715
 20
5.596011
 42
0.120333
 10
3.611284
 20
5.595658
 42
0.120333
 10
3.616389
 20
5.597911
 42
0.105019
 10
3.620524
 20
5.602759
 42
0.088774
 10
3.62259
 20
5.608994
 42
0.079934
 10
3.622468
 20
5.616276999999999
 42
0.079934
 10
3.620068
 20
5.623155000000001
 42
0.088774
 10
3.615977
 20
5.628294
 42
0.105019
 10
3.610423
 20
5.631416000000001
 42
0.120333
  0
LWPOLYLINE
  5
24A
330
18
100
AcDbEntity
  8
0
100
AcDbPolyline
 90
        3
 70
     0
 43
0.0
 10
3.608562
 20
5.635789
 42
0.120333
 10
3.603457
 20
5.633535
 42
0.087661
 10
3.599856
 20
5.629597
 42
0.088774
  0
LWPOLYLINE
  5
250
330
18
100
AcDbEntity
  8
0
100
AcDbPolyline
 90
        9
 70
     0
 43
0.0
 10
3.61999
 20
5.60185
 42
0.002863
 10
3.620097
 20
5.601931
 42
0.105019
 10
3.624233
 20
5.606779
 42
0.088774
 10
3.626298
 20
5.613014
 42
0.079934
 10
3.626177
 20
5.620297
 42
0.079934
 10
3.623777
 20
5.627175
 42
0.088774
 10
3.619686
 20
5.632314
 42
0.105019
 10
3.614131
 20
5.635436
 42
0.120333
 10
3.608562
 20
5.635789
 42
0.120333
  0
LWPOLYLINE
  5
25C
330
18
100
AcDbEntity
  8
0
100
AcDbPolyline
 90
       16
 70
     1
 43
0.0
 10
3.655591
 20
5.729968
 42
0.120333
 10
3.650486
 20
5.727715
 42
0.105019
 10
3.646351
 20
5.722867
 42
0.088774
 10
3.644285
 20
5.716632
 42
0.079934
 10
3.644406
 20
5.709348
 42
0.079934
 10
3.646806
 20
5.702471
 42
0.088774
 10
3.650897
 20
5.697332
 42
0.105019
 10
3.656452
 20
5.69421
 42
0.120333
 10
3.662021
 20
5.693857
 42
0.120333
 10
3.667126
 20
5.696111
 42
0.105019
 10
3.671262000000001
 20
5.700958
 42
0.088774
 10
3.673327
 20
5.707194
 42
0.079934
 10
3.673206
 20
5.714477
 42
0.079934
 10
3.670806
 20
5.721354
 42
0.088774
 10
3.666715
 20
5.726493
 42
0.105019
 10
3.66116
 20
5.729615
 42
0.120333
  0
LWPOLYLINE
  5
26F
330
18
100
AcDbEntity
  8
0
100
AcDbPolyline
 90
        3
 70
     0
 43
0.0
 10
3.659299
 20
5.733988
 42
0.120333
 10
3.654194
 20
5.731735
 42
0.087661
 10
3.650593
 20
5.727796
 42
0.088774
  0
LWPOLYLINE
  5
275
330
18
100
AcDbEntity
  8
0
100
AcDbPolyline
 90
        9
 70
     0
 43
0.0
 10
3.670727
 20
5.700049
 42
0.002863
 10
3.670834
 20
5.700130000000001
 42
0.105019
 10
3.67497
 20
5.704978
 42
0.088774
 10
3.677036
 20
5.711214
 42
0.079934
 10
3.676914
 20
5.718497
 42
0.079934
 10
3.674514
 20
5.725374
 42
0.088774
 10
3.670423
 20
5.730512999999999
 42
0.105019
 10
3.664868
 20
5.733635
 42
0.120333
 10
3.659299
 20
5.733988
 42
0.120333
  0
LWPOLYLINE
  5
281
330
18
100
AcDbEntity
  8
0
100
AcDbPolyline
 90
       16
 70
     1
 43
0.0
 10
3.555865
 20
5.887398999999999
 42
0.120333
 10
3.551271
 20
5.885371
 42
0.105019
 10
3.547549
 20
5.881008000000001
 42
0.088774
 10
3.545689
 20
5.875396
 42
0.079934
 10
3.545799
 20
5.868841000000001
 42
0.079934
 10
3.547959
 20
5.862652
 42
0.088774
 10
3.551641000000001
 20
5.858027
 42
0.105019
 10
3.55664
 20
5.855217
 42
0.120333
 10
3.561652
 20
5.854899
 42
0.120333
 10
3.566247
 20
5.856927
 42
0.105019
 10
3.569969
 20
5.86129
 42
0.088774
 10
3.571828
 20
5.866902
 42
0.079934
 10
3.571718
 20
5.873457
 42
0.079934
 10
3.569558
 20
5.879646
 42
0.088774
 10
3.565876
 20
5.884271
 42
0.105019
 10
3.560877
 20
5.887080999999999
 42
0.120333
  0
LWPOLYLINE
  5
294
330
18
100
AcDbEntity
  8
0
100
AcDbPolyline
 90
        3
 70
     0
 43
0.0
 10
3.559202
 20
5.891017
 42
0.120333
 10
3.554608
 20
5.888989
 42
0.087661
 10
3.551367
 20
5.885444000000001
 42
0.088774
  0
LWPOLYLINE
  5
29A
330
18
100
AcDbEntity
  8
0
100
AcDbPolyline
 90
        9
 70
     0
 43
0.0
 10
3.569488
 20
5.860472
 42
0.002863
 10
3.569584
 20
5.860545
 42
0.105019
 10
3.573306
 20
5.864908
 42
0.088774
 10
3.575165
 20
5.87052
 42
0.079934
 10
3.575056
 20
5.877075
 42
0.079934
 10
3.572896
 20
5.883264
 42
0.088774
 10
3.569214
 20
5.887889
 42
0.105019
 10
3.564215
 20
5.890699
 42
0.120333
 10
3.559202
 20
5.891017
 42
0.120333
  0
LWPOLYLINE
  5
2A6
330
18
100
AcDbEntity
  8
0
100
AcDbPolyline
 90
       16
 70
     1
 43
0.0
 10
3.609829
 20
5.972274
 42
0.120333
 10
3.605235
 20
5.970244999999999
 42
0.105019
 10
3.601513
 20
5.965882
 42
0.088774
 10
3.599654
 20
5.960271
 42
0.079934
 10
3.599763
 20
5.953716
 42
0.079934
 10
3.601923
 20
5.947526
 42
0.088774
 10
3.605605
 20
5.942901
 42
0.105019
 10
3.610605000000001
 20
5.940091000000001
 42
0.120333
 10
3.615617
 20
5.939773000000001
 42
0.120333
 10
3.620211
 20
5.941802
 42
0.105019
 10
3.623933
 20
5.946165000000001
 42
0.088774
 10
3.625792
 20
5.951776000000001
 42
0.079934
 10
3.625683
 20
5.958330999999999
 42
0.079934
 10
3.623523000000001
 20
5.964521
 42
0.088774
 10
3.619841000000001
 20
5.969146
 42
0.105019
 10
3.614842
 20
5.971956
 42
0.120333
  0
LWPOLYLINE
  5
2B9
330
18
100
AcDbEntity
  8
0
100
AcDbPolyline
 90
        3
 70
     0
 43
0.0
 10
3.613167
 20
5.975892
 42
0.120333
 10
3.608573
 20
5.973863
 42
0.087661
 10
3.605332
 20
5.970319
 42
0.088774
  0
LWPOLYLINE
  5
2BF
330
18
100
AcDbEntity
  8
0
100
AcDbPolyline
 90
        9
 70
     0
 43
0.0
 10
3.623452
 20
5.945346
 42
0.002863
 10
3.623549
 20
5.94542
 42
0.105019
 10
3.627271
 20
5.949783
 42
0.088774
 10
3.62913
 20
5.955394
 42
0.079934
 10
3.62902
 20
5.961949
 42
0.079934
 10
3.62686
 20
5.968139
 42
0.088774
 10
3.623178
 20
5.972764
 42
0.105019
 10
3.618179
 20
5.975574
 42
0.120333
 10
3.613167
 20
5.975892
 42
0.120333
  0
LWPOLYLINE
  5
2CB
330
18
100
AcDbEntity
  8
0
100
AcDbPolyline
 90
       16
 70
     1
 43
0.0
 10
3.660575
 20
6.064456
 42
0.120333
 10
3.655980000000001
 20
6.062428
 42
0.105019
 10
3.652258
 20
6.058065
 42
0.088774
 10
3.650399
 20
6.052453
 42
0.079934
 10
3.650509
 20
6.045898
 42
0.079934
 10
3.652669
 20
6.039708
 42
0.088774
 10
3.656351
 20
6.035083
 42
0.105019
 10
3.66135
 20
6.032273
 42
0.120333
 10
3.666362
 20
6.031956
 42
0.120333
 10
3.670956
 20
6.033983999999999
 42
0.105019
 10
3.674678
 20
6.038347
 42
0.088774
 10
3.676538
 20
6.043959
 42
0.079934
 10
3.676428
 20
6.050514
 42
0.079934
 10
3.674268
 20
6.056703
 42
0.088774
 10
3.670586
 20
6.061328
 42
0.105019
 10
3.665587
 20
6.064138
 42
0.120333
  0
LWPOLYLINE
  5
2DE
330
18
100
AcDbEntity
  8
0
100
AcDbPolyline
 90
        3
 70
     0
 43
0.0
 10
3.663912
 20
6.068074
 42
0.120333
 10
3.659318
 20
6.066046
 42
0.087661
 10
3.656077
 20
6.062501
 42
0.088774
  0
LWPOLYLINE
  5
2E4
330
18
100
AcDbEntity
  8
0
100
AcDbPolyline
 90
        9
 70
     0
 43
0.0
 10
3.674197
 20
6.037529
 42
0.002863
 10
3.674294
 20
6.037602
 42
0.105019
 10
3.678016
 20
6.041965
 42
0.088774
 10
3.679875
 20
6.047577
 42
0.079934
 10
3.679766
 20
6.054131
 42
0.079934
 10
3.677606
 20
6.060321
 42
0.088774
 10
3.673924
 20
6.064946
 42
0.105019
 10
3.668924
 20
6.067756
 42
0.120333
 10
3.663912
 20
6.068074
 42
0.120333
  0
LWPOLYLINE
  5
2F0
330
18
100
AcDbEntity
  8
0
100
AcDbPolyline
 90
       16
 70
     1
 43
0.0
 10
3.551574
 20
6.285242
 42
0.120333
 10
3.546979
 20
6.283214
 42
0.105019
 10
3.543257
 20
6.278851
 42
0.088774
 10
3.541398000000001
 20
6.273239
 42
0.079934
 10
3.541508
 20
6.266685
 42
0.079934
 10
3.543667
 20
6.260495
 42
0.088774
 10
3.547349
 20
6.25587
 42
0.105019
 10
3.552349
 20
6.25306
 42
0.120333
 10
3.557361
 20
6.252742
 42
0.120333
 10
3.561955
 20
6.25477
 42
0.105019
 10
3.565677
 20
6.259134
 42
0.088774
 10
3.567536
 20
6.264745
 42
0.079934
 10
3.567427
 20
6.2713
 42
0.079934
 10
3.565267
 20
6.27749
 42
0.088774
 10
3.561585
 20
6.282115
 42
0.105019
 10
3.556586
 20
6.284925
 42
0.120333
  0
LWPOLYLINE
  5
303
330
18
100
AcDbEntity
  8
0
100
AcDbPolyline
 90
        3
 70
     0
 43
0.0
 10
3.554911
 20
6.28886
 42
0.120333
 10
3.550317
 20
6.286832
 42
0.087661
 10
3.547076
 20
6.283287000000001
 42
0.088774
  0
LWPOLYLINE
  5
309
330
18
100
AcDbEntity
  8
0
100
AcDbPolyline
 90
        9
 70
     0
 43
0.0
 10
3.565196
 20
6.258315000000001
 42
0.002863
 10
3.565293
 20
6.258388
 42
0.105019
 10
3.569015
 20
6.262751000000001
 42
0.088774
 10
3.570874
 20
6.268363
 42
0.079934
 10
3.570764
 20
6.274918
 42
0.079934
 10
3.568604
 20
6.281108000000001
 42
0.088774
 10
3.564923
 20
6.285733000000001
 42
0.105019
 10
3.559923
 20
6.288543
 42
0.120333
 10
3.554911
 20
6.28886
 42
0.120333
  0
LWPOLYLINE
  5
315
330
18
100
AcDbEntity
  8
0
100
AcDbPolyline
 90
       16
 70
     1
 43
0.0
 10
3.661081
 20
6.440513
 42
0.120333
 10
3.656487
 20
6.438485
 42
0.105019
 10
3.652765
 20
6.434122
 42
0.088774
 10
3.650906
 20
6.42851
 42
0.079934
 10
3.651015
 20
6.421955000000001
 42
0.079934
 10
3.653175
 20
6.415765
 42
0.088774
 10
3.656857
 20
6.411140000000001
 42
0.105019
 10
3.661856
 20
6.40833
 42
0.120333
 10
3.666868
 20
6.408013
 42
0.120333
 10
3.671463
 20
6.410041000000001
 42
0.105019
 10
3.675185
 20
6.414404
 42
0.088774
 10
3.677044
 20
6.420016
 42
0.079934
 10
3.676934
 20
6.426571
 42
0.079934
 10
3.674774
 20
6.43276
 42
0.088774
 10
3.671093
 20
6.437385
 42
0.105019
 10
3.666093
 20
6.440195
 42
0.120333
  0
LWPOLYLINE
  5
328
330
18
100
AcDbEntity
  8
0
100
AcDbPolyline
 90
        3
 70
     0
 43
0.0
 10
3.664419
 20
6.444131
 42
0.120333
 10
3.659824
 20
6.442103
 42
0.087661
 10
3.656583
 20
6.438558
 42
0.088774
  0
LWPOLYLINE
  5
32E
330
18
100
AcDbEntity
  8
0
100
AcDbPolyline
 90
        9
 70
     0
 43
0.0
 10
3.674704
 20
6.413586000000001
 42
0.002863
 10
3.6748
 20
6.413659
 42
0.105019
 10
3.678522
 20
6.418022000000001
 42
0.088774
 10
3.680381
 20
6.423634
 42
0.079934
 10
3.680272
 20
6.430189
 42
0.079934
 10
3.678112
 20
6.436378
 42
0.088774
 10
3.67443
 20
6.441003
 42
0.105019
 10
3.669431
 20
6.443813
 42
0.120333
 10
3.664419
 20
6.444131
 42
0.120333
  0
LWPOLYLINE
  5
33A
330
18
100
AcDbEntity
  8
0
100
AcDbPolyline
 90
       16
 70
     1
 43
0.0
 10
3.616228
 20
6.579886999999999
 42
0.120333
 10
3.611634
 20
6.577858999999999
 42
0.105019
 10
3.607912
 20
6.573496
 42
0.088774
 10
3.606052
 20
6.567883999999999
 42
0.079934
 10
3.606162
 20
6.561329
 42
0.079934
 10
3.608322
 20
6.55514
 42
0.088774
 10
3.612004
 20
6.550515
 42
0.105019
 10
3.617003
 20
6.547704
 42
0.120333
 10
3.622015
 20
6.547387000000001
 42
0.120333
 10
3.62661
 20
6.549415
 42
0.105019
 10
3.630332
 20
6.553778
 42
0.088774
 10
3.632191
 20
6.55939
 42
0.079934
 10
3.632081
 20
6.565945
 42
0.079934
 10
3.629921
 20
6.572133999999999
 42
0.088774
 10
3.626239
 20
6.576759
 42
0.105019
 10
3.62124
 20
6.579569
 42
0.120333
  0
LWPOLYLINE
  5
34D
330
18
100
AcDbEntity
  8
0
100
AcDbPolyline
 90
        3
 70
     0
 43
0.0
 10
3.619565
 20
6.583505000000001
 42
0.120333
 10
3.614971
 20
6.581477000000001
 42
0.087661
 10
3.61173
 20
6.577932000000001
 42
0.088774
  0
LWPOLYLINE
  5
353
330
18
100
AcDbEntity
  8
0
100
AcDbPolyline
 90
        9
 70
     0
 43
0.0
 10
3.629851
 20
6.55296
 42
0.002863
 10
3.629947
 20
6.553033
 42
0.105019
 10
3.633669
 20
6.557396000000001
 42
0.088774
 10
3.635528
 20
6.563008
 42
0.079934
 10
3.635419
 20
6.569563000000001
 42
0.079934
 10
3.633259
 20
6.575752000000001
 42
0.088774
 10
3.629577
 20
6.580377
 42
0.105019
 10
3.624578
 20
6.583187
 42
0.120333
 10
3.619565
 20
6.583505000000001
 42
0.120333
  0
LWPOLYLINE
  5
35F
330
18
100
AcDbEntity
  8
0
100
AcDbPolyline
 90
       16
 70
     1
 43
0.0
 10
3.556262
 20
6.672336000000001
 42
0.120333
 10
3.55177
 20
6.670353
 42
0.105019
 10
3.548130000000001
 20
6.666086999999999
 42
0.088774
 10
3.546313
 20
6.6606
 42
0.079934
 10
3.54642
 20
6.654191
 42
0.079934
 10
3.548532
 20
6.648139
 42
0.088774
 10
3.552132
 20
6.643617
 42
0.105019
 10
3.55702
 20
6.640869
 42
0.120333
 10
3.561921
 20
6.640559
 42
0.120333
 10
3.566413
 20
6.642542
 42
0.105019
 10
3.570052
 20
6.646808
 42
0.088774
 10
3.57187
 20
6.652295
 42
0.079934
 10
3.571763
 20
6.658703999999999
 42
0.079934
 10
3.569651
 20
6.664756
 42
0.088774
 10
3.566051
 20
6.669278
 42
0.105019
 10
3.561163
 20
6.672026
 42
0.120333
  0
LWPOLYLINE
  5
372
330
18
100
AcDbEntity
  8
0
100
AcDbPolyline
 90
        3
 70
     0
 43
0.0
 10
3.573375
 20
6.670336
 42
0.120333
 10
3.568883
 20
6.668353
 42
0.087661
 10
3.565714
 20
6.664886999999999
 42
0.088774
  0
LWPOLYLINE
  5
378
330
18
100
AcDbEntity
  8
0
100
AcDbPolyline
 90
        9
 70
     0
 43
0.0
 10
3.569582
 20
6.646008
 42
0.002863
 10
3.569676
 20
6.646078999999999
 42
0.105019
 10
3.573316
 20
6.650345
 42
0.088774
 10
3.575133
 20
6.655832000000001
 42
0.079934
 10
3.575026
 20
6.662242
 42
0.079934
 10
3.572914
 20
6.668294
 42
0.088774
 10
3.569314
 20
6.672816
 42
0.105019
 10
3.564426
 20
6.675563
 42
0.120333
 10
3.559525
 20
6.675874
 42
0.120333
  0
LWPOLYLINE
  5
384
330
18
100
AcDbEntity
  8
0
100
AcDbPolyline
 90
       44
 70
     0
 43
0.0
 10
2.947437
 20
3.355964
 10
2.946694
 20
3.316813
 10
2.95375
 20
3.259642
 10
2.960798
 20
3.208487
 10
2.964874
 20
3.142295
 10
2.966936
 20
3.091148
 10
2.963025
 20
3.030985
 10
2.952135
 20
2.968826
 10
2.935252
 20
2.913697
 10
2.923333
 20
2.875608
 10
2.918367
 20
2.85957
 10
2.908442
 20
2.822481
 10
2.918479
 20
2.77433
 10
2.930515
 20
2.722165
 10
2.925554
 20
2.702116
 10
2.910624
 20
2.679074
 10
2.895721
 20
2.634973
 10
2.892812
 20
2.571799
 10
2.899877
 20
2.507608
 10
2.915963
 20
2.409307
 10
2.940048
 20
2.295952
 10
2.953111
 20
2.221723
 10
2.971134
 20
2.167543
 10
2.992157
 20
2.107342
 10
3.018234
 20
1.995989
 10
3.012344
 20
1.923795
 10
2.992474
 20
1.864659
 10
2.988588
 20
1.785442
 10
2.993669
 20
1.713231
 10
2.98974
 20
1.667108
 10
2.97384
 20
1.623008
 10
2.962931
 20
1.574889
 10
2.959013
 20
1.520742
 10
2.962158
 20
1.403408
 10
2.965257
 20
1.321172
 10
2.976353
 20
1.225887
 10
2.998434
 20
1.119554
 10
2.996512
 20
1.063399
 10
2.975645
 20
1.004264
 10
2.962754
 20
0.9471229999999999
 10
2.954875
 20
0.8699180000000001
 10
2.96198
 20
0.7756420000000001
 10
2.960111
 20
0.679374
 10
2.960563
 20
0.654662
  0
LWPOLYLINE
  5
3B3
330
18
100
AcDbEntity
  8
0
100
AcDbPolyline
 90
      129
 70
     0
 43
0.0
 10
1.925485
 20
4.033921
 10
1.926464
 20
4.023349
 10
1.92852
 20
3.976213
 10
1.929613
 20
3.903006
 10
1.929708
 20
3.830802
 10
1.931798
 20
3.757593
 10
1.925909
 20
3.684396
 10
1.921997
 20
3.625236
 10
1.913093
 20
3.570094
 10
1.904182
 20
3.519967
 10
1.89128
 20
3.470848
 10
1.881358
 20
3.431753
 10
1.877421
 20
3.391646
 10
1.883466
 20
3.344505
 10
1.895474
 20
3.314402
 10
1.898512
 20
3.279298
 10
1.886676
 20
3.178032
 10
1.880768
 20
3.119877
 10
1.878872
 20
3.043665
 10
1.878959
 20
2.977479
 10
1.875002
 20
2.952415
 10
1.874071
 20
2.901272
 10
1.884105
 20
2.855127
 10
1.897112
 20
2.82402
 10
1.913123
 20
2.78288
 10
1.939135
 20
2.721668
 10
1.951162
 20
2.676523
 10
1.966223
 20
2.599283
 10
1.97027
 20
2.555153
 10
1.966376
 20
2.481953
 10
1.960467
 20
2.424801
 10
1.956535
 20
2.380683
 10
1.952586
 20
2.349601
 10
1.942692
 20
2.288444
 10
1.930793
 20
2.235313
 10
1.928825
 20
2.215259
 10
1.929864
 20
2.183167
 10
1.933901
 20
2.14706
 10
1.94691
 20
2.113947
 10
1.968911
 20
2.068786
 10
1.987908
 20
2.032656
 10
2.005905
 20
1.998533
 10
2.043908
 20
1.919252
 10
2.079939
 20
1.822926
 10
2.100966
 20
1.759717
 10
2.117007
 20
1.696515
 10
2.137051
 20
1.622275
 10
2.151064
 20
1.584147
 10
2.167062
 20
1.553035
 10
2.188044
 20
1.524924
 10
2.203021
 20
1.511865
 10
2.227979
 20
1.493776
 10
2.262908
 20
1.477678
 10
2.300834
 20
1.457563
 10
2.345791
 20
1.399331
 10
2.364768
 20
1.379246
 10
2.391721
 20
1.360152
 10
2.423662
 20
1.341049
 10
2.461595
 20
1.315921
 10
2.510525
 20
1.27072
 10
2.543516
 20
1.2105
 10
2.592534
 20
1.09811
 10
2.618564
 20
1.022859
 10
2.629579
 20
0.9887459999999999
 10
2.653567
 20
0.949599
 10
2.692538
 20
0.893382
 10
2.726512
 20
0.8441920000000001
 10
2.781455
 20
0.7769199999999999
 10
2.830385
 20
0.731718
 10
2.88031
 20
0.6885210000000001
 10
2.917247
 20
0.662391
 10
2.952165
 20
0.654316
 10
2.999039
 20
0.65625
 10
3.062853
 20
0.66919
 10
3.136619
 20
0.699162
 10
3.228345
 20
0.72309
 10
3.292144
 20
0.748063
 10
3.371878
 20
0.790061
 10
3.424681
 20
0.8341040000000001
 10
3.470486
 20
0.8911950000000001
 10
3.503349
 20
0.9292530000000001
 10
3.548172
 20
0.974311
 10
3.589015
 20
1.011354
 10
3.622848
 20
1.070469
 10
3.651707
 20
1.120566
 10
3.693559
 20
1.148581
 10
3.782292
 20
1.173516
 10
3.861071
 20
1.183425
 10
3.932866
 20
1.195349
 10
3.979727
 20
1.207312
 10
4.042545
 20
1.21925
 10
4.106358
 20
1.233193
 10
4.196098999999999
 20
1.250104
 10
4.259915
 20
1.262041
 10
4.323719000000001
 20
1.283003
 10
4.407473
 20
1.301929
 10
4.497208000000001
 20
1.322852
 10
4.552031
 20
1.347839
 10
4.607814
 20
1.400903
 10
4.636707
 20
1.423924
 10
4.679551
 20
1.456952
 10
4.742335
 20
1.494964
 10
4.816082
 20
1.539979
 10
4.888845
 20
1.573964
 10
4.952645
 20
1.597934
 10
5.080241
 20
1.648884
 10
5.180914
 20
1.695863
 10
5.321455
 20
1.762839
 10
5.414146
 20
1.811836
 10
5.497862000000001
 20
1.859844
 10
5.520767
 20
1.885882
 10
5.545637
 20
1.934983
 10
5.585438
 20
2.007125
 10
5.620225
 20
2.099332
 10
5.646061
 20
2.172498
 10
5.672956
 20
2.198531
 10
5.70784
 20
2.216528
 10
5.74074
 20
2.226507
 10
5.771643
 20
2.238493
 10
5.784579
 20
2.261539
 10
5.789513
 20
2.301644
 10
5.795399
 20
2.376847
 10
5.81225
 20
2.457047
 10
5.855982
 20
2.573307
 10
5.880848
 20
2.625416
 10
5.915669
 20
2.691549
 10
5.935564
 20
2.731632
 10
5.965372
 20
2.818832
 10
5.968228
 20
2.833863
  0
LWPOLYLINE
  5
437
330
18
100
AcDbEntity
  8
0
100
AcDbPolyline
 90
       33
 70
     0
 43
0.0
 10
1.970943
 20
2.064921
 10
1.972933
 20
2.04371
 10
1.977983
 20
1.995567
 10
1.982027
 20
1.953442
 10
1.985068
 20
1.916333
 10
1.99016
 20
1.835097
 10
1.992243
 20
1.767905
 10
1.9923
 20
1.723781
 10
1.997376
 20
1.655581
 10
2.005413
 20
1.611445
 10
2.009478
 20
1.553275
 10
2.012514
 20
1.520177
 10
2.021561
 20
1.466011
 10
2.04057
 20
1.420855
 10
2.076548
 20
1.364642
 10
2.119512
 20
1.305411
 10
2.158476
 20
1.254207
 10
2.194447
 20
1.204012
 10
2.221435
 20
1.158844
 10
2.250426
 20
1.106653
 10
2.269407
 20
1.083559
 10
2.279388
 20
1.077527
 10
2.304335
 20
1.067461
 10
2.342241
 20
1.063392
 10
2.395139
 20
1.03423
 10
2.441076
 20
0.990036
 10
2.490022
 20
0.931797
 10
2.528984
 20
0.8826000000000001
 10
2.558934
 20
0.860492
 10
2.616807
 20
0.840348
 10
2.651723
 20
0.8342780000000001
 10
2.704591
 20
0.8281799999999999
 10
2.739633
 20
0.8281270000000001
  0
LWPOLYLINE
  5
45B
330
18
100
AcDbEntity
  8
0
100
AcDbPolyline
 90
       39
 70
     0
 43
0.0
 10
1.925485
 20
4.033921
 10
1.968376
 20
4.006237000000001
 10
2.026277
 20
3.965033
 10
2.070191
 20
3.941902
 10
2.100141
 20
3.919794
 10
2.126089
 20
3.906718
 10
2.160021
 20
3.890621
 10
2.195959
 20
3.865496
 10
2.214924
 20
3.853433
 10
2.229899
 20
3.842379
 10
2.255861
 20
3.819275
 10
2.282816
 20
3.799178
 10
2.292798
 20
3.793146
 10
2.317758
 20
3.773051
 10
2.33273
 20
3.764003
 10
2.363679
 20
3.740891
 10
2.377652
 20
3.732847
 10
2.405604
 20
3.713751
 10
2.423568
 20
3.704698000000001
 10
2.439536
 20
3.696651
 10
2.459497
 20
3.686593
 10
2.470474
 20
3.681562
 10
2.494431
 20
3.666483
 10
2.506407
 20
3.660448
 10
2.545345
 20
3.629301
 10
2.569301
 20
3.614223
 10
2.630206
 20
3.563989
 10
2.652168
 20
3.548913
 10
2.687107
 20
3.524792
 10
2.707072
 20
3.511725
 10
2.732026
 20
3.496645
 10
2.746998
 20
3.487597
 10
2.780935
 20
3.467489
 10
2.801894
 20
3.456426
 10
2.809879
 20
3.4514
 10
2.84182
 20
3.432297
 10
2.872763
 20
3.413197
 10
2.894722
 20
3.400127
 10
2.947437
 20
3.355964
  0
LINE
  5
485
330
18
100
AcDbEntity
  8
0
100
AcDbLine
 10
3.570649
 20
3.619912
 30
0.0
 11
2.947437
 21
3.355964
 31
0.0
  0
LINE
  5
486
330
18
100
AcDbEntity
  8
0
100
AcDbLine
 10
3.722976
 20
4.088247
 30
0.0
 11
3.512595
 21
4.209466
 31
0.0
  0
LINE
  5
487
330
18
100
AcDbEntity
  8
0
100
AcDbLine
 10
3.7378
 20
4.088231
 30
0.0
 11
3.764728
 21
4.103497
 31
0.0
  0
ARC
  5
488
330
18
100
AcDbEntity
  8
0
100
AcDbCircle
 10
3.764235
 20
4.120214
 30
0.0
 40
0.016725
100
AcDbArc
 50
182.479669
 51
271.689869
  0
ARC
  5
489
330
18
100
AcDbEntity
  8
0
100
AcDbCircle
 10
3.730402
 20
4.10128
 30
0.0
 40
0.015
100
AcDbArc
 50
180.0
 51
299.54994
  0
LINE
  5
48A
330
18
100
AcDbEntity
  8
0
100
AcDbLine
 10
3.512595
 20
4.248773
 30
0.0
 11
1.645321
 21
5.324676
 31
0.0
  0
LWPOLYLINE
  5
48B
330
18
100
AcDbEntity
  8
0
  6
DASHED2
100
AcDbPolyline
 90
        3
 70
     0
 43
0.0
 10
3.512595
 20
4.209466
 10
3.512595
 20
3.685286
 42
0.334799
 10
3.570649
 20
3.619912
  0
LWPOLYLINE
  5
491
330
18
100
AcDbEntity
  8
0
  6
DASHED2
100
AcDbPolyline
 90
        3
 70
     0
 43
0.0
 10
3.747525
 20
4.093744
 10
3.747525
 20
3.694825
 42
0.251365
 10
3.783542
 20
3.60953
  0
LWPOLYLINE
  5
497
330
18
100
AcDbEntity
  8
0
  6
DASHED2
100
AcDbPolyline
 90
        5
 70
   129
 43
0.0
 10
3.660175
 20
3.595394
 10
3.660658
 20
3.73254
 42
0.332221
 10
3.619305
 20
3.784107
 42
0.403432
 10
3.570485
 20
3.745071
 10
3.570674
 20
3.600665
 42
0.858824
  0
LWPOLYLINE
  5
49F
330
18
100
AcDbEntity
  8
0
  6
DASHED2
100
AcDbPolyline
 90
        8
 70
   128
 43
0.0
 10
3.650783
 20
3.575978
 42
0.194596
 10
3.701181
 20
3.539421
 42
0.170065
 10
3.751525
 20
3.538471
 42
0.10683
 10
3.913911
 20
3.640014
 42
0.445424
 10
3.908338
 20
3.714141
 10
3.804247
 20
3.767443
 42
0.093771
 10
3.786412
 20
3.772692
 42
-0.091925
 10
3.747525
 20
3.783984
  0
LWPOLYLINE
  5
4AA
330
18
100
AcDbEntity
  8
0
100
AcDbPolyline
 90
       15
 70
     0
 43
0.0
 10
6.653795
 20
4.925714
 10
6.653795
 20
4.925714
 10
6.648358999999999
 20
4.832718
 10
6.647054
 20
4.741205
 10
6.646142
 20
4.676023000000001
 10
6.643217
 20
4.624884
 10
6.632298
 20
4.584787
 10
6.619349000000001
 20
4.57177
 10
6.584496000000001
 20
4.529705
 10
6.547674
 20
4.468589
 10
6.532748000000001
 20
4.441536
 10
6.499912999999999
 20
4.382419000000001
 10
6.474056
 20
4.325298
 10
6.456163
 20
4.279195
 10
6.44759
 20
4.250349
  0
LWPOLYLINE
  5
4BC
330
18
100
AcDbEntity
  8
0
100
AcDbPolyline
 90
        7
 70
     0
 43
0.0
 10
6.256332
 20
8.27116
 10
6.262383
 20
8.248839
 10
6.265404
 20
8.237873
 10
6.27044
 20
8.219928
 10
6.27648
 20
8.199991000000001
 10
6.281523
 20
8.177056
 10
6.295233000000001
 20
8.130677
  0
LWPOLYLINE
  5
4C6
330
18
100
AcDbEntity
  8
0
100
AcDbPolyline
 90
        6
 70
     0
 43
0.0
 10
6.211423
 20
8.258289999999999
 10
6.216332
 20
8.239666
 10
6.222367
 20
8.222724000000001
 10
6.232427
 20
8.193820000000001
 10
6.240473000000001
 20
8.171894999999999
 10
6.250227
 20
8.14635
  0
LWPOLYLINE
  5
4CF
330
18
100
AcDbEntity
  8
0
100
AcDbPolyline
 90
        5
 70
     0
 43
0.0
 10
6.16293
 20
8.244392999999999
 10
6.167276
 20
8.231479
 10
6.176330999999999
 20
8.204566999999999
 10
6.182376000000001
 20
8.181635999999999
 10
6.185929
 20
8.168741000000001
  0
LWPOLYLINE
  5
4D7
330
18
100
AcDbEntity
  8
0
100
AcDbPolyline
 90
        8
 70
     0
 43
0.0
 10
6.298667
 20
8.283291999999999
 10
6.304425
 20
8.259992
 10
6.307465000000001
 20
8.237049000000001
 10
6.312498000000001
 20
8.2211
 10
6.316527
 20
8.206144999999999
 10
6.323579000000001
 20
8.179226
 10
6.332633
 20
8.153313000000001
 10
6.349822000000001
 20
8.111666
  0
LWPOLYLINE
  5
4E2
330
18
100
AcDbEntity
  8
0
100
AcDbPolyline
 90
        3
 70
     0
 43
0.0
 10
6.404051
 20
7.578202
 10
6.422727
 20
7.541852
 10
6.440465000000001
 20
7.49498
  0
LWPOLYLINE
  5
4E8
330
18
100
AcDbEntity
  8
0
100
AcDbPolyline
 90
       10
 70
     0
 43
0.0
 10
6.333238
 20
7.560072999999999
 10
6.343654
 20
7.51757
 10
6.358741
 20
7.475713000000001
 10
6.373827
 20
7.434853
 10
6.389931
 20
7.384017
 10
6.405026
 20
7.337169
 10
6.413121
 20
7.284303
 10
6.422194
 20
7.246413
 10
6.433277
 20
7.203539999999999
 10
6.438091
 20
7.188235000000001
  0
LWPOLYLINE
  5
4F5
330
18
100
AcDbEntity
  8
0
100
AcDbPolyline
 90
       13
 70
     0
 43
0.0
 10
6.291807
 20
7.549465
 10
6.30159
 20
7.520391
 10
6.308636
 20
7.497464
 10
6.314667
 20
7.483515
 10
6.326739
 20
7.448632000000001
 10
6.338825
 20
7.404764999999999
 10
6.348906
 20
7.362887
 10
6.356969
 20
7.329983
 10
6.364017
 20
7.306058
 10
6.375093
 20
7.268176
 10
6.389177
 20
7.227312
 10
6.39722
 20
7.207383999999999
 10
6.406408
 20
7.176591999999999
  0
LWPOLYLINE
  5
505
330
18
100
AcDbEntity
  8
0
100
AcDbPolyline
 90
       13
 70
     0
 43
0.0
 10
6.242022
 20
7.53672
 10
6.275653
 20
7.457403
 10
6.291747
 20
7.412556
 10
6.305828
 20
7.373688000000001
 10
6.313871
 20
7.353758999999999
 10
6.320912
 20
7.333827
 10
6.329966000000001
 20
7.307913
 10
6.339039
 20
7.270022999999999
 10
6.344087
 20
7.244094000000001
 10
6.350144
 20
7.213178
 10
6.352180000000001
 20
7.192226
 10
6.357221
 20
7.171287
 10
6.360469999999999
 20
7.159708999999999
  0
LWPOLYLINE
  5
515
330
18
100
AcDbEntity
  8
0
100
AcDbPolyline
 90
       11
 70
     0
 43
0.0
 10
6.232093
 20
7.418899000000001
 10
6.248732
 20
7.383433
 10
6.258792
 20
7.354530000000001
 10
6.271864
 20
7.320647999999999
 10
6.277913
 20
7.294722999999999
 10
6.281957
 20
7.270785000000001
 10
6.284012000000001
 20
7.237857000000001
 10
6.28504
 20
7.220892999999999
 10
6.287076
 20
7.199942
 10
6.291116000000001
 20
7.178
 10
6.297353
 20
7.136512
  0
LWPOLYLINE
  5
523
330
18
100
AcDbEntity
  8
0
100
AcDbPolyline
 90
        5
 70
     0
 43
0.0
 10
6.232093
 20
7.891044
 10
6.248979
 20
7.859526
 10
6.264057
 20
7.823657000000001
 10
6.278136
 20
7.786786
 10
6.284323000000001
 20
7.770005
  0
LWPOLYLINE
  5
52B
330
18
100
AcDbEntity
  8
0
100
AcDbPolyline
 90
        9
 70
     0
 43
0.0
 10
6.24951
 20
8.032367000000001
 10
6.262776000000001
 20
8.000314999999999
 10
6.273828
 20
7.977403999999999
 10
6.287886
 20
7.953508
 10
6.309988
 20
7.908685
 10
6.318028
 20
7.890753
 10
6.326083000000001
 20
7.862839
 10
6.33716
 20
7.823958999999999
 10
6.347844
 20
7.785186
  0
LWPOLYLINE
  5
537
330
18
100
AcDbEntity
  8
0
100
AcDbPolyline
 90
        8
 70
     0
 43
0.0
 10
6.328405
 20
8.052088000000001
 10
6.340861
 20
8.016607000000001
 10
6.352932
 20
7.982722
 10
6.363996
 20
7.951827000000001
 10
6.382145
 20
7.87405
 10
6.390205
 20
7.843143
 10
6.397259
 20
7.815225
 10
6.40144
 20
7.797994999999999
  0
LWPOLYLINE
  5
542
330
18
100
AcDbEntity
  8
0
100
AcDbPolyline
 90
        6
 70
     0
 43
0.0
 10
6.376126999999999
 20
8.064017999999999
 10
6.387887999999999
 20
8.041753999999999
 10
6.400976
 20
7.997892
 10
6.418076
 20
7.950054
 10
6.426117
 20
7.931124000000001
 10
6.440465000000001
 20
7.885650999999999
  0
LWPOLYLINE
  5
54B
330
18
100
AcDbEntity
  8
0
100
AcDbPolyline
 90
        5
 70
     0
 43
0.0
 10
6.41509
 20
8.073757000000001
 10
6.419908
 20
8.057855999999999
 10
6.427957
 20
8.033935000000001
 10
6.440034
 20
7.996057
 10
6.440465000000001
 20
7.994677
  0
LWPOLYLINE
  5
553
330
18
100
AcDbEntity
  8
0
100
AcDbPolyline
 90
        4
 70
     0
 43
0.0
 10
6.284323000000001
 20
7.770005
 10
6.307246
 20
7.74299
 10
6.337317
 20
7.725148
 10
6.367273
 20
7.704768
  0
LWPOLYLINE
  5
55A
330
18
100
AcDbEntity
  8
0
100
AcDbPolyline
 90
        5
 70
     0
 43
0.0
 10
6.347844
 20
7.785186
 10
6.365296
 20
7.763192
 10
6.377343
 20
7.744278
 10
6.39039
 20
7.726366000000001
 10
6.401997
 20
7.714256
  0
LWPOLYLINE
  5
562
330
18
100
AcDbEntity
  8
0
100
AcDbPolyline
 90
        3
 70
     0
 43
0.0
 10
6.247921
 20
7.699442
 10
6.263271
 20
7.687913000000001
 10
6.277573
 20
7.680257000000001
  0
LWPOLYLINE
  5
568
330
18
100
AcDbEntity
  8
0
100
AcDbPolyline
 90
        5
 70
     0
 43
0.0
 10
6.40144
 20
7.797994999999999
 10
6.426365000000001
 20
7.774423
 10
6.437398
 20
7.763489999999999
 10
6.450454
 20
7.73959
 10
6.4557
 20
7.733917
  0
LWPOLYLINE
  5
570
330
18
100
AcDbEntity
  8
0
100
AcDbPolyline
 90
        4
 70
     0
 43
0.0
 10
6.404051
 20
7.578202
 10
6.365551
 20
7.602499000000001
 10
6.331452
 20
7.634297
 10
6.325203
 20
7.639774000000001
  0
LWPOLYLINE
  5
577
330
18
100
AcDbEntity
  8
0
100
AcDbPolyline
 90
        5
 70
     0
 43
0.0
 10
6.425249
 20
7.583628999999999
 10
6.39858
 20
7.613614999999999
 10
6.378522
 20
7.632496000000001
 10
6.372502
 20
7.639458
 10
6.364142
 20
7.649957000000001
  0
LWPOLYLINE
  5
57F
330
18
100
AcDbEntity
  8
0
100
AcDbPolyline
 90
        5
 70
     0
 43
0.0
 10
6.333238
 20
7.560072999999999
 10
6.311523
 20
7.571335
 10
6.281443
 20
7.595165
 10
6.249363
 20
7.61699
 10
6.245955
 20
7.61905
  0
LWPOLYLINE
  5
587
330
18
100
AcDbEntity
  8
0
100
AcDbPolyline
 90
        5
 70
     0
 43
0.0
 10
6.291807
 20
7.549465
 10
6.269491
 20
7.554193
 10
6.240422
 20
7.572039
 10
6.221373000000001
 20
7.585934
 10
6.193317
 20
7.605285
  0
LWPOLYLINE
  5
58F
330
18
100
AcDbEntity
  8
0
100
AcDbPolyline
 90
        3
 70
     0
 43
0.0
 10
6.242022
 20
7.53672
 10
6.231447
 20
7.548047
 10
6.215618
 20
7.559538000000001
  0
LWPOLYLINE
  5
595
330
18
100
AcDbEntity
  8
0
100
AcDbPolyline
 90
        2
 70
     0
 43
0.0
 10
6.440465000000001
 20
7.565424
 10
6.425249
 20
7.583628999999999
  0
LWPOLYLINE
  5
59A
330
18
100
AcDbEntity
  8
0
100
AcDbPolyline
 90
        4
 70
     0
 43
0.0
 10
6.193317
 20
7.605285
 10
6.252311
 20
7.652933999999999
 10
6.267307
 20
7.668964999999999
 10
6.277573
 20
7.680257000000001
  0
LWPOLYLINE
  5
5A1
330
18
100
AcDbEntity
  8
0
100
AcDbPolyline
 90
        6
 70
     0
 43
0.0
 10
6.245955
 20
7.61905
 10
6.283356
 20
7.652064
 10
6.307373999999999
 20
7.662144000000001
 10
6.330381
 20
7.678209
 10
6.35239
 20
7.692274
 10
6.367273
 20
7.704768
  0
LWPOLYLINE
  5
5AA
330
18
100
AcDbEntity
  8
0
100
AcDbPolyline
 90
        5
 70
     0
 43
0.0
 10
6.325203
 20
7.639774000000001
 10
6.354442
 20
7.661341
 10
6.390445
 20
7.691433
 10
6.401441999999999
 20
7.703455
 10
6.401997
 20
7.714256
  0
LWPOLYLINE
  5
5B2
330
18
100
AcDbEntity
  8
0
100
AcDbPolyline
 90
        3
 70
     0
 43
0.0
 10
6.364142
 20
7.649957000000001
 10
6.405484
 20
7.680516000000001
 10
6.443292
 20
7.71369
  0
LWPOLYLINE
  5
5B8
330
18
100
AcDbEntity
  8
0
100
AcDbPolyline
 90
        9
 70
     0
 43
0.0
 10
5.589917
 20
7.838868
 10
5.59403
 20
7.873786
 10
5.602964
 20
7.923728
 10
5.607903
 20
7.966666
 10
5.608835
 20
8.010586
 10
5.61278
 20
8.04853
 10
5.614717
 20
8.090458
 10
5.619673000000001
 20
8.122418
 10
5.619747
 20
8.123092
  0
LWPOLYLINE
  5
5C4
330
18
100
AcDbEntity
  8
0
100
AcDbPolyline
 90
        9
 70
     0
 43
0.0
 10
5.636237
 20
7.851895
 10
5.639112
 20
7.861994999999999
 10
5.645028
 20
7.920907000000001
 10
5.654958000000001
 20
7.973847999999999
 10
5.660902
 20
8.014794
 10
5.665838
 20
8.059728999999999
 10
5.67177
 20
8.107662
 10
5.672746
 20
8.123635999999999
 10
5.675495
 20
8.136063999999999
  0
LWPOLYLINE
  5
5D0
330
18
100
AcDbEntity
  8
0
100
AcDbPolyline
 90
        8
 70
     0
 43
0.0
 10
5.66362
 20
7.859597
 10
5.669114
 20
7.88807
 10
5.680027
 20
7.952991
 10
5.687979
 20
7.989953999999999
 10
5.694926000000001
 20
8.029906
 10
5.701877
 20
8.066865
 10
5.709811
 20
8.115803999999999
 10
5.716898000000001
 20
8.145697999999999
  0
LWPOLYLINE
  5
5DB
330
18
100
AcDbEntity
  8
0
100
AcDbPolyline
 90
        4
 70
     0
 43
0.0
 10
5.723216000000001
 20
7.876358
 10
5.728167
 20
7.907278
 10
5.735103
 20
7.954217
 10
5.741741
 20
8.001923
  0
LWPOLYLINE
  5
5E2
330
18
100
AcDbEntity
  8
0
100
AcDbPolyline
 90
        8
 70
     0
 43
0.0
 10
5.521309
 20
7.819571000000001
 10
5.522006
 20
7.824580999999999
 10
5.534917
 20
7.892505
 10
5.547842
 20
7.951446000000001
 10
5.56077
 20
8.008391
 10
5.569696
 20
8.063324
 10
5.578638
 20
8.108275000000001
 10
5.579522
 20
8.113732000000001
  0
LWPOLYLINE
  5
5ED
330
18
100
AcDbEntity
  8
0
100
AcDbPolyline
 90
        9
 70
     0
 43
0.0
 10
5.647998
 20
7.233594999999999
 10
5.649023000000001
 20
7.295116999999999
 10
5.652923
 20
7.362006
 10
5.662845
 20
7.419936
 10
5.67676
 20
7.485867999999999
 10
5.682687000000001
 20
7.537794
 10
5.689618
 20
7.587727
 10
5.690561
 20
7.624661
 10
5.693230000000001
 20
7.645771000000001
  0
LWPOLYLINE
  5
5F9
330
18
100
AcDbEntity
  8
0
100
AcDbPolyline
 90
        8
 70
     0
 43
0.0
 10
5.709091
 20
7.252197
 10
5.711162
 20
7.262436999999999
 10
5.715105
 20
7.302377000000001
 10
5.723039
 20
7.351316000000001
 10
5.728985
 20
7.390267
 10
5.733311000000001
 20
7.440649000000001
 10
5.734657
 20
7.486427000000001
 10
5.725192
 20
7.655028999999999
  0
LWPOLYLINE
  5
604
330
18
100
AcDbEntity
  8
0
100
AcDbPolyline
 90
       12
 70
     0
 43
0.0
 10
5.583838
 20
7.214060000000001
 10
5.587000000000001
 20
7.253939
 10
5.594923000000001
 20
7.309864999999999
 10
5.602865
 20
7.353814
 10
5.609819
 20
7.388775999999999
 10
5.618759
 20
7.434725
 10
5.625701
 20
7.477672
 10
5.632649
 20
7.516627000000001
 10
5.644586
 20
7.567578999999999
 10
5.646547
 20
7.593538000000001
 10
5.647530000000001
 20
7.605519
 10
5.651521
 20
7.63369
  0
LWPOLYLINE
  5
613
330
18
100
AcDbEntity
  8
0
100
AcDbPolyline
 90
       11
 70
     0
 43
0.0
 10
5.534319
 20
7.198983
 10
5.540913
 20
7.267721000000001
 10
5.544816
 20
7.332614
 10
5.557741
 20
7.391555
 10
5.561693
 20
7.425507000000001
 10
5.566634
 20
7.467447
 10
5.574579
 20
7.5094
 10
5.580546
 20
7.535375
 10
5.586513
 20
7.56135
 10
5.594479
 20
7.590328
 10
5.600397
 20
7.618883
  0
LWPOLYLINE
  5
621
330
18
100
AcDbEntity
  8
0
100
AcDbPolyline
 90
        8
 70
     0
 43
0.0
 10
5.509719000000001
 20
7.398484
 10
5.513652
 20
7.408339999999999
 10
5.520588
 20
7.45528
 10
5.531539
 20
7.496247
 10
5.539496
 20
7.530214999999999
 10
5.54546
 20
7.558186
 10
5.550426
 20
7.584157
 10
5.555132
 20
7.605772
  0
LWPOLYLINE
  5
62C
330
18
100
AcDbEntity
  8
0
100
AcDbPolyline
 90
        3
 70
     0
 43
0.0
 10
5.555132
 20
7.605772
 10
5.541316
 20
7.646002
 10
5.531471
 20
7.665522999999999
  0
LWPOLYLINE
  5
632
330
18
100
AcDbEntity
  8
0
100
AcDbPolyline
 90
        4
 70
     0
 43
0.0
 10
5.600397
 20
7.618883
 10
5.591396
 20
7.640219999999999
 10
5.572321
 20
7.670083999999999
 10
5.567751
 20
7.676676
  0
LWPOLYLINE
  5
639
330
18
100
AcDbEntity
  8
0
100
AcDbPolyline
 90
        4
 70
     0
 43
0.0
 10
5.651521
 20
7.63369
 10
5.634428
 20
7.658364
 10
5.621368
 20
7.684261
 10
5.616599
 20
7.691692999999999
  0
LWPOLYLINE
  5
640
330
18
100
AcDbEntity
  8
0
100
AcDbPolyline
 90
        3
 70
     0
 43
0.0
 10
5.693230000000001
 20
7.645771000000001
 10
5.679469
 20
7.672524
 10
5.666121
 20
7.706917
  0
LWPOLYLINE
  5
646
330
18
100
AcDbEntity
  8
0
100
AcDbPolyline
 90
        3
 70
     0
 43
0.0
 10
5.725192
 20
7.655028999999999
 10
5.70247
 20
7.692581
 10
5.688679000000001
 20
7.713852
  0
LWPOLYLINE
  5
64C
330
18
100
AcDbEntity
  8
0
100
AcDbPolyline
 90
        2
 70
     0
 43
0.0
 10
5.521309
 20
7.819571000000001
 10
5.521719
 20
7.780589
  0
LWPOLYLINE
  5
651
330
18
100
AcDbEntity
  8
0
100
AcDbPolyline
 90
        3
 70
     0
 43
0.0
 10
5.589917
 20
7.838868
 10
5.597205000000001
 20
7.766005000000001
 10
5.601548999999999
 20
7.733627
  0
LWPOLYLINE
  5
657
330
18
100
AcDbEntity
  8
0
100
AcDbPolyline
 90
        3
 70
     0
 43
0.0
 10
5.636237
 20
7.851895
 10
5.643254
 20
7.776176
 10
5.653669
 20
7.750371
  0
LWPOLYLINE
  5
65D
330
18
100
AcDbEntity
  8
0
100
AcDbPolyline
 90
        3
 70
     0
 43
0.0
 10
5.66362
 20
7.859597
 10
5.680283999999999
 20
7.790302000000001
 10
5.691856
 20
7.762639
  0
LWPOLYLINE
  5
663
330
18
100
AcDbEntity
  8
0
100
AcDbPolyline
 90
        4
 70
     0
 43
0.0
 10
5.723216000000001
 20
7.876358
 10
5.728281
 20
7.835414999999999
 10
5.743357
 20
7.800544
 10
5.751893
 20
7.781927000000001
  0
LWPOLYLINE
  5
66A
330
18
100
AcDbEntity
  8
0
100
AcDbPolyline
 90
        6
 70
     0
 43
0.0
 10
5.531471
 20
7.665522999999999
 10
5.55764
 20
7.685236
 10
5.570827
 20
7.701932000000001
 10
5.585772
 20
7.711597
 10
5.596323
 20
7.722141000000001
 10
5.601548999999999
 20
7.733627
  0
LWPOLYLINE
  5
673
330
18
100
AcDbEntity
  8
0
100
AcDbPolyline
 90
        7
 70
     0
 43
0.0
 10
5.567751
 20
7.676676
 10
5.600718
 20
7.698417
 10
5.618302
 20
7.715112
 10
5.631489
 20
7.72302
 10
5.642918
 20
7.733565
 10
5.649072
 20
7.740595
 10
5.653669
 20
7.750371
  0
LWPOLYLINE
  5
67D
330
18
100
AcDbEntity
  8
0
100
AcDbPolyline
 90
        7
 70
     0
 43
0.0
 10
5.616599
 20
7.691692999999999
 10
5.643796
 20
7.712476
 10
5.664016999999999
 20
7.723899
 10
5.679841000000001
 20
7.738836999999999
 10
5.687754
 20
7.749381
 10
5.690391
 20
7.755532000000001
 10
5.691856
 20
7.762639
  0
LWPOLYLINE
  5
687
330
18
100
AcDbEntity
  8
0
100
AcDbPolyline
 90
        7
 70
     0
 43
0.0
 10
5.666121
 20
7.706917
 10
5.689513
 20
7.724777
 10
5.700942
 20
7.737080000000001
 10
5.718524
 20
7.752896000000001
 10
5.73347
 20
7.762563
 10
5.74402
 20
7.773107
 10
5.751893
 20
7.781927000000001
  0
LWPOLYLINE
  5
691
330
18
100
AcDbEntity
  8
0
100
AcDbPolyline
 90
        3
 70
     0
 43
0.0
 10
5.688679000000001
 20
7.713852
 10
5.712371
 20
7.734444
 10
5.720034
 20
7.739157000000001
  0
LINE
  5
697
330
18
100
AcDbEntity
  8
0
100
AcDbLine
 10
6.974692999999999
 20
3.585067
 30
0.0
 11
6.974692999999999
 21
3.954311
 31
0.0
  0
LWPOLYLINE
  5
698
330
18
100
AcDbEntity
  8
0
100
AcDbPolyline
 90
        5
 70
     0
 43
0.0
 10
6.844219
 20
3.33807
 10
6.881309
 20
3.157111
 10
6.892457
 20
3.073317
 10
6.904576
 20
3.008491
 10
6.915952000000001
 20
2.953813
  0
LWPOLYLINE
  5
6A0
330
18
100
AcDbEntity
  8
0
100
AcDbPolyline
 90
        2
 70
     0
 43
0.0
 10
6.965876
 20
3.394508
 10
6.976725
 20
3.333548
  0
LWPOLYLINE
  5
6A5
330
18
100
AcDbEntity
  8
0
100
AcDbPolyline
 90
        6
 70
     0
 43
0.0
 10
6.897034
 20
3.362524
 10
6.911142
 20
3.288984
 10
6.918274
 20
3.21216
 10
6.924386999999999
 20
3.14631
 10
6.927475
 20
3.093424
 10
6.943685
 20
2.968627
  0
LWPOLYLINE
  5
6AE
330
18
100
AcDbEntity
  8
0
100
AcDbPolyline
 90
        7
 70
     0
 43
0.0
 10
6.936196000000001
 20
3.380657
 10
6.948136
 20
3.326066
 10
6.960257
 20
3.260242
 10
6.965358
 20
3.201375
 10
6.969474000000001
 20
3.131525
 10
6.975560000000001
 20
3.082644
 10
6.976725
 20
3.075095
  0
LWPOLYLINE
  5
6B8
330
18
100
AcDbEntity
  8
0
100
AcDbPolyline
 90
        9
 70
     0
 43
0.0
 10
6.874528
 20
3.909523000000001
 10
6.876585
 20
3.901504
 10
6.883688
 20
3.842646
 10
6.888797
 20
3.777791000000001
 10
6.894885
 20
3.727911
 10
6.903956
 20
3.691019
 10
6.913021000000001
 20
3.658119
 10
6.930146000000001
 20
3.594312
 10
6.938936999999999
 20
3.571081
  0
LWPOLYLINE
  5
6C4
330
18
100
AcDbEntity
  8
0
100
AcDbPolyline
 90
        9
 70
     0
 43
0.0
 10
6.832302
 20
3.890641000000001
 10
6.832542999999999
 20
3.888347
 10
6.846651
 20
3.832512
 10
6.86177
 20
3.770692
 10
6.87087
 20
3.715835
 10
6.877948
 20
3.672946
 10
6.888055000000001
 20
3.6141
 10
6.900159
 20
3.559254
 10
6.901127000000001
 20
3.556292
  0
LWPOLYLINE
  5
6D0
330
18
100
AcDbEntity
  8
0
100
AcDbPolyline
 90
        7
 70
     0
 43
0.0
 10
6.917553
 20
3.928761
 10
6.921624
 20
3.916662
 10
6.937732000000001
 20
3.862831
 10
6.945821000000001
 20
3.813958
 10
6.956919
 20
3.762103
 10
6.967005
 20
3.716232
 10
6.974692999999999
 20
3.688561
  0
LWPOLYLINE
  5
6DA
330
18
100
AcDbEntity
  8
0
100
AcDbPolyline
 90
        5
 70
     0
 43
0.0
 10
6.874994
 20
3.546071
 10
6.895805
 20
3.519147
 10
6.908882000000001
 20
3.49674
 10
6.92196
 20
3.480868
 10
6.924460000000001
 20
3.478369
  0
LWPOLYLINE
  5
6E2
330
18
100
AcDbEntity
  8
0
100
AcDbPolyline
 90
        5
 70
     0
 43
0.0
 10
6.901127000000001
 20
3.556292
 10
6.912617999999999
 20
3.534085
 10
6.927564
 20
3.518213
 10
6.948115
 20
3.501407
 10
6.957599
 20
3.492604
  0
LWPOLYLINE
  5
6EA
330
18
100
AcDbEntity
  8
0
100
AcDbPolyline
 90
        6
 70
     0
 43
0.0
 10
6.938936999999999
 20
3.571081
 10
6.952785
 20
3.556492
 10
6.963995
 20
3.545289
 10
6.978007000000001
 20
3.533151
 10
6.992019
 20
3.521014
 10
7.002811
 20
3.512025
  0
LWPOLYLINE
  5
6F3
330
18
100
AcDbEntity
  8
0
100
AcDbPolyline
 90
        3
 70
     0
 43
0.0
 10
6.847614999999999
 20
3.526028
 10
6.865613000000001
 20
3.492892
 10
6.885578999999999
 20
3.461669
  0
LWPOLYLINE
  5
6F9
330
18
100
AcDbEntity
  8
0
100
AcDbPolyline
 90
        3
 70
     0
 43
0.0
 10
6.885578999999999
 20
3.461669
 10
6.882727
 20
3.442588
 10
6.882003999999999
 20
3.429574
  0
LWPOLYLINE
  5
6FF
330
18
100
AcDbEntity
  8
0
100
AcDbPolyline
 90
        3
 70
     0
 43
0.0
 10
6.924460000000001
 20
3.478369
 10
6.920091
 20
3.454726
 10
6.917957
 20
3.445476
  0
LWPOLYLINE
  5
705
330
18
100
AcDbEntity
  8
0
100
AcDbPolyline
 90
        4
 70
     0
 43
0.0
 10
6.957599
 20
3.492604
 10
6.947181
 20
3.475266
 10
6.944379
 20
3.464996
 10
6.942009
 20
3.456115
  0
LWPOLYLINE
  5
70C
330
18
100
AcDbEntity
  8
0
100
AcDbPolyline
 90
        3
 70
     0
 43
0.0
 10
7.002811
 20
3.512025
 10
6.980809
 20
3.493005
 10
6.956833000000001
 20
3.465525
  0
LWPOLYLINE
  5
712
330
18
100
AcDbEntity
  8
0
100
AcDbPolyline
 90
        3
 70
     0
 43
0.0
 10
6.942009
 20
3.456115
 10
6.956522000000001
 20
3.436053
 10
6.963386999999999
 20
3.431358
  0
LWPOLYLINE
  5
718
330
18
100
AcDbEntity
  8
0
100
AcDbPolyline
 90
        5
 70
     0
 43
0.0
 10
6.917957
 20
3.445476
 10
6.931301
 20
3.423916
 10
6.945313000000001
 20
3.411779
 10
6.957456
 20
3.402442
 10
6.965894000000001
 20
3.394408
  0
LWPOLYLINE
  5
720
330
18
100
AcDbEntity
  8
0
100
AcDbPolyline
 90
        5
 70
     0
 43
0.0
 10
6.882003999999999
 20
3.429574
 10
6.907947999999999
 20
3.408977
 10
6.91729
 20
3.395907
 10
6.928499
 20
3.387504
 10
6.936196000000001
 20
3.380657
  0
LWPOLYLINE
  5
728
330
18
100
AcDbEntity
  8
0
100
AcDbPolyline
 90
        4
 70
     0
 43
0.0
 10
6.825834
 20
3.380194
 10
6.830417
 20
3.365096
 10
6.840692
 20
3.343623000000001
 10
6.844219
 20
3.33807
  0
LWPOLYLINE
  5
72F
330
18
100
AcDbEntity
  8
0
100
AcDbPolyline
 90
        4
 70
     0
 43
0.0
 10
6.863236
 20
3.395283
 10
6.871517
 20
3.380035
 10
6.889266
 20
3.368831
 10
6.897034
 20
3.362524
  0
LWPOLYLINE
  5
736
330
18
100
AcDbEntity
  8
0
100
AcDbPolyline
 90
        3
 70
     0
 43
0.0
 10
6.847614999999999
 20
3.633005
 10
6.865913000000001
 20
3.573298
 10
6.874994
 20
3.546071
  0
LWPOLYLINE
  5
73C
330
18
100
AcDbEntity
  8
0
100
AcDbPolyline
 90
        3
 70
     0
 43
0.0
 10
6.847614999999999
 20
3.034011
 10
6.869234
 20
2.967641
 10
6.882572
 20
2.935981
  0
LWPOLYLINE
  5
742
330
18
100
AcDbEntity
  8
0
100
AcDbPolyline
 90
        8
 70
     0
 43
0.0
 10
6.833738
 20
3.806751
 10
6.828253999999999
 20
3.77671
 10
6.82232
 20
3.729775
 10
6.81537
 20
3.691819
 10
6.814448
 20
3.64191
 10
6.814536
 20
3.586017
 10
6.812595
 20
3.547083
 10
6.817553999999999
 20
3.481774
  0
LWPOLYLINE
  5
74D
330
18
100
AcDbEntity
  8
0
100
AcDbPolyline
 90
        8
 70
     0
 43
0.0
 10
6.698353
 20
3.745156
 10
6.696186
 20
3.701307
 10
6.694285000000001
 20
3.637421
 10
6.696378999999999
 20
3.57954
 10
6.699464
 20
3.52865
 10
6.701524000000001
 20
3.492727
 10
6.700583999999999
 20
3.453797
 10
6.700062
 20
3.437980000000001
  0
LWPOLYLINE
  5
758
330
18
100
AcDbEntity
  8
0
100
AcDbPolyline
 90
        8
 70
     0
 43
0.0
 10
6.749254
 20
3.768314
 10
6.748175999999999
 20
3.754421
 10
6.741248
 20
3.702491
 10
6.734341000000001
 20
3.637586
 10
6.729417999999999
 20
3.584667
 10
6.728505
 20
3.52877
 10
6.731577000000001
 20
3.485864
 10
6.734685000000001
 20
3.450885
  0
LWPOLYLINE
  5
763
330
18
100
AcDbEntity
  8
0
100
AcDbPolyline
 90
        9
 70
     0
 43
0.0
 10
6.789783
 20
3.786753
 10
6.78622
 20
3.760567
 10
6.782292999999999
 20
3.710646
 10
6.780351
 20
3.67271
 10
6.775424
 20
3.621787
 10
6.770525
 20
3.553896
 10
6.768585000000001
 20
3.513964
 10
6.768662
 20
3.465058
 10
6.768724000000001
 20
3.463573
  0
LWPOLYLINE
  5
76F
330
18
100
AcDbEntity
  8
0
100
AcDbPolyline
 90
        5
 70
     0
 43
0.0
 10
6.684713
 20
3.230947
 10
6.681958
 20
3.200203
 10
6.676057000000001
 20
3.132308
 10
6.666185000000001
 20
3.042439
 10
6.642958
 20
2.73025
  0
LWPOLYLINE
  5
777
330
18
100
AcDbEntity
  8
0
100
AcDbPolyline
 90
        9
 70
     0
 43
0.0
 10
6.718742999999999
 20
3.244623
 10
6.714046000000001
 20
3.173387
 10
6.710167
 20
3.093524
 10
6.711269000000001
 20
3.02965
 10
6.71536
 20
2.97577
 10
6.714486999999999
 20
2.89492
 10
6.714558
 20
2.850006
 10
6.714642
 20
2.797107
 10
6.714686
 20
2.769508
  0
LWPOLYLINE
  5
783
330
18
100
AcDbEntity
  8
0
100
AcDbPolyline
 90
       11
 70
     0
 43
0.0
 10
6.76167
 20
3.261875
 10
6.759045
 20
3.214495
 10
6.756133999999999
 20
3.155596
 10
6.754210000000001
 20
3.105683
 10
6.754281
 20
3.060769
 10
6.755366
 20
3.007874
 10
6.75542
 20
2.973939
 10
6.755485
 20
2.933017
 10
6.755584
 20
2.870138
 10
6.753689
 20
2.802259
 10
6.753438
 20
2.790718
  0
LWPOLYLINE
  5
791
330
18
100
AcDbEntity
  8
0
100
AcDbPolyline
 90
       11
 70
     0
 43
0.0
 10
6.814031
 20
3.282917
 10
6.811046000000001
 20
3.260623
 10
6.811121000000001
 20
3.212715
 10
6.813173
 20
3.181782
 10
6.814236
 20
3.142861
 10
6.814317999999999
 20
3.09096
 10
6.815411
 20
3.033075
 10
6.818498
 20
2.981187
 10
6.821589
 20
2.926304
 10
6.823669000000001
 20
2.877406
 10
6.823746000000001
 20
2.829199
  0
LWPOLYLINE
  5
79F
330
18
100
AcDbEntity
  8
0
100
AcDbPolyline
 90
        3
 70
     0
 43
0.0
 10
6.700062
 20
3.437980000000001
 10
6.719707000000001
 20
3.392992
 10
6.733725
 20
3.343037
  0
LWPOLYLINE
  5
7A5
330
18
100
AcDbEntity
  8
0
100
AcDbPolyline
 90
        4
 70
     0
 43
0.0
 10
6.734685000000001
 20
3.450885
 10
6.746695
 20
3.425043
 10
6.770822
 20
3.366255
 10
6.774796
 20
3.359605
  0
LWPOLYLINE
  5
7AC
330
18
100
AcDbEntity
  8
0
100
AcDbPolyline
 90
        3
 70
     0
 43
0.0
 10
6.768724000000001
 20
3.463573
 10
6.796797
 20
3.405288
 10
6.812773
 20
3.374926
  0
LWPOLYLINE
  5
7B2
330
18
100
AcDbEntity
  8
0
100
AcDbPolyline
 90
        4
 70
     0
 43
0.0
 10
6.817553999999999
 20
3.481774
 10
6.835771
 20
3.456352
 10
6.844834
 20
3.424451
 10
6.862502
 20
3.394986
  0
LWPOLYLINE
  5
7B9
330
18
100
AcDbEntity
  8
0
100
AcDbPolyline
 90
        3
 70
     0
 43
0.0
 10
6.684713
 20
3.230947
 10
6.662828999999999
 20
3.26727
 10
6.630361
 20
3.300691000000001
  0
LWPOLYLINE
  5
7BF
330
18
100
AcDbEntity
  8
0
100
AcDbPolyline
 90
        4
 70
     0
 43
0.0
 10
6.718742999999999
 20
3.244623
 10
6.689838000000001
 20
3.283078
 10
6.665760000000001
 20
3.310925
 10
6.661919999999999
 20
3.313936
  0
LWPOLYLINE
  5
7C6
330
18
100
AcDbEntity
  8
0
100
AcDbPolyline
 90
        4
 70
     0
 43
0.0
 10
6.76167
 20
3.261875
 10
6.749892999999999
 20
3.30229
 10
6.734611
 20
3.324815
 10
6.722889
 20
3.338666
  0
LWPOLYLINE
  5
7CD
330
18
100
AcDbEntity
  8
0
100
AcDbPolyline
 90
        4
 70
     0
 43
0.0
 10
6.814031
 20
3.282917
 10
6.801609
 20
3.307301
 10
6.787178999999999
 20
3.330996
 10
6.768857000000001
 20
3.35721
  0
LWPOLYLINE
  5
7D4
330
18
100
AcDbEntity
  8
0
100
AcDbPolyline
 90
        6
 70
     0
 43
0.0
 10
6.096947
 20
3.590302
 10
6.113479
 20
3.627035
 10
6.123428
 20
3.667998
 10
6.136369
 20
3.716958
 10
6.154317
 20
3.765939
 10
6.155333000000001
 20
3.768781
  0
LWPOLYLINE
  5
7DD
330
18
100
AcDbEntity
  8
0
100
AcDbPolyline
 90
        9
 70
     0
 43
0.0
 10
6.135233
 20
3.454345
 10
6.138742
 20
3.483413
 10
6.151688
 20
3.529379
 10
6.157630999999999
 20
3.570326
 10
6.170556
 20
3.629267
 10
6.190498000000001
 20
3.684245
 10
6.204446
 20
3.729217
 10
6.219403
 20
3.7702
 10
6.232574
 20
3.798481
  0
LWPOLYLINE
  5
7E9
330
18
100
AcDbEntity
  8
0
100
AcDbPolyline
 90
        9
 70
     0
 43
0.0
 10
6.19669
 20
3.47591
 10
6.210776
 20
3.526629
 10
6.227702
 20
3.588581
 10
6.237655999999999
 20
3.62655
 10
6.249605
 20
3.669518
 10
6.26255
 20
3.715484
 10
6.274494
 20
3.761445
 10
6.291428
 20
3.818407
 10
6.292569
 20
3.821551
  0
LWPOLYLINE
  5
7F5
330
18
100
AcDbEntity
  8
0
100
AcDbPolyline
 90
        6
 70
     0
 43
0.0
 10
6.260742
 20
3.498387
 10
6.262871
 20
3.512871
 10
6.272795
 20
3.569804
 10
6.294715
 20
3.639761
 10
6.310651
 20
3.694722
 10
6.326737000000001
 20
3.739438
  0
LWPOLYLINE
  5
7FE
330
18
100
AcDbEntity
  8
0
100
AcDbPolyline
 90
        9
 70
     0
 43
0.0
 10
6.195041000000001
 20
2.805621
 10
6.19074
 20
2.898743
 10
6.208682
 20
2.951717
 10
6.214635
 20
2.986675
 10
6.229558
 20
3.048618
 10
6.239465
 20
3.11653
 10
6.257375
 20
3.189465
 10
6.272287
 20
3.258395
 10
6.284015
 20
3.291598000000001
  0
LWPOLYLINE
  5
80A
330
18
100
AcDbEntity
  8
0
100
AcDbPolyline
 90
        9
 70
     0
 43
0.0
 10
6.131851
 20
2.775523
 10
6.131756
 20
2.835619
 10
6.138662999999999
 20
2.900524
 10
6.151562
 20
2.976433
 10
6.16646
 20
3.054346
 10
6.176384
 20
3.111279
 10
6.187307
 20
3.169213
 10
6.199231
 20
3.22815
 10
6.208165
 20
3.26195
  0
LWPOLYLINE
  5
816
330
18
100
AcDbEntity
  8
0
100
AcDbPolyline
 90
        8
 70
     0
 43
0.0
 10
6.247737
 20
2.83072
 10
6.247915
 20
2.839094
 10
6.248806
 20
2.908964
 10
6.255745
 20
2.953907
 10
6.266655999999999
 20
3.019827
 10
6.2776
 20
3.064787
 10
6.291558
 20
3.10377
 10
6.326737000000001
 20
3.183086
  0
LWPOLYLINE
  5
821
330
18
100
AcDbEntity
  8
0
100
AcDbPolyline
 90
        7
 70
     0
 43
0.0
 10
6.097705
 20
2.994229
 10
6.107395
 20
3.042125
 10
6.11332
 20
3.095048
 10
6.119249
 20
3.144978
 10
6.128189
 20
3.190927
 10
6.135149
 20
3.222895
 10
6.137356
 20
3.234272
  0
LWPOLYLINE
  5
82B
330
18
100
AcDbEntity
  8
0
100
AcDbPolyline
 90
        6
 70
     0
 43
0.0
 10
6.288233999999999
 20
2.850009
 10
6.289921
 20
2.873203
 10
6.294847
 20
2.924126
 10
6.306807
 20
2.960107
 10
6.318772
 20
2.993094
 10
6.326737000000001
 20
3.013052
  0
LWPOLYLINE
  5
834
330
18
100
AcDbEntity
  8
0
100
AcDbPolyline
 90
        4
 70
     0
 43
0.0
 10
6.135233
 20
3.454345
 10
6.160531
 20
3.396998
 10
6.171805
 20
3.37897
 10
6.186931
 20
3.351756
  0
LWPOLYLINE
  5
83B
330
18
100
AcDbEntity
  8
0
100
AcDbPolyline
 90
        5
 70
     0
 43
0.0
 10
6.19669
 20
3.47591
 10
6.219155000000001
 20
3.437563
 10
6.223663
 20
3.408267
 10
6.237191999999999
 20
3.37897
 10
6.239804
 20
3.373376
  0
LWPOLYLINE
  5
843
330
18
100
AcDbEntity
  8
0
100
AcDbPolyline
 90
        4
 70
     0
 43
0.0
 10
6.260742
 20
3.498387
 10
6.280033
 20
3.442071
 10
6.289052
 20
3.408267
 10
6.294603
 20
3.395784
  0
LWPOLYLINE
  5
84A
330
18
100
AcDbEntity
  8
0
100
AcDbPolyline
 90
        4
 70
     0
 43
0.0
 10
6.208165
 20
3.26195
 10
6.207881
 20
3.318123
 10
6.201117
 20
3.342912
 10
6.199832
 20
3.357032
  0
LWPOLYLINE
  5
851
330
18
100
AcDbEntity
  8
0
100
AcDbPolyline
 90
        3
 70
     0
 43
0.0
 10
6.284015
 20
3.291598000000001
 10
6.273268
 20
3.35418
 10
6.26066
 20
3.381905
  0
LWPOLYLINE
  5
857
330
18
100
AcDbEntity
  8
0
100
AcDbPolyline
 90
        3
 70
     0
 43
0.0
 10
6.137356
 20
3.234272
 10
6.122201
 20
3.291079
 10
6.10881
 20
3.333462
  0
LWPOLYLINE
  5
85D
330
18
100
AcDbEntity
  8
0
100
AcDbPolyline
 90
        6
 70
     0
 43
0.0
 10
5.98074
 20
5.48625
 10
5.987302
 20
5.523895
 10
5.994207
 20
5.589798
 10
5.999157
 20
5.62575
 10
6.0051
 20
5.667695
 10
6.006187000000001
 20
5.673051
  0
LWPOLYLINE
  5
866
330
18
100
AcDbEntity
  8
0
100
AcDbPolyline
 90
        6
 70
     0
 43
0.0
 10
6.045653
 20
5.50406
 10
6.048348000000001
 20
5.5491
 10
6.053283
 20
5.595033
 10
6.061212
 20
5.646967
 10
6.065169999999999
 20
5.676926
 10
6.068129
 20
5.695233
  0
LWPOLYLINE
  5
86F
330
18
100
AcDbEntity
  8
0
100
AcDbPolyline
 90
        4
 70
     0
 43
0.0
 10
6.184552
 20
5.542169
 10
6.184532
 20
5.554654
 10
6.188489
 20
5.585611
 10
6.190181
 20
5.595834
  0
LWPOLYLINE
  5
876
330
18
100
AcDbEntity
  8
0
100
AcDbPolyline
 90
        6
 70
     0
 43
0.0
 10
6.147516
 20
5.532008
 10
6.147419999999999
 20
5.592428
 10
6.152354
 20
5.638361
 10
6.156298000000001
 20
5.677303
 10
6.160266
 20
5.701274
 10
6.161121
 20
5.707311
  0
LWPOLYLINE
  5
87F
330
18
100
AcDbEntity
  8
0
100
AcDbPolyline
 90
        6
 70
     0
 43
0.0
 10
6.099468
 20
5.518825
 10
6.099436
 20
5.539330000000001
 10
6.104353
 20
5.596242
 10
6.106293
 20
5.636174
 10
6.10724
 20
5.670113
 10
6.112955
 20
5.711285
  0
LWPOLYLINE
  5
888
330
18
100
AcDbEntity
  8
0
100
AcDbPolyline
 90
        2
 70
     0
 43
0.0
 10
6.287811000000001
 20
5.133774
 10
6.293856
 20
5.198122
  0
LWPOLYLINE
  5
88D
330
18
100
AcDbEntity
  8
0
100
AcDbPolyline
 90
        5
 70
     0
 43
0.0
 10
6.236517
 20
5.117871
 10
6.236293
 20
5.119697
 10
6.238171
 20
5.198555000000001
 10
6.236072
 20
5.25943
 10
6.241717
 20
5.321466
  0
LWPOLYLINE
  5
895
330
18
100
AcDbEntity
  8
0
100
AcDbPolyline
 90
        6
 70
     0
 43
0.0
 10
6.181658000000001
 20
5.100863
 10
6.179205000000001
 20
5.124452
 10
6.177121
 20
5.175346
 10
6.177041
 20
5.226249
 10
6.176971
 20
5.270165
 10
6.180105
 20
5.301908999999999
  0
LWPOLYLINE
  5
89E
330
18
100
AcDbEntity
  8
0
100
AcDbPolyline
 90
        5
 70
     0
 43
0.0
 10
6.136231
 20
5.086779
 10
6.140109
 20
5.150241
 10
6.14005
 20
5.18717
 10
6.141953
 20
5.250058
 10
6.143726999999999
 20
5.290363
  0
LWPOLYLINE
  5
8A6
330
18
100
AcDbEntity
  8
0
100
AcDbPolyline
 90
        6
 70
     0
 43
0.0
 10
6.072568
 20
5.067042
 10
6.079098
 20
5.10208
 10
6.087021
 20
5.158005999999999
 10
6.092965
 20
5.198953
 10
6.098894000000001
 20
5.248882
 10
6.100777
 20
5.276729
  0
LWPOLYLINE
  5
8AF
330
18
100
AcDbEntity
  8
0
100
AcDbPolyline
 90
        3
 70
     0
 43
0.0
 10
5.98074
 20
5.48625
 10
6.011276000000001
 20
5.441861
 10
6.037972
 20
5.404845
  0
LWPOLYLINE
  5
8B5
330
18
100
AcDbEntity
  8
0
100
AcDbPolyline
 90
        4
 70
     0
 43
0.0
 10
6.045653
 20
5.50406
 10
6.061527
 20
5.470561
 10
6.079473
 20
5.42751
 10
6.082835
 20
5.419569
  0
LWPOLYLINE
  5
8BC
330
18
100
AcDbEntity
  8
0
100
AcDbPolyline
 90
        4
 70
     0
 43
0.0
 10
6.099468
 20
5.518825
 10
6.110581
 20
5.486106
 10
6.123741000000001
 20
5.446644999999999
 10
6.129194
 20
5.434783
  0
LWPOLYLINE
  5
8C3
330
18
100
AcDbEntity
  8
0
100
AcDbPolyline
 90
        3
 70
     0
 43
0.0
 10
6.147516
 20
5.532008
 10
6.163225
 20
5.474148000000001
 10
6.173318
 20
5.449265000000001
  0
LWPOLYLINE
  5
8C9
330
18
100
AcDbEntity
  8
0
100
AcDbPolyline
 90
        4
 70
     0
 43
0.0
 10
6.184552
 20
5.542169
 10
6.187154000000001
 20
5.507631
 10
6.200315
 20
5.475345
 10
6.204576
 20
5.459524
  0
LWPOLYLINE
  5
8D0
330
18
100
AcDbEntity
  8
0
100
AcDbPolyline
 90
        3
 70
     0
 43
0.0
 10
6.100777
 20
5.276729
 10
6.072295
 20
5.307926999999999
 10
6.047925
 20
5.336924
  0
LWPOLYLINE
  5
8D6
330
18
100
AcDbEntity
  8
0
100
AcDbPolyline
 90
        3
 70
     0
 43
0.0
 10
6.143726999999999
 20
5.290363
 10
6.116562999999999
 20
5.321081
 10
6.096365000000001
 20
5.352486
  0
LWPOLYLINE
  5
8DC
330
18
100
AcDbEntity
  8
0
100
AcDbPolyline
 90
        5
 70
     0
 43
0.0
 10
6.180105
 20
5.301908999999999
 10
6.162028
 20
5.318689
 10
6.139296
 20
5.342607
 10
6.123741000000001
 20
5.358152
 10
6.121372
 20
5.360519999999999
  0
LWPOLYLINE
  5
8E4
330
18
100
AcDbEntity
  8
0
100
AcDbPolyline
 90
        5
 70
     0
 43
0.0
 10
6.241717
 20
5.321466
 10
6.205101
 20
5.342607
 10
6.185957
 20
5.35576
 10
6.166814
 20
5.374894
 10
6.166613
 20
5.375054
  0
LWPOLYLINE
  5
8EC
330
18
100
AcDbEntity
  8
0
100
AcDbPolyline
 90
        5
 70
     0
 43
0.0
 10
6.047925
 20
5.336924
 10
6.06392
 20
5.371307
 10
6.072295
 20
5.395223000000001
 10
6.079473
 20
5.410769
 10
6.082835
 20
5.419569
  0
LWPOLYLINE
  5
8F4
330
18
100
AcDbEntity
  8
0
100
AcDbPolyline
 90
        5
 70
     0
 43
0.0
 10
6.096365000000001
 20
5.352486
 10
6.112974
 20
5.385657
 10
6.115367
 20
5.409573
 10
6.126134
 20
5.429901999999999
 10
6.129194
 20
5.434783
  0
LWPOLYLINE
  5
8FC
330
18
100
AcDbEntity
  8
0
100
AcDbPolyline
 90
        6
 70
     0
 43
0.0
 10
6.121372
 20
5.360519999999999
 10
6.13451
 20
5.380873
 10
6.147671
 20
5.407182
 10
6.153653
 20
5.423923
 10
6.160831
 20
5.437077
 10
6.173318
 20
5.449265000000001
  0
LWPOLYLINE
  5
905
330
18
100
AcDbEntity
  8
0
100
AcDbPolyline
 90
        5
 70
     0
 43
0.0
 10
6.166814
 20
5.374894
 10
6.182368
 20
5.408377
 10
6.189547
 20
5.428707
 10
6.199118
 20
5.446644999999999
 10
6.204576
 20
5.459524
  0
LWPOLYLINE
  5
90D
330
18
100
AcDbEntity
  8
0
100
AcDbPolyline
 90
        4
 70
     0
 43
0.0
 10
6.035327
 20
5.185589
 10
6.037598
 20
5.212259
 10
6.041188
 20
5.242156
 10
6.040227
 20
5.25751
  0
LWPOLYLINE
  5
914
330
18
100
AcDbEntity
  8
0
100
AcDbPolyline
 90
        3
 70
     0
 43
0.0
 10
6.040227
 20
5.25751
 10
6.026831
 20
5.286402
 10
6.003708000000001
 20
5.322718
  0
LWPOLYLINE
  5
91A
330
18
100
AcDbEntity
  8
0
100
AcDbPolyline
 90
        4
 70
     0
 43
0.0
 10
6.003708000000001
 20
5.322718
 10
6.022044999999999
 20
5.36174
 10
6.030419
 20
5.388048
 10
6.037972
 20
5.404845
  0
LWPOLYLINE
  5
921
330
18
100
AcDbEntity
  8
0
100
AcDbPolyline
 90
        6
 70
     0
 43
0.0
 10
6.496894999999999
 20
5.616117
 10
6.494808
 20
5.657743
 10
6.490716
 20
5.712621
 10
6.486623000000001
 20
5.767499
 10
6.487530000000001
 20
5.827389
 10
6.489627
 20
5.838466
  0
LWPOLYLINE
  5
92A
330
18
100
AcDbEntity
  8
0
100
AcDbPolyline
 90
        7
 70
     0
 43
0.0
 10
6.463638
 20
5.606401
 10
6.457813
 20
5.621658
 10
6.446715
 20
5.673513
 10
6.445643000000001
 20
5.718423000000001
 10
6.444556
 20
5.772316
 10
6.445482
 20
5.820228
 10
6.445469
 20
5.820742
  0
LWPOLYLINE
  5
934
330
18
100
AcDbEntity
  8
0
100
AcDbPolyline
 90
        8
 70
     0
 43
0.0
 10
6.423453
 20
5.594661
 10
6.41878
 20
5.607523000000001
 10
6.412732
 20
5.632451000000001
 10
6.410683000000001
 20
5.661387
 10
6.410638
 20
5.690332
 10
6.410574
 20
5.730255000000001
 10
6.408515
 20
5.766178
 10
6.405480000000001
 20
5.804692
  0
LWPOLYLINE
  5
93F
330
18
100
AcDbEntity
  8
0
100
AcDbPolyline
 90
        6
 70
     0
 43
0.0
 10
6.384564
 20
5.583299
 10
6.380736
 20
5.601376999999999
 10
6.373664
 20
5.640274
 10
6.37357
 20
5.700158999999999
 10
6.37148
 20
5.755046
 10
6.36935
 20
5.79019
  0
LWPOLYLINE
  5
948
330
18
100
AcDbEntity
  8
0
100
AcDbPolyline
 90
        5
 70
     0
 43
0.0
 10
6.351054
 20
5.573509
 10
6.342667
 20
5.611201
 10
6.332543
 20
5.680028
 10
6.33145
 20
5.737913
 10
6.330399
 20
5.774556
  0
LWPOLYLINE
  5
950
330
18
100
AcDbEntity
  8
0
100
AcDbPolyline
 90
        4
 70
     0
 43
0.0
 10
6.612916
 20
5.241857
 10
6.616579
 20
5.278969
 10
6.618484
 20
5.340859
 10
6.618471
 20
5.349067
  0
LWPOLYLINE
  5
957
330
18
100
AcDbEntity
  8
0
100
AcDbPolyline
 90
        6
 70
     0
 43
0.0
 10
6.573957000000001
 20
5.225411
 10
6.575553
 20
5.258838
 10
6.571464
 20
5.311719999999999
 10
6.568374
 20
5.365604
 10
6.564332
 20
5.388544
 10
6.561552000000001
 20
5.420282
  0
LWPOLYLINE
  5
960
330
18
100
AcDbEntity
  8
0
100
AcDbPolyline
 90
        6
 70
     0
 43
0.0
 10
6.532352
 20
5.207848
 10
6.530543
 20
5.224716
 10
6.525443
 20
5.283583
 10
6.519343
 20
5.341447000000001
 10
6.512257
 20
5.389327
 10
6.509433000000001
 20
5.405584999999999
  0
LWPOLYLINE
  5
969
330
18
100
AcDbEntity
  8
0
100
AcDbPolyline
 90
        6
 70
     0
 43
0.0
 10
6.479873
 20
5.185693
 10
6.479525
 20
5.19057
 10
6.477412999999999
 20
5.25943
 10
6.473332
 20
5.307322
 10
6.468238
 20
5.362196
 10
6.465594
 20
5.393222
  0
LWPOLYLINE
  5
972
330
18
100
AcDbEntity
  8
0
100
AcDbPolyline
 90
        5
 70
     0
 43
0.0
 10
6.423655999999999
 20
5.182288
 10
6.426364
 20
5.245245
 10
6.425244999999999
 20
5.3191
 10
6.425161
 20
5.371999
 10
6.4254
 20
5.381888
  0
LWPOLYLINE
  5
97A
330
18
100
AcDbEntity
  8
0
100
AcDbPolyline
 90
        4
 70
     0
 43
0.0
 10
6.384564
 20
5.583299
 10
6.416909
 20
5.558622
 10
6.43621
 20
5.534509
 10
6.449438
 20
5.523932
  0
LWPOLYLINE
  5
981
330
18
100
AcDbEntity
  8
0
100
AcDbPolyline
 90
        4
 70
     0
 43
0.0
 10
6.463638
 20
5.606401
 10
6.490893
 20
5.574697000000001
 10
6.51341
 20
5.555406
 10
6.521838
 20
5.547630000000001
  0
LWPOLYLINE
  5
988
330
18
100
AcDbEntity
  8
0
100
AcDbPolyline
 90
        3
 70
     0
 43
0.0
 10
6.496894999999999
 20
5.616117
 10
6.54236
 20
5.582733999999999
 10
6.560175
 20
5.560179
  0
LWPOLYLINE
  5
98E
330
18
100
AcDbEntity
  8
0
100
AcDbPolyline
 90
        4
 70
     0
 43
0.0
 10
6.423453
 20
5.594661
 10
6.44586
 20
5.563444000000001
 10
6.476418
 20
5.544153
 10
6.486235
 20
5.535977
  0
LWPOLYLINE
  5
995
330
18
100
AcDbEntity
  8
0
100
AcDbPolyline
 90
        4
 70
     0
 43
0.0
 10
6.351054
 20
5.573509
 10
6.383135
 20
5.547369000000001
 10
6.402435
 20
5.523256
 10
6.415113
 20
5.512696
  0
LWPOLYLINE
  5
99C
330
18
100
AcDbEntity
  8
0
100
AcDbPolyline
 90
        4
 70
     0
 43
0.0
 10
6.561552000000001
 20
5.420282
 10
6.540751
 20
5.442880000000001
 10
6.519844
 20
5.460563
 10
6.503386
 20
5.480003
  0
LWPOLYLINE
  5
9A3
330
18
100
AcDbEntity
  8
0
100
AcDbPolyline
 90
        5
 70
     0
 43
0.0
 10
6.509433000000001
 20
5.405584999999999
 10
6.487676
 20
5.43002
 10
6.471593
 20
5.44931
 10
6.460335
 20
5.46217
 10
6.457614
 20
5.465797
  0
LWPOLYLINE
  5
9AB
330
18
100
AcDbEntity
  8
0
100
AcDbPolyline
 90
        5
 70
     0
 43
0.0
 10
6.465594
 20
5.393222
 10
6.449077
 20
5.409122
 10
6.42656
 20
5.433235
 10
6.415301
 20
5.444488
 10
6.411761
 20
5.451565
  0
LWPOLYLINE
  5
9B3
330
18
100
AcDbEntity
  8
0
100
AcDbPolyline
 90
        3
 70
     0
 43
0.0
 10
6.4254
 20
5.381888
 10
6.39761
 20
5.418767
 10
6.376911
 20
5.440748
  0
LWPOLYLINE
  5
9B9
330
18
100
AcDbEntity
  8
0
100
AcDbPolyline
 90
        4
 70
     0
 43
0.0
 10
6.586973
 20
5.450413
 10
6.564877
 20
5.468601000000001
 10
6.547185
 20
5.484676
 10
6.541966
 20
5.491978
  0
LWPOLYLINE
  5
9C0
330
18
100
AcDbEntity
  8
0
100
AcDbPolyline
 90
        6
 70
     0
 43
0.0
 10
6.376911
 20
5.440748
 10
6.396001999999999
 20
5.466993
 10
6.39761
 20
5.476638
 10
6.402435
 20
5.48789
 10
6.405652
 20
5.494321
 10
6.415113
 20
5.512696
  0
LWPOLYLINE
  5
9C9
330
18
100
AcDbEntity
  8
0
100
AcDbPolyline
 90
        5
 70
     0
 43
0.0
 10
6.411761
 20
5.451565
 10
6.424951
 20
5.471815
 10
6.437818
 20
5.502358
 10
6.437818
 20
5.513611
 10
6.449438
 20
5.523932
  0
LWPOLYLINE
  5
9D1
330
18
100
AcDbEntity
  8
0
100
AcDbPolyline
 90
        5
 70
     0
 43
0.0
 10
6.457614
 20
5.465797
 10
6.471593
 20
5.492714
 10
6.478026
 20
5.515218
 10
6.482851
 20
5.529686
 10
6.486235
 20
5.535977
  0
LWPOLYLINE
  5
9D9
330
18
100
AcDbEntity
  8
0
100
AcDbPolyline
 90
        5
 70
     0
 43
0.0
 10
6.503386
 20
5.480003
 10
6.508585
 20
5.513611
 10
6.518235
 20
5.534509
 10
6.518235
 20
5.537724
 10
6.521838
 20
5.547630000000001
  0
LWPOLYLINE
  5
9E1
330
18
100
AcDbEntity
  8
0
100
AcDbPolyline
 90
        5
 70
     0
 43
0.0
 10
6.541966
 20
5.491978
 10
6.548793
 20
5.521649
 10
6.553617999999999
 20
5.537724
 10
6.555227
 20
5.553799
 10
6.560175
 20
5.560179
  0
LWPOLYLINE
  5
9E9
330
18
100
AcDbEntity
  8
0
100
AcDbPolyline
 90
        6
 70
     0
 43
0.0
 10
6.600402000000001
 20
5.491148
 10
6.611157
 20
5.467581
 10
6.623241
 20
5.424713
 10
6.640346000000001
 20
5.373881
 10
6.665471000000001
 20
5.317093
 10
6.667175
 20
5.313555
  0
LWPOLYLINE
  5
9F2
330
18
100
AcDbEntity
  8
0
100
AcDbPolyline
 90
        6
 70
     0
 43
0.0
 10
6.628572
 20
5.502682
 10
6.637174000000001
 20
5.479666
 10
6.656258
 20
5.443813
 10
6.671327000000001
 20
5.413933
 10
6.688422
 20
5.369089
 10
6.703682000000001
 20
5.326911
  0
LWPOLYLINE
  5
9FB
330
18
100
AcDbEntity
  8
0
100
AcDbPolyline
 90
        5
 70
     0
 43
0.0
 10
6.662847999999999
 20
5.516716000000001
 10
6.671189
 20
5.500767
 10
6.688287
 20
5.453926999999999
 10
6.718432000000001
 20
5.389175
 10
6.726967
 20
5.37402
  0
LWPOLYLINE
  5
A03
330
18
100
AcDbEntity
  8
0
100
AcDbPolyline
 90
        8
 70
     0
 43
0.0
 10
6.603608
 20
5.680084
 10
6.602015
 20
5.684726
 10
6.589935000000001
 20
5.7246
 10
6.574868
 20
5.753483
 10
6.554784
 20
5.788333000000001
 10
6.538708
 20
5.822202
 10
6.52163
 20
5.856066
 10
6.512578
 20
5.870878
  0
LWPOLYLINE
  5
A0E
330
18
100
AcDbEntity
  8
0
100
AcDbPolyline
 90
        3
 70
     0
 43
0.0
 10
6.63813
 20
5.719326000000001
 10
6.571758
 20
5.820342
 10
6.533194
 20
5.879736
  0
LWPOLYLINE
  5
A14
330
18
100
AcDbEntity
  8
0
100
AcDbPolyline
 90
        6
 70
     0
 43
0.0
 10
6.565283
 20
5.666708
 10
6.556947999999999
 20
5.686536
 10
6.540855000000001
 20
5.731383999999999
 10
6.525780999999999
 20
5.764259
 10
6.509707
 20
5.797129
 10
6.501176999999999
 20
5.812743
  0
LWPOLYLINE
  5
A1D
330
18
100
AcDbEntity
  8
0
100
AcDbPolyline
 90
        3
 70
     0
 43
0.0
 10
6.486571
 20
5.838712
 10
6.483596
 20
5.843932
 10
6.476901
 20
5.85555
  0
LWPOLYLINE
  5
A23
330
18
100
AcDbEntity
  8
0
100
AcDbPolyline
 90
        4
 70
     0
 43
0.0
 10
6.600402000000001
 20
5.491148
 10
6.605085000000001
 20
5.523256
 10
6.608302
 20
5.547369000000001
 10
6.608302
 20
5.547998000000001
  0
LWPOLYLINE
  5
A2A
330
18
100
AcDbEntity
  8
0
100
AcDbPolyline
 90
        4
 70
     0
 43
0.0
 10
6.628572
 20
5.502682
 10
6.637250999999999
 20
5.532902
 10
6.635642999999999
 20
5.540939
 10
6.638609
 20
5.558730000000001
  0
LWPOLYLINE
  5
A31
330
18
100
AcDbEntity
  8
0
100
AcDbPolyline
 90
        3
 70
     0
 43
0.0
 10
6.662847999999999
 20
5.516716000000001
 10
6.659768
 20
5.548977
 10
6.665727
 20
5.568332
  0
LWPOLYLINE
  5
A37
330
18
100
AcDbEntity
  8
0
100
AcDbPolyline
 90
        4
 70
     0
 43
0.0
 10
6.603608
 20
5.680084
 10
6.598650999999999
 20
5.647035
 10
6.598650999999999
 20
5.624529
 10
6.598650999999999
 20
5.612026999999999
  0
LWPOLYLINE
  5
A3E
330
18
100
AcDbEntity
  8
0
100
AcDbPolyline
 90
        4
 70
     0
 43
0.0
 10
6.565283
 20
5.666708
 10
6.564877
 20
5.635782
 10
6.560052000000001
 20
5.603632
 10
6.559858999999999
 20
5.601323000000001
  0
LWPOLYLINE
  5
A45
330
18
100
AcDbEntity
  8
0
100
AcDbPolyline
 90
        4
 70
     0
 43
0.0
 10
6.665727
 20
5.568332
 10
6.632426
 20
5.58595
 10
6.60991
 20
5.598808999999999
 10
6.598650999999999
 20
5.612026999999999
  0
LWPOLYLINE
  5
A4C
330
18
100
AcDbEntity
  8
0
100
AcDbPolyline
 90
        4
 70
     0
 43
0.0
 10
6.638609
 20
5.558730000000001
 10
6.608302
 20
5.581127
 10
6.575361
 20
5.596181
 10
6.567464999999999
 20
5.600398
  0
LWPOLYLINE
  5
A53
330
18
100
AcDbEntity
  8
0
100
AcDbPolyline
 90
        2
 70
     0
 43
0.0
 10
6.608302
 20
5.547369000000001
 10
6.575305999999999
 20
5.57302
  0
LINE
  5
A58
330
18
100
AcDbEntity
  8
0
100
AcDbLine
 10
2.948884
 20
7.805014999999999
 30
0.0
 11
3.813003
 21
7.487789
 31
0.0
  0
LINE
  5
A59
330
18
100
AcDbEntity
  8
0
100
AcDbLine
 10
3.813003
 20
8.282346
 30
0.0
 11
3.813003
 21
7.487789
 31
0.0
  0
LINE
  5
A5A
330
18
100
AcDbEntity
  8
0
100
AcDbLine
 10
2.948884
 20
8.599571000000001
 30
0.0
 11
3.813003
 21
8.282346
 31
0.0
  0
LINE
  5
A5B
330
18
100
AcDbEntity
  8
0
100
AcDbLine
 10
2.948884
 20
8.599571000000001
 30
0.0
 11
3.000624
 21
8.612678000000001
 31
0.0
  0
LINE
  5
A5C
330
18
100
AcDbEntity
  8
0
100
AcDbLine
 10
3.769299
 20
8.268186999999999
 30
0.0
 11
3.657853
 21
8.309828999999999
 31
0.0
  0
LINE
  5
A5D
330
18
100
AcDbEntity
  8
0
100
AcDbLine
 10
3.610946
 20
8.327356
 30
0.0
 11
3.610946
 21
8.294233
 31
0.0
  0
LINE
  5
A5E
330
18
100
AcDbEntity
  8
0
100
AcDbLine
 10
3.499499
 20
8.368998
 30
0.0
 11
3.499499
 21
8.336200999999999
 31
0.0
  0
LINE
  5
A5F
330
18
100
AcDbEntity
  8
0
100
AcDbLine
 10
3.456333
 20
8.385127000000001
 30
0.0
 11
3.456333
 21
8.352457000000001
 31
0.0
  0
LINE
  5
A60
330
18
100
AcDbEntity
  8
0
100
AcDbLine
 10
3.352371
 20
8.481197999999999
 30
0.0
 11
3.352371
 21
8.478451
 31
0.0
  0
LINE
  5
A61
330
18
100
AcDbEntity
  8
0
100
AcDbLine
 10
3.769299
 20
8.268186999999999
 30
0.0
 11
3.769299
 21
8.2346
 31
0.0
  0
LINE
  5
A62
330
18
100
AcDbEntity
  8
0
100
AcDbLine
 10
3.314816
 20
8.438005
 30
0.0
 11
3.314816
 21
8.405749
 31
0.0
  0
LINE
  5
A63
330
18
100
AcDbEntity
  8
0
100
AcDbLine
 10
3.220209
 20
8.473355
 30
0.0
 11
3.220209
 21
8.441376
 31
0.0
  0
LINE
  5
A64
330
18
100
AcDbEntity
  8
0
100
AcDbLine
 10
3.188268
 20
8.485289999999999
 30
0.0
 11
3.188268
 21
8.453405
 31
0.0
  0
LINE
  5
A65
330
18
100
AcDbEntity
  8
0
100
AcDbLine
 10
3.103015
 20
8.517144
 30
0.0
 11
3.103015
 21
8.485509
 31
0.0
  0
LINE
  5
A66
330
18
100
AcDbEntity
  8
0
100
AcDbLine
 10
3.071074
 20
8.529078999999999
 30
0.0
 11
3.071074
 21
8.497537
 31
0.0
  0
LINE
  5
A67
330
18
100
AcDbEntity
  8
0
100
AcDbLine
 10
2.985821
 20
8.560934
 30
0.0
 11
2.985821
 21
8.529641999999999
 31
0.0
  0
LINE
  5
A68
330
18
100
AcDbEntity
  8
0
100
AcDbLine
 10
3.610946
 20
8.327356
 30
0.0
 11
3.499499
 21
8.368998
 31
0.0
  0
LINE
  5
A69
330
18
100
AcDbEntity
  8
0
100
AcDbLine
 10
3.769299
 20
8.2346
 30
0.0
 11
3.657853
 21
8.276567999999999
 31
0.0
  0
LINE
  5
A6A
330
18
100
AcDbEntity
  8
0
100
AcDbLine
 10
3.456333
 20
8.385127000000001
 30
0.0
 11
3.352371
 21
8.423973
 31
0.0
  0
LINE
  5
A6B
330
18
100
AcDbEntity
  8
0
100
AcDbLine
 10
3.456333
 20
8.352457000000001
 30
0.0
 11
3.352371
 21
8.391607000000001
 31
0.0
  0
LINE
  5
A6C
330
18
100
AcDbEntity
  8
0
100
AcDbLine
 10
3.314816
 20
8.438005
 30
0.0
 11
3.220209
 21
8.473355
 31
0.0
  0
LINE
  5
A6D
330
18
100
AcDbEntity
  8
0
100
AcDbLine
 10
3.314816
 20
8.405749
 30
0.0
 11
3.220209
 21
8.441376
 31
0.0
  0
LINE
  5
A6E
330
18
100
AcDbEntity
  8
0
100
AcDbLine
 10
3.188268
 20
8.485289999999999
 30
0.0
 11
3.103015
 21
8.517144
 31
0.0
  0
LINE
  5
A6F
330
18
100
AcDbEntity
  8
0
100
AcDbLine
 10
3.188268
 20
8.453405
 30
0.0
 11
3.103015
 21
8.485509
 31
0.0
  0
LINE
  5
A70
330
18
100
AcDbEntity
  8
0
100
AcDbLine
 10
3.071074
 20
8.529078999999999
 30
0.0
 11
2.985821
 21
8.560934
 31
0.0
  0
LINE
  5
A71
330
18
100
AcDbEntity
  8
0
100
AcDbLine
 10
3.071074
 20
8.497537
 30
0.0
 11
2.985821
 21
8.529641999999999
 31
0.0
  0
LINE
  5
A72
330
18
100
AcDbEntity
  8
0
100
AcDbLine
 10
3.352371
 20
8.423973
 30
0.0
 11
3.352371
 21
8.391607000000001
 31
0.0
  0
LINE
  5
A73
330
18
100
AcDbEntity
  8
0
100
AcDbLine
 10
3.610946
 20
8.294233
 30
0.0
 11
3.499499
 21
8.336200999999999
 31
0.0
  0
LINE
  5
A74
330
18
100
AcDbEntity
  8
0
100
AcDbLine
 10
3.713576
 20
8.16755
 30
0.0
 11
3.60213
 21
8.209517999999999
 31
0.0
  0
LINE
  5
A75
330
18
100
AcDbEntity
  8
0
100
AcDbLine
 10
3.713576
 20
8.201136999999999
 30
0.0
 11
3.60213
 21
8.242778999999999
 31
0.0
  0
LINE
  5
A76
330
18
100
AcDbEntity
  8
0
100
AcDbLine
 10
3.713576
 20
8.201136999999999
 30
0.0
 11
3.713576
 21
8.16755
 31
0.0
  0
LINE
  5
A77
330
18
100
AcDbEntity
  8
0
100
AcDbLine
 10
3.443776
 20
8.301947999999999
 30
0.0
 11
3.443776
 21
8.269150999999999
 31
0.0
  0
LINE
  5
A78
330
18
100
AcDbEntity
  8
0
100
AcDbLine
 10
3.555223
 20
8.260306
 30
0.0
 11
3.555223
 21
8.227183
 31
0.0
  0
LINE
  5
A79
330
18
100
AcDbEntity
  8
0
100
AcDbLine
 10
3.555223
 20
8.227183
 30
0.0
 11
3.443776
 21
8.269150999999999
 31
0.0
  0
LINE
  5
A7A
330
18
100
AcDbEntity
  8
0
100
AcDbLine
 10
3.555223
 20
8.260306
 30
0.0
 11
3.443776
 21
8.301947999999999
 31
0.0
  0
LINE
  5
A7B
330
18
100
AcDbEntity
  8
0
100
AcDbLine
 10
3.296647
 20
8.356923
 30
0.0
 11
3.296647
 21
8.324557
 31
0.0
  0
LINE
  5
A7C
330
18
100
AcDbEntity
  8
0
100
AcDbLine
 10
3.400609
 20
8.318077000000001
 30
0.0
 11
3.400609
 21
8.285407000000001
 31
0.0
  0
LINE
  5
A7D
330
18
100
AcDbEntity
  8
0
100
AcDbLine
 10
3.400609
 20
8.285407000000001
 30
0.0
 11
3.296647
 21
8.324557
 31
0.0
  0
LINE
  5
A7E
330
18
100
AcDbEntity
  8
0
100
AcDbLine
 10
3.400609
 20
8.318077000000001
 30
0.0
 11
3.296647
 21
8.356923
 31
0.0
  0
LINE
  5
A7F
330
18
100
AcDbEntity
  8
0
100
AcDbLine
 10
3.164485
 20
8.406305
 30
0.0
 11
3.164485
 21
8.374326
 31
0.0
  0
LINE
  5
A80
330
18
100
AcDbEntity
  8
0
100
AcDbLine
 10
3.259093
 20
8.370955
 30
0.0
 11
3.259093
 21
8.338699
 31
0.0
  0
LINE
  5
A81
330
18
100
AcDbEntity
  8
0
100
AcDbLine
 10
3.259093
 20
8.338699
 30
0.0
 11
3.164485
 21
8.374326
 31
0.0
  0
LINE
  5
A82
330
18
100
AcDbEntity
  8
0
100
AcDbLine
 10
3.259093
 20
8.370955
 30
0.0
 11
3.164485
 21
8.406305
 31
0.0
  0
LINE
  5
A83
330
18
100
AcDbEntity
  8
0
100
AcDbLine
 10
3.047292
 20
8.450094
 30
0.0
 11
3.047292
 21
8.418459
 31
0.0
  0
LINE
  5
A84
330
18
100
AcDbEntity
  8
0
100
AcDbLine
 10
3.132545
 20
8.418239999999999
 30
0.0
 11
3.132545
 21
8.386355
 31
0.0
  0
LINE
  5
A85
330
18
100
AcDbEntity
  8
0
100
AcDbLine
 10
3.132545
 20
8.386355
 30
0.0
 11
3.047292
 21
8.418459
 31
0.0
  0
LINE
  5
A86
330
18
100
AcDbEntity
  8
0
100
AcDbLine
 10
3.132545
 20
8.418239999999999
 30
0.0
 11
3.047292
 21
8.450094
 31
0.0
  0
LINE
  5
A87
330
18
100
AcDbEntity
  8
0
100
AcDbLine
 10
3.610946
 20
8.151728
 30
0.0
 11
3.499499
 21
8.19337
 31
0.0
  0
LINE
  5
A88
330
18
100
AcDbEntity
  8
0
100
AcDbLine
 10
3.610946
 20
8.118605000000001
 30
0.0
 11
3.499499
 21
8.160572999999999
 31
0.0
  0
LINE
  5
A89
330
18
100
AcDbEntity
  8
0
100
AcDbLine
 10
3.610946
 20
8.151728
 30
0.0
 11
3.610946
 21
8.118605000000001
 31
0.0
  0
LINE
  5
A8A
330
18
100
AcDbEntity
  8
0
100
AcDbLine
 10
3.499499
 20
8.19337
 30
0.0
 11
3.499499
 21
8.160572999999999
 31
0.0
  0
LINE
  5
A8B
330
18
100
AcDbEntity
  8
0
100
AcDbLine
 10
3.456333
 20
8.209499000000001
 30
0.0
 11
3.352371
 21
8.248344
 31
0.0
  0
LINE
  5
A8C
330
18
100
AcDbEntity
  8
0
100
AcDbLine
 10
3.456333
 20
8.176829
 30
0.0
 11
3.352371
 21
8.215978999999999
 31
0.0
  0
LINE
  5
A8D
330
18
100
AcDbEntity
  8
0
100
AcDbLine
 10
3.456333
 20
8.209499000000001
 30
0.0
 11
3.456333
 21
8.176829
 31
0.0
  0
LINE
  5
A8E
330
18
100
AcDbEntity
  8
0
100
AcDbLine
 10
3.352371
 20
8.248344
 30
0.0
 11
3.352371
 21
8.215978999999999
 31
0.0
  0
LINE
  5
A8F
330
18
100
AcDbEntity
  8
0
100
AcDbLine
 10
3.188268
 20
8.277775999999999
 30
0.0
 11
3.103015
 21
8.309880999999999
 31
0.0
  0
LINE
  5
A90
330
18
100
AcDbEntity
  8
0
100
AcDbLine
 10
3.188268
 20
8.309661
 30
0.0
 11
3.188268
 21
8.277775999999999
 31
0.0
  0
LINE
  5
A91
330
18
100
AcDbEntity
  8
0
100
AcDbLine
 10
3.314816
 20
8.262377000000001
 30
0.0
 11
3.220209
 21
8.297727
 31
0.0
  0
LINE
  5
A92
330
18
100
AcDbEntity
  8
0
100
AcDbLine
 10
3.314816
 20
8.230121000000001
 30
0.0
 11
3.220209
 21
8.265748
 31
0.0
  0
LINE
  5
A93
330
18
100
AcDbEntity
  8
0
100
AcDbLine
 10
3.314816
 20
8.262377000000001
 30
0.0
 11
3.314816
 21
8.230121000000001
 31
0.0
  0
LINE
  5
A94
330
18
100
AcDbEntity
  8
0
100
AcDbLine
 10
3.220209
 20
8.297727
 30
0.0
 11
3.220209
 21
8.265748
 31
0.0
  0
LINE
  5
A95
330
18
100
AcDbEntity
  8
0
100
AcDbLine
 10
3.071074
 20
8.321909
 30
0.0
 11
2.985821
 21
8.354013999999999
 31
0.0
  0
LINE
  5
A96
330
18
100
AcDbEntity
  8
0
100
AcDbLine
 10
3.071074
 20
8.353451
 30
0.0
 11
3.071074
 21
8.321909
 31
0.0
  0
LINE
  5
A97
330
18
100
AcDbEntity
  8
0
100
AcDbLine
 10
3.188268
 20
8.309661
 30
0.0
 11
3.103015
 21
8.341516
 31
0.0
  0
LINE
  5
A98
330
18
100
AcDbEntity
  8
0
100
AcDbLine
 10
3.103015
 20
8.341516
 30
0.0
 11
3.103015
 21
8.309880999999999
 31
0.0
  0
LINE
  5
A99
330
18
100
AcDbEntity
  8
0
100
AcDbLine
 10
3.071074
 20
8.353451
 30
0.0
 11
2.985821
 21
8.385306
 31
0.0
  0
LINE
  5
A9A
330
18
100
AcDbEntity
  8
0
100
AcDbLine
 10
2.985821
 20
8.385306
 30
0.0
 11
2.985821
 21
8.354013999999999
 31
0.0
  0
LINE
  5
A9B
330
18
100
AcDbEntity
  8
0
100
AcDbLine
 10
3.769299
 20
8.058972000000001
 30
0.0
 11
3.657853
 21
8.10094
 31
0.0
  0
LINE
  5
A9C
330
18
100
AcDbEntity
  8
0
100
AcDbLine
 10
3.769299
 20
8.092559
 30
0.0
 11
3.657853
 21
8.134200999999999
 31
0.0
  0
LINE
  5
A9D
330
18
100
AcDbEntity
  8
0
100
AcDbLine
 10
3.769299
 20
8.092559
 30
0.0
 11
3.769299
 21
8.058972000000001
 31
0.0
  0
LINE
  5
A9E
330
18
100
AcDbEntity
  8
0
100
AcDbLine
 10
3.657853
 20
8.309828999999999
 30
0.0
 11
3.657853
 21
8.276567999999999
 31
0.0
  0
LINE
  5
A9F
330
18
100
AcDbEntity
  8
0
100
AcDbLine
 10
3.60213
 20
8.242778999999999
 30
0.0
 11
3.60213
 21
8.209517999999999
 31
0.0
  0
LINE
  5
AA0
330
18
100
AcDbEntity
  8
0
100
AcDbLine
 10
3.657853
 20
8.134200999999999
 30
0.0
 11
3.657853
 21
8.10094
 31
0.0
  0
LINE
  5
AA1
330
18
100
AcDbEntity
  8
0
100
AcDbLine
 10
3.047292
 20
8.274466
 30
0.0
 11
3.047292
 21
8.242830999999999
 31
0.0
  0
LINE
  5
AA2
330
18
100
AcDbEntity
  8
0
100
AcDbLine
 10
3.132545
 20
8.242611
 30
0.0
 11
3.132545
 21
8.210725999999999
 31
0.0
  0
LINE
  5
AA3
330
18
100
AcDbEntity
  8
0
100
AcDbLine
 10
3.132545
 20
8.210725999999999
 30
0.0
 11
3.047292
 21
8.242830999999999
 31
0.0
  0
LINE
  5
AA4
330
18
100
AcDbEntity
  8
0
100
AcDbLine
 10
3.132545
 20
8.242611
 30
0.0
 11
3.047292
 21
8.274466
 31
0.0
  0
LINE
  5
AA5
330
18
100
AcDbEntity
  8
0
100
AcDbLine
 10
3.164485
 20
8.230677
 30
0.0
 11
3.164485
 21
8.198698
 31
0.0
  0
LINE
  5
AA6
330
18
100
AcDbEntity
  8
0
100
AcDbLine
 10
3.259093
 20
8.195327000000001
 30
0.0
 11
3.259093
 21
8.163071
 31
0.0
  0
LINE
  5
AA7
330
18
100
AcDbEntity
  8
0
100
AcDbLine
 10
3.259093
 20
8.163071
 30
0.0
 11
3.164485
 21
8.198698
 31
0.0
  0
LINE
  5
AA8
330
18
100
AcDbEntity
  8
0
100
AcDbLine
 10
3.259093
 20
8.195327000000001
 30
0.0
 11
3.164485
 21
8.230677
 31
0.0
  0
LINE
  5
AA9
330
18
100
AcDbEntity
  8
0
100
AcDbLine
 10
3.188268
 20
8.134033000000001
 30
0.0
 11
3.103015
 21
8.165888000000001
 31
0.0
  0
LINE
  5
AAA
330
18
100
AcDbEntity
  8
0
100
AcDbLine
 10
3.296647
 20
8.181293999999999
 30
0.0
 11
3.296647
 21
8.148928999999999
 31
0.0
  0
LINE
  5
AAB
330
18
100
AcDbEntity
  8
0
100
AcDbLine
 10
3.400609
 20
8.109779
 30
0.0
 11
3.296647
 21
8.148928999999999
 31
0.0
  0
LINE
  5
AAC
330
18
100
AcDbEntity
  8
0
100
AcDbLine
 10
3.400609
 20
8.142449000000001
 30
0.0
 11
3.296647
 21
8.181293999999999
 31
0.0
  0
LINE
  5
AAD
330
18
100
AcDbEntity
  8
0
100
AcDbLine
 10
3.103015
 20
8.165888000000001
 30
0.0
 11
3.103015
 21
8.134252999999999
 31
0.0
  0
LINE
  5
AAE
330
18
100
AcDbEntity
  8
0
100
AcDbLine
 10
3.220209
 20
8.122099
 30
0.0
 11
3.220209
 21
8.090119999999999
 31
0.0
  0
LINE
  5
AAF
330
18
100
AcDbEntity
  8
0
100
AcDbLine
 10
3.314816
 20
8.086748
 30
0.0
 11
3.314816
 21
8.054492999999999
 31
0.0
  0
LINE
  5
AB0
330
18
100
AcDbEntity
  8
0
100
AcDbLine
 10
3.314816
 20
8.054492999999999
 30
0.0
 11
3.220209
 21
8.090119999999999
 31
0.0
  0
LINE
  5
AB1
330
18
100
AcDbEntity
  8
0
100
AcDbLine
 10
3.314816
 20
8.086748
 30
0.0
 11
3.220209
 21
8.122099
 31
0.0
  0
LINE
  5
AB2
330
18
100
AcDbEntity
  8
0
100
AcDbLine
 10
3.188268
 20
8.134033000000001
 30
0.0
 11
3.188268
 21
8.102148
 31
0.0
  0
LINE
  5
AB3
330
18
100
AcDbEntity
  8
0
100
AcDbLine
 10
3.188268
 20
8.102148
 30
0.0
 11
3.103015
 21
8.134252999999999
 31
0.0
  0
LINE
  5
AB4
330
18
100
AcDbEntity
  8
0
100
AcDbLine
 10
2.985821
 20
8.209677000000001
 30
0.0
 11
2.985821
 21
8.178385000000001
 31
0.0
  0
LINE
  5
AB5
330
18
100
AcDbEntity
  8
0
100
AcDbLine
 10
3.071074
 20
8.177823
 30
0.0
 11
2.985821
 21
8.209677000000001
 31
0.0
  0
LINE
  5
AB6
330
18
100
AcDbEntity
  8
0
100
AcDbLine
 10
3.071074
 20
8.177823
 30
0.0
 11
3.071074
 21
8.146281
 31
0.0
  0
LINE
  5
AB7
330
18
100
AcDbEntity
  8
0
100
AcDbLine
 10
3.071074
 20
8.146281
 30
0.0
 11
2.985821
 21
8.178385000000001
 31
0.0
  0
LINE
  5
AB8
330
18
100
AcDbEntity
  8
0
100
AcDbLine
 10
3.400609
 20
8.142449000000001
 30
0.0
 11
3.400609
 21
8.109779
 31
0.0
  0
LINE
  5
AB9
330
18
100
AcDbEntity
  8
0
100
AcDbLine
 10
3.352371
 20
8.072716
 30
0.0
 11
3.352371
 21
8.04035
 31
0.0
  0
LINE
  5
ABA
330
18
100
AcDbEntity
  8
0
100
AcDbLine
 10
3.456333
 20
8.001200000000001
 30
0.0
 11
3.352371
 21
8.04035
 31
0.0
  0
LINE
  5
ABB
330
18
100
AcDbEntity
  8
0
100
AcDbLine
 10
3.456333
 20
8.033871000000001
 30
0.0
 11
3.352371
 21
8.072716
 31
0.0
  0
LINE
  5
ABC
330
18
100
AcDbEntity
  8
0
100
AcDbLine
 10
3.555223
 20
8.084678
 30
0.0
 11
3.555223
 21
8.051555000000001
 31
0.0
  0
LINE
  5
ABD
330
18
100
AcDbEntity
  8
0
100
AcDbLine
 10
3.555223
 20
8.051555000000001
 30
0.0
 11
3.443776
 21
8.093522999999999
 31
0.0
  0
LINE
  5
ABE
330
18
100
AcDbEntity
  8
0
100
AcDbLine
 10
3.713576
 20
7.991922
 30
0.0
 11
3.60213
 21
8.03389
 31
0.0
  0
LINE
  5
ABF
330
18
100
AcDbEntity
  8
0
100
AcDbLine
 10
3.60213
 20
8.067150999999999
 30
0.0
 11
3.60213
 21
8.03389
 31
0.0
  0
LINE
  5
AC0
330
18
100
AcDbEntity
  8
0
100
AcDbLine
 10
3.499499
 20
8.017741000000001
 30
0.0
 11
3.499499
 21
7.984945
 31
0.0
  0
LINE
  5
AC1
330
18
100
AcDbEntity
  8
0
100
AcDbLine
 10
3.610946
 20
7.9761
 30
0.0
 11
3.610946
 21
7.942976
 31
0.0
  0
LINE
  5
AC2
330
18
100
AcDbEntity
  8
0
100
AcDbLine
 10
3.610946
 20
7.942976
 30
0.0
 11
3.499499
 21
7.984945
 31
0.0
  0
LINE
  5
AC3
330
18
100
AcDbEntity
  8
0
100
AcDbLine
 10
3.610946
 20
7.9761
 30
0.0
 11
3.499499
 21
8.017741000000001
 31
0.0
  0
LINE
  5
AC4
330
18
100
AcDbEntity
  8
0
100
AcDbLine
 10
3.657853
 20
7.958573
 30
0.0
 11
3.657853
 21
7.925312
 31
0.0
  0
LINE
  5
AC5
330
18
100
AcDbEntity
  8
0
100
AcDbLine
 10
3.769299
 20
7.916931
 30
0.0
 11
3.769299
 21
7.883344
 31
0.0
  0
LINE
  5
AC6
330
18
100
AcDbEntity
  8
0
100
AcDbLine
 10
3.769299
 20
7.916931
 30
0.0
 11
3.657853
 21
7.958573
 31
0.0
  0
LINE
  5
AC7
330
18
100
AcDbEntity
  8
0
100
AcDbLine
 10
3.769299
 20
7.883344
 30
0.0
 11
3.657853
 21
7.925312
 31
0.0
  0
LINE
  5
AC8
330
18
100
AcDbEntity
  8
0
100
AcDbLine
 10
3.713576
 20
8.025509
 30
0.0
 11
3.60213
 21
8.067150999999999
 31
0.0
  0
LINE
  5
AC9
330
18
100
AcDbEntity
  8
0
100
AcDbLine
 10
3.713576
 20
8.025509
 30
0.0
 11
3.713576
 21
7.991922
 31
0.0
  0
LINE
  5
ACA
330
18
100
AcDbEntity
  8
0
100
AcDbLine
 10
3.443776
 20
8.12632
 30
0.0
 11
3.443776
 21
8.093522999999999
 31
0.0
  0
LINE
  5
ACB
330
18
100
AcDbEntity
  8
0
100
AcDbLine
 10
3.555223
 20
8.084678
 30
0.0
 11
3.443776
 21
8.12632
 31
0.0
  0
LINE
  5
ACC
330
18
100
AcDbEntity
  8
0
100
AcDbLine
 10
3.456333
 20
8.033871000000001
 30
0.0
 11
3.456333
 21
8.001200000000001
 31
0.0
  0
LINE
  5
ACD
330
18
100
AcDbEntity
  8
0
100
AcDbLine
 10
3.047292
 20
8.098838000000001
 30
0.0
 11
3.047292
 21
8.067202999999999
 31
0.0
  0
LINE
  5
ACE
330
18
100
AcDbEntity
  8
0
100
AcDbLine
 10
3.132545
 20
8.066983000000001
 30
0.0
 11
3.132545
 21
8.035098
 31
0.0
  0
LINE
  5
ACF
330
18
100
AcDbEntity
  8
0
100
AcDbLine
 10
3.132545
 20
8.035098
 30
0.0
 11
3.047292
 21
8.067202999999999
 31
0.0
  0
LINE
  5
AD0
330
18
100
AcDbEntity
  8
0
100
AcDbLine
 10
3.132545
 20
8.066983000000001
 30
0.0
 11
3.047292
 21
8.098838000000001
 31
0.0
  0
LINE
  5
AD1
330
18
100
AcDbEntity
  8
0
100
AcDbLine
 10
3.164485
 20
8.055049
 30
0.0
 11
3.164485
 21
8.023070000000001
 31
0.0
  0
LINE
  5
AD2
330
18
100
AcDbEntity
  8
0
100
AcDbLine
 10
3.259093
 20
8.019698
 30
0.0
 11
3.259093
 21
7.987442999999999
 31
0.0
  0
LINE
  5
AD3
330
18
100
AcDbEntity
  8
0
100
AcDbLine
 10
3.259093
 20
7.987442999999999
 30
0.0
 11
3.164485
 21
8.023070000000001
 31
0.0
  0
LINE
  5
AD4
330
18
100
AcDbEntity
  8
0
100
AcDbLine
 10
3.259093
 20
8.019698
 30
0.0
 11
3.164485
 21
8.055049
 31
0.0
  0
LINE
  5
AD5
330
18
100
AcDbEntity
  8
0
100
AcDbLine
 10
3.188268
 20
7.958405
 30
0.0
 11
3.103015
 21
7.99026
 31
0.0
  0
LINE
  5
AD6
330
18
100
AcDbEntity
  8
0
100
AcDbLine
 10
3.296647
 20
8.005666
 30
0.0
 11
3.296647
 21
7.9733
 31
0.0
  0
LINE
  5
AD7
330
18
100
AcDbEntity
  8
0
100
AcDbLine
 10
3.400609
 20
7.93415
 30
0.0
 11
3.296647
 21
7.9733
 31
0.0
  0
LINE
  5
AD8
330
18
100
AcDbEntity
  8
0
100
AcDbLine
 10
3.400609
 20
7.966821
 30
0.0
 11
3.296647
 21
8.005666
 31
0.0
  0
LINE
  5
AD9
330
18
100
AcDbEntity
  8
0
100
AcDbLine
 10
3.103015
 20
7.99026
 30
0.0
 11
3.103015
 21
7.958624
 31
0.0
  0
LINE
  5
ADA
330
18
100
AcDbEntity
  8
0
100
AcDbLine
 10
3.220209
 20
7.94647
 30
0.0
 11
3.220209
 21
7.914492
 31
0.0
  0
LINE
  5
ADB
330
18
100
AcDbEntity
  8
0
100
AcDbLine
 10
3.314816
 20
7.91112
 30
0.0
 11
3.314816
 21
7.878864
 31
0.0
  0
LINE
  5
ADC
330
18
100
AcDbEntity
  8
0
100
AcDbLine
 10
3.314816
 20
7.878864
 30
0.0
 11
3.220209
 21
7.914492
 31
0.0
  0
LINE
  5
ADD
330
18
100
AcDbEntity
  8
0
100
AcDbLine
 10
3.314816
 20
7.91112
 30
0.0
 11
3.220209
 21
7.94647
 31
0.0
  0
LINE
  5
ADE
330
18
100
AcDbEntity
  8
0
100
AcDbLine
 10
3.188268
 20
7.958405
 30
0.0
 11
3.188268
 21
7.92652
 31
0.0
  0
LINE
  5
ADF
330
18
100
AcDbEntity
  8
0
100
AcDbLine
 10
3.188268
 20
7.92652
 30
0.0
 11
3.103015
 21
7.958624
 31
0.0
  0
LINE
  5
AE0
330
18
100
AcDbEntity
  8
0
100
AcDbLine
 10
2.985821
 20
8.034049000000001
 30
0.0
 11
2.985821
 21
8.002757000000001
 31
0.0
  0
LINE
  5
AE1
330
18
100
AcDbEntity
  8
0
100
AcDbLine
 10
3.071074
 20
8.002193999999999
 30
0.0
 11
2.985821
 21
8.034049000000001
 31
0.0
  0
LINE
  5
AE2
330
18
100
AcDbEntity
  8
0
100
AcDbLine
 10
3.071074
 20
8.002193999999999
 30
0.0
 11
3.071074
 21
7.970653
 31
0.0
  0
LINE
  5
AE3
330
18
100
AcDbEntity
  8
0
100
AcDbLine
 10
3.071074
 20
7.970653
 30
0.0
 11
2.985821
 21
8.002757000000001
 31
0.0
  0
LINE
  5
AE4
330
18
100
AcDbEntity
  8
0
100
AcDbLine
 10
3.400609
 20
7.966821
 30
0.0
 11
3.400609
 21
7.93415
 31
0.0
  0
LINE
  5
AE5
330
18
100
AcDbEntity
  8
0
100
AcDbLine
 10
3.352371
 20
7.897088
 30
0.0
 11
3.352371
 21
7.864722
 31
0.0
  0
LINE
  5
AE6
330
18
100
AcDbEntity
  8
0
100
AcDbLine
 10
3.456333
 20
7.825572
 30
0.0
 11
3.352371
 21
7.864722
 31
0.0
  0
LINE
  5
AE7
330
18
100
AcDbEntity
  8
0
100
AcDbLine
 10
3.456333
 20
7.858242
 30
0.0
 11
3.352371
 21
7.897088
 31
0.0
  0
LINE
  5
AE8
330
18
100
AcDbEntity
  8
0
100
AcDbLine
 10
3.555223
 20
7.90905
 30
0.0
 11
3.555223
 21
7.875926
 31
0.0
  0
LINE
  5
AE9
330
18
100
AcDbEntity
  8
0
100
AcDbLine
 10
3.555223
 20
7.875926
 30
0.0
 11
3.443776
 21
7.917895
 31
0.0
  0
LINE
  5
AEA
330
18
100
AcDbEntity
  8
0
100
AcDbLine
 10
3.713576
 20
7.816294
 30
0.0
 11
3.60213
 21
7.858262
 31
0.0
  0
LINE
  5
AEB
330
18
100
AcDbEntity
  8
0
100
AcDbLine
 10
3.60213
 20
7.891522999999999
 30
0.0
 11
3.60213
 21
7.858262
 31
0.0
  0
LINE
  5
AEC
330
18
100
AcDbEntity
  8
0
100
AcDbLine
 10
3.499499
 20
7.842113
 30
0.0
 11
3.499499
 21
7.809316
 31
0.0
  0
LINE
  5
AED
330
18
100
AcDbEntity
  8
0
100
AcDbLine
 10
3.610946
 20
7.800471000000001
 30
0.0
 11
3.610946
 21
7.767347999999999
 31
0.0
  0
LINE
  5
AEE
330
18
100
AcDbEntity
  8
0
100
AcDbLine
 10
3.610946
 20
7.767347999999999
 30
0.0
 11
3.499499
 21
7.809316
 31
0.0
  0
LINE
  5
AEF
330
18
100
AcDbEntity
  8
0
100
AcDbLine
 10
3.610946
 20
7.800471000000001
 30
0.0
 11
3.499499
 21
7.842113
 31
0.0
  0
LINE
  5
AF0
330
18
100
AcDbEntity
  8
0
100
AcDbLine
 10
3.657853
 20
7.782944000000001
 30
0.0
 11
3.657853
 21
7.749683999999999
 31
0.0
  0
LINE
  5
AF1
330
18
100
AcDbEntity
  8
0
100
AcDbLine
 10
3.769299
 20
7.741302
 30
0.0
 11
3.769299
 21
7.707714999999999
 31
0.0
  0
LINE
  5
AF2
330
18
100
AcDbEntity
  8
0
100
AcDbLine
 10
3.769299
 20
7.741302
 30
0.0
 11
3.657853
 21
7.782944000000001
 31
0.0
  0
LINE
  5
AF3
330
18
100
AcDbEntity
  8
0
100
AcDbLine
 10
3.769299
 20
7.707714999999999
 30
0.0
 11
3.657853
 21
7.749683999999999
 31
0.0
  0
LINE
  5
AF4
330
18
100
AcDbEntity
  8
0
100
AcDbLine
 10
3.751326
 20
7.747744
 30
0.0
 11
3.657853
 21
7.782944000000001
 31
0.0
  0
LINE
  5
AF5
330
18
100
AcDbEntity
  8
0
100
AcDbLine
 10
3.713576
 20
7.849881
 30
0.0
 11
3.60213
 21
7.891522999999999
 31
0.0
  0
LINE
  5
AF6
330
18
100
AcDbEntity
  8
0
100
AcDbLine
 10
3.713576
 20
7.849881
 30
0.0
 11
3.713576
 21
7.816294
 31
0.0
  0
LINE
  5
AF7
330
18
100
AcDbEntity
  8
0
100
AcDbLine
 10
3.443776
 20
7.950691
 30
0.0
 11
3.443776
 21
7.917895
 31
0.0
  0
LINE
  5
AF8
330
18
100
AcDbEntity
  8
0
100
AcDbLine
 10
3.555223
 20
7.90905
 30
0.0
 11
3.443776
 21
7.950691
 31
0.0
  0
LINE
  5
AF9
330
18
100
AcDbEntity
  8
0
100
AcDbLine
 10
3.456333
 20
7.858242
 30
0.0
 11
3.456333
 21
7.825572
 31
0.0
  0
LINE
  5
AFA
330
18
100
AcDbEntity
  8
0
100
AcDbLine
 10
3.047292
 20
7.923210000000001
 30
0.0
 11
3.047292
 21
7.891574
 31
0.0
  0
LINE
  5
AFB
330
18
100
AcDbEntity
  8
0
100
AcDbLine
 10
3.132545
 20
7.891355
 30
0.0
 11
3.132545
 21
7.85947
 31
0.0
  0
LINE
  5
AFC
330
18
100
AcDbEntity
  8
0
100
AcDbLine
 10
3.132545
 20
7.85947
 30
0.0
 11
3.047292
 21
7.891574
 31
0.0
  0
LINE
  5
AFD
330
18
100
AcDbEntity
  8
0
100
AcDbLine
 10
3.132545
 20
7.891355
 30
0.0
 11
3.047292
 21
7.923210000000001
 31
0.0
  0
LINE
  5
AFE
330
18
100
AcDbEntity
  8
0
100
AcDbLine
 10
3.164485
 20
7.87942
 30
0.0
 11
3.164485
 21
7.847442
 31
0.0
  0
LINE
  5
AFF
330
18
100
AcDbEntity
  8
0
100
AcDbLine
 10
3.259093
 20
7.844069999999999
 30
0.0
 11
3.259093
 21
7.811814
 31
0.0
  0
LINE
  5
B00
330
18
100
AcDbEntity
  8
0
100
AcDbLine
 10
3.259093
 20
7.811814
 30
0.0
 11
3.164485
 21
7.847442
 31
0.0
  0
LINE
  5
B01
330
18
100
AcDbEntity
  8
0
100
AcDbLine
 10
3.259093
 20
7.844069999999999
 30
0.0
 11
3.164485
 21
7.87942
 31
0.0
  0
LINE
  5
B02
330
18
100
AcDbEntity
  8
0
100
AcDbLine
 10
3.188268
 20
7.782777
 30
0.0
 11
3.103015
 21
7.814630999999999
 31
0.0
  0
LINE
  5
B03
330
18
100
AcDbEntity
  8
0
100
AcDbLine
 10
3.296647
 20
7.830038
 30
0.0
 11
3.296647
 21
7.797672
 31
0.0
  0
LINE
  5
B04
330
18
100
AcDbEntity
  8
0
100
AcDbLine
 10
3.400609
 20
7.758522
 30
0.0
 11
3.296647
 21
7.797672
 31
0.0
  0
LINE
  5
B05
330
18
100
AcDbEntity
  8
0
100
AcDbLine
 10
3.400609
 20
7.791192
 30
0.0
 11
3.296647
 21
7.830038
 31
0.0
  0
LINE
  5
B06
330
18
100
AcDbEntity
  8
0
100
AcDbLine
 10
3.103015
 20
7.814630999999999
 30
0.0
 11
3.103015
 21
7.782996000000001
 31
0.0
  0
LINE
  5
B07
330
18
100
AcDbEntity
  8
0
100
AcDbLine
 10
3.220209
 20
7.770842
 30
0.0
 11
3.220209
 21
7.738863
 31
0.0
  0
LINE
  5
B08
330
18
100
AcDbEntity
  8
0
100
AcDbLine
 10
3.314816
 20
7.735492
 30
0.0
 11
3.314816
 21
7.703236
 31
0.0
  0
LINE
  5
B09
330
18
100
AcDbEntity
  8
0
100
AcDbLine
 10
3.314816
 20
7.703236
 30
0.0
 11
3.220209
 21
7.738863
 31
0.0
  0
LINE
  5
B0A
330
18
100
AcDbEntity
  8
0
100
AcDbLine
 10
3.314816
 20
7.735492
 30
0.0
 11
3.220209
 21
7.770842
 31
0.0
  0
LINE
  5
B0B
330
18
100
AcDbEntity
  8
0
100
AcDbLine
 10
3.188268
 20
7.782777
 30
0.0
 11
3.188268
 21
7.750891999999999
 31
0.0
  0
LINE
  5
B0C
330
18
100
AcDbEntity
  8
0
100
AcDbLine
 10
3.188268
 20
7.750891999999999
 30
0.0
 11
3.103015
 21
7.782996000000001
 31
0.0
  0
LINE
  5
B0D
330
18
100
AcDbEntity
  8
0
100
AcDbLine
 10
2.985821
 20
7.858421000000001
 30
0.0
 11
2.985821
 21
7.827128999999999
 31
0.0
  0
LINE
  5
B0E
330
18
100
AcDbEntity
  8
0
100
AcDbLine
 10
3.071074
 20
7.826566000000001
 30
0.0
 11
2.985821
 21
7.858421000000001
 31
0.0
  0
LINE
  5
B0F
330
18
100
AcDbEntity
  8
0
100
AcDbLine
 10
3.071074
 20
7.826566000000001
 30
0.0
 11
3.071074
 21
7.795024000000001
 31
0.0
  0
LINE
  5
B10
330
18
100
AcDbEntity
  8
0
100
AcDbLine
 10
3.071074
 20
7.795024000000001
 30
0.0
 11
2.985821
 21
7.827128999999999
 31
0.0
  0
LINE
  5
B11
330
18
100
AcDbEntity
  8
0
100
AcDbLine
 10
3.400609
 20
7.791192
 30
0.0
 11
3.400609
 21
7.758522
 31
0.0
  0
LINE
  5
B12
330
18
100
AcDbEntity
  8
0
100
AcDbLine
 10
3.352371
 20
7.72146
 30
0.0
 11
3.352371
 21
7.689094
 31
0.0
  0
LINE
  5
B13
330
18
100
AcDbEntity
  8
0
100
AcDbLine
 10
3.456333
 20
7.649944000000001
 30
0.0
 11
3.352371
 21
7.689094
 31
0.0
  0
LINE
  5
B14
330
18
100
AcDbEntity
  8
0
100
AcDbLine
 10
3.456333
 20
7.682614
 30
0.0
 11
3.352371
 21
7.72146
 31
0.0
  0
LINE
  5
B15
330
18
100
AcDbEntity
  8
0
100
AcDbLine
 10
3.555223
 20
7.733421000000001
 30
0.0
 11
3.555223
 21
7.700297999999999
 31
0.0
  0
LINE
  5
B16
330
18
100
AcDbEntity
  8
0
100
AcDbLine
 10
3.555223
 20
7.700297999999999
 30
0.0
 11
3.443776
 21
7.742266000000001
 31
0.0
  0
LINE
  5
B17
330
18
100
AcDbEntity
  8
0
100
AcDbLine
 10
3.713576
 20
7.640664999999999
 30
0.0
 11
3.60213
 21
7.682633999999999
 31
0.0
  0
LINE
  5
B18
330
18
100
AcDbEntity
  8
0
100
AcDbLine
 10
3.60213
 20
7.715894000000001
 30
0.0
 11
3.60213
 21
7.682633999999999
 31
0.0
  0
LINE
  5
B19
330
18
100
AcDbEntity
  8
0
100
AcDbLine
 10
3.499499
 20
7.666485000000001
 30
0.0
 11
3.499499
 21
7.633688
 31
0.0
  0
LINE
  5
B1A
330
18
100
AcDbEntity
  8
0
100
AcDbLine
 10
3.610946
 20
7.624842999999999
 30
0.0
 11
3.610946
 21
7.59172
 31
0.0
  0
LINE
  5
B1B
330
18
100
AcDbEntity
  8
0
100
AcDbLine
 10
3.610946
 20
7.59172
 30
0.0
 11
3.499499
 21
7.633688
 31
0.0
  0
LINE
  5
B1C
330
18
100
AcDbEntity
  8
0
100
AcDbLine
 10
3.610946
 20
7.624842999999999
 30
0.0
 11
3.499499
 21
7.666485000000001
 31
0.0
  0
LINE
  5
B1D
330
18
100
AcDbEntity
  8
0
100
AcDbLine
 10
3.657853
 20
7.607316
 30
0.0
 11
3.657853
 21
7.574055
 31
0.0
  0
LINE
  5
B1E
330
18
100
AcDbEntity
  8
0
100
AcDbLine
 10
3.769299
 20
7.565674000000001
 30
0.0
 11
3.769299
 21
7.532087
 31
0.0
  0
LINE
  5
B1F
330
18
100
AcDbEntity
  8
0
100
AcDbLine
 10
3.769299
 20
7.565674000000001
 30
0.0
 11
3.657853
 21
7.607316
 31
0.0
  0
LINE
  5
B20
330
18
100
AcDbEntity
  8
0
100
AcDbLine
 10
3.769299
 20
7.532087
 30
0.0
 11
3.657853
 21
7.574055
 31
0.0
  0
LINE
  5
B21
330
18
100
AcDbEntity
  8
0
100
AcDbLine
 10
3.713576
 20
7.674252
 30
0.0
 11
3.60213
 21
7.715894000000001
 31
0.0
  0
LINE
  5
B22
330
18
100
AcDbEntity
  8
0
100
AcDbLine
 10
3.713576
 20
7.674252
 30
0.0
 11
3.713576
 21
7.640664999999999
 31
0.0
  0
LINE
  5
B23
330
18
100
AcDbEntity
  8
0
100
AcDbLine
 10
3.443776
 20
7.775063
 30
0.0
 11
3.443776
 21
7.742266000000001
 31
0.0
  0
LINE
  5
B24
330
18
100
AcDbEntity
  8
0
100
AcDbLine
 10
3.555223
 20
7.733421000000001
 30
0.0
 11
3.443776
 21
7.775063
 31
0.0
  0
LINE
  5
B25
330
18
100
AcDbEntity
  8
0
100
AcDbLine
 10
3.456333
 20
7.682614
 30
0.0
 11
3.456333
 21
7.649944000000001
 31
0.0
  0
LINE
  5
B26
330
18
100
AcDbEntity
  8
0
100
AcDbLine
 10
3.512595
 20
4.801032
 30
0.0
 11
3.451485
 21
4.833022
 31
0.0
  0
LINE
  5
B27
330
18
100
AcDbEntity
  8
0
100
AcDbLine
 10
4.088614
 20
5.338347
 30
0.0
 11
3.990243
 21
5.389579
 31
0.0
  0
LINE
  5
B28
330
18
100
AcDbEntity
  8
0
100
AcDbLine
 10
4.088614
 20
5.309487
 30
0.0
 11
3.990243
 21
5.360719000000001
 31
0.0
  0
LINE
  5
B29
330
18
100
AcDbEntity
  8
0
100
AcDbLine
 10
3.84162
 20
5.466981
 30
0.0
 11
3.84162
 21
5.438122
 31
0.0
  0
LINE
  5
B2A
330
18
100
AcDbEntity
  8
0
100
AcDbLine
 10
3.939992
 20
5.415749
 30
0.0
 11
3.939992
 21
5.38689
 31
0.0
  0
LINE
  5
B2B
330
18
100
AcDbEntity
  8
0
100
AcDbLine
 10
3.990243
 20
5.389579
 30
0.0
 11
3.990243
 21
5.360719000000001
 31
0.0
  0
LINE
  5
B2C
330
18
100
AcDbEntity
  8
0
100
AcDbLine
 10
4.088614
 20
5.338347
 30
0.0
 11
4.088614
 21
5.309487
 31
0.0
  0
LINE
  5
B2D
330
18
100
AcDbEntity
  8
0
100
AcDbLine
 10
3.939992
 20
5.415749
 30
0.0
 11
3.84162
 21
5.466981
 31
0.0
  0
LINE
  5
B2E
330
18
100
AcDbEntity
  8
0
100
AcDbLine
 10
3.939992
 20
5.38689
 30
0.0
 11
3.84162
 21
5.438122
 31
0.0
  0
LINE
  5
B2F
330
18
100
AcDbEntity
  8
0
100
AcDbLine
 10
4.237236
 20
5.232084
 30
0.0
 11
4.138865
 21
5.283316
 31
0.0
  0
LINE
  5
B30
330
18
100
AcDbEntity
  8
0
100
AcDbLine
 10
4.237236
 20
5.260944
 30
0.0
 11
4.138865
 21
5.312176
 31
0.0
  0
LINE
  5
B31
330
18
100
AcDbEntity
  8
0
100
AcDbLine
 10
4.237236
 20
5.260944
 30
0.0
 11
4.237236
 21
5.232084
 31
0.0
  0
LINE
  5
B32
330
18
100
AcDbEntity
  8
0
100
AcDbLine
 10
4.138865
 20
5.312176
 30
0.0
 11
4.138865
 21
5.283316
 31
0.0
  0
LINE
  5
B33
330
18
100
AcDbEntity
  8
0
100
AcDbLine
 10
4.299521
 20
5.131654
 30
0.0
 11
4.201149
 21
5.182886
 31
0.0
  0
LINE
  5
B34
330
18
100
AcDbEntity
  8
0
100
AcDbLine
 10
4.299521
 20
5.102795
 30
0.0
 11
4.201149
 21
5.154026999999999
 31
0.0
  0
LINE
  5
B35
330
18
100
AcDbEntity
  8
0
100
AcDbLine
 10
4.052527
 20
5.260289
 30
0.0
 11
4.052527
 21
5.231430000000001
 31
0.0
  0
LINE
  5
B36
330
18
100
AcDbEntity
  8
0
100
AcDbLine
 10
4.150898000000001
 20
5.209057
 30
0.0
 11
4.150898000000001
 21
5.180198000000001
 31
0.0
  0
LINE
  5
B37
330
18
100
AcDbEntity
  8
0
100
AcDbLine
 10
4.201149
 20
5.182886
 30
0.0
 11
4.201149
 21
5.154026999999999
 31
0.0
  0
LINE
  5
B38
330
18
100
AcDbEntity
  8
0
100
AcDbLine
 10
4.150898000000001
 20
5.209057
 30
0.0
 11
4.052527
 21
5.260289
 31
0.0
  0
LINE
  5
B39
330
18
100
AcDbEntity
  8
0
100
AcDbLine
 10
4.150898000000001
 20
5.180198000000001
 30
0.0
 11
4.052527
 21
5.231430000000001
 31
0.0
  0
LINE
  5
B3A
330
18
100
AcDbEntity
  8
0
100
AcDbLine
 10
4.299521
 20
5.131654
 30
0.0
 11
4.299521
 21
5.102795
 31
0.0
  0
LINE
  5
B3B
330
18
100
AcDbEntity
  8
0
100
AcDbLine
 10
4.002276
 20
5.257601
 30
0.0
 11
3.903905
 21
5.308832
 31
0.0
  0
LINE
  5
B3C
330
18
100
AcDbEntity
  8
0
100
AcDbLine
 10
4.002276
 20
5.28646
 30
0.0
 11
3.903905
 21
5.337692
 31
0.0
  0
LINE
  5
B3D
330
18
100
AcDbEntity
  8
0
100
AcDbLine
 10
3.903905
 20
5.337692
 30
0.0
 11
3.903905
 21
5.308832
 31
0.0
  0
LINE
  5
B3E
330
18
100
AcDbEntity
  8
0
100
AcDbLine
 10
4.002276
 20
5.28646
 30
0.0
 11
4.002276
 21
5.257601
 31
0.0
  0
LINE
  5
B3F
330
18
100
AcDbEntity
  8
0
100
AcDbLine
 10
3.853654
 20
5.363862999999999
 30
0.0
 11
3.853654
 21
5.335003
 31
0.0
  0
LINE
  5
B40
330
18
100
AcDbEntity
  8
0
100
AcDbLine
 10
3.755282
 20
5.415095
 30
0.0
 11
3.755282
 21
5.386235
 31
0.0
  0
LINE
  5
B41
330
18
100
AcDbEntity
  8
0
100
AcDbLine
 10
3.853654
 20
5.363862999999999
 30
0.0
 11
3.755282
 21
5.415095
 31
0.0
  0
LINE
  5
B42
330
18
100
AcDbEntity
  8
0
100
AcDbLine
 10
3.853654
 20
5.335003
 30
0.0
 11
3.755282
 21
5.386235
 31
0.0
  0
LINE
  5
B43
330
18
100
AcDbEntity
  8
0
100
AcDbLine
 10
4.088614
 20
5.115784
 30
0.0
 11
3.990243
 21
5.167016
 31
0.0
  0
LINE
  5
B44
330
18
100
AcDbEntity
  8
0
100
AcDbLine
 10
4.088614
 20
5.144643
 30
0.0
 11
3.990243
 21
5.195875
 31
0.0
  0
LINE
  5
B45
330
18
100
AcDbEntity
  8
0
100
AcDbLine
 10
3.990243
 20
5.195875
 30
0.0
 11
3.990243
 21
5.167016
 31
0.0
  0
LINE
  5
B46
330
18
100
AcDbEntity
  8
0
100
AcDbLine
 10
4.088614
 20
5.144643
 30
0.0
 11
4.088614
 21
5.115784
 31
0.0
  0
LINE
  5
B47
330
18
100
AcDbEntity
  8
0
100
AcDbLine
 10
4.138865
 20
5.118472
 30
0.0
 11
4.138865
 21
5.089613
 31
0.0
  0
LINE
  5
B48
330
18
100
AcDbEntity
  8
0
100
AcDbLine
 10
4.237236
 20
5.067241
 30
0.0
 11
4.237236
 21
5.038380999999999
 31
0.0
  0
LINE
  5
B49
330
18
100
AcDbEntity
  8
0
100
AcDbLine
 10
4.237236
 20
5.067241
 30
0.0
 11
4.138865
 21
5.118472
 31
0.0
  0
LINE
  5
B4A
330
18
100
AcDbEntity
  8
0
100
AcDbLine
 10
4.237236
 20
5.038380999999999
 30
0.0
 11
4.138865
 21
5.089613
 31
0.0
  0
LINE
  5
B4B
330
18
100
AcDbEntity
  8
0
100
AcDbLine
 10
3.939992
 20
5.193187
 30
0.0
 11
3.84162
 21
5.244419000000001
 31
0.0
  0
LINE
  5
B4C
330
18
100
AcDbEntity
  8
0
100
AcDbLine
 10
3.939992
 20
5.222046
 30
0.0
 11
3.84162
 21
5.273278
 31
0.0
  0
LINE
  5
B4D
330
18
100
AcDbEntity
  8
0
100
AcDbLine
 10
3.84162
 20
5.273278
 30
0.0
 11
3.84162
 21
5.244419000000001
 31
0.0
  0
LINE
  5
B4E
330
18
100
AcDbEntity
  8
0
100
AcDbLine
 10
3.939992
 20
5.222046
 30
0.0
 11
3.939992
 21
5.193187
 31
0.0
  0
LINE
  5
B4F
330
18
100
AcDbEntity
  8
0
100
AcDbLine
 10
4.201149
 20
4.989183000000001
 30
0.0
 11
4.201149
 21
4.960323000000001
 31
0.0
  0
LINE
  5
B50
330
18
100
AcDbEntity
  8
0
100
AcDbLine
 10
4.150898000000001
 20
4.986494
 30
0.0
 11
4.052527
 21
5.037726
 31
0.0
  0
LINE
  5
B51
330
18
100
AcDbEntity
  8
0
100
AcDbLine
 10
4.150898000000001
 20
5.015354
 30
0.0
 11
4.052527
 21
5.066586
 31
0.0
  0
LINE
  5
B52
330
18
100
AcDbEntity
  8
0
100
AcDbLine
 10
4.052527
 20
5.066586
 30
0.0
 11
4.052527
 21
5.037726
 31
0.0
  0
LINE
  5
B53
330
18
100
AcDbEntity
  8
0
100
AcDbLine
 10
4.150898000000001
 20
5.015354
 30
0.0
 11
4.150898000000001
 21
4.986494
 31
0.0
  0
LINE
  5
B54
330
18
100
AcDbEntity
  8
0
100
AcDbLine
 10
4.299521
 20
4.909092
 30
0.0
 11
4.201149
 21
4.960323000000001
 31
0.0
  0
LINE
  5
B55
330
18
100
AcDbEntity
  8
0
100
AcDbLine
 10
4.299521
 20
4.937951
 30
0.0
 11
4.201149
 21
4.989183000000001
 31
0.0
  0
LINE
  5
B56
330
18
100
AcDbEntity
  8
0
100
AcDbLine
 10
4.299521
 20
4.937951
 30
0.0
 11
4.299521
 21
4.909092
 31
0.0
  0
LINE
  5
B57
330
18
100
AcDbEntity
  8
0
100
AcDbLine
 10
4.002276
 20
5.092757
 30
0.0
 11
4.002276
 21
5.063897
 31
0.0
  0
LINE
  5
B58
330
18
100
AcDbEntity
  8
0
100
AcDbLine
 10
3.903905
 20
5.143987999999999
 30
0.0
 11
3.903905
 21
5.115129000000001
 31
0.0
  0
LINE
  5
B59
330
18
100
AcDbEntity
  8
0
100
AcDbLine
 10
4.002276
 20
5.092757
 30
0.0
 11
3.903905
 21
5.143987999999999
 31
0.0
  0
LINE
  5
B5A
330
18
100
AcDbEntity
  8
0
100
AcDbLine
 10
4.002276
 20
5.063897
 30
0.0
 11
3.903905
 21
5.115129000000001
 31
0.0
  0
LINE
  5
B5B
330
18
100
AcDbEntity
  8
0
100
AcDbLine
 10
3.853654
 20
5.170159
 30
0.0
 11
3.755282
 21
5.221391000000001
 31
0.0
  0
LINE
  5
B5C
330
18
100
AcDbEntity
  8
0
100
AcDbLine
 10
3.755282
 20
5.221391000000001
 30
0.0
 11
3.755282
 21
5.192532
 31
0.0
  0
LINE
  5
B5D
330
18
100
AcDbEntity
  8
0
100
AcDbLine
 10
3.853654
 20
5.1413
 30
0.0
 11
3.755282
 21
5.192532
 31
0.0
  0
LINE
  5
B5E
330
18
100
AcDbEntity
  8
0
100
AcDbLine
 10
3.853654
 20
5.170159
 30
0.0
 11
3.853654
 21
5.1413
 31
0.0
  0
LINE
  5
B5F
330
18
100
AcDbEntity
  8
0
100
AcDbLine
 10
3.939992
 20
5.028343000000001
 30
0.0
 11
3.939992
 21
4.999483000000001
 31
0.0
  0
LINE
  5
B60
330
18
100
AcDbEntity
  8
0
100
AcDbLine
 10
3.84162
 20
5.079575
 30
0.0
 11
3.84162
 21
5.050715
 31
0.0
  0
LINE
  5
B61
330
18
100
AcDbEntity
  8
0
100
AcDbLine
 10
3.939992
 20
5.028343000000001
 30
0.0
 11
3.84162
 21
5.079575
 31
0.0
  0
LINE
  5
B62
330
18
100
AcDbEntity
  8
0
100
AcDbLine
 10
3.939992
 20
4.999483000000001
 30
0.0
 11
3.84162
 21
5.050715
 31
0.0
  0
LINE
  5
B63
330
18
100
AcDbEntity
  8
0
100
AcDbLine
 10
4.088614
 20
4.95094
 30
0.0
 11
3.990243
 21
5.002172
 31
0.0
  0
LINE
  5
B64
330
18
100
AcDbEntity
  8
0
100
AcDbLine
 10
4.088614
 20
4.95094
 30
0.0
 11
4.088614
 21
4.92208
 31
0.0
  0
LINE
  5
B65
330
18
100
AcDbEntity
  8
0
100
AcDbLine
 10
4.088614
 20
4.92208
 30
0.0
 11
3.990243
 21
4.973312
 31
0.0
  0
LINE
  5
B66
330
18
100
AcDbEntity
  8
0
100
AcDbLine
 10
3.990243
 20
5.002172
 30
0.0
 11
3.990243
 21
4.973312
 31
0.0
  0
LINE
  5
B67
330
18
100
AcDbEntity
  8
0
100
AcDbLine
 10
4.138865
 20
4.924769
 30
0.0
 11
4.138865
 21
4.89591
 31
0.0
  0
LINE
  5
B68
330
18
100
AcDbEntity
  8
0
100
AcDbLine
 10
4.237236
 20
4.844678
 30
0.0
 11
4.138865
 21
4.89591
 31
0.0
  0
LINE
  5
B69
330
18
100
AcDbEntity
  8
0
100
AcDbLine
 10
4.237236
 20
4.873537000000001
 30
0.0
 11
4.138865
 21
4.924769
 31
0.0
  0
LINE
  5
B6A
330
18
100
AcDbEntity
  8
0
100
AcDbLine
 10
4.237236
 20
4.873537000000001
 30
0.0
 11
4.237236
 21
4.844678
 31
0.0
  0
LINE
  5
B6B
330
18
100
AcDbEntity
  8
0
100
AcDbLine
 10
4.002276
 20
4.870194000000001
 30
0.0
 11
3.903905
 21
4.921426
 31
0.0
  0
LINE
  5
B6C
330
18
100
AcDbEntity
  8
0
100
AcDbLine
 10
4.002276
 20
4.899053
 30
0.0
 11
3.903905
 21
4.950285
 31
0.0
  0
LINE
  5
B6D
330
18
100
AcDbEntity
  8
0
100
AcDbLine
 10
3.903905
 20
4.950285
 30
0.0
 11
3.903905
 21
4.921426
 31
0.0
  0
LINE
  5
B6E
330
18
100
AcDbEntity
  8
0
100
AcDbLine
 10
4.002276
 20
4.899053
 30
0.0
 11
4.002276
 21
4.870194000000001
 31
0.0
  0
LINE
  5
B6F
330
18
100
AcDbEntity
  8
0
100
AcDbLine
 10
4.150898000000001
 20
4.82165
 30
0.0
 11
4.150898000000001
 21
4.792791
 31
0.0
  0
LINE
  5
B70
330
18
100
AcDbEntity
  8
0
100
AcDbLine
 10
4.052527
 20
4.872882
 30
0.0
 11
4.052527
 21
4.844023
 31
0.0
  0
LINE
  5
B71
330
18
100
AcDbEntity
  8
0
100
AcDbLine
 10
4.150898000000001
 20
4.82165
 30
0.0
 11
4.052527
 21
4.872882
 31
0.0
  0
LINE
  5
B72
330
18
100
AcDbEntity
  8
0
100
AcDbLine
 10
4.150898000000001
 20
4.792791
 30
0.0
 11
4.052527
 21
4.844023
 31
0.0
  0
LINE
  5
B73
330
18
100
AcDbEntity
  8
0
100
AcDbLine
 10
4.299521
 20
4.744248000000001
 30
0.0
 11
4.299521
 21
4.715388
 31
0.0
  0
LINE
  5
B74
330
18
100
AcDbEntity
  8
0
100
AcDbLine
 10
4.299521
 20
4.744248000000001
 30
0.0
 11
4.201149
 21
4.795479
 31
0.0
  0
LINE
  5
B75
330
18
100
AcDbEntity
  8
0
100
AcDbLine
 10
4.299521
 20
4.715388
 30
0.0
 11
4.201149
 21
4.76662
 31
0.0
  0
LINE
  5
B76
330
18
100
AcDbEntity
  8
0
100
AcDbLine
 10
4.201149
 20
4.795479
 30
0.0
 11
4.201149
 21
4.76662
 31
0.0
  0
LINE
  5
B77
330
18
100
AcDbEntity
  8
0
100
AcDbLine
 10
3.755282
 20
5.027688
 30
0.0
 11
3.755282
 21
4.998828
 31
0.0
  0
LINE
  5
B78
330
18
100
AcDbEntity
  8
0
100
AcDbLine
 10
3.853654
 20
4.947596
 30
0.0
 11
3.755282
 21
4.998828
 31
0.0
  0
LINE
  5
B79
330
18
100
AcDbEntity
  8
0
100
AcDbLine
 10
3.853654
 20
4.976456
 30
0.0
 11
3.755282
 21
5.027688
 31
0.0
  0
LINE
  5
B7A
330
18
100
AcDbEntity
  8
0
100
AcDbLine
 10
3.853654
 20
4.976456
 30
0.0
 11
3.853654
 21
4.947596
 31
0.0
  0
LINE
  5
B7B
330
18
100
AcDbEntity
  8
0
100
AcDbLine
 10
3.939992
 20
4.80578
 30
0.0
 11
3.84162
 21
4.857012
 31
0.0
  0
LINE
  5
B7C
330
18
100
AcDbEntity
  8
0
100
AcDbLine
 10
3.939992
 20
4.834639
 30
0.0
 11
3.84162
 21
4.885871
 31
0.0
  0
LINE
  5
B7D
330
18
100
AcDbEntity
  8
0
100
AcDbLine
 10
3.84162
 20
4.885871
 30
0.0
 11
3.84162
 21
4.857012
 31
0.0
  0
LINE
  5
B7E
330
18
100
AcDbEntity
  8
0
100
AcDbLine
 10
3.939992
 20
4.834639
 30
0.0
 11
3.939992
 21
4.80578
 31
0.0
  0
LINE
  5
B7F
330
18
100
AcDbEntity
  8
0
100
AcDbLine
 10
3.990243
 20
4.808468
 30
0.0
 11
3.990243
 21
4.779609
 31
0.0
  0
LINE
  5
B80
330
18
100
AcDbEntity
  8
0
100
AcDbLine
 10
4.088614
 20
4.728377
 30
0.0
 11
3.990243
 21
4.779609
 31
0.0
  0
LINE
  5
B81
330
18
100
AcDbEntity
  8
0
100
AcDbLine
 10
4.088614
 20
4.757236
 30
0.0
 11
4.088614
 21
4.728377
 31
0.0
  0
LINE
  5
B82
330
18
100
AcDbEntity
  8
0
100
AcDbLine
 10
4.088614
 20
4.757236
 30
0.0
 11
3.990243
 21
4.808468
 31
0.0
  0
LINE
  5
B83
330
18
100
AcDbEntity
  8
0
100
AcDbLine
 10
4.138865
 20
4.731066
 30
0.0
 11
4.138865
 21
4.702205999999999
 31
0.0
  0
LINE
  5
B84
330
18
100
AcDbEntity
  8
0
100
AcDbLine
 10
4.237236
 20
4.650974
 30
0.0
 11
4.138865
 21
4.702205999999999
 31
0.0
  0
LINE
  5
B85
330
18
100
AcDbEntity
  8
0
100
AcDbLine
 10
4.237236
 20
4.679834
 30
0.0
 11
4.138865
 21
4.731066
 31
0.0
  0
LINE
  5
B86
330
18
100
AcDbEntity
  8
0
100
AcDbLine
 10
4.150898000000001
 20
4.627947
 30
0.0
 11
4.052527
 21
4.679179
 31
0.0
  0
LINE
  5
B87
330
18
100
AcDbEntity
  8
0
100
AcDbLine
 10
4.052527
 20
4.679179
 30
0.0
 11
4.052527
 21
4.650319000000001
 31
0.0
  0
LINE
  5
B88
330
18
100
AcDbEntity
  8
0
100
AcDbLine
 10
4.237236
 20
4.679834
 30
0.0
 11
4.237236
 21
4.650974
 31
0.0
  0
LINE
  5
B89
330
18
100
AcDbEntity
  8
0
100
AcDbLine
 10
4.150898000000001
 20
4.599087
 30
0.0
 11
4.052527
 21
4.650319000000001
 31
0.0
  0
LINE
  5
B8A
330
18
100
AcDbEntity
  8
0
100
AcDbLine
 10
4.150898000000001
 20
4.627947
 30
0.0
 11
4.150898000000001
 21
4.599087
 31
0.0
  0
LINE
  5
B8B
330
18
100
AcDbEntity
  8
0
100
AcDbLine
 10
4.201149
 20
4.601776
 30
0.0
 11
4.201149
 21
4.572917
 31
0.0
  0
LINE
  5
B8C
330
18
100
AcDbEntity
  8
0
100
AcDbLine
 10
4.299521
 20
4.521685
 30
0.0
 11
4.201149
 21
4.572917
 31
0.0
  0
LINE
  5
B8D
330
18
100
AcDbEntity
  8
0
100
AcDbLine
 10
4.299521
 20
4.550544
 30
0.0
 11
4.201149
 21
4.601776
 31
0.0
  0
LINE
  5
B8E
330
18
100
AcDbEntity
  8
0
100
AcDbLine
 10
4.299521
 20
4.550544
 30
0.0
 11
4.299521
 21
4.521685
 31
0.0
  0
LINE
  5
B8F
330
18
100
AcDbEntity
  8
0
100
AcDbLine
 10
4.002276
 20
4.70535
 30
0.0
 11
4.002276
 21
4.67649
 31
0.0
  0
LINE
  5
B90
330
18
100
AcDbEntity
  8
0
100
AcDbLine
 10
3.903905
 20
4.756582
 30
0.0
 11
3.903905
 21
4.727722
 31
0.0
  0
LINE
  5
B91
330
18
100
AcDbEntity
  8
0
100
AcDbLine
 10
4.002276
 20
4.70535
 30
0.0
 11
3.903905
 21
4.756582
 31
0.0
  0
LINE
  5
B92
330
18
100
AcDbEntity
  8
0
100
AcDbLine
 10
4.002276
 20
4.67649
 30
0.0
 11
3.903905
 21
4.727722
 31
0.0
  0
LINE
  5
B93
330
18
100
AcDbEntity
  8
0
100
AcDbLine
 10
3.853654
 20
4.782751999999999
 30
0.0
 11
3.853654
 21
4.753893
 31
0.0
  0
LINE
  5
B94
330
18
100
AcDbEntity
  8
0
100
AcDbLine
 10
3.853654
 20
4.782751999999999
 30
0.0
 11
3.755282
 21
4.833984
 31
0.0
  0
LINE
  5
B95
330
18
100
AcDbEntity
  8
0
100
AcDbLine
 10
3.853654
 20
4.753893
 30
0.0
 11
3.755282
 21
4.805125
 31
0.0
  0
LINE
  5
B96
330
18
100
AcDbEntity
  8
0
100
AcDbLine
 10
3.755282
 20
4.833984
 30
0.0
 11
3.755282
 21
4.805125
 31
0.0
  0
LINE
  5
B97
330
18
100
AcDbEntity
  8
0
100
AcDbLine
 10
3.939992
 20
4.640936
 30
0.0
 11
3.939992
 21
4.612076
 31
0.0
  0
LINE
  5
B98
330
18
100
AcDbEntity
  8
0
100
AcDbLine
 10
3.84162
 20
4.692168
 30
0.0
 11
3.84162
 21
4.663308
 31
0.0
  0
LINE
  5
B99
330
18
100
AcDbEntity
  8
0
100
AcDbLine
 10
3.939992
 20
4.640936
 30
0.0
 11
3.84162
 21
4.692168
 31
0.0
  0
LINE
  5
B9A
330
18
100
AcDbEntity
  8
0
100
AcDbLine
 10
3.939992
 20
4.612076
 30
0.0
 11
3.84162
 21
4.663308
 31
0.0
  0
LINE
  5
B9B
330
18
100
AcDbEntity
  8
0
100
AcDbLine
 10
4.088614
 20
4.563533000000001
 30
0.0
 11
3.990243
 21
4.614765
 31
0.0
  0
LINE
  5
B9C
330
18
100
AcDbEntity
  8
0
100
AcDbLine
 10
4.088614
 20
4.563533000000001
 30
0.0
 11
4.088614
 21
4.534674
 31
0.0
  0
LINE
  5
B9D
330
18
100
AcDbEntity
  8
0
100
AcDbLine
 10
4.088614
 20
4.534674
 30
0.0
 11
3.990243
 21
4.585905
 31
0.0
  0
LINE
  5
B9E
330
18
100
AcDbEntity
  8
0
100
AcDbLine
 10
3.990243
 20
4.614765
 30
0.0
 11
3.990243
 21
4.585905
 31
0.0
  0
LINE
  5
B9F
330
18
100
AcDbEntity
  8
0
100
AcDbLine
 10
4.237236
 20
4.48613
 30
0.0
 11
4.237236
 21
4.457271
 31
0.0
  0
LINE
  5
BA0
330
18
100
AcDbEntity
  8
0
100
AcDbLine
 10
4.237236
 20
4.48613
 30
0.0
 11
4.138865
 21
4.537362
 31
0.0
  0
LINE
  5
BA1
330
18
100
AcDbEntity
  8
0
100
AcDbLine
 10
4.237236
 20
4.457271
 30
0.0
 11
4.138865
 21
4.508503
 31
0.0
  0
LINE
  5
BA2
330
18
100
AcDbEntity
  8
0
100
AcDbLine
 10
4.138865
 20
4.537362
 30
0.0
 11
4.138865
 21
4.508503
 31
0.0
  0
LINE
  5
BA3
330
18
100
AcDbEntity
  8
0
100
AcDbLine
 10
3.791369
 20
4.689479
 30
0.0
 11
3.747525
 21
4.712313
 31
0.0
  0
LINE
  5
BA4
330
18
100
AcDbEntity
  8
0
100
AcDbLine
 10
3.791369
 20
4.718339
 30
0.0
 11
3.747525
 21
4.741173000000001
 31
0.0
  0
LINE
  5
BA5
330
18
100
AcDbEntity
  8
0
100
AcDbLine
 10
3.791369
 20
4.718339
 30
0.0
 11
3.791369
 21
4.689479
 31
0.0
  0
LINE
  5
BA6
330
18
100
AcDbEntity
  8
0
100
AcDbLine
 10
3.791369
 20
4.883182
 30
0.0
 11
3.747525
 21
4.906016999999999
 31
0.0
  0
LINE
  5
BA7
330
18
100
AcDbEntity
  8
0
100
AcDbLine
 10
3.791369
 20
4.912042
 30
0.0
 11
3.747525
 21
4.934876
 31
0.0
  0
LINE
  5
BA8
330
18
100
AcDbEntity
  8
0
100
AcDbLine
 10
3.791369
 20
4.912042
 30
0.0
 11
3.791369
 21
4.883182
 31
0.0
  0
LINE
  5
BA9
330
18
100
AcDbEntity
  8
0
100
AcDbLine
 10
3.791369
 20
5.105745
 30
0.0
 11
3.791369
 21
5.076886
 31
0.0
  0
LINE
  5
BAA
330
18
100
AcDbEntity
  8
0
100
AcDbLine
 10
3.791369
 20
5.105745
 30
0.0
 11
3.747525
 21
5.12858
 31
0.0
  0
LINE
  5
BAB
330
18
100
AcDbEntity
  8
0
100
AcDbLine
 10
3.791369
 20
5.076886
 30
0.0
 11
3.747525
 21
5.09972
 31
0.0
  0
LINE
  5
BAC
330
18
100
AcDbEntity
  8
0
100
AcDbLine
 10
3.791369
 20
5.270589
 30
0.0
 11
3.747525
 21
5.293423000000001
 31
0.0
  0
LINE
  5
BAD
330
18
100
AcDbEntity
  8
0
100
AcDbLine
 10
3.791369
 20
5.299449
 30
0.0
 11
3.747525
 21
5.322283000000001
 31
0.0
  0
LINE
  5
BAE
330
18
100
AcDbEntity
  8
0
100
AcDbLine
 10
3.791369
 20
5.299449
 30
0.0
 11
3.791369
 21
5.270589
 31
0.0
  0
LINE
  5
BAF
330
18
100
AcDbEntity
  8
0
100
AcDbLine
 10
3.791369
 20
5.493151999999999
 30
0.0
 11
3.791369
 21
5.464293
 31
0.0
  0
LINE
  5
BB0
330
18
100
AcDbEntity
  8
0
100
AcDbLine
 10
3.791369
 20
5.493151999999999
 30
0.0
 11
3.747525
 21
5.515986
 31
0.0
  0
LINE
  5
BB1
330
18
100
AcDbEntity
  8
0
100
AcDbLine
 10
3.791369
 20
5.464293
 30
0.0
 11
3.747525
 21
5.487127
 31
0.0
  0
LINE
  5
BB2
330
18
100
AcDbEntity
  8
0
100
AcDbLine
 10
3.512595
 20
5.609479
 30
0.0
 11
3.488316
 21
5.622123
 31
0.0
  0
LINE
  5
BB3
330
18
100
AcDbEntity
  8
0
100
AcDbLine
 10
3.512595
 20
5.638339
 30
0.0
 11
3.488316
 21
5.650983
 31
0.0
  0
LINE
  5
BB4
330
18
100
AcDbEntity
  8
0
100
AcDbLine
 10
3.488316
 20
5.650983
 30
0.0
 11
3.488316
 21
5.622123
 31
0.0
  0
LINE
  5
BB5
330
18
100
AcDbEntity
  8
0
100
AcDbLine
 10
3.512595
 20
5.415776
 30
0.0
 11
3.488316
 21
5.42842
 31
0.0
  0
LINE
  5
BB6
330
18
100
AcDbEntity
  8
0
100
AcDbLine
 10
3.512595
 20
5.444635
 30
0.0
 11
3.488316
 21
5.45728
 31
0.0
  0
LINE
  5
BB7
330
18
100
AcDbEntity
  8
0
100
AcDbLine
 10
3.488316
 20
5.45728
 30
0.0
 11
3.488316
 21
5.42842
 31
0.0
  0
LINE
  5
BB8
330
18
100
AcDbEntity
  8
0
100
AcDbLine
 10
3.512595
 20
5.222072
 30
0.0
 11
3.488316
 21
5.234717
 31
0.0
  0
LINE
  5
BB9
330
18
100
AcDbEntity
  8
0
100
AcDbLine
 10
3.512595
 20
5.250932
 30
0.0
 11
3.488316
 21
5.263576000000001
 31
0.0
  0
LINE
  5
BBA
330
18
100
AcDbEntity
  8
0
100
AcDbLine
 10
3.488316
 20
5.263576000000001
 30
0.0
 11
3.488316
 21
5.234717
 31
0.0
  0
LINE
  5
BBB
330
18
100
AcDbEntity
  8
0
100
AcDbLine
 10
3.512595
 20
5.028369000000001
 30
0.0
 11
3.488316
 21
5.041013
 31
0.0
  0
LINE
  5
BBC
330
18
100
AcDbEntity
  8
0
100
AcDbLine
 10
3.512595
 20
5.057228
 30
0.0
 11
3.488316
 21
5.069873
 31
0.0
  0
LINE
  5
BBD
330
18
100
AcDbEntity
  8
0
100
AcDbLine
 10
3.488316
 20
5.069873
 30
0.0
 11
3.488316
 21
5.041013
 31
0.0
  0
LINE
  5
BBE
330
18
100
AcDbEntity
  8
0
100
AcDbLine
 10
3.512595
 20
4.834665
 30
0.0
 11
3.488316
 21
4.84731
 31
0.0
  0
LINE
  5
BBF
330
18
100
AcDbEntity
  8
0
100
AcDbLine
 10
3.512595
 20
4.863525
 30
0.0
 11
3.488316
 21
4.876169
 31
0.0
  0
LINE
  5
BC0
330
18
100
AcDbEntity
  8
0
100
AcDbLine
 10
3.488316
 20
4.876169
 30
0.0
 11
3.488316
 21
4.84731
 31
0.0
  0
LINE
  5
BC1
330
18
100
AcDbEntity
  8
0
100
AcDbLine
 10
4.275078
 20
5.428634
 30
0.0
 11
4.275078
 21
5.399775
 31
0.0
  0
LINE
  5
BC2
330
18
100
AcDbEntity
  8
0
100
AcDbLine
 10
4.274269
 20
5.332204
 30
0.0
 11
4.238991
 21
5.350577
 31
0.0
  0
LINE
  5
BC3
330
18
100
AcDbEntity
  8
0
100
AcDbLine
 10
4.238991
 20
5.350577
 30
0.0
 11
4.238991
 21
5.337822
 31
0.0
  0
LINE
  5
BC4
330
18
100
AcDbEntity
  8
0
100
AcDbLine
 10
4.325329
 20
5.402463
 30
0.0
 11
4.325329
 21
5.373604
 31
0.0
  0
LINE
  5
BC5
330
18
100
AcDbEntity
  8
0
100
AcDbLine
 10
4.385377
 20
5.37119
 30
0.0
 11
4.325329
 21
5.402463
 31
0.0
  0
LINE
  5
BC6
330
18
100
AcDbEntity
  8
0
100
AcDbLine
 10
4.352269000000001
 20
5.359573
 30
0.0
 11
4.325329
 21
5.373604
 31
0.0
  0
LINE
  5
BC7
330
18
100
AcDbEntity
  8
0
100
AcDbLine
 10
4.275078
 20
5.399775
 30
0.0
 11
4.226218
 21
5.425221
 31
0.0
  0
LINE
  5
BC8
330
18
100
AcDbEntity
  8
0
100
AcDbLine
 10
4.275078
 20
5.428634
 30
0.0
 11
4.226218
 21
5.454081
 31
0.0
  0
LINE
  5
BC9
330
18
100
AcDbEntity
  8
0
100
AcDbLine
 10
4.528503
 20
5.463839
 30
0.0
 11
4.4461
 21
5.506755
 31
0.0
  0
LINE
  5
BCA
330
18
100
AcDbEntity
  8
0
100
AcDbLine
 10
4.528503
 20
5.492699
 30
0.0
 11
4.528503
 21
5.463839
 31
0.0
  0
LINE
  5
BCB
330
18
100
AcDbEntity
  8
0
100
AcDbLine
 10
4.528503
 20
5.492699
 30
0.0
 11
4.4461
 21
5.535615
 31
0.0
  0
LINE
  5
BCC
330
18
100
AcDbEntity
  8
0
100
AcDbLine
 10
4.610284
 20
5.450107
 30
0.0
 11
4.578754
 21
5.466528
 31
0.0
  0
LINE
  5
BCD
330
18
100
AcDbEntity
  8
0
100
AcDbLine
 10
4.578754
 20
5.466528
 30
0.0
 11
4.578754
 21
5.439044
 31
0.0
  0
LINE
  5
BCE
330
18
100
AcDbEntity
  8
0
100
AcDbLine
 10
4.499176
 20
5.411121
 30
0.0
 11
4.492416
 21
5.414641000000001
 31
0.0
  0
LINE
  5
BCF
330
18
100
AcDbEntity
  8
0
100
AcDbLine
 10
4.492416
 20
5.414641000000001
 30
0.0
 11
4.492416
 21
5.408748999999999
 31
0.0
  0
LINE
  5
BD0
330
18
100
AcDbEntity
  8
0
100
AcDbLine
 10
4.777439
 20
5.551927
 30
0.0
 11
4.694989
 21
5.594868
 31
0.0
  0
LINE
  5
BD1
330
18
100
AcDbEntity
  8
0
100
AcDbLine
 10
4.777439
 20
5.580787
 30
0.0
 11
4.777439
 21
5.551927
 31
0.0
  0
LINE
  5
BD2
330
18
100
AcDbEntity
  8
0
100
AcDbLine
 10
4.777439
 20
5.580787
 30
0.0
 11
4.694989
 21
5.623727
 31
0.0
  0
LINE
  5
BD3
330
18
100
AcDbEntity
  8
0
100
AcDbLine
 10
4.87797
 20
5.52843
 30
0.0
 11
4.827690000000001
 21
5.554616
 31
0.0
  0
LINE
  5
BD4
330
18
100
AcDbEntity
  8
0
100
AcDbLine
 10
4.838987
 20
5.519873000000001
 30
0.0
 11
4.827690000000001
 21
5.525755999999999
 31
0.0
  0
LINE
  5
BD5
330
18
100
AcDbEntity
  8
0
100
AcDbLine
 10
4.748958999999999
 20
5.498767
 30
0.0
 11
4.741352
 21
5.502729
 31
0.0
  0
LINE
  5
BD6
330
18
100
AcDbEntity
  8
0
100
AcDbLine
 10
4.827690000000001
 20
5.554616
 30
0.0
 11
4.827690000000001
 21
5.525755999999999
 31
0.0
  0
LINE
  5
BD7
330
18
100
AcDbEntity
  8
0
100
AcDbLine
 10
4.741352
 20
5.502729
 30
0.0
 11
4.741352
 21
5.496098
 31
0.0
  0
TEXT
  5
BD8
330
18
100
AcDbEntity
  8
0
100
AcDbText
 10
4.977475
 20
1.048932
 30
0.0
 40
0.22
  1
Simpson Strong-Tie
100
AcDbText
  0
TEXT
  5
BD9
330
18
100
AcDbEntity
  8
0
100
AcDbText
 10
4.977475
 20
0.6927409999999999
 30
0.0
 40
0.22
  1
HETA20
100
AcDbText
  0
LINE
  5
BDA
330
18
100
AcDbEntity
  8
0
 62
     0
100
AcDbLine
 10
2.314035
 20
2.75776
 30
0.0
 11
2.362244
 21
2.815213
 31
0.0
  0
LINE
  5
BDB
330
18
100
AcDbEntity
  8
0
 62
     0
100
AcDbLine
 10
2.452787
 20
2.005568
 30
0.0
 11
2.500996
 21
2.063021
 31
0.0
  0
LINE
  5
BDC
330
18
100
AcDbEntity
  8
0
 62
     0
100
AcDbLine
 10
2.591538
 20
1.253376
 30
0.0
 11
2.639747
 21
1.310829
 31
0.0
  0
LINE
  5
BDD
330
18
100
AcDbEntity
  8
0
 62
     0
100
AcDbLine
 10
2.175284
 20
3.509952
 30
0.0
 11
2.223493
 21
3.567405
 31
0.0
  0
LINE
  5
BDE
330
18
100
AcDbEntity
  8
0
 62
     0
100
AcDbLine
 10
2.452787
 20
2.005568
 30
0.0
 11
2.512558
 21
2.000339
 31
0.0
  0
LINE
  5
BDF
330
18
100
AcDbEntity
  8
0
 62
     0
100
AcDbLine
 10
2.314035
 20
2.75776
 30
0.0
 11
2.373807
 21
2.752531
 31
0.0
  0
LINE
  5
BE0
330
18
100
AcDbEntity
  8
0
 62
     0
100
AcDbLine
 10
2.175284
 20
3.509952
 30
0.0
 11
2.235056
 21
3.504723
 31
0.0
  0
LINE
  5
BE1
330
18
100
AcDbEntity
  8
0
 62
     0
100
AcDbLine
 10
2.591538
 20
1.253376
 30
0.0
 11
2.65131
 21
1.248146
 31
0.0
  0
LINE
  5
BE2
330
18
100
AcDbEntity
  8
0
 62
     0
100
AcDbLine
 10
2.651311
 20
1.248144
 30
0.0
 11
2.639748
 21
1.310827
 31
0.0
  0
LINE
  5
BE3
330
18
100
AcDbEntity
  8
0
 62
     0
100
AcDbLine
 10
2.51256
 20
2.000337
 30
0.0
 11
2.500997
 21
2.063019
 31
0.0
  0
LINE
  5
BE4
330
18
100
AcDbEntity
  8
0
 62
     0
100
AcDbLine
 10
2.373809
 20
2.752529
 30
0.0
 11
2.362247
 21
2.815212
 31
0.0
  0
LINE
  5
BE5
330
18
100
AcDbEntity
  8
0
 62
     0
100
AcDbLine
 10
2.235058
 20
3.504721
 30
0.0
 11
2.223496
 21
3.567404
 31
0.0
  0
LINE
  5
BE6
330
18
100
AcDbEntity
  8
0
 62
     0
100
AcDbLine
 10
1.928982
 20
2.210413
 30
0.0
 11
1.947212
 21
2.229414
 31
0.0
  0
LINE
  5
BE7
330
18
100
AcDbEntity
  8
0
 62
     0
100
AcDbLine
 10
2.803986
 20
3.122356
 30
0.0
 11
2.881874
 21
3.203532
 31
0.0
  0
LINE
  5
BE8
330
18
100
AcDbEntity
  8
0
 62
     0
100
AcDbLine
 10
2.936565
 20
1.982718
 30
0.0
 11
3.00471
 21
2.05374
 31
0.0
  0
LINE
  5
BE9
330
18
100
AcDbEntity
  8
0
 62
     0
100
AcDbLine
 10
1.958262
 20
2.134442
 30
0.0
 11
1.947214
 21
2.229412
 31
0.0
  0
LINE
  5
BEA
330
18
100
AcDbEntity
  8
0
 62
     0
100
AcDbLine
 10
2.892925
 20
3.10856
 30
0.0
 11
2.881877
 21
3.20353
 31
0.0
  0
LINE
  5
BEB
330
18
100
AcDbEntity
  8
0
 62
     0
100
AcDbLine
 10
1.937598
 20
2.137649
 30
0.0
 11
1.958261
 21
2.134444
 31
0.0
  0
LINE
  5
BEC
330
18
100
AcDbEntity
  8
0
 62
     0
100
AcDbLine
 10
2.936565
 20
1.982718
 30
0.0
 11
3.016144
 21
1.970376
 31
0.0
  0
LINE
  5
BED
330
18
100
AcDbEntity
  8
0
 62
     0
100
AcDbLine
 10
2.803986
 20
3.122356
 30
0.0
 11
2.892923
 21
3.108563
 31
0.0
  0
LINE
  5
BEE
330
18
100
AcDbEntity
  8
0
 62
     0
100
AcDbLine
 10
2.267075
 20
2.245362
 30
0.0
 11
2.337094
 21
2.27224
 31
0.0
  0
LINE
  5
BEF
330
18
100
AcDbEntity
  8
0
 62
     0
100
AcDbLine
 10
2.02376
 20
1.520212
 30
0.0
 11
2.093779
 21
1.54709
 31
0.0
  0
LINE
  5
BF0
330
18
100
AcDbEntity
  8
0
 62
     0
100
AcDbLine
 10
2.863982
 20
1.842744
 30
0.0
 11
2.934001
 21
1.869621
 31
0.0
  0
LINE
  5
BF1
330
18
100
AcDbEntity
  8
0
 62
     0
100
AcDbLine
 10
2.620667
 20
1.117593
 30
0.0
 11
2.690686
 21
1.144471
 31
0.0
  0
LINE
  5
BF2
330
18
100
AcDbEntity
  8
0
 62
     0
100
AcDbLine
 10
2.510391
 20
2.970512
 30
0.0
 11
2.580409
 21
2.99739
 31
0.0
  0
LINE
  5
BF3
330
18
100
AcDbEntity
  8
0
 62
     0
100
AcDbLine
 10
1.913484
 20
3.373131
 30
0.0
 11
1.983502
 21
3.400009
 31
0.0
  0
LINE
  5
BF4
330
18
100
AcDbEntity
  8
0
 62
     0
100
AcDbLine
 10
2.267075
 20
2.245362
 30
0.0
 11
2.316818
 21
2.211811
 31
0.0
  0
LINE
  5
BF5
330
18
100
AcDbEntity
  8
0
 62
     0
100
AcDbLine
 10
2.863982
 20
1.842744
 30
0.0
 11
2.913725
 21
1.809192
 31
0.0
  0
LINE
  5
BF6
330
18
100
AcDbEntity
  8
0
 62
     0
100
AcDbLine
 10
1.913484
 20
3.373131
 30
0.0
 11
1.963226
 21
3.33958
 31
0.0
  0
LINE
  5
BF7
330
18
100
AcDbEntity
  8
0
 62
     0
100
AcDbLine
 10
2.510391
 20
2.970512
 30
0.0
 11
2.560133
 21
2.936961
 31
0.0
  0
LINE
  5
BF8
330
18
100
AcDbEntity
  8
0
 62
     0
100
AcDbLine
 10
2.02376
 20
1.520212
 30
0.0
 11
2.073502
 21
1.486661
 31
0.0
  0
LINE
  5
BF9
330
18
100
AcDbEntity
  8
0
 62
     0
100
AcDbLine
 10
2.620667
 20
1.117593
 30
0.0
 11
2.670409
 21
1.084042
 31
0.0
  0
LINE
  5
BFA
330
18
100
AcDbEntity
  8
0
 62
     0
100
AcDbLine
 10
2.073503
 20
1.486659
 30
0.0
 11
2.09378
 21
1.547088
 31
0.0
  0
LINE
  5
BFB
330
18
100
AcDbEntity
  8
0
 62
     0
100
AcDbLine
 10
2.316819
 20
2.211809
 30
0.0
 11
2.337096
 21
2.272238
 31
0.0
  0
LINE
  5
BFC
330
18
100
AcDbEntity
  8
0
 62
     0
100
AcDbLine
 10
2.560135
 20
2.936959
 30
0.0
 11
2.580412
 21
2.997388
 31
0.0
  0
LINE
  5
BFD
330
18
100
AcDbEntity
  8
0
 62
     0
100
AcDbLine
 10
2.67041
 20
1.08404
 30
0.0
 11
2.690686
 21
1.144469
 31
0.0
  0
LINE
  5
BFE
330
18
100
AcDbEntity
  8
0
 62
     0
100
AcDbLine
 10
2.913726
 20
1.80919
 30
0.0
 11
2.934002
 21
1.869619
 31
0.0
  0
LINE
  5
BFF
330
18
100
AcDbEntity
  8
0
 62
     0
100
AcDbLine
 10
1.963228
 20
3.339578
 30
0.0
 11
1.983505
 21
3.400007
 31
0.0
  0
LINE
  5
C00
330
18
100
AcDbEntity
  8
0
 62
     0
100
AcDbLine
 10
2.103836
 20
1.937893
 30
0.0
 11
2.103836
 21
1.937893
 31
0.0
  0
LINE
  5
C01
330
18
100
AcDbEntity
  8
0
 62
     0
100
AcDbLine
 10
2.635383
 20
2.345764
 30
0.0
 11
2.635383
 21
2.345764
 31
0.0
  0
LINE
  5
C02
330
18
100
AcDbEntity
  8
0
 62
     0
100
AcDbLine
 10
2.115996
 20
2.270787
 30
0.0
 11
2.115996
 21
2.270787
 31
0.0
  0
LINE
  5
C03
330
18
100
AcDbEntity
  8
0
 62
     0
100
AcDbLine
 10
2.647543
 20
2.678657
 30
0.0
 11
2.647543
 21
2.678657
 31
0.0
  0
LINE
  5
C04
330
18
100
AcDbEntity
  8
0
 62
     0
100
AcDbLine
 10
2.128156
 20
2.603681
 30
0.0
 11
2.128156
 21
2.603681
 31
0.0
  0
LINE
  5
C05
330
18
100
AcDbEntity
  8
0
 62
     0
100
AcDbLine
 10
2.659702
 20
3.011551
 30
0.0
 11
2.659702
 21
3.011551
 31
0.0
  0
LINE
  5
C06
330
18
100
AcDbEntity
  8
0
 62
     0
100
AcDbLine
 10
2.140316
 20
2.936575
 30
0.0
 11
2.140316
 21
2.936575
 31
0.0
  0
LINE
  5
C07
330
18
100
AcDbEntity
  8
0
 62
     0
100
AcDbLine
 10
2.671862
 20
3.344445
 30
0.0
 11
2.671862
 21
3.344445
 31
0.0
  0
LINE
  5
C08
330
18
100
AcDbEntity
  8
0
 62
     0
100
AcDbLine
 10
2.152475
 20
3.269469
 30
0.0
 11
2.152475
 21
3.269469
 31
0.0
  0
LINE
  5
C09
330
18
100
AcDbEntity
  8
0
 62
     0
100
AcDbLine
 10
2.164635
 20
3.602363
 30
0.0
 11
2.164635
 21
3.602363
 31
0.0
  0
LINE
  5
C0A
330
18
100
AcDbEntity
  8
0
 62
     0
100
AcDbLine
 10
2.091676
 20
1.605
 30
0.0
 11
2.091676
 21
1.605
 31
0.0
  0
LINE
  5
C0B
330
18
100
AcDbEntity
  8
0
 62
     0
100
AcDbLine
 10
2.623223
 20
2.01287
 30
0.0
 11
2.623223
 21
2.01287
 31
0.0
  0
LINE
  5
C0C
330
18
100
AcDbEntity
  8
0
 62
     0
100
AcDbLine
 10
2.611063
 20
1.679976
 30
0.0
 11
2.611063
 21
1.679976
 31
0.0
  0
LINE
  5
C0D
330
18
100
AcDbEntity
  8
0
 62
     0
100
AcDbLine
 10
2.598903
 20
1.347082
 30
0.0
 11
2.598903
 21
1.347082
 31
0.0
  0
LINE
  5
C0E
330
18
100
AcDbEntity
  8
0
 62
     0
100
AcDbLine
 10
2.586743
 20
1.014188
 30
0.0
 11
2.586743
 21
1.014188
 31
0.0
  0
LINE
  5
C0F
330
18
100
AcDbEntity
  8
0
 62
     0
100
AcDbLine
 10
2.32563
 20
2.105065
 30
0.0
 11
2.32563
 21
2.105065
 31
0.0
  0
LINE
  5
C10
330
18
100
AcDbEntity
  8
0
 62
     0
100
AcDbLine
 10
2.57597
 20
2.138023
 30
0.0
 11
2.57597
 21
2.138023
 31
0.0
  0
LINE
  5
C11
330
18
100
AcDbEntity
  8
0
 62
     0
100
AcDbLine
 10
2.954702
 20
2.187884
 30
0.0
 11
2.954702
 21
2.187884
 31
0.0
  0
LINE
  5
C12
330
18
100
AcDbEntity
  8
0
 62
     0
100
AcDbLine
 10
2.5887
 20
2.499476
 30
0.0
 11
2.5887
 21
2.499476
 31
0.0
  0
LINE
  5
C13
330
18
100
AcDbEntity
  8
0
 62
     0
100
AcDbLine
 10
2.839039
 20
2.532434
 30
0.0
 11
2.839039
 21
2.532434
 31
0.0
  0
LINE
  5
C14
330
18
100
AcDbEntity
  8
0
 62
     0
100
AcDbLine
 10
2.220219
 20
2.810743
 30
0.0
 11
2.220219
 21
2.810743
 31
0.0
  0
LINE
  5
C15
330
18
100
AcDbEntity
  8
0
 62
     0
100
AcDbLine
 10
2.851769
 20
2.893888
 30
0.0
 11
2.851769
 21
2.893888
 31
0.0
  0
LINE
  5
C16
330
18
100
AcDbEntity
  8
0
 62
     0
100
AcDbLine
 10
2.104556
 20
3.155294
 30
0.0
 11
2.104556
 21
3.155294
 31
0.0
  0
LINE
  5
C17
330
18
100
AcDbEntity
  8
0
 62
     0
100
AcDbLine
 10
2.483288
 20
3.205155
 30
0.0
 11
2.483288
 21
3.205155
 31
0.0
  0
LINE
  5
C18
330
18
100
AcDbEntity
  8
0
 62
     0
100
AcDbLine
 10
2.117286
 20
3.516748
 30
0.0
 11
2.117286
 21
3.516748
 31
0.0
  0
LINE
  5
C19
330
18
100
AcDbEntity
  8
0
 62
     0
100
AcDbLine
 10
2.367626
 20
3.549705
 30
0.0
 11
2.367626
 21
3.549705
 31
0.0
  0
LINE
  5
C1A
330
18
100
AcDbEntity
  8
0
 62
     0
100
AcDbLine
 10
2.06256
 20
1.710653
 30
0.0
 11
2.06256
 21
1.710653
 31
0.0
  0
LINE
  5
C1B
330
18
100
AcDbEntity
  8
0
 62
     0
100
AcDbLine
 10
2.3129
 20
1.743611
 30
0.0
 11
2.3129
 21
1.743611
 31
0.0
  0
LINE
  5
C1C
330
18
100
AcDbEntity
  8
0
 62
     0
100
AcDbLine
 10
2.691632
 20
1.793472
 30
0.0
 11
2.691632
 21
1.793472
 31
0.0
  0
LINE
  5
C1D
330
18
100
AcDbEntity
  8
0
 62
     0
100
AcDbLine
 10
2.428563
 20
1.39906
 30
0.0
 11
2.428563
 21
1.39906
 31
0.0
  0
LINE
  5
C1E
330
18
100
AcDbEntity
  8
0
 62
     0
100
AcDbLine
 10
2.797044
 20
1.087794
 30
0.0
 11
2.797044
 21
1.087794
 31
0.0
  0
LINE
  5
C1F
330
18
100
AcDbEntity
  8
0
 62
     0
100
AcDbLine
 10
2.699663
 20
1.948389
 30
0.0
 11
2.699663
 21
1.948389
 31
0.0
  0
LINE
  5
C20
330
18
100
AcDbEntity
  8
0
 62
     0
100
AcDbLine
 10
2.91051
 20
1.814064
 30
0.0
 11
2.91051
 21
1.814064
 31
0.0
  0
LINE
  5
C21
330
18
100
AcDbEntity
  8
0
 62
     0
100
AcDbLine
 10
2.360575
 20
2.481939
 30
0.0
 11
2.360575
 21
2.481939
 31
0.0
  0
LINE
  5
C22
330
18
100
AcDbEntity
  8
0
 62
     0
100
AcDbLine
 10
2.025704
 20
3.012803
 30
0.0
 11
2.025704
 21
3.012803
 31
0.0
  0
LINE
  5
C23
330
18
100
AcDbEntity
  8
0
 62
     0
100
AcDbLine
 10
2.236552
 20
2.878478
 30
0.0
 11
2.236552
 21
2.878478
 31
0.0
  0
LINE
  5
C24
330
18
100
AcDbEntity
  8
0
 62
     0
100
AcDbLine
 10
2.894397
 20
2.459384
 30
0.0
 11
2.894397
 21
2.459384
 31
0.0
  0
LINE
  5
C25
330
18
100
AcDbEntity
  8
0
 62
     0
100
AcDbLine
 10
2.559527
 20
2.990248
 30
0.0
 11
2.559527
 21
2.990248
 31
0.0
  0
LINE
  5
C26
330
18
100
AcDbEntity
  8
0
 62
     0
100
AcDbLine
 10
2.770374
 20
2.855923
 30
0.0
 11
2.770374
 21
2.855923
 31
0.0
  0
LINE
  5
C27
330
18
100
AcDbEntity
  8
0
 62
     0
100
AcDbLine
 10
2.220439
 20
3.523798
 30
0.0
 11
2.220439
 21
3.523798
 31
0.0
  0
LINE
  5
C28
330
18
100
AcDbEntity
  8
0
 62
     0
100
AcDbLine
 10
2.096416
 20
3.920337
 30
0.0
 11
2.096416
 21
3.920337
 31
0.0
  0
LINE
  5
C29
330
18
100
AcDbEntity
  8
0
 62
     0
100
AcDbLine
 10
2.16584
 20
1.970944
 30
0.0
 11
2.16584
 21
1.970944
 31
0.0
  0
LINE
  5
C2A
330
18
100
AcDbEntity
  8
0
 62
     0
100
AcDbLine
 10
2.376688
 20
1.836619
 30
0.0
 11
2.376688
 21
1.836619
 31
0.0
  0
LINE
  5
C2B
330
18
100
AcDbEntity
  8
0
 62
     0
100
AcDbLine
 10
2.500711
 20
1.44008
 30
0.0
 11
2.500711
 21
1.44008
 31
0.0
  0
LINE
  5
C2C
330
18
100
AcDbEntity
  8
0
 62
     0
100
AcDbLine
 10
2.839799
 20
0.90653
 30
0.0
 11
2.839799
 21
0.90653
 31
0.0
  0
LINE
  5
C2D
330
18
100
AcDbEntity
  8
0
 62
     0
100
AcDbLine
 10
2.053981
 20
2.263375
 30
0.0
 11
2.053981
 21
2.263375
 31
0.0
  0
LINE
  5
C2E
330
18
100
AcDbEntity
  8
0
 62
     0
100
AcDbLine
 10
2.59588
 20
1.766816
 30
0.0
 11
2.59588
 21
1.766816
 31
0.0
  0
LINE
  5
C2F
330
18
100
AcDbEntity
  8
0
 62
     0
100
AcDbLine
 10
2.835495
 20
1.547249
 30
0.0
 11
2.835495
 21
1.547249
 31
0.0
  0
LINE
  5
C30
330
18
100
AcDbEntity
  8
0
 62
     0
100
AcDbLine
 10
2.015642
 20
2.933003
 30
0.0
 11
2.015642
 21
2.933003
 31
0.0
  0
LINE
  5
C31
330
18
100
AcDbEntity
  8
0
 62
     0
100
AcDbLine
 10
2.255257
 20
2.713436
 30
0.0
 11
2.255257
 21
2.713436
 31
0.0
  0
LINE
  5
C32
330
18
100
AcDbEntity
  8
0
 62
     0
100
AcDbLine
 10
2.637167
 20
2.36348
 30
0.0
 11
2.637167
 21
2.36348
 31
0.0
  0
LINE
  5
C33
330
18
100
AcDbEntity
  8
0
 62
     0
100
AcDbLine
 10
2.056929
 20
3.529666
 30
0.0
 11
2.056929
 21
3.529666
 31
0.0
  0
LINE
  5
C34
330
18
100
AcDbEntity
  8
0
 62
     0
100
AcDbLine
 10
2.598828
 20
3.033108
 30
0.0
 11
2.598828
 21
3.033108
 31
0.0
  0
LINE
  5
C35
330
18
100
AcDbEntity
  8
0
 62
     0
100
AcDbLine
 10
2.838443
 20
2.813541
 30
0.0
 11
2.838443
 21
2.813541
 31
0.0
  0
LINE
  5
C36
330
18
100
AcDbEntity
  8
0
 62
     0
100
AcDbLine
 10
2.012693
 20
1.666711
 30
0.0
 11
2.012693
 21
1.666711
 31
0.0
  0
LINE
  5
C37
330
18
100
AcDbEntity
  8
0
 62
     0
100
AcDbLine
 10
2.252309
 20
1.447144
 30
0.0
 11
2.252309
 21
1.447144
 31
0.0
  0
LINE
  5
C38
330
18
100
AcDbEntity
  8
0
 62
     0
100
AcDbLine
 10
2.634218
 20
1.097189
 30
0.0
 11
2.634218
 21
1.097189
 31
0.0
  0
LINE
  5
C39
330
18
100
AcDbEntity
  8
0
 62
     0
100
AcDbLine
 10
3.087636
 20
1.974195
 30
0.0
 11
3.087636
 21
1.974195
 31
0.0
  0
LINE
  5
C3A
330
18
100
AcDbEntity
  8
0
 62
     0
100
AcDbLine
 10
3.328816
 20
2.159258
 30
0.0
 11
3.328816
 21
2.159258
 31
0.0
  0
LINE
  5
C3B
330
18
100
AcDbEntity
  8
0
 62
     0
100
AcDbLine
 10
3.598556
 20
2.366237
 30
0.0
 11
3.598556
 21
2.366237
 31
0.0
  0
LINE
  5
C3C
330
18
100
AcDbEntity
  8
0
 62
     0
100
AcDbLine
 10
3.856396
 20
2.564084
 30
0.0
 11
3.856396
 21
2.564084
 31
0.0
  0
LINE
  5
C3D
330
18
100
AcDbEntity
  8
0
 62
     0
100
AcDbLine
 10
4.097575
 20
2.749148
 30
0.0
 11
4.097575
 21
2.749148
 31
0.0
  0
LINE
  5
C3E
330
18
100
AcDbEntity
  8
0
 62
     0
100
AcDbLine
 10
4.367315000000001
 20
2.956127
 30
0.0
 11
4.367315000000001
 21
2.956127
 31
0.0
  0
LINE
  5
C3F
330
18
100
AcDbEntity
  8
0
 62
     0
100
AcDbLine
 10
4.625155
 20
3.153974
 30
0.0
 11
4.625155
 21
3.153974
 31
0.0
  0
LINE
  5
C40
330
18
100
AcDbEntity
  8
0
 62
     0
100
AcDbLine
 10
4.866333999999999
 20
3.339038
 30
0.0
 11
4.866333999999999
 21
3.339038
 31
0.0
  0
LINE
  5
C41
330
18
100
AcDbEntity
  8
0
 62
     0
100
AcDbLine
 10
3.075038
 20
2.359559
 30
0.0
 11
3.075038
 21
2.359559
 31
0.0
  0
LINE
  5
C42
330
18
100
AcDbEntity
  8
0
 62
     0
100
AcDbLine
 10
3.316217
 20
2.544623
 30
0.0
 11
3.316217
 21
2.544623
 31
0.0
  0
LINE
  5
C43
330
18
100
AcDbEntity
  8
0
 62
     0
100
AcDbLine
 10
3.585957
 20
2.751602
 30
0.0
 11
3.585957
 21
2.751602
 31
0.0
  0
LINE
  5
C44
330
18
100
AcDbEntity
  8
0
 62
     0
100
AcDbLine
 10
3.843797
 20
2.949449
 30
0.0
 11
3.843797
 21
2.949449
 31
0.0
  0
LINE
  5
C45
330
18
100
AcDbEntity
  8
0
 62
     0
100
AcDbLine
 10
4.084976
 20
3.134513
 30
0.0
 11
4.084976
 21
3.134513
 31
0.0
  0
LINE
  5
C46
330
18
100
AcDbEntity
  8
0
 62
     0
100
AcDbLine
 10
4.354716000000001
 20
3.341491
 30
0.0
 11
4.354716000000001
 21
3.341491
 31
0.0
  0
LINE
  5
C47
330
18
100
AcDbEntity
  8
0
 62
     0
100
AcDbLine
 10
4.612556
 20
3.539339
 30
0.0
 11
4.612556
 21
3.539339
 31
0.0
  0
LINE
  5
C48
330
18
100
AcDbEntity
  8
0
 62
     0
100
AcDbLine
 10
3.062439
 20
2.744924
 30
0.0
 11
3.062439
 21
2.744924
 31
0.0
  0
LINE
  5
C49
330
18
100
AcDbEntity
  8
0
 62
     0
100
AcDbLine
 10
3.303618
 20
2.929988
 30
0.0
 11
3.303618
 21
2.929988
 31
0.0
  0
LINE
  5
C4A
330
18
100
AcDbEntity
  8
0
 62
     0
100
AcDbLine
 10
3.573358
 20
3.136966
 30
0.0
 11
3.573358
 21
3.136966
 31
0.0
  0
LINE
  5
C4B
330
18
100
AcDbEntity
  8
0
 62
     0
100
AcDbLine
 10
3.831198
 20
3.334814
 30
0.0
 11
3.831198
 21
3.334814
 31
0.0
  0
LINE
  5
C4C
330
18
100
AcDbEntity
  8
0
 62
     0
100
AcDbLine
 10
4.072378
 20
3.519877
 30
0.0
 11
4.072378
 21
3.519877
 31
0.0
  0
LINE
  5
C4D
330
18
100
AcDbEntity
  8
0
 62
     0
100
AcDbLine
 10
4.342118
 20
3.726856
 30
0.0
 11
4.342118
 21
3.726856
 31
0.0
  0
LINE
  5
C4E
330
18
100
AcDbEntity
  8
0
 62
     0
100
AcDbLine
 10
3.04984
 20
3.130289
 30
0.0
 11
3.04984
 21
3.130289
 31
0.0
  0
LINE
  5
C4F
330
18
100
AcDbEntity
  8
0
 62
     0
100
AcDbLine
 10
3.29102
 20
3.315352
 30
0.0
 11
3.29102
 21
3.315352
 31
0.0
  0
LINE
  5
C50
330
18
100
AcDbEntity
  8
0
 62
     0
100
AcDbLine
 10
3.56076
 20
3.522331
 30
0.0
 11
3.56076
 21
3.522331
 31
0.0
  0
LINE
  5
C51
330
18
100
AcDbEntity
  8
0
 62
     0
100
AcDbLine
 10
4.059779
 20
3.905242
 30
0.0
 11
4.059779
 21
3.905242
 31
0.0
  0
LINE
  5
C52
330
18
100
AcDbEntity
  8
0
 62
     0
100
AcDbLine
 10
3.037242
 20
3.515654
 30
0.0
 11
3.037242
 21
3.515654
 31
0.0
  0
LINE
  5
C53
330
18
100
AcDbEntity
  8
0
 62
     0
100
AcDbLine
 10
3.278421
 20
3.700717
 30
0.0
 11
3.278421
 21
3.700717
 31
0.0
  0
LINE
  5
C54
330
18
100
AcDbEntity
  8
0
 62
     0
100
AcDbLine
 10
2.766803
 20
3.703171
 30
0.0
 11
2.766803
 21
3.703171
 31
0.0
  0
LINE
  5
C55
330
18
100
AcDbEntity
  8
0
 62
     0
100
AcDbLine
 10
3.024643
 20
3.901018
 30
0.0
 11
3.024643
 21
3.901018
 31
0.0
  0
LINE
  5
C56
330
18
100
AcDbEntity
  8
0
 62
     0
100
AcDbLine
 10
3.265822
 20
4.086082
 30
0.0
 11
3.265822
 21
4.086082
 31
0.0
  0
LINE
  5
C57
330
18
100
AcDbEntity
  8
0
 62
     0
100
AcDbLine
 10
2.484464
 20
3.881557
 30
0.0
 11
2.484464
 21
3.881557
 31
0.0
  0
LINE
  5
C58
330
18
100
AcDbEntity
  8
0
 62
     0
100
AcDbLine
 10
2.754204
 20
4.088536
 30
0.0
 11
2.754204
 21
4.088536
 31
0.0
  0
LINE
  5
C59
330
18
100
AcDbEntity
  8
0
 62
     0
100
AcDbLine
 10
3.012044
 20
4.286383
 30
0.0
 11
3.012044
 21
4.286383
 31
0.0
  0
LINE
  5
C5A
330
18
100
AcDbEntity
  8
0
 62
     0
100
AcDbLine
 10
2.230686
 20
4.081858
 30
0.0
 11
2.230686
 21
4.081858
 31
0.0
  0
LINE
  5
C5B
330
18
100
AcDbEntity
  8
0
 62
     0
100
AcDbLine
 10
3.100235
 20
1.58883
 30
0.0
 11
3.100235
 21
1.58883
 31
0.0
  0
LINE
  5
C5C
330
18
100
AcDbEntity
  8
0
 62
     0
100
AcDbLine
 10
3.341414
 20
1.773893
 30
0.0
 11
3.341414
 21
1.773893
 31
0.0
  0
LINE
  5
C5D
330
18
100
AcDbEntity
  8
0
 62
     0
100
AcDbLine
 10
3.611154
 20
1.980872
 30
0.0
 11
3.611154
 21
1.980872
 31
0.0
  0
LINE
  5
C5E
330
18
100
AcDbEntity
  8
0
 62
     0
100
AcDbLine
 10
3.868994
 20
2.17872
 30
0.0
 11
3.868994
 21
2.17872
 31
0.0
  0
LINE
  5
C5F
330
18
100
AcDbEntity
  8
0
 62
     0
100
AcDbLine
 10
4.110174
 20
2.363783
 30
0.0
 11
4.110174
 21
2.363783
 31
0.0
  0
LINE
  5
C60
330
18
100
AcDbEntity
  8
0
 62
     0
100
AcDbLine
 10
4.379914
 20
2.570762
 30
0.0
 11
4.379914
 21
2.570762
 31
0.0
  0
LINE
  5
C61
330
18
100
AcDbEntity
  8
0
 62
     0
100
AcDbLine
 10
4.637754
 20
2.768609
 30
0.0
 11
4.637754
 21
2.768609
 31
0.0
  0
LINE
  5
C62
330
18
100
AcDbEntity
  8
0
 62
     0
100
AcDbLine
 10
4.878933
 20
2.953673
 30
0.0
 11
4.878933
 21
2.953673
 31
0.0
  0
LINE
  5
C63
330
18
100
AcDbEntity
  8
0
 62
     0
100
AcDbLine
 10
5.148673000000001
 20
3.160652
 30
0.0
 11
5.148673000000001
 21
3.160652
 31
0.0
  0
LINE
  5
C64
330
18
100
AcDbEntity
  8
0
 62
     0
100
AcDbLine
 10
3.112834
 20
1.203465
 30
0.0
 11
3.112834
 21
1.203465
 31
0.0
  0
LINE
  5
C65
330
18
100
AcDbEntity
  8
0
 62
     0
100
AcDbLine
 10
3.354013
 20
1.388529
 30
0.0
 11
3.354013
 21
1.388529
 31
0.0
  0
LINE
  5
C66
330
18
100
AcDbEntity
  8
0
 62
     0
100
AcDbLine
 10
3.623753
 20
1.595507
 30
0.0
 11
3.623753
 21
1.595507
 31
0.0
  0
LINE
  5
C67
330
18
100
AcDbEntity
  8
0
 62
     0
100
AcDbLine
 10
3.881593
 20
1.793355
 30
0.0
 11
3.881593
 21
1.793355
 31
0.0
  0
LINE
  5
C68
330
18
100
AcDbEntity
  8
0
 62
     0
100
AcDbLine
 10
4.122772
 20
1.978418
 30
0.0
 11
4.122772
 21
1.978418
 31
0.0
  0
LINE
  5
C69
330
18
100
AcDbEntity
  8
0
 62
     0
100
AcDbLine
 10
4.392512
 20
2.185397
 30
0.0
 11
4.392512
 21
2.185397
 31
0.0
  0
LINE
  5
C6A
330
18
100
AcDbEntity
  8
0
 62
     0
100
AcDbLine
 10
4.650352
 20
2.383245
 30
0.0
 11
4.650352
 21
2.383245
 31
0.0
  0
LINE
  5
C6B
330
18
100
AcDbEntity
  8
0
 62
     0
100
AcDbLine
 10
4.891532
 20
2.568308
 30
0.0
 11
4.891532
 21
2.568308
 31
0.0
  0
LINE
  5
C6C
330
18
100
AcDbEntity
  8
0
 62
     0
100
AcDbLine
 10
5.161272
 20
2.775287
 30
0.0
 11
5.161272
 21
2.775287
 31
0.0
  0
LINE
  5
C6D
330
18
100
AcDbEntity
  8
0
 62
     0
100
AcDbLine
 10
5.419112
 20
2.973135
 30
0.0
 11
5.419112
 21
2.973135
 31
0.0
  0
LINE
  5
C6E
330
18
100
AcDbEntity
  8
0
 62
     0
100
AcDbLine
 10
3.125432
 20
0.8181000000000001
 30
0.0
 11
3.125432
 21
0.8181000000000001
 31
0.0
  0
LINE
  5
C6F
330
18
100
AcDbEntity
  8
0
 62
     0
100
AcDbLine
 10
3.366612
 20
1.003164
 30
0.0
 11
3.366612
 21
1.003164
 31
0.0
  0
LINE
  5
C70
330
18
100
AcDbEntity
  8
0
 62
     0
100
AcDbLine
 10
3.636352
 20
1.210143
 30
0.0
 11
3.636352
 21
1.210143
 31
0.0
  0
LINE
  5
C71
330
18
100
AcDbEntity
  8
0
 62
     0
100
AcDbLine
 10
3.894192
 20
1.40799
 30
0.0
 11
3.894192
 21
1.40799
 31
0.0
  0
LINE
  5
C72
330
18
100
AcDbEntity
  8
0
 62
     0
100
AcDbLine
 10
4.135371
 20
1.593054
 30
0.0
 11
4.135371
 21
1.593054
 31
0.0
  0
LINE
  5
C73
330
18
100
AcDbEntity
  8
0
 62
     0
100
AcDbLine
 10
4.405111
 20
1.800032
 30
0.0
 11
4.405111
 21
1.800032
 31
0.0
  0
LINE
  5
C74
330
18
100
AcDbEntity
  8
0
 62
     0
100
AcDbLine
 10
4.662951000000001
 20
1.99788
 30
0.0
 11
4.662951000000001
 21
1.99788
 31
0.0
  0
LINE
  5
C75
330
18
100
AcDbEntity
  8
0
 62
     0
100
AcDbLine
 10
4.90413
 20
2.182943
 30
0.0
 11
4.90413
 21
2.182943
 31
0.0
  0
LINE
  5
C76
330
18
100
AcDbEntity
  8
0
 62
     0
100
AcDbLine
 10
5.173871
 20
2.389922
 30
0.0
 11
5.173871
 21
2.389922
 31
0.0
  0
LINE
  5
C77
330
18
100
AcDbEntity
  8
0
 62
     0
100
AcDbLine
 10
5.43171
 20
2.58777
 30
0.0
 11
5.43171
 21
2.58777
 31
0.0
  0
LINE
  5
C78
330
18
100
AcDbEntity
  8
0
 62
     0
100
AcDbLine
 10
5.67289
 20
2.772833
 30
0.0
 11
5.67289
 21
2.772833
 31
0.0
  0
LINE
  5
C79
330
18
100
AcDbEntity
  8
0
 62
     0
100
AcDbLine
 10
4.41771
 20
1.414668
 30
0.0
 11
4.41771
 21
1.414668
 31
0.0
  0
LINE
  5
C7A
330
18
100
AcDbEntity
  8
0
 62
     0
100
AcDbLine
 10
4.67555
 20
1.612515
 30
0.0
 11
4.67555
 21
1.612515
 31
0.0
  0
LINE
  5
C7B
330
18
100
AcDbEntity
  8
0
 62
     0
100
AcDbLine
 10
4.916729
 20
1.797579
 30
0.0
 11
4.916729
 21
1.797579
 31
0.0
  0
LINE
  5
C7C
330
18
100
AcDbEntity
  8
0
 62
     0
100
AcDbLine
 10
5.186469000000001
 20
2.004558
 30
0.0
 11
5.186469000000001
 21
2.004558
 31
0.0
  0
LINE
  5
C7D
330
18
100
AcDbEntity
  8
0
 62
     0
100
AcDbLine
 10
5.444309
 20
2.202405
 30
0.0
 11
5.444309
 21
2.202405
 31
0.0
  0
LINE
  5
C7E
330
18
100
AcDbEntity
  8
0
 62
     0
100
AcDbLine
 10
5.685487999999999
 20
2.387468
 30
0.0
 11
5.685487999999999
 21
2.387468
 31
0.0
  0
LINE
  5
C7F
330
18
100
AcDbEntity
  8
0
 62
     0
100
AcDbLine
 10
3.111183
 20
1.963085
 30
0.0
 11
3.111183
 21
1.963085
 31
0.0
  0
LINE
  5
C80
330
18
100
AcDbEntity
  8
0
 62
     0
100
AcDbLine
 10
3.215284
 20
1.976791
 30
0.0
 11
3.215284
 21
1.976791
 31
0.0
  0
LINE
  5
C81
330
18
100
AcDbEntity
  8
0
 62
     0
100
AcDbLine
 10
3.377881
 20
1.998197
 30
0.0
 11
3.377881
 21
1.998197
 31
0.0
  0
LINE
  5
C82
330
18
100
AcDbEntity
  8
0
 62
     0
100
AcDbLine
 10
3.649537000000001
 20
2.033961
 30
0.0
 11
3.649537000000001
 21
2.033961
 31
0.0
  0
LINE
  5
C83
330
18
100
AcDbEntity
  8
0
 62
     0
100
AcDbLine
 10
3.753639
 20
2.047666
 30
0.0
 11
3.753639
 21
2.047666
 31
0.0
  0
LINE
  5
C84
330
18
100
AcDbEntity
  8
0
 62
     0
100
AcDbLine
 10
3.916236
 20
2.069073
 30
0.0
 11
3.916236
 21
2.069073
 31
0.0
  0
LINE
  5
C85
330
18
100
AcDbEntity
  8
0
 62
     0
100
AcDbLine
 10
4.187892
 20
2.104837
 30
0.0
 11
4.187892
 21
2.104837
 31
0.0
  0
LINE
  5
C86
330
18
100
AcDbEntity
  8
0
 62
     0
100
AcDbLine
 10
4.291993
 20
2.118542
 30
0.0
 11
4.291993
 21
2.118542
 31
0.0
  0
LINE
  5
C87
330
18
100
AcDbEntity
  8
0
 62
     0
100
AcDbLine
 10
4.454590000000001
 20
2.139948
 30
0.0
 11
4.454590000000001
 21
2.139948
 31
0.0
  0
LINE
  5
C88
330
18
100
AcDbEntity
  8
0
 62
     0
100
AcDbLine
 10
4.726246
 20
2.175712
 30
0.0
 11
4.726246
 21
2.175712
 31
0.0
  0
LINE
  5
C89
330
18
100
AcDbEntity
  8
0
 62
     0
100
AcDbLine
 10
4.830348000000001
 20
2.189418
 30
0.0
 11
4.830348000000001
 21
2.189418
 31
0.0
  0
LINE
  5
C8A
330
18
100
AcDbEntity
  8
0
 62
     0
100
AcDbLine
 10
4.992945
 20
2.210824
 30
0.0
 11
4.992945
 21
2.210824
 31
0.0
  0
LINE
  5
C8B
330
18
100
AcDbEntity
  8
0
 62
     0
100
AcDbLine
 10
5.264601
 20
2.246588
 30
0.0
 11
5.264601
 21
2.246588
 31
0.0
  0
LINE
  5
C8C
330
18
100
AcDbEntity
  8
0
 62
     0
100
AcDbLine
 10
5.368703
 20
2.260293
 30
0.0
 11
5.368703
 21
2.260293
 31
0.0
  0
LINE
  5
C8D
330
18
100
AcDbEntity
  8
0
 62
     0
100
AcDbLine
 10
5.531299
 20
2.2817
 30
0.0
 11
5.531299
 21
2.2817
 31
0.0
  0
LINE
  5
C8E
330
18
100
AcDbEntity
  8
0
 62
     0
100
AcDbLine
 10
2.926783
 20
2.456639
 30
0.0
 11
2.926783
 21
2.456639
 31
0.0
  0
LINE
  5
C8F
330
18
100
AcDbEntity
  8
0
 62
     0
100
AcDbLine
 10
3.030885
 20
2.470344
 30
0.0
 11
3.030885
 21
2.470344
 31
0.0
  0
LINE
  5
C90
330
18
100
AcDbEntity
  8
0
 62
     0
100
AcDbLine
 10
3.193482
 20
2.49175
 30
0.0
 11
3.193482
 21
2.49175
 31
0.0
  0
LINE
  5
C91
330
18
100
AcDbEntity
  8
0
 62
     0
100
AcDbLine
 10
3.465138
 20
2.527514
 30
0.0
 11
3.465138
 21
2.527514
 31
0.0
  0
LINE
  5
C92
330
18
100
AcDbEntity
  8
0
 62
     0
100
AcDbLine
 10
3.56924
 20
2.54122
 30
0.0
 11
3.56924
 21
2.54122
 31
0.0
  0
LINE
  5
C93
330
18
100
AcDbEntity
  8
0
 62
     0
100
AcDbLine
 10
3.731837
 20
2.562626
 30
0.0
 11
3.731837
 21
2.562626
 31
0.0
  0
LINE
  5
C94
330
18
100
AcDbEntity
  8
0
 62
     0
100
AcDbLine
 10
4.003492
 20
2.59839
 30
0.0
 11
4.003492
 21
2.59839
 31
0.0
  0
LINE
  5
C95
330
18
100
AcDbEntity
  8
0
 62
     0
100
AcDbLine
 10
4.107594000000001
 20
2.612095
 30
0.0
 11
4.107594000000001
 21
2.612095
 31
0.0
  0
LINE
  5
C96
330
18
100
AcDbEntity
  8
0
 62
     0
100
AcDbLine
 10
4.270191000000001
 20
2.633502
 30
0.0
 11
4.270191000000001
 21
2.633502
 31
0.0
  0
LINE
  5
C97
330
18
100
AcDbEntity
  8
0
 62
     0
100
AcDbLine
 10
4.541847
 20
2.669266
 30
0.0
 11
4.541847
 21
2.669266
 31
0.0
  0
LINE
  5
C98
330
18
100
AcDbEntity
  8
0
 62
     0
100
AcDbLine
 10
4.645949
 20
2.682971
 30
0.0
 11
4.645949
 21
2.682971
 31
0.0
  0
LINE
  5
C99
330
18
100
AcDbEntity
  8
0
 62
     0
100
AcDbLine
 10
4.808546
 20
2.704377
 30
0.0
 11
4.808546
 21
2.704377
 31
0.0
  0
LINE
  5
C9A
330
18
100
AcDbEntity
  8
0
 62
     0
100
AcDbLine
 10
5.080202
 20
2.740142
 30
0.0
 11
5.080202
 21
2.740142
 31
0.0
  0
LINE
  5
C9B
330
18
100
AcDbEntity
  8
0
 62
     0
100
AcDbLine
 10
5.184303
 20
2.753847
 30
0.0
 11
5.184303
 21
2.753847
 31
0.0
  0
LINE
  5
C9C
330
18
100
AcDbEntity
  8
0
 62
     0
100
AcDbLine
 10
5.3469
 20
2.775253
 30
0.0
 11
5.3469
 21
2.775253
 31
0.0
  0
LINE
  5
C9D
330
18
100
AcDbEntity
  8
0
 62
     0
100
AcDbLine
 10
5.618556
 20
2.811017
 30
0.0
 11
5.618556
 21
2.811017
 31
0.0
  0
LINE
  5
C9E
330
18
100
AcDbEntity
  8
0
 62
     0
100
AcDbLine
 10
5.722658
 20
2.824723
 30
0.0
 11
5.722658
 21
2.824723
 31
0.0
  0
LINE
  5
C9F
330
18
100
AcDbEntity
  8
0
 62
     0
100
AcDbLine
 10
5.885255
 20
2.846129
 30
0.0
 11
5.885255
 21
2.846129
 31
0.0
  0
LINE
  5
CA0
330
18
100
AcDbEntity
  8
0
 62
     0
100
AcDbLine
 10
3.009083
 20
2.985304
 30
0.0
 11
3.009083
 21
2.985304
 31
0.0
  0
LINE
  5
CA1
330
18
100
AcDbEntity
  8
0
 62
     0
100
AcDbLine
 10
3.280739
 20
3.021068
 30
0.0
 11
3.280739
 21
3.021068
 31
0.0
  0
LINE
  5
CA2
330
18
100
AcDbEntity
  8
0
 62
     0
100
AcDbLine
 10
3.38484
 20
3.034773
 30
0.0
 11
3.38484
 21
3.034773
 31
0.0
  0
LINE
  5
CA3
330
18
100
AcDbEntity
  8
0
 62
     0
100
AcDbLine
 10
3.547437
 20
3.05618
 30
0.0
 11
3.547437
 21
3.05618
 31
0.0
  0
LINE
  5
CA4
330
18
100
AcDbEntity
  8
0
 62
     0
100
AcDbLine
 10
3.819093
 20
3.091944
 30
0.0
 11
3.819093
 21
3.091944
 31
0.0
  0
LINE
  5
CA5
330
18
100
AcDbEntity
  8
0
 62
     0
100
AcDbLine
 10
3.923195
 20
3.105649
 30
0.0
 11
3.923195
 21
3.105649
 31
0.0
  0
LINE
  5
CA6
330
18
100
AcDbEntity
  8
0
 62
     0
100
AcDbLine
 10
4.085792
 20
3.127055
 30
0.0
 11
4.085792
 21
3.127055
 31
0.0
  0
LINE
  5
CA7
330
18
100
AcDbEntity
  8
0
 62
     0
100
AcDbLine
 10
4.357448000000001
 20
3.162819
 30
0.0
 11
4.357448000000001
 21
3.162819
 31
0.0
  0
LINE
  5
CA8
330
18
100
AcDbEntity
  8
0
 62
     0
100
AcDbLine
 10
4.46155
 20
3.176525
 30
0.0
 11
4.46155
 21
3.176525
 31
0.0
  0
LINE
  5
CA9
330
18
100
AcDbEntity
  8
0
 62
     0
100
AcDbLine
 10
4.624146
 20
3.197931
 30
0.0
 11
4.624146
 21
3.197931
 31
0.0
  0
LINE
  5
CAA
330
18
100
AcDbEntity
  8
0
 62
     0
100
AcDbLine
 10
4.895802
 20
3.233695
 30
0.0
 11
4.895802
 21
3.233695
 31
0.0
  0
LINE
  5
CAB
330
18
100
AcDbEntity
  8
0
 62
     0
100
AcDbLine
 10
4.999904
 20
3.2474
 30
0.0
 11
4.999904
 21
3.2474
 31
0.0
  0
LINE
  5
CAC
330
18
100
AcDbEntity
  8
0
 62
     0
100
AcDbLine
 10
5.162501
 20
3.268807
 30
0.0
 11
5.162501
 21
3.268807
 31
0.0
  0
LINE
  5
CAD
330
18
100
AcDbEntity
  8
0
 62
     0
100
AcDbLine
 10
2.824684
 20
3.478857
 30
0.0
 11
2.824684
 21
3.478857
 31
0.0
  0
LINE
  5
CAE
330
18
100
AcDbEntity
  8
0
 62
     0
100
AcDbLine
 10
3.096339
 20
3.514621
 30
0.0
 11
3.096339
 21
3.514621
 31
0.0
  0
LINE
  5
CAF
330
18
100
AcDbEntity
  8
0
 62
     0
100
AcDbLine
 10
3.200441
 20
3.528327
 30
0.0
 11
3.200441
 21
3.528327
 31
0.0
  0
LINE
  5
CB0
330
18
100
AcDbEntity
  8
0
 62
     0
100
AcDbLine
 10
3.363038
 20
3.549733
 30
0.0
 11
3.363038
 21
3.549733
 31
0.0
  0
LINE
  5
CB1
330
18
100
AcDbEntity
  8
0
 62
     0
100
AcDbLine
 10
3.901393
 20
3.620609
 30
0.0
 11
3.901393
 21
3.620609
 31
0.0
  0
LINE
  5
CB2
330
18
100
AcDbEntity
  8
0
 62
     0
100
AcDbLine
 10
4.173049
 20
3.656373
 30
0.0
 11
4.173049
 21
3.656373
 31
0.0
  0
LINE
  5
CB3
330
18
100
AcDbEntity
  8
0
 62
     0
100
AcDbLine
 10
4.27715
 20
3.670078
 30
0.0
 11
4.27715
 21
3.670078
 31
0.0
  0
LINE
  5
CB4
330
18
100
AcDbEntity
  8
0
 62
     0
100
AcDbLine
 10
4.439747000000001
 20
3.691484
 30
0.0
 11
4.439747000000001
 21
3.691484
 31
0.0
  0
LINE
  5
CB5
330
18
100
AcDbEntity
  8
0
 62
     0
100
AcDbLine
 10
2.373586
 20
3.937299
 30
0.0
 11
2.373586
 21
3.937299
 31
0.0
  0
LINE
  5
CB6
330
18
100
AcDbEntity
  8
0
 62
     0
100
AcDbLine
 10
2.477687
 20
3.951004
 30
0.0
 11
2.477687
 21
3.951004
 31
0.0
  0
LINE
  5
CB7
330
18
100
AcDbEntity
  8
0
 62
     0
100
AcDbLine
 10
2.640284
 20
3.972411
 30
0.0
 11
2.640284
 21
3.972411
 31
0.0
  0
LINE
  5
CB8
330
18
100
AcDbEntity
  8
0
 62
     0
100
AcDbLine
 10
2.91194
 20
4.008175
 30
0.0
 11
2.91194
 21
4.008175
 31
0.0
  0
LINE
  5
CB9
330
18
100
AcDbEntity
  8
0
 62
     0
100
AcDbLine
 10
3.016042
 20
4.02188
 30
0.0
 11
3.016042
 21
4.02188
 31
0.0
  0
LINE
  5
CBA
330
18
100
AcDbEntity
  8
0
 62
     0
100
AcDbLine
 10
3.178639
 20
4.043287
 30
0.0
 11
3.178639
 21
4.043287
 31
0.0
  0
LINE
  5
CBB
330
18
100
AcDbEntity
  8
0
 62
     0
100
AcDbLine
 10
3.450295
 20
4.079051
 30
0.0
 11
3.450295
 21
4.079051
 31
0.0
  0
LINE
  5
CBC
330
18
100
AcDbEntity
  8
0
 62
     0
100
AcDbLine
 10
3.023926
 20
1.433768
 30
0.0
 11
3.023926
 21
1.433768
 31
0.0
  0
LINE
  5
CBD
330
18
100
AcDbEntity
  8
0
 62
     0
100
AcDbLine
 10
3.295582
 20
1.469532
 30
0.0
 11
3.295582
 21
1.469532
 31
0.0
  0
LINE
  5
CBE
330
18
100
AcDbEntity
  8
0
 62
     0
100
AcDbLine
 10
3.399683
 20
1.483237
 30
0.0
 11
3.399683
 21
1.483237
 31
0.0
  0
LINE
  5
CBF
330
18
100
AcDbEntity
  8
0
 62
     0
100
AcDbLine
 10
3.56228
 20
1.504643
 30
0.0
 11
3.56228
 21
1.504643
 31
0.0
  0
LINE
  5
CC0
330
18
100
AcDbEntity
  8
0
 62
     0
100
AcDbLine
 10
3.833936
 20
1.540408
 30
0.0
 11
3.833936
 21
1.540408
 31
0.0
  0
LINE
  5
CC1
330
18
100
AcDbEntity
  8
0
 62
     0
100
AcDbLine
 10
3.938038
 20
1.554113
 30
0.0
 11
3.938038
 21
1.554113
 31
0.0
  0
LINE
  5
CC2
330
18
100
AcDbEntity
  8
0
 62
     0
100
AcDbLine
 10
4.100635
 20
1.575519
 30
0.0
 11
4.100635
 21
1.575519
 31
0.0
  0
LINE
  5
CC3
330
18
100
AcDbEntity
  8
0
 62
     0
100
AcDbLine
 10
4.372291000000001
 20
1.611283
 30
0.0
 11
4.372291000000001
 21
1.611283
 31
0.0
  0
LINE
  5
CC4
330
18
100
AcDbEntity
  8
0
 62
     0
100
AcDbLine
 10
4.476393
 20
1.624988
 30
0.0
 11
4.476393
 21
1.624988
 31
0.0
  0
LINE
  5
CC5
330
18
100
AcDbEntity
  8
0
 62
     0
100
AcDbLine
 10
4.63899
 20
1.646395
 30
0.0
 11
4.63899
 21
1.646395
 31
0.0
  0
LINE
  5
CC6
330
18
100
AcDbEntity
  8
0
 62
     0
100
AcDbLine
 10
4.910645
 20
1.682159
 30
0.0
 11
4.910645
 21
1.682159
 31
0.0
  0
LINE
  5
CC7
330
18
100
AcDbEntity
  8
0
 62
     0
100
AcDbLine
 10
5.014747
 20
1.695864
 30
0.0
 11
5.014747
 21
1.695864
 31
0.0
  0
LINE
  5
CC8
330
18
100
AcDbEntity
  8
0
 62
     0
100
AcDbLine
 10
5.177344000000001
 20
1.717271
 30
0.0
 11
5.177344000000001
 21
1.717271
 31
0.0
  0
LINE
  5
CC9
330
18
100
AcDbEntity
  8
0
 62
     0
100
AcDbLine
 10
3.045728
 20
0.918808
 30
0.0
 11
3.045728
 21
0.918808
 31
0.0
  0
LINE
  5
CCA
330
18
100
AcDbEntity
  8
0
 62
     0
100
AcDbLine
 10
3.208325
 20
0.940214
 30
0.0
 11
3.208325
 21
0.940214
 31
0.0
  0
LINE
  5
CCB
330
18
100
AcDbEntity
  8
0
 62
     0
100
AcDbLine
 10
3.479981
 20
0.975978
 30
0.0
 11
3.479981
 21
0.975978
 31
0.0
  0
LINE
  5
CCC
330
18
100
AcDbEntity
  8
0
 62
     0
100
AcDbLine
 10
3.144645
 20
3.012845
 30
0.0
 11
3.144645
 21
3.012845
 31
0.0
  0
LINE
  5
CCD
330
18
100
AcDbEntity
  8
0
 62
     0
100
AcDbLine
 10
3.228984
 20
2.959115
 30
0.0
 11
3.228984
 21
2.959115
 31
0.0
  0
LINE
  5
CCE
330
18
100
AcDbEntity
  8
0
 62
     0
100
AcDbLine
 10
3.532605
 20
2.765688
 30
0.0
 11
3.532605
 21
2.765688
 31
0.0
  0
LINE
  5
CCF
330
18
100
AcDbEntity
  8
0
 62
     0
100
AcDbLine
 10
3.928999
 20
2.513157
 30
0.0
 11
3.928999
 21
2.513157
 31
0.0
  0
LINE
  5
CD0
330
18
100
AcDbEntity
  8
0
 62
     0
100
AcDbLine
 10
4.013338
 20
2.459427
 30
0.0
 11
4.013338
 21
2.459427
 31
0.0
  0
LINE
  5
CD1
330
18
100
AcDbEntity
  8
0
 62
     0
100
AcDbLine
 10
4.316959
 20
2.265999
 30
0.0
 11
4.316959
 21
2.265999
 31
0.0
  0
LINE
  5
CD2
330
18
100
AcDbEntity
  8
0
 62
     0
100
AcDbLine
 10
4.713353
 20
2.013468
 30
0.0
 11
4.713353
 21
2.013468
 31
0.0
  0
LINE
  5
CD3
330
18
100
AcDbEntity
  8
0
 62
     0
100
AcDbLine
 10
4.797692
 20
1.959738
 30
0.0
 11
4.797692
 21
1.959738
 31
0.0
  0
LINE
  5
CD4
330
18
100
AcDbEntity
  8
0
 62
     0
100
AcDbLine
 10
5.101312999999999
 20
1.76631
 30
0.0
 11
5.101312999999999
 21
1.76631
 31
0.0
  0
LINE
  5
CD5
330
18
100
AcDbEntity
  8
0
 62
     0
100
AcDbLine
 10
2.198765
 20
4.013354
 30
0.0
 11
2.198765
 21
4.013354
 31
0.0
  0
LINE
  5
CD6
330
18
100
AcDbEntity
  8
0
 62
     0
100
AcDbLine
 10
2.283104
 20
3.959624
 30
0.0
 11
2.283104
 21
3.959624
 31
0.0
  0
LINE
  5
CD7
330
18
100
AcDbEntity
  8
0
 62
     0
100
AcDbLine
 10
2.586725
 20
3.766197
 30
0.0
 11
2.586725
 21
3.766197
 31
0.0
  0
LINE
  5
CD8
330
18
100
AcDbEntity
  8
0
 62
     0
100
AcDbLine
 10
2.983119
 20
3.513666
 30
0.0
 11
2.983119
 21
3.513666
 31
0.0
  0
LINE
  5
CD9
330
18
100
AcDbEntity
  8
0
 62
     0
100
AcDbLine
 10
3.067458
 20
3.459936
 30
0.0
 11
3.067458
 21
3.459936
 31
0.0
  0
LINE
  5
CDA
330
18
100
AcDbEntity
  8
0
 62
     0
100
AcDbLine
 10
3.371079
 20
3.266508
 30
0.0
 11
3.371079
 21
3.266508
 31
0.0
  0
LINE
  5
CDB
330
18
100
AcDbEntity
  8
0
 62
     0
100
AcDbLine
 10
3.767473
 20
3.013977
 30
0.0
 11
3.767473
 21
3.013977
 31
0.0
  0
LINE
  5
CDC
330
18
100
AcDbEntity
  8
0
 62
     0
100
AcDbLine
 10
3.851812
 20
2.960247
 30
0.0
 11
3.851812
 21
2.960247
 31
0.0
  0
LINE
  5
CDD
330
18
100
AcDbEntity
  8
0
 62
     0
100
AcDbLine
 10
4.155433
 20
2.766819
 30
0.0
 11
4.155433
 21
2.766819
 31
0.0
  0
LINE
  5
CDE
330
18
100
AcDbEntity
  8
0
 62
     0
100
AcDbLine
 10
4.551826999999999
 20
2.514289
 30
0.0
 11
4.551826999999999
 21
2.514289
 31
0.0
  0
LINE
  5
CDF
330
18
100
AcDbEntity
  8
0
 62
     0
100
AcDbLine
 10
4.636166
 20
2.460559
 30
0.0
 11
4.636166
 21
2.460559
 31
0.0
  0
LINE
  5
CE0
330
18
100
AcDbEntity
  8
0
 62
     0
100
AcDbLine
 10
4.939787
 20
2.267131
 30
0.0
 11
4.939787
 21
2.267131
 31
0.0
  0
LINE
  5
CE1
330
18
100
AcDbEntity
  8
0
 62
     0
100
AcDbLine
 10
5.336181
 20
2.0146
 30
0.0
 11
5.336181
 21
2.0146
 31
0.0
  0
LINE
  5
CE2
330
18
100
AcDbEntity
  8
0
 62
     0
100
AcDbLine
 10
5.42052
 20
1.96087
 30
0.0
 11
5.42052
 21
1.96087
 31
0.0
  0
LINE
  5
CE3
330
18
100
AcDbEntity
  8
0
 62
     0
100
AcDbLine
 10
2.821593
 20
4.014486
 30
0.0
 11
2.821593
 21
4.014486
 31
0.0
  0
LINE
  5
CE4
330
18
100
AcDbEntity
  8
0
 62
     0
100
AcDbLine
 10
2.905932
 20
3.960756
 30
0.0
 11
2.905932
 21
3.960756
 31
0.0
  0
LINE
  5
CE5
330
18
100
AcDbEntity
  8
0
 62
     0
100
AcDbLine
 10
3.209553
 20
3.767328
 30
0.0
 11
3.209553
 21
3.767328
 31
0.0
  0
LINE
  5
CE6
330
18
100
AcDbEntity
  8
0
 62
     0
100
AcDbLine
 10
3.605947
 20
3.514798
 30
0.0
 11
3.605947
 21
3.514798
 31
0.0
  0
LINE
  5
CE7
330
18
100
AcDbEntity
  8
0
 62
     0
100
AcDbLine
 10
3.690286
 20
3.461068
 30
0.0
 11
3.690286
 21
3.461068
 31
0.0
  0
LINE
  5
CE8
330
18
100
AcDbEntity
  8
0
 62
     0
100
AcDbLine
 10
3.993907
 20
3.26764
 30
0.0
 11
3.993907
 21
3.26764
 31
0.0
  0
LINE
  5
CE9
330
18
100
AcDbEntity
  8
0
 62
     0
100
AcDbLine
 10
4.390301
 20
3.015109
 30
0.0
 11
4.390301
 21
3.015109
 31
0.0
  0
LINE
  5
CEA
330
18
100
AcDbEntity
  8
0
 62
     0
100
AcDbLine
 10
4.47464
 20
2.961379
 30
0.0
 11
4.47464
 21
2.961379
 31
0.0
  0
LINE
  5
CEB
330
18
100
AcDbEntity
  8
0
 62
     0
100
AcDbLine
 10
4.778261
 20
2.767951
 30
0.0
 11
4.778261
 21
2.767951
 31
0.0
  0
LINE
  5
CEC
330
18
100
AcDbEntity
  8
0
 62
     0
100
AcDbLine
 10
5.174655
 20
2.51542
 30
0.0
 11
5.174655
 21
2.51542
 31
0.0
  0
LINE
  5
CED
330
18
100
AcDbEntity
  8
0
 62
     0
100
AcDbLine
 10
5.258995
 20
2.46169
 30
0.0
 11
5.258995
 21
2.46169
 31
0.0
  0
LINE
  5
CEE
330
18
100
AcDbEntity
  8
0
 62
     0
100
AcDbLine
 10
5.562615
 20
2.268263
 30
0.0
 11
5.562615
 21
2.268263
 31
0.0
  0
LINE
  5
CEF
330
18
100
AcDbEntity
  8
0
 62
     0
100
AcDbLine
 10
3.048028
 20
4.268149
 30
0.0
 11
3.048028
 21
4.268149
 31
0.0
  0
LINE
  5
CF0
330
18
100
AcDbEntity
  8
0
 62
     0
100
AcDbLine
 10
3.444422
 20
4.015618
 30
0.0
 11
3.444422
 21
4.015618
 31
0.0
  0
LINE
  5
CF1
330
18
100
AcDbEntity
  8
0
 62
     0
100
AcDbLine
 10
4.228776
 20
3.515929
 30
0.0
 11
4.228776
 21
3.515929
 31
0.0
  0
LINE
  5
CF2
330
18
100
AcDbEntity
  8
0
 62
     0
100
AcDbLine
 10
4.313115
 20
3.462199
 30
0.0
 11
4.313115
 21
3.462199
 31
0.0
  0
LINE
  5
CF3
330
18
100
AcDbEntity
  8
0
 62
     0
100
AcDbLine
 10
4.616736
 20
3.268772
 30
0.0
 11
4.616736
 21
3.268772
 31
0.0
  0
LINE
  5
CF4
330
18
100
AcDbEntity
  8
0
 62
     0
100
AcDbLine
 10
5.01313
 20
3.016241
 30
0.0
 11
5.01313
 21
3.016241
 31
0.0
  0
LINE
  5
CF5
330
18
100
AcDbEntity
  8
0
 62
     0
100
AcDbLine
 10
5.097469
 20
2.962511
 30
0.0
 11
5.097469
 21
2.962511
 31
0.0
  0
LINE
  5
CF6
330
18
100
AcDbEntity
  8
0
 62
     0
100
AcDbLine
 10
5.40109
 20
2.769083
 30
0.0
 11
5.40109
 21
2.769083
 31
0.0
  0
LINE
  5
CF7
330
18
100
AcDbEntity
  8
0
 62
     0
100
AcDbLine
 10
5.797484
 20
2.516552
 30
0.0
 11
5.797484
 21
2.516552
 31
0.0
  0
LINE
  5
CF8
330
18
100
AcDbEntity
  8
0
 62
     0
100
AcDbLine
 10
3.832382
 20
3.76846
 30
0.0
 11
3.832382
 21
3.76846
 31
0.0
  0
LINE
  5
CF9
330
18
100
AcDbEntity
  8
0
 62
     0
100
AcDbLine
 10
5.635958000000001
 20
3.017373
 30
0.0
 11
5.635958000000001
 21
3.017373
 31
0.0
  0
LINE
  5
CFA
330
18
100
AcDbEntity
  8
0
 62
     0
100
AcDbLine
 10
5.720297
 20
2.963643
 30
0.0
 11
5.720297
 21
2.963643
 31
0.0
  0
LINE
  5
CFB
330
18
100
AcDbEntity
  8
0
 62
     0
100
AcDbLine
 10
3.30617
 20
2.512025
 30
0.0
 11
3.30617
 21
2.512025
 31
0.0
  0
LINE
  5
CFC
330
18
100
AcDbEntity
  8
0
 62
     0
100
AcDbLine
 10
3.390509
 20
2.458295
 30
0.0
 11
3.390509
 21
2.458295
 31
0.0
  0
LINE
  5
CFD
330
18
100
AcDbEntity
  8
0
 62
     0
100
AcDbLine
 10
3.69413
 20
2.264867
 30
0.0
 11
3.69413
 21
2.264867
 31
0.0
  0
LINE
  5
CFE
330
18
100
AcDbEntity
  8
0
 62
     0
100
AcDbLine
 10
4.090523999999999
 20
2.012336
 30
0.0
 11
4.090523999999999
 21
2.012336
 31
0.0
  0
LINE
  5
CFF
330
18
100
AcDbEntity
  8
0
 62
     0
100
AcDbLine
 10
4.174862999999999
 20
1.958606
 30
0.0
 11
4.174862999999999
 21
1.958606
 31
0.0
  0
LINE
  5
D00
330
18
100
AcDbEntity
  8
0
 62
     0
100
AcDbLine
 10
4.478484
 20
1.765178
 30
0.0
 11
4.478484
 21
1.765178
 31
0.0
  0
LINE
  5
D01
330
18
100
AcDbEntity
  8
0
 62
     0
100
AcDbLine
 10
3.071302
 20
2.263735
 30
0.0
 11
3.071302
 21
2.263735
 31
0.0
  0
LINE
  5
D02
330
18
100
AcDbEntity
  8
0
 62
     0
100
AcDbLine
 10
3.467696
 20
2.011204
 30
0.0
 11
3.467696
 21
2.011204
 31
0.0
  0
LINE
  5
D03
330
18
100
AcDbEntity
  8
0
 62
     0
100
AcDbLine
 10
3.552035
 20
1.957474
 30
0.0
 11
3.552035
 21
1.957474
 31
0.0
  0
LINE
  5
D04
330
18
100
AcDbEntity
  8
0
 62
     0
100
AcDbLine
 10
3.855656
 20
1.764047
 30
0.0
 11
3.855656
 21
1.764047
 31
0.0
  0
LINE
  5
D05
330
18
100
AcDbEntity
  8
0
 62
     0
100
AcDbLine
 10
4.25205
 20
1.511516
 30
0.0
 11
4.25205
 21
1.511516
 31
0.0
  0
LINE
  5
D06
330
18
100
AcDbEntity
  8
0
 62
     0
100
AcDbLine
 10
4.336389
 20
1.457786
 30
0.0
 11
4.336389
 21
1.457786
 31
0.0
  0
LINE
  5
D07
330
18
100
AcDbEntity
  8
0
 62
     0
100
AcDbLine
 10
3.232828
 20
1.762915
 30
0.0
 11
3.232828
 21
1.762915
 31
0.0
  0
LINE
  5
D08
330
18
100
AcDbEntity
  8
0
 62
     0
100
AcDbLine
 10
3.629222
 20
1.510384
 30
0.0
 11
3.629222
 21
1.510384
 31
0.0
  0
LINE
  5
D09
330
18
100
AcDbEntity
  8
0
 62
     0
100
AcDbLine
 10
3.713561
 20
1.456654
 30
0.0
 11
3.713561
 21
1.456654
 31
0.0
  0
LINE
  5
D0A
330
18
100
AcDbEntity
  8
0
 62
     0
100
AcDbLine
 10
4.017182
 20
1.263226
 30
0.0
 11
4.017182
 21
1.263226
 31
0.0
  0
LINE
  5
D0B
330
18
100
AcDbEntity
  8
0
 62
     0
100
AcDbLine
 10
3.006393
 20
1.509252
 30
0.0
 11
3.006393
 21
1.509252
 31
0.0
  0
LINE
  5
D0C
330
18
100
AcDbEntity
  8
0
 62
     0
100
AcDbLine
 10
3.090732
 20
1.455522
 30
0.0
 11
3.090732
 21
1.455522
 31
0.0
  0
LINE
  5
D0D
330
18
100
AcDbEntity
  8
0
 62
     0
100
AcDbLine
 10
3.394353
 20
1.262094
 30
0.0
 11
3.394353
 21
1.262094
 31
0.0
  0
LINE
  5
D0E
330
18
100
AcDbEntity
  8
0
 62
     0
100
AcDbLine
 10
3.167919
 20
1.008432
 30
0.0
 11
3.167919
 21
1.008432
 31
0.0
  0
LINE
  5
D0F
330
18
100
AcDbEntity
  8
0
 62
     0
100
AcDbLine
 10
3.252258
 20
0.9547020000000001
 30
0.0
 11
3.252258
 21
0.9547020000000001
 31
0.0
  0
LINE
  5
D10
330
18
100
AcDbEntity
  8
0
 62
     0
100
AcDbLine
 10
2.960962
 20
2.873014
 30
0.0
 11
2.960962
 21
2.873014
 31
0.0
  0
LINE
  5
D11
330
18
100
AcDbEntity
  8
0
 62
     0
100
AcDbLine
 10
3.134959
 20
2.713575
 30
0.0
 11
3.134959
 21
2.713575
 31
0.0
  0
LINE
  5
D12
330
18
100
AcDbEntity
  8
0
 62
     0
100
AcDbLine
 10
3.334024
 20
2.531165
 30
0.0
 11
3.334024
 21
2.531165
 31
0.0
  0
LINE
  5
D13
330
18
100
AcDbEntity
  8
0
 62
     0
100
AcDbLine
 10
3.370888
 20
2.497386
 30
0.0
 11
3.370888
 21
2.497386
 31
0.0
  0
LINE
  5
D14
330
18
100
AcDbEntity
  8
0
 62
     0
100
AcDbLine
 10
3.544885
 20
2.337947
 30
0.0
 11
3.544885
 21
2.337947
 31
0.0
  0
LINE
  5
D15
330
18
100
AcDbEntity
  8
0
 62
     0
100
AcDbLine
 10
3.74395
 20
2.155537
 30
0.0
 11
3.74395
 21
2.155537
 31
0.0
  0
LINE
  5
D16
330
18
100
AcDbEntity
  8
0
 62
     0
100
AcDbLine
 10
3.780814
 20
2.121758
 30
0.0
 11
3.780814
 21
2.121758
 31
0.0
  0
LINE
  5
D17
330
18
100
AcDbEntity
  8
0
 62
     0
100
AcDbLine
 10
3.954811
 20
1.962318
 30
0.0
 11
3.954811
 21
1.962318
 31
0.0
  0
LINE
  5
D18
330
18
100
AcDbEntity
  8
0
 62
     0
100
AcDbLine
 10
4.153876
 20
1.779909
 30
0.0
 11
4.153876
 21
1.779909
 31
0.0
  0
LINE
  5
D19
330
18
100
AcDbEntity
  8
0
 62
     0
100
AcDbLine
 10
4.19074
 20
1.74613
 30
0.0
 11
4.19074
 21
1.74613
 31
0.0
  0
LINE
  5
D1A
330
18
100
AcDbEntity
  8
0
 62
     0
100
AcDbLine
 10
4.364738
 20
1.58669
 30
0.0
 11
4.364738
 21
1.58669
 31
0.0
  0
LINE
  5
D1B
330
18
100
AcDbEntity
  8
0
 62
     0
100
AcDbLine
 10
4.563803
 20
1.404281
 30
0.0
 11
4.563803
 21
1.404281
 31
0.0
  0
LINE
  5
D1C
330
18
100
AcDbEntity
  8
0
 62
     0
100
AcDbLine
 10
2.332408
 20
4.175434
 30
0.0
 11
2.332408
 21
4.175434
 31
0.0
  0
LINE
  5
D1D
330
18
100
AcDbEntity
  8
0
 62
     0
100
AcDbLine
 10
2.506406
 20
4.015994
 30
0.0
 11
2.506406
 21
4.015994
 31
0.0
  0
LINE
  5
D1E
330
18
100
AcDbEntity
  8
0
 62
     0
100
AcDbLine
 10
2.705471
 20
3.833585
 30
0.0
 11
2.705471
 21
3.833585
 31
0.0
  0
LINE
  5
D1F
330
18
100
AcDbEntity
  8
0
 62
     0
100
AcDbLine
 10
2.742335
 20
3.799805
 30
0.0
 11
2.742335
 21
3.799805
 31
0.0
  0
LINE
  5
D20
330
18
100
AcDbEntity
  8
0
 62
     0
100
AcDbLine
 10
2.916332
 20
3.640366
 30
0.0
 11
2.916332
 21
3.640366
 31
0.0
  0
LINE
  5
D21
330
18
100
AcDbEntity
  8
0
 62
     0
100
AcDbLine
 10
3.115397
 20
3.457957
 30
0.0
 11
3.115397
 21
3.457957
 31
0.0
  0
LINE
  5
D22
330
18
100
AcDbEntity
  8
0
 62
     0
100
AcDbLine
 10
3.152261
 20
3.424177
 30
0.0
 11
3.152261
 21
3.424177
 31
0.0
  0
LINE
  5
D23
330
18
100
AcDbEntity
  8
0
 62
     0
100
AcDbLine
 10
3.326258
 20
3.264738
 30
0.0
 11
3.326258
 21
3.264738
 31
0.0
  0
LINE
  5
D24
330
18
100
AcDbEntity
  8
0
 62
     0
100
AcDbLine
 10
3.525323
 20
3.082329
 30
0.0
 11
3.525323
 21
3.082329
 31
0.0
  0
LINE
  5
D25
330
18
100
AcDbEntity
  8
0
 62
     0
100
AcDbLine
 10
3.562187
 20
3.048549
 30
0.0
 11
3.562187
 21
3.048549
 31
0.0
  0
LINE
  5
D26
330
18
100
AcDbEntity
  8
0
 62
     0
100
AcDbLine
 10
3.736184
 20
2.88911
 30
0.0
 11
3.736184
 21
2.88911
 31
0.0
  0
LINE
  5
D27
330
18
100
AcDbEntity
  8
0
 62
     0
100
AcDbLine
 10
3.935249
 20
2.7067
 30
0.0
 11
3.935249
 21
2.7067
 31
0.0
  0
LINE
  5
D28
330
18
100
AcDbEntity
  8
0
 62
     0
100
AcDbLine
 10
3.972113
 20
2.672921
 30
0.0
 11
3.972113
 21
2.672921
 31
0.0
  0
LINE
  5
D29
330
18
100
AcDbEntity
  8
0
 62
     0
100
AcDbLine
 10
4.146111
 20
2.513482
 30
0.0
 11
4.146111
 21
2.513482
 31
0.0
  0
LINE
  5
D2A
330
18
100
AcDbEntity
  8
0
 62
     0
100
AcDbLine
 10
4.345175
 20
2.331072
 30
0.0
 11
4.345175
 21
2.331072
 31
0.0
  0
LINE
  5
D2B
330
18
100
AcDbEntity
  8
0
 62
     0
100
AcDbLine
 10
4.382039
 20
2.297293
 30
0.0
 11
4.382039
 21
2.297293
 31
0.0
  0
LINE
  5
D2C
330
18
100
AcDbEntity
  8
0
 62
     0
100
AcDbLine
 10
4.556037
 20
2.137854
 30
0.0
 11
4.556037
 21
2.137854
 31
0.0
  0
LINE
  5
D2D
330
18
100
AcDbEntity
  8
0
 62
     0
100
AcDbLine
 10
4.755102
 20
1.955444
 30
0.0
 11
4.755102
 21
1.955444
 31
0.0
  0
LINE
  5
D2E
330
18
100
AcDbEntity
  8
0
 62
     0
100
AcDbLine
 10
4.791966
 20
1.921665
 30
0.0
 11
4.791966
 21
1.921665
 31
0.0
  0
LINE
  5
D2F
330
18
100
AcDbEntity
  8
0
 62
     0
100
AcDbLine
 10
4.965963
 20
1.762225
 30
0.0
 11
4.965963
 21
1.762225
 31
0.0
  0
LINE
  5
D30
330
18
100
AcDbEntity
  8
0
 62
     0
100
AcDbLine
 10
2.89677
 20
4.384748
 30
0.0
 11
2.89677
 21
4.384748
 31
0.0
  0
LINE
  5
D31
330
18
100
AcDbEntity
  8
0
 62
     0
100
AcDbLine
 10
2.933634
 20
4.350969
 30
0.0
 11
2.933634
 21
4.350969
 31
0.0
  0
LINE
  5
D32
330
18
100
AcDbEntity
  8
0
 62
     0
100
AcDbLine
 10
3.107631
 20
4.191529
 30
0.0
 11
3.107631
 21
4.191529
 31
0.0
  0
LINE
  5
D33
330
18
100
AcDbEntity
  8
0
 62
     0
100
AcDbLine
 10
3.306696
 20
4.009119999999999
 30
0.0
 11
3.306696
 21
4.009119999999999
 31
0.0
  0
LINE
  5
D34
330
18
100
AcDbEntity
  8
0
 62
     0
100
AcDbLine
 10
3.34356
 20
3.975341
 30
0.0
 11
3.34356
 21
3.975341
 31
0.0
  0
LINE
  5
D35
330
18
100
AcDbEntity
  8
0
 62
     0
100
AcDbLine
 10
3.927484
 20
3.440273
 30
0.0
 11
3.927484
 21
3.440273
 31
0.0
  0
LINE
  5
D36
330
18
100
AcDbEntity
  8
0
 62
     0
100
AcDbLine
 10
4.126548000000001
 20
3.257864
 30
0.0
 11
4.126548000000001
 21
3.257864
 31
0.0
  0
LINE
  5
D37
330
18
100
AcDbEntity
  8
0
 62
     0
100
AcDbLine
 10
4.163412
 20
3.224084
 30
0.0
 11
4.163412
 21
3.224084
 31
0.0
  0
LINE
  5
D38
330
18
100
AcDbEntity
  8
0
 62
     0
100
AcDbLine
 10
4.33741
 20
3.064645
 30
0.0
 11
4.33741
 21
3.064645
 31
0.0
  0
LINE
  5
D39
330
18
100
AcDbEntity
  8
0
 62
     0
100
AcDbLine
 10
4.536475
 20
2.882236
 30
0.0
 11
4.536475
 21
2.882236
 31
0.0
  0
LINE
  5
D3A
330
18
100
AcDbEntity
  8
0
 62
     0
100
AcDbLine
 10
4.573338
 20
2.848456
 30
0.0
 11
4.573338
 21
2.848456
 31
0.0
  0
LINE
  5
D3B
330
18
100
AcDbEntity
  8
0
 62
     0
100
AcDbLine
 10
4.747336
 20
2.689017
 30
0.0
 11
4.747336
 21
2.689017
 31
0.0
  0
LINE
  5
D3C
330
18
100
AcDbEntity
  8
0
 62
     0
100
AcDbLine
 10
4.946401
 20
2.506607
 30
0.0
 11
4.946401
 21
2.506607
 31
0.0
  0
LINE
  5
D3D
330
18
100
AcDbEntity
  8
0
 62
     0
100
AcDbLine
 10
4.983265
 20
2.472828
 30
0.0
 11
4.983265
 21
2.472828
 31
0.0
  0
LINE
  5
D3E
330
18
100
AcDbEntity
  8
0
 62
     0
100
AcDbLine
 10
5.157262
 20
2.313389
 30
0.0
 11
5.157262
 21
2.313389
 31
0.0
  0
LINE
  5
D3F
330
18
100
AcDbEntity
  8
0
 62
     0
100
AcDbLine
 10
5.356326999999999
 20
2.130979
 30
0.0
 11
5.356326999999999
 21
2.130979
 31
0.0
  0
LINE
  5
D40
330
18
100
AcDbEntity
  8
0
 62
     0
100
AcDbLine
 10
5.393191000000001
 20
2.0972
 30
0.0
 11
5.393191000000001
 21
2.0972
 31
0.0
  0
LINE
  5
D41
330
18
100
AcDbEntity
  8
0
 62
     0
100
AcDbLine
 10
4.528708999999999
 20
3.615808
 30
0.0
 11
4.528708999999999
 21
3.615808
 31
0.0
  0
LINE
  5
D42
330
18
100
AcDbEntity
  8
0
 62
     0
100
AcDbLine
 10
4.727774
 20
3.433399
 30
0.0
 11
4.727774
 21
3.433399
 31
0.0
  0
LINE
  5
D43
330
18
100
AcDbEntity
  8
0
 62
     0
100
AcDbLine
 10
4.764638
 20
3.399619
 30
0.0
 11
4.764638
 21
3.399619
 31
0.0
  0
LINE
  5
D44
330
18
100
AcDbEntity
  8
0
 62
     0
100
AcDbLine
 10
4.938635
 20
3.24018
 30
0.0
 11
4.938635
 21
3.24018
 31
0.0
  0
LINE
  5
D45
330
18
100
AcDbEntity
  8
0
 62
     0
100
AcDbLine
 10
5.1377
 20
3.057771
 30
0.0
 11
5.1377
 21
3.057771
 31
0.0
  0
LINE
  5
D46
330
18
100
AcDbEntity
  8
0
 62
     0
100
AcDbLine
 10
5.174564
 20
3.023991
 30
0.0
 11
5.174564
 21
3.023991
 31
0.0
  0
LINE
  5
D47
330
18
100
AcDbEntity
  8
0
 62
     0
100
AcDbLine
 10
5.348561
 20
2.864552
 30
0.0
 11
5.348561
 21
2.864552
 31
0.0
  0
LINE
  5
D48
330
18
100
AcDbEntity
  8
0
 62
     0
100
AcDbLine
 10
5.547626
 20
2.682143
 30
0.0
 11
5.547626
 21
2.682143
 31
0.0
  0
LINE
  5
D49
330
18
100
AcDbEntity
  8
0
 62
     0
100
AcDbLine
 10
5.58449
 20
2.648363
 30
0.0
 11
5.58449
 21
2.648363
 31
0.0
  0
LINE
  5
D4A
330
18
100
AcDbEntity
  8
0
 62
     0
100
AcDbLine
 10
5.758487000000001
 20
2.488924
 30
0.0
 11
5.758487000000001
 21
2.488924
 31
0.0
  0
LINE
  5
D4B
330
18
100
AcDbEntity
  8
0
 62
     0
100
AcDbLine
 10
3.142725
 20
1.980002
 30
0.0
 11
3.142725
 21
1.980002
 31
0.0
  0
LINE
  5
D4C
330
18
100
AcDbEntity
  8
0
 62
     0
100
AcDbLine
 10
3.179589
 20
1.946223
 30
0.0
 11
3.179589
 21
1.946223
 31
0.0
  0
LINE
  5
D4D
330
18
100
AcDbEntity
  8
0
 62
     0
100
AcDbLine
 10
3.353586
 20
1.786783
 30
0.0
 11
3.353586
 21
1.786783
 31
0.0
  0
LINE
  5
D4E
330
18
100
AcDbEntity
  8
0
 62
     0
100
AcDbLine
 10
3.552651
 20
1.604374
 30
0.0
 11
3.552651
 21
1.604374
 31
0.0
  0
LINE
  5
D4F
330
18
100
AcDbEntity
  8
0
 62
     0
100
AcDbLine
 10
3.589515
 20
1.570594
 30
0.0
 11
3.589515
 21
1.570594
 31
0.0
  0
LINE
  5
D50
330
18
100
AcDbEntity
  8
0
 62
     0
100
AcDbLine
 10
3.763512
 20
1.411155
 30
0.0
 11
3.763512
 21
1.411155
 31
0.0
  0
LINE
  5
D51
330
18
100
AcDbEntity
  8
0
 62
     0
100
AcDbLine
 10
3.962577
 20
1.228746
 30
0.0
 11
3.962577
 21
1.228746
 31
0.0
  0
LINE
  5
D52
330
18
100
AcDbEntity
  8
0
 62
     0
100
AcDbLine
 10
2.98829
 20
1.395059
 30
0.0
 11
2.98829
 21
1.395059
 31
0.0
  0
LINE
  5
D53
330
18
100
AcDbEntity
  8
0
 62
     0
100
AcDbLine
 10
3.162287
 20
1.23562
 30
0.0
 11
3.162287
 21
1.23562
 31
0.0
  0
LINE
  5
D54
330
18
100
AcDbEntity
  8
0
 62
     0
100
AcDbLine
 10
3.361352
 20
1.053211
 30
0.0
 11
3.361352
 21
1.053211
 31
0.0
  0
LINE
  5
D55
330
18
100
AcDbEntity
  8
0
 62
     0
100
AcDbLine
 10
3.398216000000001
 20
1.019431
 30
0.0
 11
3.398216000000001
 21
1.019431
 31
0.0
  0
LINE
  5
D56
330
18
100
AcDbEntity
  8
0
 62
     0
100
AcDbLine
 10
2.970988
 20
0.684457
 30
0.0
 11
2.970988
 21
0.684457
 31
0.0
  0
LINE
  5
D57
330
18
100
AcDbEntity
  8
0
 62
     0
100
AcDbLine
 10
6.021155
 20
4.620195
 30
0.0
 11
6.021155
 21
4.620195
 31
0.0
  0
LINE
  5
D58
330
18
100
AcDbEntity
  8
0
 62
     0
100
AcDbLine
 10
6.150075
 20
4.719119
 30
0.0
 11
6.150075
 21
4.719119
 31
0.0
  0
LINE
  5
D59
330
18
100
AcDbEntity
  8
0
 62
     0
100
AcDbLine
 10
6.270665
 20
4.81165
 30
0.0
 11
6.270665
 21
4.81165
 31
0.0
  0
LINE
  5
D5A
330
18
100
AcDbEntity
  8
0
 62
     0
100
AcDbLine
 10
6.405535
 20
4.91514
 30
0.0
 11
6.405535
 21
4.91514
 31
0.0
  0
LINE
  5
D5B
330
18
100
AcDbEntity
  8
0
 62
     0
100
AcDbLine
 10
5.759396
 20
4.616855999999999
 30
0.0
 11
5.759396
 21
4.616855999999999
 31
0.0
  0
LINE
  5
D5C
330
18
100
AcDbEntity
  8
0
 62
     0
100
AcDbLine
 10
5.879986
 20
4.709388
 30
0.0
 11
5.879986
 21
4.709388
 31
0.0
  0
LINE
  5
D5D
330
18
100
AcDbEntity
  8
0
 62
     0
100
AcDbLine
 10
6.014856
 20
4.812876999999999
 30
0.0
 11
6.014856
 21
4.812876999999999
 31
0.0
  0
LINE
  5
D5E
330
18
100
AcDbEntity
  8
0
 62
     0
100
AcDbLine
 10
6.143776
 20
4.911801000000001
 30
0.0
 11
6.143776
 21
4.911801000000001
 31
0.0
  0
LINE
  5
D5F
330
18
100
AcDbEntity
  8
0
 62
     0
100
AcDbLine
 10
6.264365
 20
5.004333
 30
0.0
 11
6.264365
 21
5.004333
 31
0.0
  0
LINE
  5
D60
330
18
100
AcDbEntity
  8
0
 62
     0
100
AcDbLine
 10
5.624177
 20
4.710615
 30
0.0
 11
5.624177
 21
4.710615
 31
0.0
  0
LINE
  5
D61
330
18
100
AcDbEntity
  8
0
 62
     0
100
AcDbLine
 10
5.753097
 20
4.809538
 30
0.0
 11
5.753097
 21
4.809538
 31
0.0
  0
LINE
  5
D62
330
18
100
AcDbEntity
  8
0
 62
     0
100
AcDbLine
 10
5.873686
 20
4.90207
 30
0.0
 11
5.873686
 21
4.90207
 31
0.0
  0
LINE
  5
D63
330
18
100
AcDbEntity
  8
0
 62
     0
100
AcDbLine
 10
6.008557
 20
5.00556
 30
0.0
 11
6.008557
 21
5.00556
 31
0.0
  0
LINE
  5
D64
330
18
100
AcDbEntity
  8
0
 62
     0
100
AcDbLine
 10
5.483007
 20
4.799808000000001
 30
0.0
 11
5.483007
 21
4.799808000000001
 31
0.0
  0
LINE
  5
D65
330
18
100
AcDbEntity
  8
0
 62
     0
100
AcDbLine
 10
5.617877
 20
4.903297
 30
0.0
 11
5.617877
 21
4.903297
 31
0.0
  0
LINE
  5
D66
330
18
100
AcDbEntity
  8
0
 62
     0
100
AcDbLine
 10
5.356118
 20
4.899958
 30
0.0
 11
5.356118
 21
4.899958
 31
0.0
  0
LINE
  5
D67
330
18
100
AcDbEntity
  8
0
 62
     0
100
AcDbLine
 10
6.156374
 20
4.526436
 30
0.0
 11
6.156374
 21
4.526436
 31
0.0
  0
LINE
  5
D68
330
18
100
AcDbEntity
  8
0
 62
     0
100
AcDbLine
 10
6.276964
 20
4.618968
 30
0.0
 11
6.276964
 21
4.618968
 31
0.0
  0
LINE
  5
D69
330
18
100
AcDbEntity
  8
0
 62
     0
100
AcDbLine
 10
6.411834
 20
4.722457
 30
0.0
 11
6.411834
 21
4.722457
 31
0.0
  0
LINE
  5
D6A
330
18
100
AcDbEntity
  8
0
 62
     0
100
AcDbLine
 10
6.540754
 20
4.821381
 30
0.0
 11
6.540754
 21
4.821381
 31
0.0
  0
LINE
  5
D6B
330
18
100
AcDbEntity
  8
0
 62
     0
100
AcDbLine
 10
6.283263
 20
4.426286
 30
0.0
 11
6.283263
 21
4.426286
 31
0.0
  0
LINE
  5
D6C
330
18
100
AcDbEntity
  8
0
 62
     0
100
AcDbLine
 10
6.418133999999999
 20
4.529775
 30
0.0
 11
6.418133999999999
 21
4.529775
 31
0.0
  0
LINE
  5
D6D
330
18
100
AcDbEntity
  8
0
 62
     0
100
AcDbLine
 10
6.547053
 20
4.628699
 30
0.0
 11
6.547053
 21
4.628699
 31
0.0
  0
LINE
  5
D6E
330
18
100
AcDbEntity
  8
0
 62
     0
100
AcDbLine
 10
6.424433000000001
 20
4.337093
 30
0.0
 11
6.424433000000001
 21
4.337093
 31
0.0
  0
LINE
  5
D6F
330
18
100
AcDbEntity
  8
0
 62
     0
100
AcDbLine
 10
5.832742
 20
4.651621
 30
0.0
 11
5.832742
 21
4.651621
 31
0.0
  0
LINE
  5
D70
330
18
100
AcDbEntity
  8
0
 62
     0
100
AcDbLine
 10
5.884792
 20
4.658473000000001
 30
0.0
 11
5.884792
 21
4.658473000000001
 31
0.0
  0
LINE
  5
D71
330
18
100
AcDbEntity
  8
0
 62
     0
100
AcDbLine
 10
5.966091000000001
 20
4.669177
 30
0.0
 11
5.966091000000001
 21
4.669177
 31
0.0
  0
LINE
  5
D72
330
18
100
AcDbEntity
  8
0
 62
     0
100
AcDbLine
 10
6.101919000000001
 20
4.687059
 30
0.0
 11
6.101919000000001
 21
4.687059
 31
0.0
  0
LINE
  5
D73
330
18
100
AcDbEntity
  8
0
 62
     0
100
AcDbLine
 10
6.153969999999999
 20
4.693911
 30
0.0
 11
6.153969999999999
 21
4.693911
 31
0.0
  0
LINE
  5
D74
330
18
100
AcDbEntity
  8
0
 62
     0
100
AcDbLine
 10
6.235268
 20
4.704614
 30
0.0
 11
6.235268
 21
4.704614
 31
0.0
  0
LINE
  5
D75
330
18
100
AcDbEntity
  8
0
 62
     0
100
AcDbLine
 10
6.371096
 20
4.722497
 30
0.0
 11
6.371096
 21
4.722497
 31
0.0
  0
LINE
  5
D76
330
18
100
AcDbEntity
  8
0
 62
     0
100
AcDbLine
 10
6.423147
 20
4.729349
 30
0.0
 11
6.423147
 21
4.729349
 31
0.0
  0
LINE
  5
D77
330
18
100
AcDbEntity
  8
0
 62
     0
100
AcDbLine
 10
6.504445
 20
4.740052
 30
0.0
 11
6.504445
 21
4.740052
 31
0.0
  0
LINE
  5
D78
330
18
100
AcDbEntity
  8
0
 62
     0
100
AcDbLine
 10
6.640273
 20
4.757934
 30
0.0
 11
6.640273
 21
4.757934
 31
0.0
  0
LINE
  5
D79
330
18
100
AcDbEntity
  8
0
 62
     0
100
AcDbLine
 10
5.335537
 20
4.845078
 30
0.0
 11
5.335537
 21
4.845078
 31
0.0
  0
LINE
  5
D7A
330
18
100
AcDbEntity
  8
0
 62
     0
100
AcDbLine
 10
5.471365000000001
 20
4.86296
 30
0.0
 11
5.471365000000001
 21
4.86296
 31
0.0
  0
LINE
  5
D7B
330
18
100
AcDbEntity
  8
0
 62
     0
100
AcDbLine
 10
5.523416
 20
4.869812000000001
 30
0.0
 11
5.523416
 21
4.869812000000001
 31
0.0
  0
LINE
  5
D7C
330
18
100
AcDbEntity
  8
0
 62
     0
100
AcDbLine
 10
5.604714
 20
4.880515
 30
0.0
 11
5.604714
 21
4.880515
 31
0.0
  0
LINE
  5
D7D
330
18
100
AcDbEntity
  8
0
 62
     0
100
AcDbLine
 10
5.740542
 20
4.898398
 30
0.0
 11
5.740542
 21
4.898398
 31
0.0
  0
LINE
  5
D7E
330
18
100
AcDbEntity
  8
0
 62
     0
100
AcDbLine
 10
5.792593
 20
4.90525
 30
0.0
 11
5.792593
 21
4.90525
 31
0.0
  0
LINE
  5
D7F
330
18
100
AcDbEntity
  8
0
 62
     0
100
AcDbLine
 10
5.873891
 20
4.915953
 30
0.0
 11
5.873891
 21
4.915953
 31
0.0
  0
LINE
  5
D80
330
18
100
AcDbEntity
  8
0
 62
     0
100
AcDbLine
 10
6.009719000000001
 20
4.933835
 30
0.0
 11
6.009719000000001
 21
4.933835
 31
0.0
  0
LINE
  5
D81
330
18
100
AcDbEntity
  8
0
 62
     0
100
AcDbLine
 10
6.06177
 20
4.940688
 30
0.0
 11
6.06177
 21
4.940688
 31
0.0
  0
LINE
  5
D82
330
18
100
AcDbEntity
  8
0
 62
     0
100
AcDbLine
 10
6.143069000000001
 20
4.951391
 30
0.0
 11
6.143069000000001
 21
4.951391
 31
0.0
  0
LINE
  5
D83
330
18
100
AcDbEntity
  8
0
 62
     0
100
AcDbLine
 10
6.278897
 20
4.969273
 30
0.0
 11
6.278897
 21
4.969273
 31
0.0
  0
LINE
  5
D84
330
18
100
AcDbEntity
  8
0
 62
     0
100
AcDbLine
 10
6.330947
 20
4.976126
 30
0.0
 11
6.330947
 21
4.976126
 31
0.0
  0
LINE
  5
D85
330
18
100
AcDbEntity
  8
0
 62
     0
100
AcDbLine
 10
6.412246
 20
4.986829
 30
0.0
 11
6.412246
 21
4.986829
 31
0.0
  0
LINE
  5
D86
330
18
100
AcDbEntity
  8
0
 62
     0
100
AcDbLine
 10
6.194118000000001
 20
4.440282
 30
0.0
 11
6.194118000000001
 21
4.440282
 31
0.0
  0
LINE
  5
D87
330
18
100
AcDbEntity
  8
0
 62
     0
100
AcDbLine
 10
6.246169
 20
4.447135
 30
0.0
 11
6.246169
 21
4.447135
 31
0.0
  0
LINE
  5
D88
330
18
100
AcDbEntity
  8
0
 62
     0
100
AcDbLine
 10
6.327468
 20
4.457838
 30
0.0
 11
6.327468
 21
4.457838
 31
0.0
  0
LINE
  5
D89
330
18
100
AcDbEntity
  8
0
 62
     0
100
AcDbLine
 10
6.463296
 20
4.47572
 30
0.0
 11
6.463296
 21
4.47572
 31
0.0
  0
LINE
  5
D8A
330
18
100
AcDbEntity
  8
0
 62
     0
100
AcDbLine
 10
6.515347
 20
4.482572
 30
0.0
 11
6.515347
 21
4.482572
 31
0.0
  0
LINE
  5
D8B
330
18
100
AcDbEntity
  8
0
 62
     0
100
AcDbLine
 10
5.306835
 20
4.897075
 30
0.0
 11
5.306835
 21
4.897075
 31
0.0
  0
LINE
  5
D8C
330
18
100
AcDbEntity
  8
0
 62
     0
100
AcDbLine
 10
5.505032
 20
4.77081
 30
0.0
 11
5.505032
 21
4.77081
 31
0.0
  0
LINE
  5
D8D
330
18
100
AcDbEntity
  8
0
 62
     0
100
AcDbLine
 10
5.547202
 20
4.743945
 30
0.0
 11
5.547202
 21
4.743945
 31
0.0
  0
LINE
  5
D8E
330
18
100
AcDbEntity
  8
0
 62
     0
100
AcDbLine
 10
5.699012000000001
 20
4.647231
 30
0.0
 11
5.699012000000001
 21
4.647231
 31
0.0
  0
LINE
  5
D8F
330
18
100
AcDbEntity
  8
0
 62
     0
100
AcDbLine
 10
5.61825
 20
4.897641
 30
0.0
 11
5.61825
 21
4.897641
 31
0.0
  0
LINE
  5
D90
330
18
100
AcDbEntity
  8
0
 62
     0
100
AcDbLine
 10
5.816447
 20
4.771376
 30
0.0
 11
5.816447
 21
4.771376
 31
0.0
  0
LINE
  5
D91
330
18
100
AcDbEntity
  8
0
 62
     0
100
AcDbLine
 10
5.858616000000001
 20
4.744511
 30
0.0
 11
5.858616000000001
 21
4.744511
 31
0.0
  0
LINE
  5
D92
330
18
100
AcDbEntity
  8
0
 62
     0
100
AcDbLine
 10
6.010427
 20
4.647797
 30
0.0
 11
6.010427
 21
4.647797
 31
0.0
  0
LINE
  5
D93
330
18
100
AcDbEntity
  8
0
 62
     0
100
AcDbLine
 10
6.208624
 20
4.521532
 30
0.0
 11
6.208624
 21
4.521532
 31
0.0
  0
LINE
  5
D94
330
18
100
AcDbEntity
  8
0
 62
     0
100
AcDbLine
 10
6.250793
 20
4.494667
 30
0.0
 11
6.250793
 21
4.494667
 31
0.0
  0
LINE
  5
D95
330
18
100
AcDbEntity
  8
0
 62
     0
100
AcDbLine
 10
6.402604
 20
4.397953
 30
0.0
 11
6.402604
 21
4.397953
 31
0.0
  0
LINE
  5
D96
330
18
100
AcDbEntity
  8
0
 62
     0
100
AcDbLine
 10
5.777853
 20
4.994921
 30
0.0
 11
5.777853
 21
4.994921
 31
0.0
  0
LINE
  5
D97
330
18
100
AcDbEntity
  8
0
 62
     0
100
AcDbLine
 10
5.929664
 20
4.898207
 30
0.0
 11
5.929664
 21
4.898207
 31
0.0
  0
LINE
  5
D98
330
18
100
AcDbEntity
  8
0
 62
     0
100
AcDbLine
 10
6.127861
 20
4.771942
 30
0.0
 11
6.127861
 21
4.771942
 31
0.0
  0
LINE
  5
D99
330
18
100
AcDbEntity
  8
0
 62
     0
100
AcDbLine
 10
6.170030000000001
 20
4.745076999999999
 30
0.0
 11
6.170030000000001
 21
4.745076999999999
 31
0.0
  0
LINE
  5
D9A
330
18
100
AcDbEntity
  8
0
 62
     0
100
AcDbLine
 10
6.321841
 20
4.648363
 30
0.0
 11
6.321841
 21
4.648363
 31
0.0
  0
LINE
  5
D9B
330
18
100
AcDbEntity
  8
0
 62
     0
100
AcDbLine
 10
6.520038
 20
4.522098000000001
 30
0.0
 11
6.520038
 21
4.522098000000001
 31
0.0
  0
LINE
  5
D9C
330
18
100
AcDbEntity
  8
0
 62
     0
100
AcDbLine
 10
6.562207000000001
 20
4.495233
 30
0.0
 11
6.562207000000001
 21
4.495233
 31
0.0
  0
LINE
  5
D9D
330
18
100
AcDbEntity
  8
0
 62
     0
100
AcDbLine
 10
6.047098
 20
5.022352
 30
0.0
 11
6.047098
 21
5.022352
 31
0.0
  0
LINE
  5
D9E
330
18
100
AcDbEntity
  8
0
 62
     0
100
AcDbLine
 10
6.089268
 20
4.995487000000001
 30
0.0
 11
6.089268
 21
4.995487000000001
 31
0.0
  0
LINE
  5
D9F
330
18
100
AcDbEntity
  8
0
 62
     0
100
AcDbLine
 10
6.241078
 20
4.898773
 30
0.0
 11
6.241078
 21
4.898773
 31
0.0
  0
LINE
  5
DA0
330
18
100
AcDbEntity
  8
0
 62
     0
100
AcDbLine
 10
6.439275
 20
4.772508
 30
0.0
 11
6.439275
 21
4.772508
 31
0.0
  0
LINE
  5
DA1
330
18
100
AcDbEntity
  8
0
 62
     0
100
AcDbLine
 10
6.481445
 20
4.745643
 30
0.0
 11
6.481445
 21
4.745643
 31
0.0
  0
LINE
  5
DA2
330
18
100
AcDbEntity
  8
0
 62
     0
100
AcDbLine
 10
6.633255
 20
4.648929
 30
0.0
 11
6.633255
 21
4.648929
 31
0.0
  0
LINE
  5
DA3
330
18
100
AcDbEntity
  8
0
 62
     0
100
AcDbLine
 10
6.358512
 20
5.022918
 30
0.0
 11
6.358512
 21
5.022918
 31
0.0
  0
LINE
  5
DA4
330
18
100
AcDbEntity
  8
0
 62
     0
100
AcDbLine
 10
6.400682
 20
4.996053
 30
0.0
 11
6.400682
 21
4.996053
 31
0.0
  0
LINE
  5
DA5
330
18
100
AcDbEntity
  8
0
 62
     0
100
AcDbLine
 10
6.552492
 20
4.899339
 30
0.0
 11
6.552492
 21
4.899339
 31
0.0
  0
LINE
  5
DA6
330
18
100
AcDbEntity
  8
0
 62
     0
100
AcDbLine
 10
5.629633999999999
 20
4.899075
 30
0.0
 11
5.629633999999999
 21
4.899075
 31
0.0
  0
LINE
  5
DA7
330
18
100
AcDbEntity
  8
0
 62
     0
100
AcDbLine
 10
5.648066
 20
4.882185
 30
0.0
 11
5.648066
 21
4.882185
 31
0.0
  0
LINE
  5
DA8
330
18
100
AcDbEntity
  8
0
 62
     0
100
AcDbLine
 10
5.735065000000001
 20
4.802465
 30
0.0
 11
5.735065000000001
 21
4.802465
 31
0.0
  0
LINE
  5
DA9
330
18
100
AcDbEntity
  8
0
 62
     0
100
AcDbLine
 10
5.834597000000001
 20
4.711261
 30
0.0
 11
5.834597000000001
 21
4.711261
 31
0.0
  0
LINE
  5
DAA
330
18
100
AcDbEntity
  8
0
 62
     0
100
AcDbLine
 10
5.853029
 20
4.694371
 30
0.0
 11
5.853029
 21
4.694371
 31
0.0
  0
LINE
  5
DAB
330
18
100
AcDbEntity
  8
0
 62
     0
100
AcDbLine
 10
5.940028
 20
4.614651
 30
0.0
 11
5.940028
 21
4.614651
 31
0.0
  0
LINE
  5
DAC
330
18
100
AcDbEntity
  8
0
 62
     0
100
AcDbLine
 10
6.03956
 20
4.523446
 30
0.0
 11
6.03956
 21
4.523446
 31
0.0
  0
LINE
  5
DAD
330
18
100
AcDbEntity
  8
0
 62
     0
100
AcDbLine
 10
6.057992
 20
4.506557
 30
0.0
 11
6.057992
 21
4.506557
 31
0.0
  0
LINE
  5
DAE
330
18
100
AcDbEntity
  8
0
 62
     0
100
AcDbLine
 10
6.144991
 20
4.426837
 30
0.0
 11
6.144991
 21
4.426837
 31
0.0
  0
LINE
  5
DAF
330
18
100
AcDbEntity
  8
0
 62
     0
100
AcDbLine
 10
5.930247000000001
 20
4.986842
 30
0.0
 11
5.930247000000001
 21
4.986842
 31
0.0
  0
LINE
  5
DB0
330
18
100
AcDbEntity
  8
0
 62
     0
100
AcDbLine
 10
5.948679
 20
4.969951999999999
 30
0.0
 11
5.948679
 21
4.969951999999999
 31
0.0
  0
LINE
  5
DB1
330
18
100
AcDbEntity
  8
0
 62
     0
100
AcDbLine
 10
6.035678
 20
4.890233
 30
0.0
 11
6.035678
 21
4.890233
 31
0.0
  0
LINE
  5
DB2
330
18
100
AcDbEntity
  8
0
 62
     0
100
AcDbLine
 10
6.13521
 20
4.799028
 30
0.0
 11
6.13521
 21
4.799028
 31
0.0
  0
LINE
  5
DB3
330
18
100
AcDbEntity
  8
0
 62
     0
100
AcDbLine
 10
6.153642
 20
4.782138
 30
0.0
 11
6.153642
 21
4.782138
 31
0.0
  0
LINE
  5
DB4
330
18
100
AcDbEntity
  8
0
 62
     0
100
AcDbLine
 10
6.240641
 20
4.702419
 30
0.0
 11
6.240641
 21
4.702419
 31
0.0
  0
LINE
  5
DB5
330
18
100
AcDbEntity
  8
0
 62
     0
100
AcDbLine
 10
6.340173
 20
4.611214
 30
0.0
 11
6.340173
 21
4.611214
 31
0.0
  0
LINE
  5
DB6
330
18
100
AcDbEntity
  8
0
 62
     0
100
AcDbLine
 10
6.358605000000001
 20
4.594323999999999
 30
0.0
 11
6.358605000000001
 21
4.594323999999999
 31
0.0
  0
LINE
  5
DB7
330
18
100
AcDbEntity
  8
0
 62
     0
100
AcDbLine
 10
6.445604
 20
4.514605
 30
0.0
 11
6.445604
 21
4.514605
 31
0.0
  0
LINE
  5
DB8
330
18
100
AcDbEntity
  8
0
 62
     0
100
AcDbLine
 10
6.23086
 20
5.07461
 30
0.0
 11
6.23086
 21
5.07461
 31
0.0
  0
LINE
  5
DB9
330
18
100
AcDbEntity
  8
0
 62
     0
100
AcDbLine
 10
6.249291
 20
5.05772
 30
0.0
 11
6.249291
 21
5.05772
 31
0.0
  0
LINE
  5
DBA
330
18
100
AcDbEntity
  8
0
 62
     0
100
AcDbLine
 10
6.33629
 20
4.978
 30
0.0
 11
6.33629
 21
4.978
 31
0.0
  0
LINE
  5
DBB
330
18
100
AcDbEntity
  8
0
 62
     0
100
AcDbLine
 10
6.435823
 20
4.886796
 30
0.0
 11
6.435823
 21
4.886796
 31
0.0
  0
LINE
  5
DBC
330
18
100
AcDbEntity
  8
0
 62
     0
100
AcDbLine
 10
6.454255
 20
4.869905999999999
 30
0.0
 11
6.454255
 21
4.869905999999999
 31
0.0
  0
LINE
  5
DBD
330
18
100
AcDbEntity
  8
0
 62
     0
100
AcDbLine
 10
6.541253
 20
4.790186
 30
0.0
 11
6.541253
 21
4.790186
 31
0.0
  0
LINE
  5
DBE
330
18
100
AcDbEntity
  8
0
 62
     0
100
AcDbLine
 10
6.640786
 20
4.698982
 30
0.0
 11
6.640786
 21
4.698982
 31
0.0
  0
ENDSEC
  0
SECTION
  2
OBJECTS
  0
DICTIONARY
  5
C
330
0
100
AcDbDictionary
281
     1
  3
ACAD_COLOR
350
DC4
  3
ACAD_GROUP
350
D
  3
ACAD_LAYOUT
350
15
  3
ACAD_MATERIAL
350
DC6
  3
ACAD_MLINESTYLE
350
12
  3
ACAD_PLOTSETTINGS
350
14
  3
ACAD_PLOTSTYLENAME
350
E
  3
ACDBHEADERROUNDTRIPXREC
350
DC3
  0
DICTIONARY
  5
DC4
102
{ACAD_REACTORS
330
C
102
}
330
C
100
AcDbDictionary
281
     1
  0
DICTIONARY
  5
D
102
{ACAD_REACTORS
330
C
102
}
330
C
100
AcDbDictionary
281
     1
  0
DICTIONARY
  5
15
102
{ACAD_REACTORS
330
C
102
}
330
C
100
AcDbDictionary
281
     1
  3
Layout1
350
17
  3
Model
350
19
  0
DICTIONARY
  5
DC6
102
{ACAD_REACTORS
330
C
102
}
330
C
100
AcDbDictionary
281
     1
  0
DICTIONARY
  5
12
102
{ACAD_REACTORS
330
C
102
}
330
C
100
AcDbDictionary
281
     1
  3
Standard
350
13
  0
DICTIONARY
  5
14
102
{ACAD_REACTORS
330
C
102
}
330
C
100
AcDbDictionary
281
     1
  0
ACDBDICTIONARYWDFLT
  5
E
102
{ACAD_REACTORS
330
C
102
}
330
C
100
AcDbDictionary
281
     1
  3
Normal
350
F
100
AcDbDictionaryWithDefault
340
F
  0
DICTIONARY
  5
DC3
102
{ACAD_REACTORS
330
C
102
}
330
C
100
AcDbDictionary
281
     1
  3
COLORDICT
350
DC5
  3
MATERIALDICT
350
DC7
  0
LAYOUT
  5
17
102
{ACAD_REACTORS
330
15
102
}
102
{ACAD_XDICTIONARY
360
DC8
102
}
330
15
100
AcDbPlotSettings
  1

  2

  4

  6

 40
0.0
 41
0.0
 42
0.0
 43
0.0
 44
0.0
 45
0.0
 46
0.0
 47
0.0
 48
0.0
 49
0.0
140
0.0
141
0.0
142
1.0
143
1.0
 70
   688
 72
     0
 73
     0
 74
     5
  7

 75
    16
147
1.0
148
0.0
149
0.0
100
AcDbLayout
  1
Layout1
 70
     1
 71
     1
 10
0.0
 20
0.0
 11
12.0
 21
9.0
 12
0.0
 22
0.0
 32
0.0
 14
1.000000000000000E+20
 24
1.000000000000000E+20
 34
1.000000000000000E+20
 15
-1.000000000000000E+20
 25
-1.000000000000000E+20
 35
-1.000000000000000E+20
146
0.0
 13
0.0
 23
0.0
 33
0.0
 16
1.0
 26
0.0
 36
0.0
 17
0.0
 27
1.0
 37
0.0
 76
     0
330
16
  0
LAYOUT
  5
19
102
{ACAD_REACTORS
330
15
102
}
102
{ACAD_XDICTIONARY
360
DCA
102
}
330
15
100
AcDbPlotSettings
  1

  2

  4

  6

 40
0.0
 41
0.0
 42
0.0
 43
0.0
 44
0.0
 45
0.0
 46
0.0
 47
0.0
 48
0.0
 49
0.0
140
0.0
141
0.0
142
1.0
143
1.0
 70
  1712
 72
     0
 73
     0
 74
     0
  7

 75
     0
147
1.0
148
0.0
149
0.0
100
AcDbLayout
  1
Model
 70
     1
 71
     0
 10
0.0
 20
0.0
 11
0.0
 21
0.0
 12
0.0
 22
0.0
 32
0.0
 14
0.0
 24
0.0
 34
0.0
 15
0.0
 25
0.0
 35
0.0
146
0.0
 13
0.0
 23
0.0
 33
0.0
 16
1.0
 26
0.0
 36
0.0
 17
0.0
 27
1.0
 37
0.0
 76
     0
330
18
  0
MLINESTYLE
  5
13
102
{ACAD_REACTORS
330
12
102
}
330
12
100
AcDbMlineStyle
  2
Standard
 70
     0
  3

 62
   256
 51
90.0
 52
90.0
 71
     2
 49
0.5
 62
   256
  6
BYLAYER
 49
-0.5
 62
   256
  6
BYLAYER
  0
ACDBPLACEHOLDER
  5
F
102
{ACAD_REACTORS
330
E
102
}
330
E
  0
XRECORD
  5
DC5
102
{ACAD_REACTORS
330
DC3
102
}
330
DC3
100
AcDbXrecord
340
DC4
  0
XRECORD
  5
DC7
102
{ACAD_REACTORS
330
DC3
102
}
330
DC3
100
AcDbXrecord
340
DC6
  0
DICTIONARY
  5
DC8
330
17
100
AcDbDictionary
280
     1
281
     1
  3
ACAD_XREC_ROUNDTRIP
360
DC9
  0
DICTIONARY
  5
DCA
330
19
100
AcDbDictionary
280
     1
281
     1
  3
ACAD_XREC_ROUNDTRIP
360
DCB
  0
XRECORD
  5
DC9
102
{ACAD_REACTORS
330
DC8
102
}
330
DC8
100
AcDbXrecord
102
SHADEPLOT
 70
 27640
102
SHADEPLOTRESLEVEL
 70
 -6152
102
SHADEPLOTCUSTOMDPI
 70
 -9648
  0
XRECORD
  5
DCB
102
{ACAD_REACTORS
330
DCA
102
}
330
DCA
100
AcDbXrecord
102
SHADEPLOT
 70
     0
102
SHADEPLOTRESLEVEL
 70
     0
102
SHADEPLOTCUSTOMDPI
 70
     0
  0
ENDSEC
  0
EOF
