  0
SECTION
  2
HEADER
  9
$ACADVER
  1
AC1015
  9
$ACADMAINTVER
 70
     6
  9
$DWGCODEPAGE
  3
ISO8859-1
  9
$INSBASE
 10
0.0
 20
0.0
 30
0.0
  9
$EXTMIN
 10
1.617192
 20
0.5694439999999998
 30
0.0
  9
$EXTMAX
 10
9.238113809523808
 20
10.69579
 30
0.0
  9
$LIMMIN
 10
0.0
 20
0.0
  9
$LIMMAX
 10
8.5
 20
11.0
  9
$ORTHOMODE
 70
     1
  9
$REGENMODE
 70
     0
  9
$FILLMODE
 70
     1
  9
$QTEXTMODE
 70
     0
  9
$MIRRTEXT
 70
     1
  9
$LTSCALE
 40
0.5
  9
$ATTMODE
 70
     1
  9
$TEXTSIZE
 40
0.25
  9
$TRACEWID
 40
0.05
  9
$TEXTSTYLE
  7
STANDARD
  9
$CLAYER
  8
0
  9
$CELTYPE
  6
ByLayer
  9
$CECOLOR
 62
   256
  9
$CELTSCALE
 40
1.0
  9
$DISPSILH
 70
     0
  9
$DIMSCALE
 40
1.0
  9
$DIMASZ
 40
0.2
  9
$DIMEXO
 40
0.0625
  9
$DIMDLI
 40
0.38
  9
$DIMRND
 40
0.0
  9
$DIMDLE
 40
0.0
  9
$DIMEXE
 40
0.075
  9
$DIMTP
 40
0.0
  9
$DIMTM
 40
0.0
  9
$DIMTXT
 40
0.1
  9
$DIMCEN
 40
0.09
  9
$DIMTSZ
 40
0.0
  9
$DIMTOL
 70
     0
  9
$DIMLIM
 70
     0
  9
$DIMTIH
 70
     0
  9
$DIMTOH
 70
     0
  9
$DIMSE1
 70
     0
  9
$DIMSE2
 70
     0
  9
$DIMTAD
 70
     1
  9
$DIMZIN
 70
     0
  9
$DIMBLK
  1

  9
$DIMASO
 70
     0
  9
$DIMSHO
 70
     1
  9
$DIMPOST
  1

  9
$DIMAPOST
  1

  9
$DIMALT
 70
     0
  9
$DIMALTD
 70
     2
  9
$DIMALTF
 40
25.4
  9
$DIMLFAC
 40
1.0
  9
$DIMTOFL
 70
     0
  9
$DIMTVP
 40
0.0
  9
$DIMTIX
 70
     0
  9
$DIMSOXD
 70
     0
  9
$DIMSAH
 70
     0
  9
$DIMBLK1
  1

  9
$DIMBLK2
  1

  9
$DIMSTYLE
  2
Standard
  9
$DIMCLRD
 70
     0
  9
$DIMCLRE
 70
     0
  9
$DIMCLRT
 70
     0
  9
$DIMTFAC
 40
1.0
  9
$DIMGAP
 40
0.09
  9
$DIMJUST
 70
     0
  9
$DIMSD1
 70
     0
  9
$DIMSD2
 70
     0
  9
$DIMTOLJ
 70
     1
  9
$DIMTZIN
 70
     0
  9
$DIMALTZ
 70
     0
  9
$DIMALTTZ
 70
     0
  9
$DIMUPT
 70
     0
  9
$DIMDEC
 70
     4
  9
$DIMTDEC
 70
     4
  9
$DIMALTU
 70
     2
  9
$DIMALTTD
 70
     2
  9
$DIMTXSTY
  7
STANDARD
  9
$DIMAUNIT
 70
     0
  9
$DIMADEC
 70
     0
  9
$DIMALTRND
 40
0.0
  9
$DIMAZIN
 70
     0
  9
$DIMDSEP
 70
    46
  9
$DIMATFIT
 70
     3
  9
$DIMFRAC
 70
     0
  9
$DIMLDRBLK
  1

  9
$DIMLUNIT
 70
     2
  9
$DIMLWD
 70
    -2
  9
$DIMLWE
 70
    -2
  9
$DIMTMOVE
 70
     0
  9
$LUNITS
 70
     2
  9
$LUPREC
 70
     4
  9
$SKETCHINC
 40
0.1
  9
$FILLETRAD
 40
0.01
  9
$AUNITS
 70
     0
  9
$AUPREC
 70
     0
  9
$MENU
  1
acad
  9
$ELEVATION
 40
0.0
  9
$PELEVATION
 40
0.0
  9
$THICKNESS
 40
0.0
  9
$LIMCHECK
 70
     0
  9
$CHAMFERA
 40
0.0
  9
$CHAMFERB
 40
0.0
  9
$CHAMFERC
 40
1.0
  9
$CHAMFERD
 40
0.0
  9
$SKPOLY
 70
     0
  9
$TDCREATE
 40
2453955.561681273
  9
$TDUCREATE
 40
2453955.895014606
  9
$TDUPDATE
 40
2453955.603347952
  9
$TDUUPDATE
 40
2453955.895014618
  9
$TDINDWG
 40
0.0000000116
  9
$TDUSRTIMER
 40
0.0000000116
  9
$USRTIMER
 70
     1
  9
$ANGBASE
 50
0.0
  9
$ANGDIR
 70
     0
  9
$PDMODE
 70
     0
  9
$PDSIZE
 40
0.0
  9
$PLINEWID
 40
0.0
  9
$SPLFRAME
 70
     0
  9
$SPLINETYPE
 70
     6
  9
$SPLINESEGS
 70
     8
  9
$HANDSEED
  5
6C4
  9
$SURFTAB1
 70
     6
  9
$SURFTAB2
 70
     6
  9
$SURFTYPE
 70
     6
  9
$SURFU
 70
     6
  9
$SURFV
 70
     6
  9
$UCSBASE
  2

  9
$UCSNAME
  2

  9
$UCSORG
 10
0.0
 20
0.0
 30
0.0
  9
$UCSXDIR
 10
1.0
 20
0.0
 30
0.0
  9
$UCSYDIR
 10
0.0
 20
1.0
 30
0.0
  9
$UCSORTHOREF
  2

  9
$UCSORTHOVIEW
 70
     0
  9
$UCSORGTOP
 10
0.0
 20
0.0
 30
0.0
  9
$UCSORGBOTTOM
 10
0.0
 20
0.0
 30
0.0
  9
$UCSORGLEFT
 10
0.0
 20
0.0
 30
0.0
  9
$UCSORGRIGHT
 10
0.0
 20
0.0
 30
0.0
  9
$UCSORGFRONT
 10
0.0
 20
0.0
 30
0.0
  9
$UCSORGBACK
 10
0.0
 20
0.0
 30
0.0
  9
$PUCSBASE
  2

  9
$PUCSNAME
  2

  9
$PUCSORG
 10
0.0
 20
0.0
 30
0.0
  9
$PUCSXDIR
 10
1.0
 20
0.0
 30
0.0
  9
$PUCSYDIR
 10
0.0
 20
1.0
 30
0.0
  9
$PUCSORTHOREF
  2

  9
$PUCSORTHOVIEW
 70
     0
  9
$PUCSORGTOP
 10
0.0
 20
0.0
 30
0.0
  9
$PUCSORGBOTTOM
 10
0.0
 20
0.0
 30
0.0
  9
$PUCSORGLEFT
 10
0.0
 20
0.0
 30
0.0
  9
$PUCSORGRIGHT
 10
0.0
 20
0.0
 30
0.0
  9
$PUCSORGFRONT
 10
0.0
 20
0.0
 30
0.0
  9
$PUCSORGBACK
 10
0.0
 20
0.0
 30
0.0
  9
$USERI1
 70
     0
  9
$USERI2
 70
     0
  9
$USERI3
 70
     0
  9
$USERI4
 70
     0
  9
$USERI5
 70
     0
  9
$USERR1
 40
0.0
  9
$USERR2
 40
0.0
  9
$USERR3
 40
0.0
  9
$USERR4
 40
0.0
  9
$USERR5
 40
0.0
  9
$WORLDVIEW
 70
     1
  9
$SHADEDGE
 70
     3
  9
$SHADEDIF
 70
    70
  9
$TILEMODE
 70
     1
  9
$MAXACTVP
 70
    16
  9
$PINSBASE
 10
0.0
 20
0.0
 30
0.0
  9
$PLIMCHECK
 70
     0
  9
$PEXTMIN
 10
1.000000000000000E+20
 20
1.000000000000000E+20
 30
1.000000000000000E+20
  9
$PEXTMAX
 10
-1.000000000000000E+20
 20
-1.000000000000000E+20
 30
-1.000000000000000E+20
  9
$PLIMMIN
 10
0.0
 20
0.0
  9
$PLIMMAX
 10
12.0
 20
9.0
  9
$UNITMODE
 70
     0
  9
$VISRETAIN
 70
     0
  9
$PLINEGEN
 70
     0
  9
$PSLTSCALE
 70
     1
  9
$TREEDEPTH
 70
  3020
  9
$CMLSTYLE
  2
Standard
  9
$CMLJUST
 70
     0
  9
$CMLSCALE
 40
1.0
  9
$PROXYGRAPHICS
 70
     1
  9
$MEASUREMENT
 70
     0
  9
$CELWEIGHT
370
    -1
  9
$ENDCAPS
280
     0
  9
$JOINSTYLE
280
     0
  9
$LWDISPLAY
290
     0
  9
$INSUNITS
 70
     1
  9
$HYPERLINKBASE
  1

  9
$STYLESHEET
  1

  9
$XEDIT
290
     1
  9
$CEPSNTYPE
380
     0
  9
$PSTYLEMODE
290
     0
  9
$FINGERPRINTGUID
  2
{FAEB1C30-E019-11D5-929B-00C0DF256EC4}
  9
$VERSIONGUID
  2
{FAEB1C32-E019-11D5-929B-00C0DF256EC4}
  9
$EXTNAMES
290
     1
  9
$PSVPSCALE
 40
0.0
  9
$OLESTARTUP
290
     0
  0
ENDSEC
  0
SECTION
  2
CLASSES
  0
CLASS
  1
ACDBDICTIONARYWDFLT
  2
AcDbDictionaryWithDefault
  3
AutoCAD 2000
 90
        0
280
     0
281
     0
  0
CLASS
  1
ACDBPLACEHOLDER
  2
AcDbPlaceHolder
  3
ObjectDBX Classes
 90
        0
280
     0
281
     0
  0
CLASS
  1
LAYOUT
  2
AcDbLayout
  3
ObjectDBX Classes
 90
        0
280
     0
281
     0
  0
ENDSEC
  0
SECTION
  2
TABLES
  0
TABLE
  2
VPORT
  5
8
330
0
100
AcDbSymbolTable
 70
     2
  0
VPORT
  5
1F
330
8
100
AcDbSymbolTableRecord
100
AcDbViewportTableRecord
  2
*ACTIVE
 70
     0
 10
0.0
 20
0.0
 11
1.0
 21
1.0
 12
7.630750605326877
 22
5.5
 13
0.0
 23
0.0
 14
1.0
 24
1.0
 15
0.0
 25
0.0
 16
0.0
 26
0.0
 36
1.0
 17
0.0
 27
0.0
 37
0.0
 40
11.0
 41
0.7207678883071553
 42
50.0
 43
0.0
 44
0.0
 50
0.0
 51
0.0
 71
     0
 72
  2000
 73
     1
 74
     0
 75
     0
 76
     0
 77
     0
 78
     0
281
     0
 65
     1
110
0.0
120
0.0
130
0.0
111
1.0
121
0.0
131
0.0
112
0.0
122
1.0
132
0.0
 79
     0
146
0.0
  0
ENDTAB
  0
TABLE
  2
LTYPE
  5
5
330
0
100
AcDbSymbolTable
 70
     2
  0
LTYPE
  5
10
330
5
100
AcDbSymbolTableRecord
100
AcDbLinetypeTableRecord
  2
ByBlock
 70
     0
  3

 72
    65
 73
     0
 40
0.0
  0
LTYPE
  5
11
330
5
100
AcDbSymbolTableRecord
100
AcDbLinetypeTableRecord
  2
ByLayer
 70
     0
  3

 72
    65
 73
     0
 40
0.0
  0
LTYPE
  5
1B
330
5
100
AcDbSymbolTableRecord
100
AcDbLinetypeTableRecord
  2
CONTINUOUS
 70
     0
  3
Solid line
 72
    65
 73
     0
 40
0.0
  0
LTYPE
  5
1C
330
5
100
AcDbSymbolTableRecord
100
AcDbLinetypeTableRecord
  2
DASHED2
 70
     0
  3
_ _ _ _ _ _ _ _ _ _ _ _ _ _ _ _ _ _ _ _ _ _ _ _
 72
    65
 73
     2
 40
0.375
 49
0.25
 74
     0
 49
-0.125
 74
     0
  0
ENDTAB
  0
TABLE
  2
LAYER
  5
2
330
0
100
AcDbSymbolTable
 70
     1
  0
LAYER
  5
1D
330
2
100
AcDbSymbolTableRecord
100
AcDbLayerTableRecord
  2
0
 70
     0
 62
     7
  6
CONTINUOUS
370
    -3
390
F
  0
ENDTAB
  0
TABLE
  2
STYLE
  5
3
330
0
100
AcDbSymbolTable
 70
     1
  0
STYLE
  5
22
330
3
100
AcDbSymbolTableRecord
100
AcDbTextStyleTableRecord
  2
STANDARD
 70
     0
 40
0.0
 41
1.0
 50
0.0
 71
     0
 42
0.25
  3
ROMANS.SHX
  4

  0
ENDTAB
  0
TABLE
  2
VIEW
  5
6
330
0
100
AcDbSymbolTable
 70
     1
  0
VIEW
  5
21
330
6
100
AcDbSymbolTableRecord
100
AcDbViewTableRecord
  2
1
 70
     0
 40
11.0
 10
7.225941000000001
 20
5.5
 41
14.451883
 11
0.0
 21
0.0
 31
1.0
 12
0.0
 22
0.0
 32
0.0
 42
50.0
 43
0.0
 44
0.0
 50
0.0
 71
     0
281
     0
 72
     0
  0
ENDTAB
  0
TABLE
  2
UCS
  5
7
330
0
100
AcDbSymbolTable
 70
     0
  0
ENDTAB
  0
TABLE
  2
APPID
  5
9
330
0
100
AcDbSymbolTable
 70
     1
  0
APPID
  5
20
330
9
100
AcDbSymbolTableRecord
100
AcDbRegAppTableRecord
  2
ACAD
 70
     0
  0
ENDTAB
  0
TABLE
  2
DIMSTYLE
  5
A
330
0
100
AcDbSymbolTable
 70
     1
100
AcDbDimStyleTable
  0
DIMSTYLE
105
23
330
A
100
AcDbSymbolTableRecord
100
AcDbDimStyleTableRecord
  2
Standard
 70
     0
  3

  4

340
22
  0
ENDTAB
  0
TABLE
  2
BLOCK_RECORD
  5
1
330
0
100
AcDbSymbolTable
 70
     0
  0
BLOCK_RECORD
  5
18
330
1
100
AcDbSymbolTableRecord
100
AcDbBlockTableRecord
  2
*Model_Space
340
19
  0
BLOCK_RECORD
  5
16
330
1
100
AcDbSymbolTableRecord
100
AcDbBlockTableRecord
  2
*Paper_Space
340
17
  0
ENDTAB
  0
ENDSEC
  0
SECTION
  2
BLOCKS
  0
BLOCK
  5
6B9
330
18
100
AcDbEntity
  8
0
100
AcDbBlockBegin
  2
*Model_Space
 70
     0
 10
0.0
 20
0.0
 30
0.0
  3
*Model_Space
  1

  4

  0
ENDBLK
  5
6BA
330
18
100
AcDbEntity
  8
0
100
AcDbBlockEnd
  0
BLOCK
  5
6B7
330
16
100
AcDbEntity
 67
     1
  8
0
100
AcDbBlockBegin
  2
*Paper_Space
 70
     0
 10
0.0
 20
0.0
 30
0.0
  3
*Paper_Space
  1

  4

  0
ENDBLK
  5
6B8
330
16
100
AcDbEntity
 67
     1
  8
0
100
AcDbBlockEnd
  0
ENDSEC
  0
SECTION
  2
ENTITIES
  0
LINE
  5
24
330
18
100
AcDbEntity
  8
0
100
AcDbLine
 10
4.37836
 20
10.671836
 30
0.0
 11
4.37836
 21
5.3789
 31
0.0
  0
LINE
  5
25
330
18
100
AcDbEntity
  8
0
100
AcDbLine
 10
3.941095
 20
10.620013
 30
0.0
 11
3.941095
 21
5.241312000000001
 31
0.0
  0
LINE
  5
26
330
18
100
AcDbEntity
  8
0
100
AcDbLine
 10
4.581164
 20
2.796659
 30
0.0
 11
4.581164
 21
1.065503
 31
0.0
  0
LINE
  5
27
330
18
100
AcDbEntity
  8
0
100
AcDbLine
 10
3.989077
 20
10.596058
 30
0.0
 11
3.989077
 21
5.216936000000001
 31
0.0
  0
LINE
  5
28
330
18
100
AcDbEntity
  8
0
100
AcDbLine
 10
1.639684
 20
4.588857
 30
0.0
 11
4.581164
 21
2.796659
 31
0.0
  0
LINE
  5
29
330
18
100
AcDbEntity
  8
0
100
AcDbLine
 10
4.581164
 20
2.796659
 30
0.0
 11
6.913791000000001
 21
4.456518
 31
0.0
  0
LINE
  5
2A
330
18
100
AcDbEntity
  8
0
100
AcDbLine
 10
6.913791000000001
 20
4.456518
 30
0.0
 11
6.913791000000001
 21
2.870093
 31
0.0
  0
LINE
  5
2B
330
18
100
AcDbEntity
  8
0
100
AcDbLine
 10
6.913791000000001
 20
4.456518
 30
0.0
 11
5.265969999999999
 21
5.213749
 31
0.0
  0
LINE
  5
2C
330
18
100
AcDbEntity
  8
0
100
AcDbLine
 10
4.37836
 20
10.671836
 30
0.0
 11
3.989077
 21
10.596058
 31
0.0
  0
LINE
  5
2D
330
18
100
AcDbEntity
  8
0
100
AcDbLine
 10
4.330379
 20
10.69579
 30
0.0
 11
3.941095
 21
10.620013
 31
0.0
  0
LINE
  5
2E
330
18
100
AcDbEntity
  8
0
100
AcDbLine
 10
3.989077
 20
10.596058
 30
0.0
 11
3.941095
 21
10.620013
 31
0.0
  0
LINE
  5
2F
330
18
100
AcDbEntity
  8
0
100
AcDbLine
 10
5.265969999999999
 20
5.541030999999999
 30
0.0
 11
5.265969999999999
 21
5.194356
 31
0.0
  0
LINE
  5
30
330
18
100
AcDbEntity
  8
0
100
AcDbLine
 10
4.37836
 20
5.212763
 30
0.0
 11
5.130853
 21
5.620176
 31
0.0
  0
LINE
  5
31
330
18
100
AcDbEntity
  8
0
100
AcDbLine
 10
5.265969999999999
 20
5.541030999999999
 30
0.0
 11
5.190948000000001
 21
5.600999
 31
0.0
  0
LINE
  5
32
330
18
100
AcDbEntity
  8
0
100
AcDbLine
 10
3.941095
 20
4.987421
 30
0.0
 11
2.988031
 21
4.445614
 31
0.0
  0
LINE
  5
33
330
18
100
AcDbEntity
  8
0
100
AcDbLine
 10
2.988031
 20
4.445614
 30
0.0
 11
2.909246
 21
4.307614
 31
0.0
  0
LINE
  5
34
330
18
100
AcDbEntity
  8
0
100
AcDbLine
 10
2.909246
 20
4.307614
 30
0.0
 11
2.909246
 21
3.904796
 31
0.0
  0
LINE
  5
35
330
18
100
AcDbEntity
  8
0
100
AcDbLine
 10
2.923736
 20
3.879116
 30
0.0
 11
3.267789
 21
3.669837
 31
0.0
  0
LINE
  5
36
330
18
100
AcDbEntity
  8
0
100
AcDbLine
 10
3.8322
 20
3.91983
 30
0.0
 11
3.448375
 21
3.696647
 31
0.0
  0
LINE
  5
37
330
18
100
AcDbEntity
  8
0
100
AcDbLine
 10
3.448375
 20
3.696647
 30
0.0
 11
3.267789
 21
3.669837
 31
0.0
  0
LINE
  5
38
330
18
100
AcDbEntity
  8
0
100
AcDbLine
 10
3.803517
 20
4.199243
 30
0.0
 11
3.8322
 21
3.91983
 31
0.0
  0
LINE
  5
39
330
18
100
AcDbEntity
  8
0
100
AcDbLine
 10
5.159258
 20
4.737680999999999
 30
0.0
 11
4.594380999999999
 21
4.669114
 31
0.0
  0
LINE
  5
3A
330
18
100
AcDbEntity
  8
0
100
AcDbLine
 10
5.555394000000001
 20
4.986008999999999
 30
0.0
 11
5.159258
 21
4.737680999999999
 31
0.0
  0
LINE
  5
3B
330
18
100
AcDbEntity
  8
0
100
AcDbLine
 10
5.549931
 20
5.063867
 30
0.0
 11
5.555394000000001
 21
4.986008999999999
 31
0.0
  0
LINE
  5
3C
330
18
100
AcDbEntity
  8
0
100
AcDbLine
 10
5.549931
 20
5.063867
 30
0.0
 11
5.265969999999999
 21
5.194356
 31
0.0
  0
LINE
  5
3D
330
18
100
AcDbEntity
  8
0
100
AcDbLine
 10
5.292587
 20
4.821262
 30
0.0
 11
5.897858
 21
4.555669
 31
0.0
  0
LINE
  5
3E
330
18
100
AcDbEntity
  8
0
100
AcDbLine
 10
2.964163
 20
4.434479000000001
 30
0.0
 11
2.976675
 21
4.425724
 31
0.0
  0
LINE
  5
3F
330
18
100
AcDbEntity
  8
0
100
AcDbLine
 10
4.737155
 20
3.585886
 30
0.0
 11
5.913682
 21
4.381251
 31
0.0
  0
LINE
  5
40
330
18
100
AcDbEntity
  8
0
100
AcDbLine
 10
3.119674
 20
5.820369
 30
0.0
 11
3.617708
 21
5.508544000000001
 31
0.0
  0
LINE
  5
41
330
18
100
AcDbEntity
  8
0
100
AcDbLine
 10
2.644219
 20
4.842306
 30
0.0
 11
3.610059
 21
5.334696
 31
0.0
  0
LINE
  5
42
330
18
100
AcDbEntity
  8
0
100
AcDbLine
 10
2.250444
 20
4.81636
 30
0.0
 11
2.067599
 21
4.881011
 31
0.0
  0
LINE
  5
43
330
18
100
AcDbEntity
  8
0
100
AcDbLine
 10
3.962116
 20
5.130174
 30
0.0
 11
2.974519
 21
4.604696
 31
0.0
  0
LINE
  5
44
330
18
100
AcDbEntity
  8
0
100
AcDbLine
 10
4.37836
 20
10.671836
 30
0.0
 11
4.330379
 21
10.69579
 31
0.0
  0
LINE
  5
45
330
18
100
AcDbEntity
  8
0
100
AcDbLine
 10
2.941264
 20
4.296847000000001
 30
0.0
 11
2.941264
 21
3.926066000000001
 31
0.0
  0
LINE
  5
46
330
18
100
AcDbEntity
  8
0
100
AcDbLine
 10
3.7279
 20
4.358998000000001
 30
0.0
 11
3.091178
 21
3.991104
 31
0.0
  0
LINE
  5
47
330
18
100
AcDbEntity
  8
0
100
AcDbLine
 10
4.37836
 20
4.634681
 30
0.0
 11
3.989077
 21
4.403455999999999
 31
0.0
  0
LINE
  5
48
330
18
100
AcDbEntity
  8
0
100
AcDbLine
 10
3.941095
 20
4.426203
 30
0.0
 11
3.989077
 21
4.403455999999999
 31
0.0
  0
LINE
  5
49
330
18
100
AcDbEntity
  8
0
100
AcDbLine
 10
4.37836
 20
5.16105
 30
0.0
 11
5.190948000000001
 21
5.600999
 31
0.0
  0
LINE
  5
4A
330
18
100
AcDbEntity
  8
0
100
AcDbLine
 10
4.348423
 20
5.366444
 30
0.0
 11
4.348423
 21
5.198208
 31
0.0
  0
LINE
  5
4B
330
18
100
AcDbEntity
  8
0
100
AcDbLine
 10
4.010098
 20
5.225682
 30
0.0
 11
4.010098
 21
5.008137000000001
 31
0.0
  0
LINE
  5
4C
330
18
100
AcDbEntity
  8
0
100
AcDbLine
 10
3.989077
 20
4.999391
 30
0.0
 11
3.989077
 21
4.403455999999999
 31
0.0
  0
LINE
  5
4D
330
18
100
AcDbEntity
  8
0
100
AcDbLine
 10
3.941095
 20
5.023777
 30
0.0
 11
3.941095
 21
4.426203
 31
0.0
  0
LINE
  5
4E
330
18
100
AcDbEntity
  8
0
100
AcDbLine
 10
3.941095
 20
5.822575
 30
0.0
 11
3.627545
 21
5.966663
 31
0.0
  0
LINE
  5
4F
330
18
100
AcDbEntity
  8
0
100
AcDbLine
 10
4.786845
 20
5.433924
 30
0.0
 11
4.37836
 21
5.621637000000001
 31
0.0
  0
LWPOLYLINE
  5
50
330
18
100
AcDbEntity
  8
0
100
AcDbPolyline
 90
      286
 70
     0
 43
0.0
 10
3.627545
 20
5.966663
 10
3.619423
 20
5.963706
 10
3.603449
 20
5.962701
 10
3.58548
 20
5.9587
 10
3.55653
 20
5.949703
 10
3.526580000000001
 20
5.943701
 10
3.504617
 20
5.9387
 10
3.477663
 20
5.932699
 10
3.448711
 20
5.928694
 10
3.423751
 20
5.926687
 10
3.402787000000001
 20
5.921686
 10
3.387819
 20
5.900714
 10
3.380835
 20
5.888730000000001
 10
3.367866
 20
5.862767
 10
3.361881
 20
5.850783
 10
3.361881
 20
5.850783
 10
3.352895
 20
5.851778
 10
3.334922
 20
5.854766000000001
 10
3.301973
 20
5.860744
 10
3.269022
 20
5.868718
 10
3.242069
 20
5.859721
 10
3.216114
 20
5.850725
 10
3.174189
 20
5.831739
 10
3.133258
 20
5.822737
 10
3.087334
 20
5.814731
 10
3.049398
 20
5.806729
 10
3.01745
 20
5.804719
 10
2.973521
 20
5.802705
 10
2.931594
 20
5.788711
 10
2.906648
 20
5.752758
 10
2.885692
 20
5.726791
 10
2.869725
 20
5.708814
 10
2.84876
 20
5.70581
 10
2.792857
 20
5.684821
 10
2.757919
 20
5.669830999999999
 10
2.726973
 20
5.658837
 10
2.679058
 20
5.639848000000001
 10
2.640121
 20
5.637836
 10
2.605181
 20
5.625841
 10
2.571244
 20
5.605859
 10
2.538302
 20
5.591868
 10
2.497371
 20
5.582866
 10
2.46742
 20
5.580858
 10
2.440465
 20
5.576853
 10
2.405523
 20
5.570849
 10
2.354605
 20
5.569830000000001
 10
2.298691
 20
5.578793
 10
2.277721
 20
5.586772
 10
2.260752
 20
5.576781
 10
2.242789
 20
5.556806
 10
2.226822
 20
5.536832
 10
2.204056
 20
5.522782
 10
2.125999
 20
5.497854
 10
2.182205
 20
5.486123
 10
2.18192
 20
5.472916000000001
 10
2.187916
 20
5.458941
 10
2.195913
 20
5.432986
 10
2.200926
 20
5.382069
 10
2.196945
 20
5.34912
 10
2.188972
 20
5.315171
 10
2.189978
 20
5.296202
 10
2.197976
 20
5.269248
 10
2.21696
 20
5.231317
 10
2.222959
 20
5.210353
 10
2.213982
 20
5.188383999999999
 10
2.208998
 20
5.168414
 10
2.206026
 20
5.111504
 10
2.206043
 20
5.068573000000001
 10
2.213062
 20
4.992697
 10
2.206088
 20
4.954755000000001
 10
2.19511
 20
4.943768
 10
2.164168
 20
4.923788
 10
2.137217
 20
4.909799
 10
2.093294
 20
4.890812
 10
2.030405
 20
4.866825
 10
1.973497
 20
4.862809
 10
1.956524
 20
4.862801999999999
 10
1.922584
 20
4.848811
 10
1.883661
 20
4.812853
 10
1.857719
 20
4.77091
 10
1.818804
 20
4.715982
 10
1.793862
 20
4.670045
 10
1.748943
 20
4.647064
 10
1.738958
 20
4.649057
 10
1.711003
 20
4.649046
 10
1.699025
 20
4.642052
 10
1.656109
 20
4.602099
 10
1.620178
 20
4.573131
 10
1.617192
 20
4.550167
 10
1.6172
 20
4.532195
 10
1.622212
 20
4.480280000000001
 10
1.632214
 20
4.435356
 10
1.643217
 20
4.385441
 10
1.652219
 20
4.342512999999999
 10
1.658222
 20
4.312563
 10
1.659225
 20
4.300583000000001
 10
1.662235
 20
4.262645
 10
1.681217
 20
4.233699
 10
1.694203
 20
4.214734
 10
1.693209
 20
4.20475
 10
1.692219
 20
4.182784
 10
1.690232
 20
4.157824
 10
1.69524
 20
4.117889
 10
1.702238
 20
4.096926
 10
1.71324
 20
4.046012
 10
1.72824
 20
3.987112
 10
1.747226
 20
3.946185
 10
1.763217
 20
3.904258
 10
1.777209
 20
3.868322
 10
1.787213
 20
3.819404
 10
1.795233
 20
3.737538
 10
1.797247
 20
3.692611
 10
1.79926
 20
3.653674
 10
1.805276
 20
3.589778
 10
1.810284
 20
3.547848
 10
1.810299
 20
3.510907
 10
1.803322
 20
3.48195
 10
1.797341
 20
3.457986
 10
1.798359
 20
3.409065
 10
1.801368
 20
3.374122
 10
1.809366
 20
3.348167
 10
1.819357
 20
3.329201
 10
1.844339
 20
3.274299
 10
1.850336
 20
3.258327
 10
1.851343
 20
3.238359
 10
1.848358
 20
3.2124
 10
1.846372
 20
3.184443
 10
1.849386
 20
3.138518
 10
1.876363
 20
3.086612
 10
1.900346
 20
3.034705
 10
1.922328
 20
2.989785
 10
1.941315
 20
2.94786
 10
1.964293
 20
2.910928
 10
1.992264
 20
2.872002
 10
2.01524
 20
2.838065
 10
2.033228
 20
2.798136
 10
2.039236
 20
2.754209
 10
2.04824
 20
2.708286
 10
2.05524
 20
2.678337
 10
2.063236
 20
2.657373
 10
2.073222
 20
2.651387
 10
2.095194
 20
2.635421
 10
2.126147
 20
2.627447
 10
2.155103
 20
2.622466
 10
2.194044
 20
2.613496
 10
2.23498
 20
2.609519
 10
2.247962
 20
2.602535
 10
2.269933
 20
2.587568
 10
2.297909
 20
2.534664
 10
2.314897
 20
2.49773
 10
2.336881
 20
2.448817
 10
2.36186
 20
2.4029
 10
2.385836
 20
2.366967
 10
2.410808
 20
2.336027
 10
2.437776
 20
2.309081
 10
2.471726
 20
2.297113
 10
2.489699
 20
2.293127
 10
2.504677
 20
2.288141
 10
2.521659
 20
2.266183
 10
2.533653
 20
2.232242
 10
2.539646
 20
2.226254
 10
2.546636
 20
2.222263
 10
2.560617
 20
2.216278
 10
2.581585
 20
2.210296
 10
2.596563
 20
2.206309
 10
2.612541
 20
2.196331
 10
2.631525
 20
2.161394
 10
2.647505
 20
2.147423
 10
2.681456
 20
2.134457
 10
2.728385
 20
2.123494
 10
2.779309
 20
2.109536
 10
2.838222
 20
2.092587
 10
2.900134
 20
2.063658
 10
2.951063
 20
2.038718
 10
2.973032
 20
2.027745
 10
2.998997
 20
2.011781
 10
3.043949
 20
1.950896
 10
3.074922
 20
1.895996
 10
3.110877
 20
1.863063
 10
3.138841
 20
1.842108
 10
3.159815
 20
1.824145
 10
3.196778
 20
1.76825
 10
3.236735
 20
1.71535
 10
3.280677
 20
1.685416
 10
3.328605000000001
 20
1.673454
 10
3.342578
 20
1.68544
 10
3.398478
 20
1.710423
 10
3.460383
 20
1.701462
 10
3.550249
 20
1.677536
 10
3.598175
 20
1.669568
 10
3.645106
 20
1.655609
 10
3.695036
 20
1.628672
 10
3.75396
 20
1.584766
 10
3.780921
 20
1.572796
 10
3.80788
 20
1.568813
 10
3.840833
 20
1.554849
 10
3.878782
 20
1.530902
 10
3.898764
 20
1.493969
 10
3.925736
 20
1.457039
 10
3.971667
 20
1.446075
 10
4.0146
 20
1.4411
 10
4.0805
 20
1.428147
 10
4.144405
 20
1.409203
 10
4.212312
 20
1.370292
 10
4.255255
 20
1.341356
 10
4.276232
 20
1.315406
 10
4.298217
 20
1.265494
 10
4.318199
 20
1.228562
 10
4.341175
 20
1.19762
 10
4.370133
 20
1.187648
 10
4.446024
 20
1.155729
 10
4.478981
 20
1.132779
 10
4.516931
 20
1.103841
 10
4.593827
 20
1.057945
 10
4.613798
 20
1.048967
 10
4.630773000000001
 20
1.04498
 10
4.658719000000001
 20
1.067955
 10
4.691657
 20
1.09193
 10
4.72559
 20
1.122894
 10
4.772499
 20
1.16185
 10
4.791469
 20
1.162856
 10
4.826412
 20
1.163868
 10
4.887315
 20
1.163893
 10
4.91227
 20
1.175883
 10
4.950195
 20
1.211841
 10
4.969149
 20
1.251785
 10
4.992102
 20
1.277752
 10
5.036023999999999
 20
1.295741
 10
5.076954
 20
1.307738
 10
5.136851
 20
1.324735
 10
5.161807
 20
1.335728
 10
5.182768
 20
1.349714
 10
5.209713
 20
1.379676
 10
5.233663
 20
1.407641
 10
5.252621
 20
1.437601
 10
5.275563
 20
1.489527
 10
5.295515
 20
1.531468
 10
5.323453
 20
1.573412
 10
5.362378
 20
1.606375
 10
5.413286
 20
1.632354
 10
5.462199
 20
1.654338
 10
5.503124
 20
1.676319
 10
5.552032
 20
1.712281
 10
5.578968
 20
1.765207
 10
5.606897
 20
1.829116
 10
5.63583
 20
1.882043
 10
5.644804
 20
1.911
 10
5.655769
 20
1.954934
 10
5.691694
 20
1.998878
 10
5.716645
 20
2.020853
 10
5.752579
 20
2.042832
 10
5.781529
 20
2.050831
 10
5.804493
 20
2.048844
 10
5.844432
 20
2.041871
 10
5.880380000000001
 20
2.028906
 10
5.920317
 20
2.026925
 10
5.959248000000001
 20
2.043913
 10
6.018141
 20
2.075886
 10
6.062059
 20
2.104857
 10
6.105983999999999
 20
2.116855
 10
6.115968
 20
2.115861
 10
6.138933
 20
2.112875
 10
6.166881
 20
2.129859
 10
6.22077
 20
2.190783
 10
6.265676
 20
2.246712
 10
6.287624
 20
2.288653
 10
6.30858
 20
2.316617
 10
6.346506
 20
2.349579
 10
6.37945
 20
2.35758
 10
6.426374
 20
2.358597
 10
6.512235
 20
2.364621
 10
6.534187999999999
 20
2.392586
 10
6.538175
 20
2.408562
 10
6.544155
 20
2.435521
 10
6.574094000000001
 20
2.46848
 10
6.610027000000001
 20
2.491458
 10
6.639967
 20
2.52242
 10
6.690866000000001
 20
2.570364
 10
6.741766999999999
 20
2.614314
 10
6.753739
 20
2.637282
 10
6.761715
 20
2.666239
 10
6.767689
 20
2.707176
 10
6.783642
 20
2.761096
 10
6.824555999999999
 20
2.811032
 10
6.836533
 20
2.821021
 10
6.913791000000001
 20
2.870093
  0
LWPOLYLINE
  5
171
330
18
100
AcDbEntity
  8
0
100
AcDbPolyline
 90
       39
 70
     0
 43
0.0
 10
2.209629
 20
4.974019999999999
 10
2.220058
 20
4.975727
 10
2.251006
 20
4.981730000000001
 10
2.281954
 20
4.986733999999999
 10
2.330872
 20
4.995739
 10
2.364814
 20
5.004738
 10
2.393764
 20
5.015732
 10
2.424709
 20
5.028724
 10
2.459643
 20
5.0527
 10
2.48859
 20
5.071681
 10
2.520522
 20
5.112628
 10
2.538482
 20
5.14059
 10
2.547463
 20
5.152575
 10
2.565426
 20
5.173548
 10
2.581397
 20
5.18254
 10
2.594375
 20
5.185541000000001
 10
2.599366
 20
5.186541
 10
2.613342
 20
5.191539
 10
2.629314
 20
5.198534
 10
2.639293
 20
5.20952
 10
2.644273
 20
5.240473000000001
 10
2.633283
 20
5.259437999999999
 10
2.612306
 20
5.286387
 10
2.587339
 20
5.30335
 10
2.546397
 20
5.322303
 10
2.508453
 20
5.334269
 10
2.462517
 20
5.358212
 10
2.438549
 20
5.373178
 10
2.425567
 20
5.380162
 10
2.413583
 20
5.387146
 10
2.4006
 20
5.397125
 10
2.382618
 20
5.425073
 10
2.371631
 20
5.436051
 10
2.361641
 20
5.451023
 10
2.342664
 20
5.468987
 10
2.311708
 20
5.48395
 10
2.287746
 20
5.484939
 10
2.240818
 20
5.491909
 10
2.182205
 20
5.486123
  0
ARC
  5
19B
330
18
100
AcDbEntity
  8
0
100
AcDbCircle
 10
4.457126000000001
 20
4.000112000000001
 30
0.0
 40
0.5
100
AcDbArc
 50
235.020092
 51
304.059817
  0
ARC
  5
19C
330
18
100
AcDbEntity
  8
0
100
AcDbCircle
 10
2.417125
 20
5.287758999999999
 30
0.0
 40
0.5
100
AcDbArc
 50
250.527021
 51
297.012732
  0
ARC
  5
19D
330
18
100
AcDbEntity
  8
0
100
AcDbCircle
 10
5.857677
 20
4.464097
 30
0.0
 40
0.1
100
AcDbArc
 50
304.059817
 51
66.308127
  0
ARC
  5
19E
330
18
100
AcDbEntity
  8
0
100
AcDbCircle
 10
3.56464
 20
5.423787
 30
0.0
 40
0.1
100
AcDbArc
 50
297.012732
 51
57.94888100000001
  0
ARC
  5
19F
330
18
100
AcDbEntity
  8
0
100
AcDbCircle
 10
3.021492
 20
4.516414
 30
0.0
 40
0.1
100
AcDbArc
 50
118.016459
 51
235.020092
  0
LINE
  5
1A0
330
18
100
AcDbEntity
  8
0
100
AcDbLine
 10
3.75935
 20
3.878098000000001
 30
0.0
 11
4.170482
 21
3.590436
 31
0.0
  0
ARC
  5
1A1
330
18
100
AcDbEntity
  8
0
100
AcDbCircle
 10
2.939246
 20
3.904796
 30
0.0
 40
0.03
100
AcDbArc
 50
180.0
 51
238.86909
  0
LINE
  5
1A2
330
18
100
AcDbEntity
  8
0
100
AcDbLine
 10
3.01485
 20
4.425743
 30
0.0
 11
2.941264
 21
4.296847000000001
 31
0.0
  0
LINE
  5
1A3
330
18
100
AcDbEntity
  8
0
100
AcDbLine
 10
3.941095
 20
4.952303
 30
0.0
 11
3.01485
 21
4.425743
 31
0.0
  0
LINE
  5
1A4
330
18
100
AcDbEntity
  8
0
100
AcDbLine
 10
2.909246
 20
4.307614
 30
0.0
 11
2.941264
 21
4.296847000000001
 31
0.0
  0
LINE
  5
1A5
330
18
100
AcDbEntity
  8
0
100
AcDbLine
 10
2.988031
 20
4.445614
 30
0.0
 11
3.01485
 21
4.425743
 31
0.0
  0
LINE
  5
1A6
330
18
100
AcDbEntity
  8
0
100
AcDbLine
 10
5.159258
 20
4.763418
 30
0.0
 11
4.566424
 21
4.691457
 31
0.0
  0
LINE
  5
1A7
330
18
100
AcDbEntity
  8
0
100
AcDbLine
 10
5.553664
 20
5.010661
 30
0.0
 11
5.159258
 21
4.763418
 31
0.0
  0
LINE
  5
1A8
330
18
100
AcDbEntity
  8
0
100
AcDbLine
 10
5.159258
 20
4.763418
 30
0.0
 11
5.159258
 21
4.737680999999999
 31
0.0
  0
LINE
  5
1A9
330
18
100
AcDbEntity
  8
0
100
AcDbLine
 10
5.190948000000001
 20
5.600999
 30
0.0
 11
5.130853
 21
5.620176
 31
0.0
  0
LINE
  5
1AA
330
18
100
AcDbEntity
  8
0
100
AcDbLine
 10
2.95087
 20
3.908979
 30
0.0
 11
3.26919
 21
3.715353
 31
0.0
  0
LINE
  5
1AB
330
18
100
AcDbEntity
  8
0
100
AcDbLine
 10
3.448375
 20
3.743971
 30
0.0
 11
3.26919
 21
3.715353
 31
0.0
  0
LINE
  5
1AC
330
18
100
AcDbEntity
  8
0
100
AcDbLine
 10
3.828132
 20
3.96151
 30
0.0
 11
3.448375
 21
3.743971
 31
0.0
  0
LINE
  5
1AD
330
18
100
AcDbEntity
  8
0
100
AcDbLine
 10
3.26919
 20
3.715353
 30
0.0
 11
3.267789
 21
3.669837
 31
0.0
  0
LINE
  5
1AE
330
18
100
AcDbEntity
  8
0
100
AcDbLine
 10
3.448375
 20
3.743971
 30
0.0
 11
3.448375
 21
3.696647
 31
0.0
  0
ARC
  5
1AF
330
18
100
AcDbEntity
  8
0
100
AcDbCircle
 10
2.961264
 20
3.926066000000001
 30
0.0
 40
0.02
100
AcDbArc
 50
180.0
 51
238.688847
  0
LINE
  5
1B0
330
18
100
AcDbEntity
  8
0
100
AcDbLine
 10
4.473433
 20
4.598807
 30
0.0
 11
4.37836
 21
4.634681
 31
0.0
  0
LINE
  5
1B1
330
18
100
AcDbEntity
  8
0
100
AcDbLine
 10
4.473433
 20
4.598807
 30
0.0
 11
4.485611000000001
 21
4.629288
 31
0.0
  0
ARC
  5
1B2
330
18
100
AcDbEntity
  8
0
100
AcDbCircle
 10
4.622594
 20
4.534835
 30
0.0
 40
0.16639
100
AcDbArc
 50
109.729629
 51
145.412798
  0
LINE
  5
1B3
330
18
100
AcDbEntity
  8
0
100
AcDbLine
 10
4.473433
 20
4.598807
 30
0.0
 11
4.594380999999999
 21
4.662431
 31
0.0
  0
LINE
  5
1B4
330
18
100
AcDbEntity
  8
0
100
AcDbLine
 10
4.594380999999999
 20
4.669114
 30
0.0
 11
4.594380999999999
 21
4.662431
 31
0.0
  0
ARC
  5
1B5
330
18
100
AcDbEntity
  8
0
100
AcDbCircle
 10
4.640573000000001
 20
4.622747
 30
0.0
 40
0.213586
100
AcDbArc
 50
117.663684
 51
130.12894
  0
ARC
  5
1B6
330
18
100
AcDbEntity
  8
0
100
AcDbCircle
 10
4.640573000000001
 20
4.622747
 30
0.0
 40
0.213586
100
AcDbArc
 50
136.840391
 51
169.379197
  0
LINE
  5
1B7
330
18
100
AcDbEntity
  8
0
100
AcDbLine
 10
3.941095
 20
4.426203
 30
0.0
 11
3.799233
 21
4.343374
 31
0.0
  0
LINE
  5
1B8
330
18
100
AcDbEntity
  8
0
100
AcDbLine
 10
3.042561
 20
3.963014
 30
0.0
 11
2.994152
 21
3.935043
 31
0.0
  0
LINE
  5
1B9
330
18
100
AcDbEntity
  8
0
100
AcDbLine
 10
4.37836
 20
5.3789
 30
0.0
 11
4.348423
 21
5.366444
 31
0.0
  0
LINE
  5
1BA
330
18
100
AcDbEntity
  8
0
100
AcDbLine
 10
3.941095
 20
5.240463
 30
0.0
 11
3.989077
 21
5.216936000000001
 31
0.0
  0
LINE
  5
1BB
330
18
100
AcDbEntity
  8
0
100
AcDbLine
 10
4.37836
 20
5.214796
 30
0.0
 11
4.348423
 21
5.198208
 31
0.0
  0
LINE
  5
1BC
330
18
100
AcDbEntity
  8
0
100
AcDbLine
 10
3.941095
 20
5.241312000000001
 30
0.0
 11
3.941095
 21
5.240463
 31
0.0
  0
LINE
  5
1BD
330
18
100
AcDbEntity
  8
0
100
AcDbLine
 10
3.941095
 20
5.023777
 30
0.0
 11
3.989352
 21
4.999251
 31
0.0
  0
LINE
  5
1BE
330
18
100
AcDbEntity
  8
0
100
AcDbLine
 10
4.010098
 20
5.225682
 30
0.0
 11
3.989077
 21
5.216936000000001
 31
0.0
  0
LINE
  5
1BF
330
18
100
AcDbEntity
  8
0
100
AcDbLine
 10
4.37836
 20
5.214796
 30
0.0
 11
4.37836
 21
4.634681
 31
0.0
  0
LINE
  5
1C0
330
18
100
AcDbEntity
  8
0
100
AcDbLine
 10
4.37836
 20
5.214796
 30
0.0
 11
4.348423
 21
5.232869
 31
0.0
  0
LINE
  5
1C1
330
18
100
AcDbEntity
  8
0
100
AcDbLine
 10
3.962116
 20
5.031991000000001
 30
0.0
 11
4.010098
 21
5.008137000000001
 31
0.0
  0
LINE
  5
1C2
330
18
100
AcDbEntity
  8
0
100
AcDbLine
 10
3.962116
 20
5.230156
 30
0.0
 11
3.962116
 21
5.031991000000001
 31
0.0
  0
LINE
  5
1C3
330
18
100
AcDbEntity
  8
0
100
AcDbLine
 10
4.010098
 20
5.008137000000001
 30
0.0
 11
3.989077
 21
4.999391
 31
0.0
  0
LINE
  5
1C4
330
18
100
AcDbEntity
  8
0
100
AcDbLine
 10
3.962116
 20
5.031991000000001
 30
0.0
 11
3.941095
 21
5.023777
 31
0.0
  0
ARC
  5
1C5
330
18
100
AcDbEntity
  8
0
100
AcDbCircle
 10
3.861304
 20
4.174569
 30
0.0
 40
0.064184
100
AcDbArc
 50
82.53001500000001
 51
153.256551
  0
ARC
  5
1C6
330
18
100
AcDbEntity
  8
0
100
AcDbCircle
 10
3.813464
 20
4.200264
 30
0.0
 40
0.01
100
AcDbArc
 50
161.410437
 51
185.861264
  0
ARC
  5
1C7
330
18
100
AcDbEntity
  8
0
100
AcDbCircle
 10
3.768478
 20
4.267378
 30
0.0
 40
0.081983
100
AcDbArc
 50
35.540741
 51
86.728239
  0
ARC
  5
1C8
330
18
100
AcDbEntity
  8
0
100
AcDbCircle
 10
3.889185
 20
4.359977
 30
0.0
 40
0.070255
100
AcDbArc
 50
219.771329
 51
266.832706
  0
LWPOLYLINE
  5
1C9
330
18
100
AcDbEntity
  8
0
100
AcDbPolyline
 90
       16
 70
     1
 43
0.0
 10
4.185127
 20
4.873566
 42
0.11971
 10
4.173804000000001
 20
4.872794
 42
0.104898
 10
4.162572
 20
4.866431
 42
0.089061
 10
4.154329
 20
4.855998000000001
 42
0.080386
 10
4.149554
 20
4.842085
 42
0.080386
 10
4.149411
 20
4.827376
 42
0.089061
 10
4.153698
 20
4.81479
 42
0.104898
 10
4.162162
 20
4.805042
 42
0.11971
 10
4.172577
 20
4.800535
 42
0.11971
 10
4.1839
 20
4.801307
 42
0.104898
 10
4.195132
 20
4.80767
 42
0.089061
 10
4.203375
 20
4.818103
 42
0.080386
 10
4.20815
 20
4.832016
 42
0.080386
 10
4.208293
 20
4.846725
 42
0.089061
 10
4.204006
 20
4.859311
 42
0.104898
 10
4.195542
 20
4.869058
 42
0.11971
  0
LWPOLYLINE
  5
1DC
330
18
100
AcDbEntity
  8
0
100
AcDbPolyline
 90
        6
 70
     0
 43
0.0
 10
4.152993
 20
4.816125
 42
0.091346
 10
4.162647
 20
4.821942
 42
0.089061
 10
4.17089
 20
4.832374
 42
0.080386
 10
4.175665
 20
4.846288
 42
0.080386
 10
4.175808999999999
 20
4.860997
 42
0.078956
 10
4.172226
 20
4.872248
 42
0.104898
  0
LWPOLYLINE
  5
1E5
330
18
100
AcDbEntity
  8
0
100
AcDbPolyline
 90
       16
 70
     1
 43
0.0
 10
4.185127
 20
5.608333999999999
 42
0.11971
 10
4.173804000000001
 20
5.607562000000001
 42
0.104898
 10
4.162572
 20
5.601198999999999
 42
0.089061
 10
4.154329
 20
5.590766
 42
0.080386
 10
4.149554
 20
5.576853
 42
0.080386
 10
4.149411
 20
5.562143
 42
0.089061
 10
4.153698
 20
5.549557
 42
0.104898
 10
4.162162
 20
5.53981
 42
0.11971
 10
4.172577
 20
5.535302
 42
0.11971
 10
4.1839
 20
5.536075
 42
0.104898
 10
4.195132
 20
5.542438
 42
0.089061
 10
4.203375
 20
5.55287
 42
0.080386
 10
4.20815
 20
5.566783999999999
 42
0.080386
 10
4.208293
 20
5.581493
 42
0.089061
 10
4.204006
 20
5.594079
 42
0.104898
 10
4.195542
 20
5.603826000000001
 42
0.11971
  0
LWPOLYLINE
  5
1F8
330
18
100
AcDbEntity
  8
0
100
AcDbPolyline
 90
        6
 70
     0
 43
0.0
 10
4.152993
 20
5.550892
 42
0.091346
 10
4.162647
 20
5.556709
 42
0.089061
 10
4.17089
 20
5.567142
 42
0.080386
 10
4.175665
 20
5.581055
 42
0.080386
 10
4.175808999999999
 20
5.595764
 42
0.078956
 10
4.172226
 20
5.607015000000001
 42
0.104898
  0
LWPOLYLINE
  5
201
330
18
100
AcDbEntity
  8
0
100
AcDbPolyline
 90
       16
 70
     1
 43
0.0
 10
4.185127
 20
6.329912
 42
0.11971
 10
4.173804000000001
 20
6.32914
 42
0.104898
 10
4.162572
 20
6.322776999999999
 42
0.089061
 10
4.154329
 20
6.312344
 42
0.080386
 10
4.149554
 20
6.298431
 42
0.080386
 10
4.149411
 20
6.283722
 42
0.089061
 10
4.153698
 20
6.271136
 42
0.104898
 10
4.162162
 20
6.261389
 42
0.11971
 10
4.172577
 20
6.256881
 42
0.11971
 10
4.1839
 20
6.257653
 42
0.104898
 10
4.195132
 20
6.264016000000001
 42
0.089061
 10
4.203375
 20
6.274449
 42
0.080386
 10
4.20815
 20
6.288362
 42
0.080386
 10
4.208293
 20
6.303071
 42
0.089061
 10
4.204006
 20
6.315657
 42
0.104898
 10
4.195542
 20
6.325405
 42
0.11971
  0
LWPOLYLINE
  5
214
330
18
100
AcDbEntity
  8
0
100
AcDbPolyline
 90
        6
 70
     0
 43
0.0
 10
4.152993
 20
6.272471
 42
0.091346
 10
4.162647
 20
6.278288
 42
0.089061
 10
4.17089
 20
6.288721
 42
0.080386
 10
4.175665
 20
6.302633999999999
 42
0.080386
 10
4.175808999999999
 20
6.317343
 42
0.078956
 10
4.172226
 20
6.328594
 42
0.104898
  0
LWPOLYLINE
  5
21D
330
18
100
AcDbEntity
  8
0
100
AcDbPolyline
 90
       16
 70
     1
 43
0.0
 10
4.20447
 20
7.832803999999999
 42
0.11971
 10
4.193147
 20
7.832031
 42
0.104898
 10
4.181915
 20
7.825667999999999
 42
0.089061
 10
4.173672
 20
7.815235
 42
0.080386
 10
4.168897
 20
7.801322
 42
0.080386
 10
4.168754
 20
7.786613000000001
 42
0.089061
 10
4.173041
 20
7.774027
 42
0.104898
 10
4.181505000000001
 20
7.76428
 42
0.11971
 10
4.19192
 20
7.759772
 42
0.11971
 10
4.203243
 20
7.760544
 42
0.104898
 10
4.214475
 20
7.766907000000001
 42
0.089061
 10
4.222718
 20
7.77734
 42
0.080386
 10
4.227493
 20
7.791253
 42
0.080386
 10
4.227636
 20
7.805961999999999
 42
0.089061
 10
4.223348000000001
 20
7.818548
 42
0.104898
 10
4.214885
 20
7.828296000000001
 42
0.11971
  0
LWPOLYLINE
  5
230
330
18
100
AcDbEntity
  8
0
100
AcDbPolyline
 90
        6
 70
     0
 43
0.0
 10
4.172336000000001
 20
7.775361999999999
 42
0.091346
 10
4.18199
 20
7.781178999999999
 42
0.089061
 10
4.190233
 20
7.791612
 42
0.080386
 10
4.195008000000001
 20
7.805525
 42
0.080386
 10
4.195151
 20
7.820233999999999
 42
0.078956
 10
4.191569
 20
7.831485000000001
 42
0.104898
  0
LWPOLYLINE
  5
239
330
18
100
AcDbEntity
  8
0
100
AcDbPolyline
 90
       16
 70
     1
 43
0.0
 10
4.185127
 20
8.69084
 42
0.11971
 10
4.173804000000001
 20
8.690068
 42
0.104898
 10
4.162572
 20
8.683705
 42
0.089061
 10
4.154329
 20
8.673272000000001
 42
0.080386
 10
4.149554
 20
8.659359
 42
0.080386
 10
4.149411
 20
8.64465
 42
0.089061
 10
4.153698
 20
8.632064
 42
0.104898
 10
4.162162
 20
8.622316
 42
0.11971
 10
4.172577
 20
8.617808999999999
 42
0.11971
 10
4.1839
 20
8.618580999999999
 42
0.104898
 10
4.195132
 20
8.624944000000001
 42
0.089061
 10
4.203375
 20
8.635377
 42
0.080386
 10
4.20815
 20
8.649289999999999
 42
0.080386
 10
4.208293
 20
8.663999
 42
0.089061
 10
4.204006
 20
8.676585000000001
 42
0.104898
 10
4.195542
 20
8.686332
 42
0.11971
  0
LWPOLYLINE
  5
24C
330
18
100
AcDbEntity
  8
0
100
AcDbPolyline
 90
        6
 70
     0
 43
0.0
 10
4.152993
 20
8.633399000000001
 42
0.091346
 10
4.162647
 20
8.639216000000001
 42
0.089061
 10
4.17089
 20
8.649647999999999
 42
0.080386
 10
4.175665
 20
8.663561999999999
 42
0.080386
 10
4.175808999999999
 20
8.678271000000001
 42
0.078956
 10
4.172226
 20
8.689522
 42
0.104898
  0
LWPOLYLINE
  5
255
330
18
100
AcDbEntity
  8
0
100
AcDbPolyline
 90
       16
 70
     1
 43
0.0
 10
4.185127
 20
10.278037
 42
0.11971
 10
4.173804000000001
 20
10.277265
 42
0.104898
 10
4.162572
 20
10.270902
 42
0.089061
 10
4.154329
 20
10.260469
 42
0.080386
 10
4.149554
 20
10.246556
 42
0.080386
 10
4.149411
 20
10.231847
 42
0.089061
 10
4.153698
 20
10.219261
 42
0.104898
 10
4.162162
 20
10.209513
 42
0.11971
 10
4.172577
 20
10.205006
 42
0.11971
 10
4.1839
 20
10.205778
 42
0.104898
 10
4.195132
 20
10.212141
 42
0.089061
 10
4.203375
 20
10.222574
 42
0.080386
 10
4.20815
 20
10.236487
 42
0.080386
 10
4.208293
 20
10.251196
 42
0.089061
 10
4.204006
 20
10.263782
 42
0.104898
 10
4.195542
 20
10.27353
 42
0.11971
  0
LWPOLYLINE
  5
268
330
18
100
AcDbEntity
  8
0
100
AcDbPolyline
 90
        6
 70
     0
 43
0.0
 10
4.152993
 20
10.220596
 42
0.091346
 10
4.162647
 20
10.226413
 42
0.089061
 10
4.17089
 20
10.236846
 42
0.080386
 10
4.175665
 20
10.250759
 42
0.080386
 10
4.175808999999999
 20
10.265468
 42
0.078956
 10
4.172226
 20
10.276719
 42
0.104898
  0
LWPOLYLINE
  5
271
330
18
100
AcDbEntity
  8
0
100
AcDbPolyline
 90
        6
 70
     0
 43
0.0
 10
4.044449
 20
5.895087
 42
0.091346
 10
4.054103
 20
5.900904
 42
0.089061
 10
4.062346
 20
5.911337000000001
 42
0.080386
 10
4.067121
 20
5.92525
 42
0.080386
 10
4.067264
 20
5.939959
 42
0.078956
 10
4.063682
 20
5.95121
 42
0.104898
  0
LWPOLYLINE
  5
27A
330
18
100
AcDbEntity
  8
0
100
AcDbPolyline
 90
       16
 70
     1
 43
0.0
 10
4.076583
 20
5.952529
 42
0.11971
 10
4.065259999999999
 20
5.951756
 42
0.104898
 10
4.054028
 20
5.945394
 42
0.089061
 10
4.045785
 20
5.934961
 42
0.080386
 10
4.04101
 20
5.921047
 42
0.080386
 10
4.040867
 20
5.906338
 42
0.089061
 10
4.045154
 20
5.893752
 42
0.104898
 10
4.053618
 20
5.884005
 42
0.11971
 10
4.064033
 20
5.879497
 42
0.11971
 10
4.075356
 20
5.880269999999999
 42
0.104898
 10
4.086588
 20
5.886633
 42
0.089061
 10
4.094831
 20
5.897065
 42
0.080386
 10
4.099606
 20
5.910979
 42
0.080386
 10
4.099749
 20
5.925688
 42
0.089061
 10
4.095462
 20
5.938274
 42
0.104898
 10
4.086998
 20
5.948021
 42
0.11971
  0
LWPOLYLINE
  5
28D
330
18
100
AcDbEntity
  8
0
100
AcDbPolyline
 90
       16
 70
     1
 43
0.0
 10
4.076583
 20
7.016589
 42
0.11971
 10
4.065259999999999
 20
7.015817
 42
0.104898
 10
4.054028
 20
7.009453999999999
 42
0.089061
 10
4.045785
 20
6.999021000000001
 42
0.080386
 10
4.04101
 20
6.985108
 42
0.080386
 10
4.040867
 20
6.970399000000001
 42
0.089061
 10
4.045154
 20
6.957812
 42
0.104898
 10
4.053618
 20
6.948065
 42
0.11971
 10
4.064033
 20
6.943557000000001
 42
0.11971
 10
4.075356
 20
6.94433
 42
0.104898
 10
4.086588
 20
6.950692999999999
 42
0.089061
 10
4.094831
 20
6.961125999999999
 42
0.080386
 10
4.099606
 20
6.975039
 42
0.080386
 10
4.099749
 20
6.989748
 42
0.089061
 10
4.095462
 20
7.002333999999999
 42
0.104898
 10
4.086998
 20
7.012080999999999
 42
0.11971
  0
LWPOLYLINE
  5
2A0
330
18
100
AcDbEntity
  8
0
100
AcDbPolyline
 90
        6
 70
     0
 43
0.0
 10
4.044449
 20
6.959148
 42
0.091346
 10
4.054103
 20
6.964964
 42
0.089061
 10
4.062346
 20
6.975397
 42
0.080386
 10
4.067121
 20
6.989310000000001
 42
0.080386
 10
4.067264
 20
7.00402
 42
0.078956
 10
4.063682
 20
7.01527
 42
0.104898
  0
LWPOLYLINE
  5
2A9
330
18
100
AcDbEntity
  8
0
100
AcDbPolyline
 90
       16
 70
     1
 43
0.0
 10
4.076583
 20
7.930391
 42
0.11971
 10
4.065259999999999
 20
7.929619000000001
 42
0.104898
 10
4.054028
 20
7.923255999999999
 42
0.089061
 10
4.045785
 20
7.912823
 42
0.080386
 10
4.04101
 20
7.898910000000001
 42
0.080386
 10
4.040867
 20
7.884200999999999
 42
0.089061
 10
4.045154
 20
7.871614999999999
 42
0.104898
 10
4.053618
 20
7.861867
 42
0.11971
 10
4.064033
 20
7.857360000000001
 42
0.11971
 10
4.075356
 20
7.858132
 42
0.104898
 10
4.086588
 20
7.864495
 42
0.089061
 10
4.094831
 20
7.874928
 42
0.080386
 10
4.099606
 20
7.888841
 42
0.080386
 10
4.099749
 20
7.90355
 42
0.089061
 10
4.095462
 20
7.916136
 42
0.104898
 10
4.086998
 20
7.925884
 42
0.11971
  0
LWPOLYLINE
  5
2BC
330
18
100
AcDbEntity
  8
0
100
AcDbPolyline
 90
        6
 70
     0
 43
0.0
 10
4.044449
 20
7.87295
 42
0.091346
 10
4.054103
 20
7.878767
 42
0.089061
 10
4.062346
 20
7.889199000000001
 42
0.080386
 10
4.067121
 20
7.903113
 42
0.080386
 10
4.067264
 20
7.917822
 42
0.078956
 10
4.063682
 20
7.929073
 42
0.104898
  0
LWPOLYLINE
  5
2C5
330
18
100
AcDbEntity
  8
0
100
AcDbPolyline
 90
       16
 70
     1
 43
0.0
 10
4.076583
 20
9.020213
 42
0.11971
 10
4.065259999999999
 20
9.01944
 42
0.104898
 10
4.054028
 20
9.013078
 42
0.089061
 10
4.045785
 20
9.002644999999999
 42
0.080386
 10
4.04101
 20
8.988731
 42
0.080386
 10
4.040867
 20
8.974022
 42
0.089061
 10
4.045154
 20
8.961436000000001
 42
0.104898
 10
4.053618
 20
8.951689
 42
0.11971
 10
4.064033
 20
8.947181000000001
 42
0.11971
 10
4.075356
 20
8.947953999999999
 42
0.104898
 10
4.086588
 20
8.954317
 42
0.089061
 10
4.094831
 20
8.964749000000001
 42
0.080386
 10
4.099606
 20
8.978663000000001
 42
0.080386
 10
4.099749
 20
8.993372000000001
 42
0.089061
 10
4.095462
 20
9.005958
 42
0.104898
 10
4.086998
 20
9.015705000000001
 42
0.11971
  0
LWPOLYLINE
  5
2D8
330
18
100
AcDbEntity
  8
0
100
AcDbPolyline
 90
        6
 70
     0
 43
0.0
 10
4.044449
 20
8.962771
 42
0.091346
 10
4.054103
 20
8.968588
 42
0.089061
 10
4.062346
 20
8.979021000000001
 42
0.080386
 10
4.067121
 20
8.992934
 42
0.080386
 10
4.067264
 20
9.007643
 42
0.078956
 10
4.063682
 20
9.018894
 42
0.104898
  0
LWPOLYLINE
  5
2E1
330
18
100
AcDbEntity
  8
0
100
AcDbPolyline
 90
       16
 70
     1
 43
0.0
 10
4.076583
 20
9.933957000000001
 42
0.11971
 10
4.065259999999999
 20
9.933185
 42
0.104898
 10
4.054028
 20
9.926822
 42
0.089061
 10
4.045785
 20
9.916389000000001
 42
0.080386
 10
4.04101
 20
9.902476
 42
0.080386
 10
4.040867
 20
9.887767
 42
0.089061
 10
4.045154
 20
9.875181
 42
0.104898
 10
4.053618
 20
9.865433
 42
0.11971
 10
4.064033
 20
9.860925
 42
0.11971
 10
4.075356
 20
9.861697999999999
 42
0.104898
 10
4.086588
 20
9.868061000000001
 42
0.089061
 10
4.094831
 20
9.878494
 42
0.080386
 10
4.099606
 20
9.892407
 42
0.080386
 10
4.099749
 20
9.907116
 42
0.089061
 10
4.095462
 20
9.919702000000001
 42
0.104898
 10
4.086998
 20
9.929449
 42
0.11971
  0
LWPOLYLINE
  5
2F4
330
18
100
AcDbEntity
  8
0
100
AcDbPolyline
 90
        6
 70
     0
 43
0.0
 10
4.044449
 20
9.876516000000001
 42
0.091346
 10
4.054103
 20
9.882332
 42
0.089061
 10
4.062346
 20
9.892764999999999
 42
0.080386
 10
4.067121
 20
9.906677999999999
 42
0.080386
 10
4.067264
 20
9.921388
 42
0.078956
 10
4.063682
 20
9.932639
 42
0.104898
  0
LWPOLYLINE
  5
2FD
330
18
100
AcDbEntity
  8
0
100
AcDbPolyline
 90
        6
 70
     0
 43
0.0
 10
4.266268
 20
6.485108
 42
0.091346
 10
4.275922
 20
6.490924
 42
0.089061
 10
4.284165
 20
6.501357
 42
0.080386
 10
4.28894
 20
6.51527
 42
0.080386
 10
4.289083
 20
6.529979
 42
0.078956
 10
4.285501
 20
6.541230000000001
 42
0.104898
  0
LWPOLYLINE
  5
306
330
18
100
AcDbEntity
  8
0
100
AcDbPolyline
 90
       16
 70
     1
 43
0.0
 10
4.298401
 20
6.542549
 42
0.11971
 10
4.287079
 20
6.541777
 42
0.104898
 10
4.275847
 20
6.535414
 42
0.089061
 10
4.267604
 20
6.524981
 42
0.080386
 10
4.262829
 20
6.511068
 42
0.080386
 10
4.262685
 20
6.496359
 42
0.089061
 10
4.266973
 20
6.483772
 42
0.104898
 10
4.275437
 20
6.474025
 42
0.11971
 10
4.285851999999999
 20
6.469517
 42
0.11971
 10
4.297175
 20
6.47029
 42
0.104898
 10
4.308407
 20
6.476653
 42
0.089061
 10
4.31665
 20
6.487086
 42
0.080386
 10
4.321425
 20
6.500999
 42
0.080386
 10
4.321568
 20
6.515708
 42
0.089061
 10
4.31728
 20
6.528294
 42
0.104898
 10
4.308817
 20
6.538041000000001
 42
0.11971
  0
LWPOLYLINE
  5
319
330
18
100
AcDbEntity
  8
0
100
AcDbPolyline
 90
       16
 70
     1
 43
0.0
 10
4.298401
 20
7.618423
 42
0.11971
 10
4.287079
 20
7.617651
 42
0.104898
 10
4.275847
 20
7.611288
 42
0.089061
 10
4.267604
 20
7.600855
 42
0.080386
 10
4.262829
 20
7.586942
 42
0.080386
 10
4.262685
 20
7.572233
 42
0.089061
 10
4.266973
 20
7.559647
 42
0.104898
 10
4.275437
 20
7.549899000000001
 42
0.11971
 10
4.285851999999999
 20
7.545392
 42
0.11971
 10
4.297175
 20
7.546164
 42
0.104898
 10
4.308407
 20
7.552527
 42
0.089061
 10
4.31665
 20
7.56296
 42
0.080386
 10
4.321425
 20
7.576873
 42
0.080386
 10
4.321568
 20
7.591582000000001
 42
0.089061
 10
4.31728
 20
7.604168
 42
0.104898
 10
4.308817
 20
7.613915
 42
0.11971
  0
LWPOLYLINE
  5
32C
330
18
100
AcDbEntity
  8
0
100
AcDbPolyline
 90
        6
 70
     0
 43
0.0
 10
4.266268
 20
7.560982000000001
 42
0.091346
 10
4.275922
 20
7.566799000000001
 42
0.089061
 10
4.284165
 20
7.577230999999999
 42
0.080386
 10
4.28894
 20
7.591145
 42
0.080386
 10
4.289083
 20
7.605853999999999
 42
0.078956
 10
4.285501
 20
7.617105000000001
 42
0.104898
  0
LWPOLYLINE
  5
335
330
18
100
AcDbEntity
  8
0
100
AcDbPolyline
 90
       16
 70
     1
 43
0.0
 10
4.298401
 20
8.432145
 42
0.11971
 10
4.287079
 20
8.431372999999999
 42
0.104898
 10
4.275847
 20
8.42501
 42
0.089061
 10
4.267604
 20
8.414577
 42
0.080386
 10
4.262829
 20
8.400664000000001
 42
0.080386
 10
4.262685
 20
8.385955000000001
 42
0.089061
 10
4.266973
 20
8.373369
 42
0.104898
 10
4.275437
 20
8.363621
 42
0.11971
 10
4.285851999999999
 20
8.359114
 42
0.11971
 10
4.297175
 20
8.359886
 42
0.104898
 10
4.308407
 20
8.366249
 42
0.089061
 10
4.31665
 20
8.376682000000001
 42
0.080386
 10
4.321425
 20
8.390594999999999
 42
0.080386
 10
4.321568
 20
8.405303999999999
 42
0.089061
 10
4.31728
 20
8.41789
 42
0.104898
 10
4.308817
 20
8.427638
 42
0.11971
  0
LWPOLYLINE
  5
348
330
18
100
AcDbEntity
  8
0
100
AcDbPolyline
 90
        6
 70
     0
 43
0.0
 10
4.266268
 20
8.374704
 42
0.091346
 10
4.275922
 20
8.380521
 42
0.089061
 10
4.284165
 20
8.390953
 42
0.080386
 10
4.28894
 20
8.404866999999999
 42
0.080386
 10
4.289083
 20
8.419575999999999
 42
0.078956
 10
4.285501
 20
8.430827000000001
 42
0.104898
  0
LWPOLYLINE
  5
351
330
18
100
AcDbEntity
  8
0
100
AcDbPolyline
 90
       16
 70
     1
 43
0.0
 10
4.298401
 20
9.567049000000001
 42
0.11971
 10
4.287079
 20
9.566277000000001
 42
0.104898
 10
4.275847
 20
9.559913999999999
 42
0.089061
 10
4.267604
 20
9.549481
 42
0.080386
 10
4.262829
 20
9.535568
 42
0.080386
 10
4.262685
 20
9.520859
 42
0.089061
 10
4.266973
 20
9.508272999999999
 42
0.104898
 10
4.275437
 20
9.498526
 42
0.11971
 10
4.285851999999999
 20
9.494017999999999
 42
0.11971
 10
4.297175
 20
9.49479
 42
0.104898
 10
4.308407
 20
9.501153
 42
0.089061
 10
4.31665
 20
9.511585999999999
 42
0.080386
 10
4.321425
 20
9.525499
 42
0.080386
 10
4.321568
 20
9.540208
 42
0.089061
 10
4.31728
 20
9.552794000000001
 42
0.104898
 10
4.308817
 20
9.562542000000001
 42
0.11971
  0
LWPOLYLINE
  5
364
330
18
100
AcDbEntity
  8
0
100
AcDbPolyline
 90
        6
 70
     0
 43
0.0
 10
4.266268
 20
9.509608
 42
0.091346
 10
4.275922
 20
9.515425000000001
 42
0.089061
 10
4.284165
 20
9.525858
 42
0.080386
 10
4.28894
 20
9.539771
 42
0.080386
 10
4.289083
 20
9.55448
 42
0.078956
 10
4.285501
 20
9.565731
 42
0.104898
  0
LWPOLYLINE
  5
36D
330
18
100
AcDbEntity
  8
0
100
AcDbPolyline
 90
       16
 70
     1
 43
0.0
 10
4.298401
 20
10.458759
 42
0.11971
 10
4.287079
 20
10.457986
 42
0.104898
 10
4.275847
 20
10.451623
 42
0.089061
 10
4.267604
 20
10.44119
 42
0.080386
 10
4.262829
 20
10.427277
 42
0.080386
 10
4.262685
 20
10.412568
 42
0.089061
 10
4.266973
 20
10.399982
 42
0.104898
 10
4.275437
 20
10.390235
 42
0.11971
 10
4.285851999999999
 20
10.385727
 42
0.11971
 10
4.297175
 20
10.386499
 42
0.104898
 10
4.308407
 20
10.392862
 42
0.089061
 10
4.31665
 20
10.403295
 42
0.080386
 10
4.321425
 20
10.417208
 42
0.080386
 10
4.321568
 20
10.431917
 42
0.089061
 10
4.31728
 20
10.444503
 42
0.104898
 10
4.308817
 20
10.454251
 42
0.11971
  0
LWPOLYLINE
  5
380
330
18
100
AcDbEntity
  8
0
100
AcDbPolyline
 90
        6
 70
     0
 43
0.0
 10
4.266268
 20
10.401317
 42
0.091346
 10
4.275922
 20
10.407134
 42
0.089061
 10
4.284165
 20
10.417567
 42
0.080386
 10
4.28894
 20
10.43148
 42
0.080386
 10
4.289083
 20
10.446189
 42
0.078956
 10
4.285501
 20
10.45744
 42
0.104898
  0
LWPOLYLINE
  5
389
330
18
100
AcDbEntity
  8
0
100
AcDbPolyline
 90
       16
 70
     1
 43
0.0
 10
5.465042
 20
5.021753
 42
0.166236
 10
5.463332
 20
5.029587
 42
0.105565
 10
5.45482
 20
5.038638
 42
0.068391
 10
5.442892
 20
5.044684999999999
 42
0.054564
 10
5.426575
 20
5.048394999999999
 42
0.054564
 10
5.409842
 20
5.048487000000001
 42
0.068391
 10
5.396852
 20
5.045308
 42
0.105565
 10
5.386508
 20
5.038427
 42
0.166236
 10
5.383063
 20
5.031186
 42
0.166236
 10
5.384773
 20
5.023351
 42
0.105565
 10
5.393285
 20
5.014301000000001
 42
0.068391
 10
5.405213
 20
5.008254
 42
0.054564
 10
5.421530000000001
 20
5.004544
 42
0.054564
 10
5.438263
 20
5.004451
 42
0.068391
 10
5.451253
 20
5.007631
 42
0.105565
 10
5.461598
 20
5.014512
 42
0.166236
  0
LWPOLYLINE
  5
39C
330
18
100
AcDbEntity
  8
0
100
AcDbPolyline
 90
        7
 70
     0
 43
0.0
 10
5.462013
 20
5.014958999999999
 42
0.035966
 10
5.455526
 20
5.017736
 42
0.054564
 10
5.439209
 20
5.021446
 42
0.054564
 10
5.422476000000001
 20
5.021539
 42
0.068391
 10
5.409486
 20
5.018358999999999
 42
0.105565
 10
5.399141
 20
5.011478
 42
0.012311
 10
5.398726
 20
5.011031
 42
0.166236
  0
LWPOLYLINE
  5
3A6
330
18
100
AcDbEntity
  8
0
100
AcDbPolyline
 90
       16
 70
     1
 43
0.0
 10
3.364582
 20
3.777912
 42
0.166236
 10
3.362872
 20
3.785746
 42
0.105565
 10
3.35436
 20
3.794797
 42
0.068391
 10
3.342432
 20
3.800843
 42
0.054564
 10
3.326115
 20
3.804554
 42
0.054564
 10
3.309382
 20
3.804646
 42
0.068391
 10
3.296392
 20
3.801467
 42
0.105565
 10
3.286048000000001
 20
3.794585
 42
0.166236
 10
3.282603
 20
3.787344
 42
0.166236
 10
3.284313
 20
3.77951
 42
0.105565
 10
3.292825
 20
3.770459
 42
0.068391
 10
3.304753
 20
3.764413
 42
0.054564
 10
3.32107
 20
3.760703
 42
0.054564
 10
3.337803
 20
3.76061
 42
0.068391
 10
3.350793
 20
3.76379
 42
0.105565
 10
3.361138
 20
3.770671
 42
0.166236
  0
LWPOLYLINE
  5
3B9
330
18
100
AcDbEntity
  8
0
100
AcDbPolyline
 90
        7
 70
     0
 43
0.0
 10
3.361553
 20
3.771118
 42
0.035966
 10
3.355066
 20
3.773895
 42
0.054564
 10
3.338749
 20
3.777605
 42
0.054564
 10
3.322016000000001
 20
3.777698
 42
0.068391
 10
3.309026
 20
3.774518
 42
0.105565
 10
3.298681
 20
3.767637
 42
0.012311
 10
3.298266
 20
3.76719
 42
0.166236
  0
LWPOLYLINE
  5
3C3
330
18
100
AcDbEntity
  8
0
100
AcDbPolyline
 90
       16
 70
     1
 43
0.0
 10
5.191648000000001
 20
5.499146
 42
0.142064
 10
5.183868
 20
5.499628
 42
0.107165
 10
5.174572
 20
5.495322
 42
0.078834
 10
5.167074
 20
5.487528
 42
0.066248
 10
5.161182
 20
5.476113
 42
0.066248
 10
5.158481
 20
5.463554
 42
0.078834
 10
5.159321
 20
5.452772
 42
0.107165
 10
5.163765
 20
5.443541000000001
 42
0.142064
 10
5.170080000000001
 20
5.438972
 42
0.142064
 10
5.177859
 20
5.43849
 42
0.107165
 10
5.187155000000001
 20
5.442796
 42
0.078834
 10
5.194653
 20
5.450589
 42
0.066248
 10
5.200545
 20
5.462004
 42
0.066248
 10
5.203246
 20
5.474563
 42
0.078834
 10
5.202406
 20
5.485345
 42
0.107165
 10
5.197962
 20
5.494576
 42
0.142064
  0
LWPOLYLINE
  5
3D6
330
18
100
AcDbEntity
  8
0
100
AcDbPolyline
 90
        7
 70
     0
 43
0.0
 10
5.159475
 20
5.452168
 42
0.015825
 10
5.160723
 20
5.453051
 42
0.078834
 10
5.168222
 20
5.460844
 42
0.066248
 10
5.174112999999999
 20
5.472258999999999
 42
0.066248
 10
5.176815
 20
5.484818
 42
0.078834
 10
5.175974
 20
5.4956
 42
0.006453
 10
5.175821
 20
5.496205000000001
 42
0.142064
  0
LWPOLYLINE
  5
3E0
330
18
100
AcDbEntity
  8
0
100
AcDbPolyline
 90
       16
 70
     1
 43
0.0
 10
4.637382
 20
5.074748000000001
 42
0.142064
 10
4.629601999999999
 20
5.07523
 42
0.107165
 10
4.620305999999999
 20
5.070924
 42
0.078834
 10
4.612808
 20
5.06313
 42
0.066248
 10
4.606916
 20
5.051715
 42
0.066248
 10
4.604215
 20
5.039157
 42
0.078834
 10
4.605055
 20
5.028374
 42
0.107165
 10
4.609499
 20
5.019143
 42
0.142064
 10
4.615814
 20
5.014574
 42
0.142064
 10
4.623593
 20
5.014092
 42
0.107165
 10
4.632889
 20
5.018398
 42
0.078834
 10
4.640387000000001
 20
5.026191000000001
 42
0.066248
 10
4.646279
 20
5.037605999999999
 42
0.066248
 10
4.64898
 20
5.050165
 42
0.078834
 10
4.64814
 20
5.060947000000001
 42
0.107165
 10
4.643696
 20
5.070178
 42
0.142064
  0
LWPOLYLINE
  5
3F3
330
18
100
AcDbEntity
  8
0
100
AcDbPolyline
 90
        7
 70
     0
 43
0.0
 10
4.605208
 20
5.027769999999999
 42
0.015825
 10
4.606457
 20
5.028653
 42
0.078834
 10
4.613956
 20
5.036446
 42
0.066248
 10
4.619847
 20
5.047861
 42
0.066248
 10
4.622548999999999
 20
5.06042
 42
0.078834
 10
4.621708
 20
5.071202
 42
0.006453
 10
4.621555
 20
5.071807
 42
0.142064
  0
LWPOLYLINE
  5
3FD
330
18
100
AcDbEntity
  8
0
100
AcDbPolyline
 90
       16
 70
     1
 43
0.0
 10
3.701025
 20
4.533884
 42
0.142064
 10
3.693245
 20
4.534366
 42
0.107165
 10
3.683949
 20
4.53006
 42
0.078834
 10
3.676451
 20
4.522267
 42
0.066248
 10
3.670559
 20
4.510852
 42
0.066248
 10
3.667858
 20
4.498293
 42
0.078834
 10
3.668698000000001
 20
4.487511000000001
 42
0.107165
 10
3.673142
 20
4.478280000000001
 42
0.142064
 10
3.679456
 20
4.473711
 42
0.142064
 10
3.687236
 20
4.473228
 42
0.107165
 10
3.696532
 20
4.477534
 42
0.078834
 10
3.70403
 20
4.485328
 42
0.066248
 10
3.709922
 20
4.496743
 42
0.066248
 10
3.712623
 20
4.509302
 42
0.078834
 10
3.711783
 20
4.520084
 42
0.107165
 10
3.707339
 20
4.529315
 42
0.142064
  0
LWPOLYLINE
  5
410
330
18
100
AcDbEntity
  8
0
100
AcDbPolyline
 90
        7
 70
     0
 43
0.0
 10
3.668851
 20
4.486905999999999
 42
0.015825
 10
3.6701
 20
4.48779
 42
0.078834
 10
3.677599
 20
4.495583
 42
0.066248
 10
3.68349
 20
4.506998
 42
0.066248
 10
3.686192
 20
4.519557
 42
0.078834
 10
3.685351
 20
4.530339
 42
0.006453
 10
3.685198
 20
4.530944
 42
0.142064
  0
LWPOLYLINE
  5
41A
330
18
100
AcDbEntity
  8
0
100
AcDbPolyline
 90
       16
 70
     1
 43
0.0
 10
3.085666
 20
4.325149
 42
0.142064
 10
3.077887
 20
4.325631
 42
0.107165
 10
3.068591
 20
4.321325
 42
0.078834
 10
3.061093
 20
4.313532
 42
0.066248
 10
3.055201
 20
4.302117
 42
0.066248
 10
3.0525
 20
4.289558
 42
0.078834
 10
3.05334
 20
4.278776000000001
 42
0.107165
 10
3.057784
 20
4.269545
 42
0.142064
 10
3.064098
 20
4.264975
 42
0.142064
 10
3.071878
 20
4.264493
 42
0.107165
 10
3.081174
 20
4.268799
 42
0.078834
 10
3.088672
 20
4.276593
 42
0.066248
 10
3.094564
 20
4.288008000000001
 42
0.066248
 10
3.097265
 20
4.300567
 42
0.078834
 10
3.096425
 20
4.311349
 42
0.107165
 10
3.091981
 20
4.320580000000001
 42
0.142064
  0
LWPOLYLINE
  5
42D
330
18
100
AcDbEntity
  8
0
100
AcDbPolyline
 90
        7
 70
     0
 43
0.0
 10
3.053493
 20
4.278171
 42
0.015825
 10
3.054742
 20
4.279054
 42
0.078834
 10
3.062241
 20
4.286848
 42
0.066248
 10
3.068132
 20
4.298263
 42
0.066248
 10
3.070833
 20
4.310822
 42
0.078834
 10
3.069993
 20
4.321604
 42
0.006453
 10
3.06984
 20
4.322208
 42
0.142064
  0
LWPOLYLINE
  5
437
330
18
100
AcDbEntity
  8
0
  6
DASHED2
100
AcDbPolyline
 90
       16
 70
   129
 43
0.0
 10
4.273887
 20
4.322339
 42
0.107189
 10
4.257702
 20
4.319998
 42
0.101679
 10
4.243112
 20
4.310852
 42
0.094747
 10
4.232987000000001
 20
4.296649
 42
0.090367
 10
4.228464
 20
4.278944
 42
0.090367
 10
4.230476
 20
4.260782
 42
0.094747
 10
4.238524
 20
4.245307
 42
0.101679
 10
4.251698
 20
4.234217
 42
0.107189
 10
4.267399
 20
4.229644
 42
0.107189
 10
4.283583999999999
 20
4.231985
 42
0.101679
 10
4.298175
 20
4.241131
 42
0.094747
 10
4.3083
 20
4.255334
 42
0.090367
 10
4.312823000000001
 20
4.273039
 42
0.090367
 10
4.31081
 20
4.291201
 42
0.094747
 10
4.302763
 20
4.306677
 42
0.101679
 10
4.289588
 20
4.317766000000001
 42
0.107189
  0
LWPOLYLINE
  5
44A
330
18
100
AcDbEntity
  8
0
  6
DASHED2
100
AcDbPolyline
 90
       16
 70
   129
 43
0.0
 10
4.721364
 20
3.358799
 42
0.114395
 10
4.709739
 20
3.357144
 42
0.103719
 10
4.698902
 20
3.350107
 42
0.091499
 10
4.691376
 20
3.33924
 42
0.084405
 10
4.687768
 20
3.325391
 42
0.084405
 10
4.688941000000001
 20
3.311128
 42
0.091499
 10
4.694486
 20
3.299129
 42
0.103719
 10
4.703951999999999
 20
3.290333
 42
0.114395
 10
4.715119000000001
 20
3.286704
 42
0.114395
 10
4.726744999999999
 20
3.288359
 42
0.103719
 10
4.737582
 20
3.295396
 42
0.091499
 10
4.745107
 20
3.306263
 42
0.084405
 10
4.748715
 20
3.320112
 42
0.084405
 10
4.747543
 20
3.334375
 42
0.091499
 10
4.741997000000001
 20
3.346374
 42
0.103719
 10
4.732532
 20
3.35517
 42
0.114395
  0
LINE
  5
45D
330
18
100
AcDbEntity
  8
0
100
AcDbLine
 10
5.205512000000001
 20
5.192067
 30
0.0
 11
4.541409
 21
4.811917
 31
0.0
  0
LINE
  5
45E
330
18
100
AcDbEntity
  8
0
100
AcDbLine
 10
5.247326999999999
 20
5.216003
 30
0.0
 11
5.227966
 21
5.20492
 31
0.0
  0
LWPOLYLINE
  5
45F
330
18
100
AcDbEntity
  8
0
  6
DASHED2
100
AcDbPolyline
 90
       17
 70
     0
 43
0.0
 10
4.37836
 20
4.634681
 10
4.37836
 20
2.920224
 42
-0.047632
 10
4.368671
 20
2.885705
 42
0.079645
 10
4.359495
 20
2.843872
 10
4.359495
 20
2.567396
 42
0.307601
 10
4.391082
 20
2.520909
 42
-0.225476
 10
4.639858
 20
2.253935
 42
-0.324317
 10
4.602863
 20
2.142537
 10
4.427801000000001
 20
2.016781
 42
-0.430547
 10
4.285133
 20
2.044246
 42
0.104427
 10
4.041462
 20
2.292745
 42
-0.266809
 10
3.997032
 20
2.381921
 10
4.013123
 20
2.65318
 42
0.10389
 10
4.004672
 20
2.693415
 10
3.949546
 20
2.818847
 42
-0.10389
 10
3.941095
 20
2.859081
 10
3.941095
 20
4.343197
  0
LWPOLYLINE
  5
473
330
18
100
AcDbEntity
  8
0
  6
DASHED2
100
AcDbPolyline
 90
        6
 70
     0
 43
0.0
 10
4.482039
 20
4.579805
 10
4.82109
 20
3.831189
 42
-0.102724
 10
4.829357
 20
3.791378
 10
4.829357
 20
3.195487
 42
-0.578001
 10
4.724239
 20
3.134934
 10
4.37836
 20
3.335527
  0
LWPOLYLINE
  5
47C
330
18
100
AcDbEntity
  8
0
  6
DASHED2
100
AcDbPolyline
 90
       10
 70
     1
 43
0.0
 10
4.308516
 20
2.219354
 42
0.064897
 10
4.158157
 20
2.368862
 42
-0.223835
 10
4.112833
 20
2.461692
 10
4.112833
 20
2.735264
 42
-1.002055
 10
4.291967
 20
2.757107
 10
4.291967
 20
2.556198
 42
0.223167
 10
4.328119
 20
2.479234
 42
-0.052604
 10
4.470586
 20
2.333238
 42
-0.485704
 10
4.464561
 20
2.204505
 42
-0.301673
 10
4.337237
 20
2.192499
 42
-0.003371
  0
LWPOLYLINE
  5
489
330
18
100
AcDbEntity
  8
0
  6
DASHED2
100
AcDbPolyline
 90
        6
 70
     0
 43
0.0
 10
4.145594
 20
2.816447
 42
-0.304425
 10
4.232919
 20
2.722165
 10
4.233940000000001
 20
2.53363
 42
0.206205
 10
4.265239
 20
2.460966
 10
4.394678
 20
2.338585
 42
-0.667664
 10
4.369434
 20
2.257997
  0
LWPOLYLINE
  5
492
330
18
100
AcDbEntity
  8
0
  6
DASHED2
100
AcDbPolyline
 90
        3
 70
     0
 43
0.0
 10
3.869648
 20
4.238208
 42
0.074225
 10
3.92851
 20
4.081327
 42
-0.127464
 10
3.941095
 20
4.032761
  0
LWPOLYLINE
  5
498
330
18
100
AcDbEntity
  8
0
  6
DASHED2
100
AcDbPolyline
 90
        9
 70
   128
 43
0.0
 10
4.245687
 20
4.238165
 42
0.045329
 10
4.252578
 20
4.23705
 42
0.107189
 10
4.268763
 20
4.239391
 42
0.101679
 10
4.283354
 20
4.248537000000001
 42
0.094747
 10
4.293479000000001
 20
4.26274
 42
0.090367
 10
4.298001999999999
 20
4.280444999999999
 42
0.090367
 10
4.29599
 20
4.298607
 42
0.094747
 10
4.287942
 20
4.314083
 42
0.059322
 10
4.280779
 20
4.321224
 42
0.107189
  0
TEXT
  5
4A4
330
18
100
AcDbEntity
  8
0
100
AcDbText
 10
5.42859
 20
0.9742059999999999
 30
0.0
 40
0.25
  1
Simpson Strong-Tie
100
AcDbText
  0
TEXT
  5
4A5
330
18
100
AcDbEntity
  8
0
100
AcDbText
 10
5.42859
 20
0.569444
 30
0.0
 40
0.25
  1
HETAL20
100
AcDbText
  0
LINE
  5
4A6
330
18
100
AcDbEntity
  8
0
 62
     0
100
AcDbLine
 10
3.275486
 20
2.217095
 30
0.0
 11
3.275486
 21
2.217095
 31
0.0
  0
LINE
  5
4A7
330
18
100
AcDbEntity
  8
0
 62
     0
100
AcDbLine
 10
3.468866
 20
2.365481
 30
0.0
 11
3.468866
 21
2.365481
 31
0.0
  0
LINE
  5
4A8
330
18
100
AcDbEntity
  8
0
 62
     0
100
AcDbLine
 10
3.649751
 20
2.504278
 30
0.0
 11
3.649751
 21
2.504278
 31
0.0
  0
LINE
  5
4A9
330
18
100
AcDbEntity
  8
0
 62
     0
100
AcDbLine
 10
3.852056
 20
2.659512
 30
0.0
 11
3.852056
 21
2.659512
 31
0.0
  0
LINE
  5
4AA
330
18
100
AcDbEntity
  8
0
 62
     0
100
AcDbLine
 10
3.266037
 20
2.506119
 30
0.0
 11
3.266037
 21
2.506119
 31
0.0
  0
LINE
  5
4AB
330
18
100
AcDbEntity
  8
0
 62
     0
100
AcDbLine
 10
3.459417
 20
2.654504
 30
0.0
 11
3.459417
 21
2.654504
 31
0.0
  0
LINE
  5
4AC
330
18
100
AcDbEntity
  8
0
 62
     0
100
AcDbLine
 10
3.640302
 20
2.793302
 30
0.0
 11
3.640302
 21
2.793302
 31
0.0
  0
LINE
  5
4AD
330
18
100
AcDbEntity
  8
0
 62
     0
100
AcDbLine
 10
3.842607
 20
2.948536
 30
0.0
 11
3.842607
 21
2.948536
 31
0.0
  0
LINE
  5
4AE
330
18
100
AcDbEntity
  8
0
 62
     0
100
AcDbLine
 10
3.054283
 20
2.639908
 30
0.0
 11
3.054283
 21
2.639908
 31
0.0
  0
LINE
  5
4AF
330
18
100
AcDbEntity
  8
0
 62
     0
100
AcDbLine
 10
3.256588
 20
2.795142
 30
0.0
 11
3.256588
 21
2.795142
 31
0.0
  0
LINE
  5
4B0
330
18
100
AcDbEntity
  8
0
 62
     0
100
AcDbLine
 10
3.449968
 20
2.943528
 30
0.0
 11
3.449968
 21
2.943528
 31
0.0
  0
LINE
  5
4B1
330
18
100
AcDbEntity
  8
0
 62
     0
100
AcDbLine
 10
3.630853
 20
3.082325
 30
0.0
 11
3.630853
 21
3.082325
 31
0.0
  0
LINE
  5
4B2
330
18
100
AcDbEntity
  8
0
 62
     0
100
AcDbLine
 10
3.833158
 20
3.23756
 30
0.0
 11
3.833158
 21
3.23756
 31
0.0
  0
LINE
  5
4B3
330
18
100
AcDbEntity
  8
0
 62
     0
100
AcDbLine
 10
3.044834
 20
2.928932
 30
0.0
 11
3.044834
 21
2.928932
 31
0.0
  0
LINE
  5
4B4
330
18
100
AcDbEntity
  8
0
 62
     0
100
AcDbLine
 10
3.247139
 20
3.084166
 30
0.0
 11
3.247139
 21
3.084166
 31
0.0
  0
LINE
  5
4B5
330
18
100
AcDbEntity
  8
0
 62
     0
100
AcDbLine
 10
3.440519
 20
3.232551
 30
0.0
 11
3.440519
 21
3.232551
 31
0.0
  0
LINE
  5
4B6
330
18
100
AcDbEntity
  8
0
 62
     0
100
AcDbLine
 10
3.621404
 20
3.371349
 30
0.0
 11
3.621404
 21
3.371349
 31
0.0
  0
LINE
  5
4B7
330
18
100
AcDbEntity
  8
0
 62
     0
100
AcDbLine
 10
3.035385
 20
3.217955
 30
0.0
 11
3.035385
 21
3.217955
 31
0.0
  0
LINE
  5
4B8
330
18
100
AcDbEntity
  8
0
 62
     0
100
AcDbLine
 10
3.23769
 20
3.373189
 30
0.0
 11
3.23769
 21
3.373189
 31
0.0
  0
LINE
  5
4B9
330
18
100
AcDbEntity
  8
0
 62
     0
100
AcDbLine
 10
3.025936
 20
3.506979
 30
0.0
 11
3.025936
 21
3.506979
 31
0.0
  0
LINE
  5
4BA
330
18
100
AcDbEntity
  8
0
 62
     0
100
AcDbLine
 10
3.284935
 20
1.928071
 30
0.0
 11
3.284935
 21
1.928071
 31
0.0
  0
LINE
  5
4BB
330
18
100
AcDbEntity
  8
0
 62
     0
100
AcDbLine
 10
3.478315
 20
2.076457
 30
0.0
 11
3.478315
 21
2.076457
 31
0.0
  0
LINE
  5
4BC
330
18
100
AcDbEntity
  8
0
 62
     0
100
AcDbLine
 10
3.6592
 20
2.215255
 30
0.0
 11
3.6592
 21
2.215255
 31
0.0
  0
LINE
  5
4BD
330
18
100
AcDbEntity
  8
0
 62
     0
100
AcDbLine
 10
3.861505
 20
2.370489
 30
0.0
 11
3.861505
 21
2.370489
 31
0.0
  0
LINE
  5
4BE
330
18
100
AcDbEntity
  8
0
 62
     0
100
AcDbLine
 10
3.487764
 20
1.787434
 30
0.0
 11
3.487764
 21
1.787434
 31
0.0
  0
LINE
  5
4BF
330
18
100
AcDbEntity
  8
0
 62
     0
100
AcDbLine
 10
3.668649
 20
1.926231
 30
0.0
 11
3.668649
 21
1.926231
 31
0.0
  0
LINE
  5
4C0
330
18
100
AcDbEntity
  8
0
 62
     0
100
AcDbLine
 10
3.870954
 20
2.081465
 30
0.0
 11
3.870954
 21
2.081465
 31
0.0
  0
LINE
  5
4C1
330
18
100
AcDbEntity
  8
0
 62
     0
100
AcDbLine
 10
4.064334
 20
2.229851
 30
0.0
 11
4.064334
 21
2.229851
 31
0.0
  0
LINE
  5
4C2
330
18
100
AcDbEntity
  8
0
 62
     0
100
AcDbLine
 10
3.880403
 20
1.792442
 30
0.0
 11
3.880403
 21
1.792442
 31
0.0
  0
LINE
  5
4C3
330
18
100
AcDbEntity
  8
0
 62
     0
100
AcDbLine
 10
4.073783000000001
 20
1.940827
 30
0.0
 11
4.073783000000001
 21
1.940827
 31
0.0
  0
LINE
  5
4C4
330
18
100
AcDbEntity
  8
0
 62
     0
100
AcDbLine
 10
4.254667
 20
2.079625
 30
0.0
 11
4.254667
 21
2.079625
 31
0.0
  0
LINE
  5
4C5
330
18
100
AcDbEntity
  8
0
 62
     0
100
AcDbLine
 10
4.083232
 20
1.651804
 30
0.0
 11
4.083232
 21
1.651804
 31
0.0
  0
LINE
  5
4C6
330
18
100
AcDbEntity
  8
0
 62
     0
100
AcDbLine
 10
4.264116000000001
 20
1.790601
 30
0.0
 11
4.264116000000001
 21
1.790601
 31
0.0
  0
LINE
  5
4C7
330
18
100
AcDbEntity
  8
0
 62
     0
100
AcDbLine
 10
4.466421
 20
1.945836
 30
0.0
 11
4.466421
 21
1.945836
 31
0.0
  0
LINE
  5
4C8
330
18
100
AcDbEntity
  8
0
 62
     0
100
AcDbLine
 10
4.273565000000001
 20
1.501578
 30
0.0
 11
4.273565000000001
 21
1.501578
 31
0.0
  0
LINE
  5
4C9
330
18
100
AcDbEntity
  8
0
 62
     0
100
AcDbLine
 10
4.47587
 20
1.656812
 30
0.0
 11
4.47587
 21
1.656812
 31
0.0
  0
LINE
  5
4CA
330
18
100
AcDbEntity
  8
0
 62
     0
100
AcDbLine
 10
4.485319000000001
 20
1.367788
 30
0.0
 11
4.485319000000001
 21
1.367788
 31
0.0
  0
LINE
  5
4CB
330
18
100
AcDbEntity
  8
0
 62
     0
100
AcDbLine
 10
3.268086
 20
2.372115
 30
0.0
 11
3.268086
 21
2.372115
 31
0.0
  0
LINE
  5
4CC
330
18
100
AcDbEntity
  8
0
 62
     0
100
AcDbLine
 10
3.346162
 20
2.382394
 30
0.0
 11
3.346162
 21
2.382394
 31
0.0
  0
LINE
  5
4CD
330
18
100
AcDbEntity
  8
0
 62
     0
100
AcDbLine
 10
3.46811
 20
2.398448
 30
0.0
 11
3.46811
 21
2.398448
 31
0.0
  0
LINE
  5
4CE
330
18
100
AcDbEntity
  8
0
 62
     0
100
AcDbLine
 10
3.671852
 20
2.425271
 30
0.0
 11
3.671852
 21
2.425271
 31
0.0
  0
LINE
  5
4CF
330
18
100
AcDbEntity
  8
0
 62
     0
100
AcDbLine
 10
3.749928
 20
2.43555
 30
0.0
 11
3.749928
 21
2.43555
 31
0.0
  0
LINE
  5
4D0
330
18
100
AcDbEntity
  8
0
 62
     0
100
AcDbLine
 10
3.871876
 20
2.451605
 30
0.0
 11
3.871876
 21
2.451605
 31
0.0
  0
LINE
  5
4D1
330
18
100
AcDbEntity
  8
0
 62
     0
100
AcDbLine
 10
3.129786
 20
2.74228
 30
0.0
 11
3.129786
 21
2.74228
 31
0.0
  0
LINE
  5
4D2
330
18
100
AcDbEntity
  8
0
 62
     0
100
AcDbLine
 10
3.207863
 20
2.752559
 30
0.0
 11
3.207863
 21
2.752559
 31
0.0
  0
LINE
  5
4D3
330
18
100
AcDbEntity
  8
0
 62
     0
100
AcDbLine
 10
3.32981
 20
2.768613
 30
0.0
 11
3.32981
 21
2.768613
 31
0.0
  0
LINE
  5
4D4
330
18
100
AcDbEntity
  8
0
 62
     0
100
AcDbLine
 10
3.533552
 20
2.795436
 30
0.0
 11
3.533552
 21
2.795436
 31
0.0
  0
LINE
  5
4D5
330
18
100
AcDbEntity
  8
0
 62
     0
100
AcDbLine
 10
3.611629
 20
2.805715
 30
0.0
 11
3.611629
 21
2.805715
 31
0.0
  0
LINE
  5
4D6
330
18
100
AcDbEntity
  8
0
 62
     0
100
AcDbLine
 10
3.733576
 20
2.82177
 30
0.0
 11
3.733576
 21
2.82177
 31
0.0
  0
LINE
  5
4D7
330
18
100
AcDbEntity
  8
0
 62
     0
100
AcDbLine
 10
3.937318
 20
2.848593
 30
0.0
 11
3.937318
 21
2.848593
 31
0.0
  0
LINE
  5
4D8
330
18
100
AcDbEntity
  8
0
 62
     0
100
AcDbLine
 10
2.991487
 20
3.112445
 30
0.0
 11
2.991487
 21
3.112445
 31
0.0
  0
LINE
  5
4D9
330
18
100
AcDbEntity
  8
0
 62
     0
100
AcDbLine
 10
3.069563
 20
3.122724
 30
0.0
 11
3.069563
 21
3.122724
 31
0.0
  0
LINE
  5
4DA
330
18
100
AcDbEntity
  8
0
 62
     0
100
AcDbLine
 10
3.191511
 20
3.138778
 30
0.0
 11
3.191511
 21
3.138778
 31
0.0
  0
LINE
  5
4DB
330
18
100
AcDbEntity
  8
0
 62
     0
100
AcDbLine
 10
3.395253
 20
3.165602
 30
0.0
 11
3.395253
 21
3.165602
 31
0.0
  0
LINE
  5
4DC
330
18
100
AcDbEntity
  8
0
 62
     0
100
AcDbLine
 10
3.473329
 20
3.175881
 30
0.0
 11
3.473329
 21
3.175881
 31
0.0
  0
LINE
  5
4DD
330
18
100
AcDbEntity
  8
0
 62
     0
100
AcDbLine
 10
3.595277
 20
3.191935
 30
0.0
 11
3.595277
 21
3.191935
 31
0.0
  0
LINE
  5
4DE
330
18
100
AcDbEntity
  8
0
 62
     0
100
AcDbLine
 10
3.799019
 20
3.218758
 30
0.0
 11
3.799019
 21
3.218758
 31
0.0
  0
LINE
  5
4DF
330
18
100
AcDbEntity
  8
0
 62
     0
100
AcDbLine
 10
2.931264
 20
3.492889
 30
0.0
 11
2.931264
 21
3.492889
 31
0.0
  0
LINE
  5
4E0
330
18
100
AcDbEntity
  8
0
 62
     0
100
AcDbLine
 10
3.053212
 20
3.508944
 30
0.0
 11
3.053212
 21
3.508944
 31
0.0
  0
LINE
  5
4E1
330
18
100
AcDbEntity
  8
0
 62
     0
100
AcDbLine
 10
3.256954
 20
3.535767
 30
0.0
 11
3.256954
 21
3.535767
 31
0.0
  0
LINE
  5
4E2
330
18
100
AcDbEntity
  8
0
 62
     0
100
AcDbLine
 10
3.33503
 20
3.546046
 30
0.0
 11
3.33503
 21
3.546046
 31
0.0
  0
LINE
  5
4E3
330
18
100
AcDbEntity
  8
0
 62
     0
100
AcDbLine
 10
3.202643
 20
1.975126
 30
0.0
 11
3.202643
 21
1.975126
 31
0.0
  0
LINE
  5
4E4
330
18
100
AcDbEntity
  8
0
 62
     0
100
AcDbLine
 10
3.406385
 20
2.001949
 30
0.0
 11
3.406385
 21
2.001949
 31
0.0
  0
LINE
  5
4E5
330
18
100
AcDbEntity
  8
0
 62
     0
100
AcDbLine
 10
3.484462
 20
2.012228
 30
0.0
 11
3.484462
 21
2.012228
 31
0.0
  0
LINE
  5
4E6
330
18
100
AcDbEntity
  8
0
 62
     0
100
AcDbLine
 10
3.606409
 20
2.028283
 30
0.0
 11
3.606409
 21
2.028283
 31
0.0
  0
LINE
  5
4E7
330
18
100
AcDbEntity
  8
0
 62
     0
100
AcDbLine
 10
3.810151
 20
2.055106
 30
0.0
 11
3.810151
 21
2.055106
 31
0.0
  0
LINE
  5
4E8
330
18
100
AcDbEntity
  8
0
 62
     0
100
AcDbLine
 10
3.888227
 20
2.065385
 30
0.0
 11
3.888227
 21
2.065385
 31
0.0
  0
LINE
  5
4E9
330
18
100
AcDbEntity
  8
0
 62
     0
100
AcDbLine
 10
4.010175
 20
2.08144
 30
0.0
 11
4.010175
 21
2.08144
 31
0.0
  0
LINE
  5
4EA
330
18
100
AcDbEntity
  8
0
 62
     0
100
AcDbLine
 10
4.213917
 20
2.108263
 30
0.0
 11
4.213917
 21
2.108263
 31
0.0
  0
LINE
  5
4EB
330
18
100
AcDbEntity
  8
0
 62
     0
100
AcDbLine
 10
3.744709
 20
1.658118
 30
0.0
 11
3.744709
 21
1.658118
 31
0.0
  0
LINE
  5
4EC
330
18
100
AcDbEntity
  8
0
 62
     0
100
AcDbLine
 10
3.948451
 20
1.684941
 30
0.0
 11
3.948451
 21
1.684941
 31
0.0
  0
LINE
  5
4ED
330
18
100
AcDbEntity
  8
0
 62
     0
100
AcDbLine
 10
4.026527
 20
1.69522
 30
0.0
 11
4.026527
 21
1.69522
 31
0.0
  0
LINE
  5
4EE
330
18
100
AcDbEntity
  8
0
 62
     0
100
AcDbLine
 10
4.148475
 20
1.711275
 30
0.0
 11
4.148475
 21
1.711275
 31
0.0
  0
LINE
  5
4EF
330
18
100
AcDbEntity
  8
0
 62
     0
100
AcDbLine
 10
4.352217
 20
1.738098
 30
0.0
 11
4.352217
 21
1.738098
 31
0.0
  0
LINE
  5
4F0
330
18
100
AcDbEntity
  8
0
 62
     0
100
AcDbLine
 10
4.430293
 20
1.748377
 30
0.0
 11
4.430293
 21
1.748377
 31
0.0
  0
LINE
  5
4F1
330
18
100
AcDbEntity
  8
0
 62
     0
100
AcDbLine
 10
4.552241
 20
1.764432
 30
0.0
 11
4.552241
 21
1.764432
 31
0.0
  0
LINE
  5
4F2
330
18
100
AcDbEntity
  8
0
 62
     0
100
AcDbLine
 10
4.286773999999999
 20
1.34111
 30
0.0
 11
4.286773999999999
 21
1.34111
 31
0.0
  0
LINE
  5
4F3
330
18
100
AcDbEntity
  8
0
 62
     0
100
AcDbLine
 10
4.490516
 20
1.367933
 30
0.0
 11
4.490516
 21
1.367933
 31
0.0
  0
LINE
  5
4F4
330
18
100
AcDbEntity
  8
0
 62
     0
100
AcDbLine
 10
4.568592
 20
1.378212
 30
0.0
 11
4.568592
 21
1.378212
 31
0.0
  0
LINE
  5
4F5
330
18
100
AcDbEntity
  8
0
 62
     0
100
AcDbLine
 10
3.171582
 20
2.636947
 30
0.0
 11
3.171582
 21
2.636947
 31
0.0
  0
LINE
  5
4F6
330
18
100
AcDbEntity
  8
0
 62
     0
100
AcDbLine
 10
3.234836
 20
2.59665
 30
0.0
 11
3.234836
 21
2.59665
 31
0.0
  0
LINE
  5
4F7
330
18
100
AcDbEntity
  8
0
 62
     0
100
AcDbLine
 10
3.462552
 20
2.451579
 30
0.0
 11
3.462552
 21
2.451579
 31
0.0
  0
LINE
  5
4F8
330
18
100
AcDbEntity
  8
0
 62
     0
100
AcDbLine
 10
3.759847
 20
2.262181
 30
0.0
 11
3.759847
 21
2.262181
 31
0.0
  0
LINE
  5
4F9
330
18
100
AcDbEntity
  8
0
 62
     0
100
AcDbLine
 10
3.823102
 20
2.221883
 30
0.0
 11
3.823102
 21
2.221883
 31
0.0
  0
LINE
  5
4FA
330
18
100
AcDbEntity
  8
0
 62
     0
100
AcDbLine
 10
4.050816999999999
 20
2.076812
 30
0.0
 11
4.050816999999999
 21
2.076812
 31
0.0
  0
LINE
  5
4FB
330
18
100
AcDbEntity
  8
0
 62
     0
100
AcDbLine
 10
4.348113
 20
1.887414
 30
0.0
 11
4.348113
 21
1.887414
 31
0.0
  0
LINE
  5
4FC
330
18
100
AcDbEntity
  8
0
 62
     0
100
AcDbLine
 10
4.411367
 20
1.847117
 30
0.0
 11
4.411367
 21
1.847117
 31
0.0
  0
LINE
  5
4FD
330
18
100
AcDbEntity
  8
0
 62
     0
100
AcDbLine
 10
3.050437
 20
3.012562
 30
0.0
 11
3.050437
 21
3.012562
 31
0.0
  0
LINE
  5
4FE
330
18
100
AcDbEntity
  8
0
 62
     0
100
AcDbLine
 10
3.113692
 20
2.972265
 30
0.0
 11
3.113692
 21
2.972265
 31
0.0
  0
LINE
  5
4FF
330
18
100
AcDbEntity
  8
0
 62
     0
100
AcDbLine
 10
3.341408
 20
2.827194
 30
0.0
 11
3.341408
 21
2.827194
 31
0.0
  0
LINE
  5
500
330
18
100
AcDbEntity
  8
0
 62
     0
100
AcDbLine
 10
3.638703
 20
2.637796
 30
0.0
 11
3.638703
 21
2.637796
 31
0.0
  0
LINE
  5
501
330
18
100
AcDbEntity
  8
0
 62
     0
100
AcDbLine
 10
3.701957
 20
2.597498
 30
0.0
 11
3.701957
 21
2.597498
 31
0.0
  0
LINE
  5
502
330
18
100
AcDbEntity
  8
0
 62
     0
100
AcDbLine
 10
3.929673
 20
2.452428
 30
0.0
 11
3.929673
 21
2.452428
 31
0.0
  0
LINE
  5
503
330
18
100
AcDbEntity
  8
0
 62
     0
100
AcDbLine
 10
4.517939
 20
2.077661
 30
0.0
 11
4.517939
 21
2.077661
 31
0.0
  0
LINE
  5
504
330
18
100
AcDbEntity
  8
0
 62
     0
100
AcDbLine
 10
2.929293
 20
3.388178
 30
0.0
 11
2.929293
 21
3.388178
 31
0.0
  0
LINE
  5
505
330
18
100
AcDbEntity
  8
0
 62
     0
100
AcDbLine
 10
2.992548
 20
3.34788
 30
0.0
 11
2.992548
 21
3.34788
 31
0.0
  0
LINE
  5
506
330
18
100
AcDbEntity
  8
0
 62
     0
100
AcDbLine
 10
3.220263
 20
3.202809
 30
0.0
 11
3.220263
 21
3.202809
 31
0.0
  0
LINE
  5
507
330
18
100
AcDbEntity
  8
0
 62
     0
100
AcDbLine
 10
3.517558999999999
 20
3.013411
 30
0.0
 11
3.517558999999999
 21
3.013411
 31
0.0
  0
LINE
  5
508
330
18
100
AcDbEntity
  8
0
 62
     0
100
AcDbLine
 10
3.580813
 20
2.973114
 30
0.0
 11
3.580813
 21
2.973114
 31
0.0
  0
LINE
  5
509
330
18
100
AcDbEntity
  8
0
 62
     0
100
AcDbLine
 10
3.808529
 20
2.828043
 30
0.0
 11
3.808529
 21
2.828043
 31
0.0
  0
LINE
  5
50A
330
18
100
AcDbEntity
  8
0
 62
     0
100
AcDbLine
 10
2.871403
 20
3.723496
 30
0.0
 11
2.871403
 21
3.723496
 31
0.0
  0
LINE
  5
50B
330
18
100
AcDbEntity
  8
0
 62
     0
100
AcDbLine
 10
3.099119
 20
3.578425
 30
0.0
 11
3.099119
 21
3.578425
 31
0.0
  0
LINE
  5
50C
330
18
100
AcDbEntity
  8
0
 62
     0
100
AcDbLine
 10
3.396415
 20
3.389027
 30
0.0
 11
3.396415
 21
3.389027
 31
0.0
  0
LINE
  5
50D
330
18
100
AcDbEntity
  8
0
 62
     0
100
AcDbLine
 10
3.459669
 20
3.348729
 30
0.0
 11
3.459669
 21
3.348729
 31
0.0
  0
LINE
  5
50E
330
18
100
AcDbEntity
  8
0
 62
     0
100
AcDbLine
 10
3.687385
 20
3.203658
 30
0.0
 11
3.687385
 21
3.203658
 31
0.0
  0
LINE
  5
50F
330
18
100
AcDbEntity
  8
0
 62
     0
100
AcDbLine
 10
3.292726
 20
2.261332
 30
0.0
 11
3.292726
 21
2.261332
 31
0.0
  0
LINE
  5
510
330
18
100
AcDbEntity
  8
0
 62
     0
100
AcDbLine
 10
3.35598
 20
2.221034
 30
0.0
 11
3.35598
 21
2.221034
 31
0.0
  0
LINE
  5
511
330
18
100
AcDbEntity
  8
0
 62
     0
100
AcDbLine
 10
3.583696
 20
2.075963
 30
0.0
 11
3.583696
 21
2.075963
 31
0.0
  0
LINE
  5
512
330
18
100
AcDbEntity
  8
0
 62
     0
100
AcDbLine
 10
3.880992
 20
1.886565
 30
0.0
 11
3.880992
 21
1.886565
 31
0.0
  0
LINE
  5
513
330
18
100
AcDbEntity
  8
0
 62
     0
100
AcDbLine
 10
3.944246
 20
1.846268
 30
0.0
 11
3.944246
 21
1.846268
 31
0.0
  0
LINE
  5
514
330
18
100
AcDbEntity
  8
0
 62
     0
100
AcDbLine
 10
4.171962000000001
 20
1.701197
 30
0.0
 11
4.171962000000001
 21
1.701197
 31
0.0
  0
LINE
  5
515
330
18
100
AcDbEntity
  8
0
 62
     0
100
AcDbLine
 10
4.469257
 20
1.511799
 30
0.0
 11
4.469257
 21
1.511799
 31
0.0
  0
LINE
  5
516
330
18
100
AcDbEntity
  8
0
 62
     0
100
AcDbLine
 10
4.532511
 20
1.471501
 30
0.0
 11
4.532511
 21
1.471501
 31
0.0
  0
LINE
  5
517
330
18
100
AcDbEntity
  8
0
 62
     0
100
AcDbLine
 10
3.41387
 20
1.885716
 30
0.0
 11
3.41387
 21
1.885716
 31
0.0
  0
LINE
  5
518
330
18
100
AcDbEntity
  8
0
 62
     0
100
AcDbLine
 10
3.477125
 20
1.845419
 30
0.0
 11
3.477125
 21
1.845419
 31
0.0
  0
LINE
  5
519
330
18
100
AcDbEntity
  8
0
 62
     0
100
AcDbLine
 10
3.70484
 20
1.700348
 30
0.0
 11
3.70484
 21
1.700348
 31
0.0
  0
LINE
  5
51A
330
18
100
AcDbEntity
  8
0
 62
     0
100
AcDbLine
 10
4.002136
 20
1.51095
 30
0.0
 11
4.002136
 21
1.51095
 31
0.0
  0
LINE
  5
51B
330
18
100
AcDbEntity
  8
0
 62
     0
100
AcDbLine
 10
4.06539
 20
1.470652
 30
0.0
 11
4.06539
 21
1.470652
 31
0.0
  0
LINE
  5
51C
330
18
100
AcDbEntity
  8
0
 62
     0
100
AcDbLine
 10
4.293106
 20
1.325582
 30
0.0
 11
4.293106
 21
1.325582
 31
0.0
  0
LINE
  5
51D
330
18
100
AcDbEntity
  8
0
 62
     0
100
AcDbLine
 10
2.958589
 20
3.113157
 30
0.0
 11
2.958589
 21
3.113157
 31
0.0
  0
LINE
  5
51E
330
18
100
AcDbEntity
  8
0
 62
     0
100
AcDbLine
 10
3.089087
 20
2.993577
 30
0.0
 11
3.089087
 21
2.993577
 31
0.0
  0
LINE
  5
51F
330
18
100
AcDbEntity
  8
0
 62
     0
100
AcDbLine
 10
3.238386
 20
2.85677
 30
0.0
 11
3.238386
 21
2.85677
 31
0.0
  0
LINE
  5
520
330
18
100
AcDbEntity
  8
0
 62
     0
100
AcDbLine
 10
3.266034
 20
2.831436
 30
0.0
 11
3.266034
 21
2.831436
 31
0.0
  0
LINE
  5
521
330
18
100
AcDbEntity
  8
0
 62
     0
100
AcDbLine
 10
3.396532
 20
2.711856
 30
0.0
 11
3.396532
 21
2.711856
 31
0.0
  0
LINE
  5
522
330
18
100
AcDbEntity
  8
0
 62
     0
100
AcDbLine
 10
3.545830000000001
 20
2.575049
 30
0.0
 11
3.545830000000001
 21
2.575049
 31
0.0
  0
LINE
  5
523
330
18
100
AcDbEntity
  8
0
 62
     0
100
AcDbLine
 10
3.573478
 20
2.549715
 30
0.0
 11
3.573478
 21
2.549715
 31
0.0
  0
LINE
  5
524
330
18
100
AcDbEntity
  8
0
 62
     0
100
AcDbLine
 10
3.703976
 20
2.430135
 30
0.0
 11
3.703976
 21
2.430135
 31
0.0
  0
LINE
  5
525
330
18
100
AcDbEntity
  8
0
 62
     0
100
AcDbLine
 10
3.853275
 20
2.293328
 30
0.0
 11
3.853275
 21
2.293328
 31
0.0
  0
LINE
  5
526
330
18
100
AcDbEntity
  8
0
 62
     0
100
AcDbLine
 10
3.880923
 20
2.267993
 30
0.0
 11
3.880923
 21
2.267993
 31
0.0
  0
LINE
  5
527
330
18
100
AcDbEntity
  8
0
 62
     0
100
AcDbLine
 10
4.011421
 20
2.148414
 30
0.0
 11
4.011421
 21
2.148414
 31
0.0
  0
LINE
  5
528
330
18
100
AcDbEntity
  8
0
 62
     0
100
AcDbLine
 10
4.16072
 20
2.011607
 30
0.0
 11
4.16072
 21
2.011607
 31
0.0
  0
LINE
  5
529
330
18
100
AcDbEntity
  8
0
 62
     0
100
AcDbLine
 10
4.188367
 20
1.986272
 30
0.0
 11
4.188367
 21
1.986272
 31
0.0
  0
LINE
  5
52A
330
18
100
AcDbEntity
  8
0
 62
     0
100
AcDbLine
 10
4.318866000000001
 20
1.866693
 30
0.0
 11
4.318866000000001
 21
1.866693
 31
0.0
  0
LINE
  5
52B
330
18
100
AcDbEntity
  8
0
 62
     0
100
AcDbLine
 10
4.468164
 20
1.729886
 30
0.0
 11
4.468164
 21
1.729886
 31
0.0
  0
LINE
  5
52C
330
18
100
AcDbEntity
  8
0
 62
     0
100
AcDbLine
 10
4.495812
 20
1.704551
 30
0.0
 11
4.495812
 21
1.704551
 31
0.0
  0
LINE
  5
52D
330
18
100
AcDbEntity
  8
0
 62
     0
100
AcDbLine
 10
2.925117
 20
3.688671
 30
0.0
 11
2.925117
 21
3.688671
 31
0.0
  0
LINE
  5
52E
330
18
100
AcDbEntity
  8
0
 62
     0
100
AcDbLine
 10
3.074415
 20
3.551864
 30
0.0
 11
3.074415
 21
3.551864
 31
0.0
  0
LINE
  5
52F
330
18
100
AcDbEntity
  8
0
 62
     0
100
AcDbLine
 10
3.102063
 20
3.526529
 30
0.0
 11
3.102063
 21
3.526529
 31
0.0
  0
LINE
  5
530
330
18
100
AcDbEntity
  8
0
 62
     0
100
AcDbLine
 10
3.232561
 20
3.40695
 30
0.0
 11
3.232561
 21
3.40695
 31
0.0
  0
LINE
  5
531
330
18
100
AcDbEntity
  8
0
 62
     0
100
AcDbLine
 10
3.38186
 20
3.270143
 30
0.0
 11
3.38186
 21
3.270143
 31
0.0
  0
LINE
  5
532
330
18
100
AcDbEntity
  8
0
 62
     0
100
AcDbLine
 10
3.409508
 20
3.244808
 30
0.0
 11
3.409508
 21
3.244808
 31
0.0
  0
LINE
  5
533
330
18
100
AcDbEntity
  8
0
 62
     0
100
AcDbLine
 10
3.540006
 20
3.125229
 30
0.0
 11
3.540006
 21
3.125229
 31
0.0
  0
LINE
  5
534
330
18
100
AcDbEntity
  8
0
 62
     0
100
AcDbLine
 10
3.689305000000001
 20
2.988422
 30
0.0
 11
3.689305000000001
 21
2.988422
 31
0.0
  0
LINE
  5
535
330
18
100
AcDbEntity
  8
0
 62
     0
100
AcDbLine
 10
3.716953
 20
2.963087
 30
0.0
 11
3.716953
 21
2.963087
 31
0.0
  0
LINE
  5
536
330
18
100
AcDbEntity
  8
0
 62
     0
100
AcDbLine
 10
3.847451
 20
2.843508
 30
0.0
 11
3.847451
 21
2.843508
 31
0.0
  0
LINE
  5
537
330
18
100
AcDbEntity
  8
0
 62
     0
100
AcDbLine
 10
3.996749
 20
2.7067
 30
0.0
 11
3.996749
 21
2.7067
 31
0.0
  0
LINE
  5
538
330
18
100
AcDbEntity
  8
0
 62
     0
100
AcDbLine
 10
3.094911
 20
2.443398
 30
0.0
 11
3.094911
 21
2.443398
 31
0.0
  0
LINE
  5
539
330
18
100
AcDbEntity
  8
0
 62
     0
100
AcDbLine
 10
3.122559
 20
2.418063
 30
0.0
 11
3.122559
 21
2.418063
 31
0.0
  0
LINE
  5
53A
330
18
100
AcDbEntity
  8
0
 62
     0
100
AcDbLine
 10
3.253057
 20
2.298484
 30
0.0
 11
3.253057
 21
2.298484
 31
0.0
  0
LINE
  5
53B
330
18
100
AcDbEntity
  8
0
 62
     0
100
AcDbLine
 10
3.402356
 20
2.161677
 30
0.0
 11
3.402356
 21
2.161677
 31
0.0
  0
LINE
  5
53C
330
18
100
AcDbEntity
  8
0
 62
     0
100
AcDbLine
 10
3.430004
 20
2.136342
 30
0.0
 11
3.430004
 21
2.136342
 31
0.0
  0
LINE
  5
53D
330
18
100
AcDbEntity
  8
0
 62
     0
100
AcDbLine
 10
3.560502
 20
2.016763
 30
0.0
 11
3.560502
 21
2.016763
 31
0.0
  0
LINE
  5
53E
330
18
100
AcDbEntity
  8
0
 62
     0
100
AcDbLine
 10
3.709801
 20
1.879956
 30
0.0
 11
3.709801
 21
1.879956
 31
0.0
  0
LINE
  5
53F
330
18
100
AcDbEntity
  8
0
 62
     0
100
AcDbLine
 10
3.737449
 20
1.854621
 30
0.0
 11
3.737449
 21
1.854621
 31
0.0
  0
LINE
  5
540
330
18
100
AcDbEntity
  8
0
 62
     0
100
AcDbLine
 10
3.867947
 20
1.735041
 30
0.0
 11
3.867947
 21
1.735041
 31
0.0
  0
LINE
  5
541
330
18
100
AcDbEntity
  8
0
 62
     0
100
AcDbLine
 10
4.017245
 20
1.598234
 30
0.0
 11
4.017245
 21
1.598234
 31
0.0
  0
LINE
  5
542
330
18
100
AcDbEntity
  8
0
 62
     0
100
AcDbLine
 10
4.044893
 20
1.5729
 30
0.0
 11
4.044893
 21
1.5729
 31
0.0
  0
LINE
  5
543
330
18
100
AcDbEntity
  8
0
 62
     0
100
AcDbLine
 10
4.175391
 20
1.45332
 30
0.0
 11
4.175391
 21
1.45332
 31
0.0
  0
LINE
  5
544
330
18
100
AcDbEntity
  8
0
 62
     0
100
AcDbLine
 10
4.32469
 20
1.316513
 30
0.0
 11
4.32469
 21
1.316513
 31
0.0
  0
LINE
  5
545
330
18
100
AcDbEntity
  8
0
 62
     0
100
AcDbLine
 10
4.352338
 20
1.291179
 30
0.0
 11
4.352338
 21
1.291179
 31
0.0
  0
LINE
  5
546
330
18
100
AcDbEntity
  8
0
 62
     0
100
AcDbLine
 10
4.482836
 20
1.171599
 30
0.0
 11
4.482836
 21
1.171599
 31
0.0
  0
LINE
  5
547
330
18
100
AcDbEntity
  8
0
 62
     0
100
AcDbLine
 10
3.258882
 20
1.748304
 30
0.0
 11
3.258882
 21
1.748304
 31
0.0
  0
LINE
  5
548
330
18
100
AcDbEntity
  8
0
 62
     0
100
AcDbLine
 10
3.28653
 20
1.72297
 30
0.0
 11
3.28653
 21
1.72297
 31
0.0
  0
LINE
  5
549
330
18
100
AcDbEntity
  8
0
 62
     0
100
AcDbLine
 10
2.411571
 20
4.220656
 30
0.0
 11
2.411571
 21
4.220656
 31
0.0
  0
LINE
  5
54A
330
18
100
AcDbEntity
  8
0
 62
     0
100
AcDbLine
 10
2.613876
 20
4.37589
 30
0.0
 11
2.613876
 21
4.37589
 31
0.0
  0
LINE
  5
54B
330
18
100
AcDbEntity
  8
0
 62
     0
100
AcDbLine
 10
2.807256
 20
4.524275
 30
0.0
 11
2.807256
 21
4.524275
 31
0.0
  0
LINE
  5
54C
330
18
100
AcDbEntity
  8
0
 62
     0
100
AcDbLine
 10
2.98814
 20
4.663073000000001
 30
0.0
 11
2.98814
 21
4.663073000000001
 31
0.0
  0
LINE
  5
54D
330
18
100
AcDbEntity
  8
0
 62
     0
100
AcDbLine
 10
3.190445
 20
4.818307
 30
0.0
 11
3.190445
 21
4.818307
 31
0.0
  0
LINE
  5
54E
330
18
100
AcDbEntity
  8
0
 62
     0
100
AcDbLine
 10
3.383825
 20
4.966693
 30
0.0
 11
3.383825
 21
4.966693
 31
0.0
  0
LINE
  5
54F
330
18
100
AcDbEntity
  8
0
 62
     0
100
AcDbLine
 10
3.56471
 20
5.105490000000001
 30
0.0
 11
3.56471
 21
5.105490000000001
 31
0.0
  0
LINE
  5
550
330
18
100
AcDbEntity
  8
0
 62
     0
100
AcDbLine
 10
3.767015
 20
5.260725
 30
0.0
 11
3.767015
 21
5.260725
 31
0.0
  0
LINE
  5
551
330
18
100
AcDbEntity
  8
0
 62
     0
100
AcDbLine
 10
2.221237
 20
4.370882
 30
0.0
 11
2.221237
 21
4.370882
 31
0.0
  0
LINE
  5
552
330
18
100
AcDbEntity
  8
0
 62
     0
100
AcDbLine
 10
2.402122
 20
4.509679
 30
0.0
 11
2.402122
 21
4.509679
 31
0.0
  0
LINE
  5
553
330
18
100
AcDbEntity
  8
0
 62
     0
100
AcDbLine
 10
2.604427
 20
4.664912999999999
 30
0.0
 11
2.604427
 21
4.664912999999999
 31
0.0
  0
LINE
  5
554
330
18
100
AcDbEntity
  8
0
 62
     0
100
AcDbLine
 10
2.797807
 20
4.813299
 30
0.0
 11
2.797807
 21
4.813299
 31
0.0
  0
LINE
  5
555
330
18
100
AcDbEntity
  8
0
 62
     0
100
AcDbLine
 10
2.978691
 20
4.952097
 30
0.0
 11
2.978691
 21
4.952097
 31
0.0
  0
LINE
  5
556
330
18
100
AcDbEntity
  8
0
 62
     0
100
AcDbLine
 10
3.180996
 20
5.107330999999999
 30
0.0
 11
3.180996
 21
5.107330999999999
 31
0.0
  0
LINE
  5
557
330
18
100
AcDbEntity
  8
0
 62
     0
100
AcDbLine
 10
2.018408
 20
4.51152
 30
0.0
 11
2.018408
 21
4.51152
 31
0.0
  0
LINE
  5
558
330
18
100
AcDbEntity
  8
0
 62
     0
100
AcDbLine
 10
2.211788
 20
4.659905
 30
0.0
 11
2.211788
 21
4.659905
 31
0.0
  0
LINE
  5
559
330
18
100
AcDbEntity
  8
0
 62
     0
100
AcDbLine
 10
1.806654
 20
4.645308999999999
 30
0.0
 11
1.806654
 21
4.645308999999999
 31
0.0
  0
LINE
  5
55A
330
18
100
AcDbEntity
  8
0
 62
     0
100
AcDbLine
 10
2.008959
 20
4.800543
 30
0.0
 11
2.008959
 21
4.800543
 31
0.0
  0
LINE
  5
55B
330
18
100
AcDbEntity
  8
0
 62
     0
100
AcDbLine
 10
1.830782
 20
4.513125
 30
0.0
 11
1.830782
 21
4.513125
 31
0.0
  0
LINE
  5
55C
330
18
100
AcDbEntity
  8
0
 62
     0
100
AcDbLine
 10
2.034523
 20
4.539948000000001
 30
0.0
 11
2.034523
 21
4.539948000000001
 31
0.0
  0
LINE
  5
55D
330
18
100
AcDbEntity
  8
0
 62
     0
100
AcDbLine
 10
2.1126
 20
4.550227
 30
0.0
 11
2.1126
 21
4.550227
 31
0.0
  0
LINE
  5
55E
330
18
100
AcDbEntity
  8
0
 62
     0
100
AcDbLine
 10
2.234547
 20
4.566282
 30
0.0
 11
2.234547
 21
4.566282
 31
0.0
  0
LINE
  5
55F
330
18
100
AcDbEntity
  8
0
 62
     0
100
AcDbLine
 10
2.438289
 20
4.593105
 30
0.0
 11
2.438289
 21
4.593105
 31
0.0
  0
LINE
  5
560
330
18
100
AcDbEntity
  8
0
 62
     0
100
AcDbLine
 10
2.516366
 20
4.603383999999999
 30
0.0
 11
2.516366
 21
4.603383999999999
 31
0.0
  0
LINE
  5
561
330
18
100
AcDbEntity
  8
0
 62
     0
100
AcDbLine
 10
2.638313
 20
4.619439
 30
0.0
 11
2.638313
 21
4.619439
 31
0.0
  0
LINE
  5
562
330
18
100
AcDbEntity
  8
0
 62
     0
100
AcDbLine
 10
2.842055
 20
4.646262
 30
0.0
 11
2.842055
 21
4.646262
 31
0.0
  0
LINE
  5
563
330
18
100
AcDbEntity
  8
0
 62
     0
100
AcDbLine
 10
2.920132
 20
4.656541000000001
 30
0.0
 11
2.920132
 21
4.656541000000001
 31
0.0
  0
LINE
  5
564
330
18
100
AcDbEntity
  8
0
 62
     0
100
AcDbLine
 10
3.042079
 20
4.672596
 30
0.0
 11
3.042079
 21
4.672596
 31
0.0
  0
LINE
  5
565
330
18
100
AcDbEntity
  8
0
 62
     0
100
AcDbLine
 10
3.107522
 20
5.069584
 30
0.0
 11
3.107522
 21
5.069584
 31
0.0
  0
LINE
  5
566
330
18
100
AcDbEntity
  8
0
 62
     0
100
AcDbLine
 10
3.185598
 20
5.079863
 30
0.0
 11
3.185598
 21
5.079863
 31
0.0
  0
LINE
  5
567
330
18
100
AcDbEntity
  8
0
 62
     0
100
AcDbLine
 10
3.307546
 20
5.095918
 30
0.0
 11
3.307546
 21
5.095918
 31
0.0
  0
LINE
  5
568
330
18
100
AcDbEntity
  8
0
 62
     0
100
AcDbLine
 10
3.511288
 20
5.122741
 30
0.0
 11
3.511288
 21
5.122741
 31
0.0
  0
LINE
  5
569
330
18
100
AcDbEntity
  8
0
 62
     0
100
AcDbLine
 10
3.589364
 20
5.13302
 30
0.0
 11
3.589364
 21
5.13302
 31
0.0
  0
LINE
  5
56A
330
18
100
AcDbEntity
  8
0
 62
     0
100
AcDbLine
 10
3.711312
 20
5.149074
 30
0.0
 11
3.711312
 21
5.149074
 31
0.0
  0
LINE
  5
56B
330
18
100
AcDbEntity
  8
0
 62
     0
100
AcDbLine
 10
3.915054
 20
5.175898
 30
0.0
 11
3.915054
 21
5.175898
 31
0.0
  0
LINE
  5
56C
330
18
100
AcDbEntity
  8
0
 62
     0
100
AcDbLine
 10
2.372847
 20
4.196117
 30
0.0
 11
2.372847
 21
4.196117
 31
0.0
  0
LINE
  5
56D
330
18
100
AcDbEntity
  8
0
 62
     0
100
AcDbLine
 10
2.576589
 20
4.22294
 30
0.0
 11
2.576589
 21
4.22294
 31
0.0
  0
LINE
  5
56E
330
18
100
AcDbEntity
  8
0
 62
     0
100
AcDbLine
 10
2.654665
 20
4.233219
 30
0.0
 11
2.654665
 21
4.233219
 31
0.0
  0
LINE
  5
56F
330
18
100
AcDbEntity
  8
0
 62
     0
100
AcDbLine
 10
2.735686
 20
4.705271
 30
0.0
 11
2.735686
 21
4.705271
 31
0.0
  0
LINE
  5
570
330
18
100
AcDbEntity
  8
0
 62
     0
100
AcDbLine
 10
2.911837
 20
4.891488
 30
0.0
 11
2.911837
 21
4.891488
 31
0.0
  0
LINE
  5
571
330
18
100
AcDbEntity
  8
0
 62
     0
100
AcDbLine
 10
2.975092
 20
4.85119
 30
0.0
 11
2.975092
 21
4.85119
 31
0.0
  0
LINE
  5
572
330
18
100
AcDbEntity
  8
0
 62
     0
100
AcDbLine
 10
3.378959
 20
4.892337
 30
0.0
 11
3.378959
 21
4.892337
 31
0.0
  0
LINE
  5
573
330
18
100
AcDbEntity
  8
0
 62
     0
100
AcDbLine
 10
3.548785
 20
5.082584
 30
0.0
 11
3.548785
 21
5.082584
 31
0.0
  0
LINE
  5
574
330
18
100
AcDbEntity
  8
0
 62
     0
100
AcDbLine
 10
3.724936
 20
5.268801
 30
0.0
 11
3.724936
 21
5.268801
 31
0.0
  0
LINE
  5
575
330
18
100
AcDbEntity
  8
0
 62
     0
100
AcDbLine
 10
3.78819
 20
5.228504
 30
0.0
 11
3.78819
 21
5.228504
 31
0.0
  0
LINE
  5
576
330
18
100
AcDbEntity
  8
0
 62
     0
100
AcDbLine
 10
2.040849
 20
4.849493
 30
0.0
 11
2.040849
 21
4.849493
 31
0.0
  0
LINE
  5
577
330
18
100
AcDbEntity
  8
0
 62
     0
100
AcDbLine
 10
2.268565
 20
4.704422
 30
0.0
 11
2.268565
 21
4.704422
 31
0.0
  0
LINE
  5
578
330
18
100
AcDbEntity
  8
0
 62
     0
100
AcDbLine
 10
2.56586
 20
4.515024
 30
0.0
 11
2.56586
 21
4.515024
 31
0.0
  0
LINE
  5
579
330
18
100
AcDbEntity
  8
0
 62
     0
100
AcDbLine
 10
2.629115
 20
4.474726
 30
0.0
 11
2.629115
 21
4.474726
 31
0.0
  0
LINE
  5
57A
330
18
100
AcDbEntity
  8
0
 62
     0
100
AcDbLine
 10
2.098739
 20
4.514175
 30
0.0
 11
2.098739
 21
4.514175
 31
0.0
  0
LINE
  5
57B
330
18
100
AcDbEntity
  8
0
 62
     0
100
AcDbLine
 10
2.161994
 20
4.473877
 30
0.0
 11
2.161994
 21
4.473877
 31
0.0
  0
LINE
  5
57C
330
18
100
AcDbEntity
  8
0
 62
     0
100
AcDbLine
 10
2.389709
 20
4.328807
 30
0.0
 11
2.389709
 21
4.328807
 31
0.0
  0
LINE
  5
57D
330
18
100
AcDbEntity
  8
0
 62
     0
100
AcDbLine
 10
2.323204
 20
4.785065
 30
0.0
 11
2.323204
 21
4.785065
 31
0.0
  0
LINE
  5
57E
330
18
100
AcDbEntity
  8
0
 62
     0
100
AcDbLine
 10
2.453702
 20
4.665486000000001
 30
0.0
 11
2.453702
 21
4.665486000000001
 31
0.0
  0
LINE
  5
57F
330
18
100
AcDbEntity
  8
0
 62
     0
100
AcDbLine
 10
2.603
 20
4.528679
 30
0.0
 11
2.603
 21
4.528679
 31
0.0
  0
LINE
  5
580
330
18
100
AcDbEntity
  8
0
 62
     0
100
AcDbLine
 10
2.630648
 20
4.503344
 30
0.0
 11
2.630648
 21
4.503344
 31
0.0
  0
LINE
  5
581
330
18
100
AcDbEntity
  8
0
 62
     0
100
AcDbLine
 10
2.761146
 20
4.383764
 30
0.0
 11
2.761146
 21
4.383764
 31
0.0
  0
LINE
  5
582
330
18
100
AcDbEntity
  8
0
 62
     0
100
AcDbLine
 10
2.904621
 20
4.797137
 30
0.0
 11
2.904621
 21
4.797137
 31
0.0
  0
LINE
  5
583
330
18
100
AcDbEntity
  8
0
 62
     0
100
AcDbLine
 10
3.053919
 20
4.66033
 30
0.0
 11
3.053919
 21
4.66033
 31
0.0
  0
LINE
  5
584
330
18
100
AcDbEntity
  8
0
 62
     0
100
AcDbLine
 10
3.197394
 20
5.073702
 30
0.0
 11
3.197394
 21
5.073702
 31
0.0
  0
LINE
  5
585
330
18
100
AcDbEntity
  8
0
 62
     0
100
AcDbLine
 10
3.225042
 20
5.048368
 30
0.0
 11
3.225042
 21
5.048368
 31
0.0
  0
LINE
  5
586
330
18
100
AcDbEntity
  8
0
 62
     0
100
AcDbLine
 10
3.35554
 20
4.928788
 30
0.0
 11
3.35554
 21
4.928788
 31
0.0
  0
LINE
  5
587
330
18
100
AcDbEntity
  8
0
 62
     0
100
AcDbLine
 10
3.648313
 20
5.205354
 30
0.0
 11
3.648313
 21
5.205354
 31
0.0
  0
LINE
  5
588
330
18
100
AcDbEntity
  8
0
 62
     0
100
AcDbLine
 10
3.675961
 20
5.180019000000001
 30
0.0
 11
3.675961
 21
5.180019000000001
 31
0.0
  0
LINE
  5
589
330
18
100
AcDbEntity
  8
0
 62
     0
100
AcDbLine
 10
3.806459
 20
5.06044
 30
0.0
 11
3.806459
 21
5.06044
 31
0.0
  0
LINE
  5
58A
330
18
100
AcDbEntity
  8
0
 62
     0
100
AcDbLine
 10
1.844637
 20
4.678748000000001
 30
0.0
 11
1.844637
 21
4.678748000000001
 31
0.0
  0
LINE
  5
58B
330
18
100
AcDbEntity
  8
0
 62
     0
100
AcDbLine
 10
1.872285
 20
4.653414
 30
0.0
 11
1.872285
 21
4.653414
 31
0.0
  0
LINE
  5
58C
330
18
100
AcDbEntity
  8
0
 62
     0
100
AcDbLine
 10
2.002783
 20
4.533834
 30
0.0
 11
2.002783
 21
4.533834
 31
0.0
  0
LINE
  5
58D
330
18
100
AcDbEntity
  8
0
 62
     0
100
AcDbLine
 10
2.152081
 20
4.397027
 30
0.0
 11
2.152081
 21
4.397027
 31
0.0
  0
LINE
  5
58E
330
18
100
AcDbEntity
  8
0
 62
     0
100
AcDbLine
 10
2.179729
 20
4.371693
 30
0.0
 11
2.179729
 21
4.371693
 31
0.0
  0
LINE
  5
58F
330
18
100
AcDbEntity
  8
0
 62
     0
100
AcDbLine
 10
2.310227
 20
4.252113
 30
0.0
 11
2.310227
 21
4.252113
 31
0.0
  0
LINE
  5
590
330
18
100
AcDbEntity
  8
0
 62
     0
100
AcDbLine
 10
2.459526
 20
4.115306
 30
0.0
 11
2.459526
 21
4.115306
 31
0.0
  0
LINE
  5
591
330
18
100
AcDbEntity
  8
0
 62
     0
100
AcDbLine
 10
2.487174
 20
4.089971
 30
0.0
 11
2.487174
 21
4.089971
 31
0.0
  0
LINE
  5
592
330
18
100
AcDbEntity
  8
0
 62
     0
100
AcDbLine
 10
2.443839
 20
5.114573
 30
0.0
 11
2.463123
 21
5.137554
 31
0.0
  0
LINE
  5
593
330
18
100
AcDbEntity
  8
0
 62
     0
100
AcDbLine
 10
2.388339
 20
5.41545
 30
0.0
 11
2.388605
 21
5.415767
 31
0.0
  0
LINE
  5
594
330
18
100
AcDbEntity
  8
0
 62
     0
100
AcDbLine
 10
2.443839
 20
5.114573
 30
0.0
 11
2.467748
 21
5.112481
 31
0.0
  0
LINE
  5
595
330
18
100
AcDbEntity
  8
0
 62
     0
100
AcDbLine
 10
2.388339
 20
5.41545
 30
0.0
 11
2.388837
 21
5.415406
 31
0.0
  0
LINE
  5
596
330
18
100
AcDbEntity
  8
0
 62
     0
100
AcDbLine
 10
2.467752
 20
5.112479
 30
0.0
 11
2.463127
 21
5.137553
 31
0.0
  0
LINE
  5
597
330
18
100
AcDbEntity
  8
0
 62
     0
100
AcDbLine
 10
2.351895
 20
5.086807
 30
0.0
 11
2.383051
 21
5.119278
 31
0.0
  0
LINE
  5
598
330
18
100
AcDbEntity
  8
0
 62
     0
100
AcDbLine
 10
2.387474
 20
5.081288
 30
0.0
 11
2.383055
 21
5.119276
 31
0.0
  0
LINE
  5
599
330
18
100
AcDbEntity
  8
0
 62
     0
100
AcDbLine
 10
2.351895
 20
5.086807
 30
0.0
 11
2.38747
 21
5.08129
 31
0.0
  0
LINE
  5
59A
330
18
100
AcDbEntity
  8
0
 62
     0
100
AcDbLine
 10
2.366722
 20
5.249045
 30
0.0
 11
2.39473
 21
5.259796
 31
0.0
  0
LINE
  5
59B
330
18
100
AcDbEntity
  8
0
 62
     0
100
AcDbLine
 10
2.366722
 20
5.249045
 30
0.0
 11
2.386619
 21
5.235625
 31
0.0
  0
LINE
  5
59C
330
18
100
AcDbEntity
  8
0
 62
     0
100
AcDbLine
 10
2.386623
 20
5.235623
 30
0.0
 11
2.394734
 21
5.259794
 31
0.0
  0
LINE
  5
59D
330
18
100
AcDbEntity
  8
0
 62
     0
100
AcDbLine
 10
2.222661
 20
5.070566
 30
0.0
 11
2.222661
 21
5.070566
 31
0.0
  0
LINE
  5
59E
330
18
100
AcDbEntity
  8
0
 62
     0
100
AcDbLine
 10
2.435279
 20
5.233714
 30
0.0
 11
2.435279
 21
5.233714
 31
0.0
  0
LINE
  5
59F
330
18
100
AcDbEntity
  8
0
 62
     0
100
AcDbLine
 10
2.227525
 20
5.203723
 30
0.0
 11
2.227525
 21
5.203723
 31
0.0
  0
LINE
  5
5A0
330
18
100
AcDbEntity
  8
0
 62
     0
100
AcDbLine
 10
2.440143
 20
5.366871
 30
0.0
 11
2.440143
 21
5.366871
 31
0.0
  0
LINE
  5
5A1
330
18
100
AcDbEntity
  8
0
 62
     0
100
AcDbLine
 10
2.232389
 20
5.336881
 30
0.0
 11
2.232389
 21
5.336881
 31
0.0
  0
LINE
  5
5A2
330
18
100
AcDbEntity
  8
0
 62
     0
100
AcDbLine
 10
2.237253
 20
5.470038
 30
0.0
 11
2.237253
 21
5.470038
 31
0.0
  0
LINE
  5
5A3
330
18
100
AcDbEntity
  8
0
 62
     0
100
AcDbLine
 10
2.430415
 20
5.100556
 30
0.0
 11
2.430415
 21
5.100556
 31
0.0
  0
LINE
  5
5A4
330
18
100
AcDbEntity
  8
0
 62
     0
100
AcDbLine
 10
2.216492
 20
5.184787
 30
0.0
 11
2.216492
 21
5.184787
 31
0.0
  0
LINE
  5
5A5
330
18
100
AcDbEntity
  8
0
 62
     0
100
AcDbLine
 10
2.469112
 20
5.218045
 30
0.0
 11
2.469112
 21
5.218045
 31
0.0
  0
LINE
  5
5A6
330
18
100
AcDbEntity
  8
0
 62
     0
100
AcDbLine
 10
2.569248
 20
5.231228
 30
0.0
 11
2.569248
 21
5.231228
 31
0.0
  0
LINE
  5
5A7
330
18
100
AcDbEntity
  8
0
 62
     0
100
AcDbLine
 10
2.32172
 20
5.342552
 30
0.0
 11
2.32172
 21
5.342552
 31
0.0
  0
LINE
  5
5A8
330
18
100
AcDbEntity
  8
0
 62
     0
100
AcDbLine
 10
2.275455
 20
5.480372
 30
0.0
 11
2.275455
 21
5.480372
 31
0.0
  0
LINE
  5
5A9
330
18
100
AcDbEntity
  8
0
 62
     0
100
AcDbLine
 10
2.363884
 20
5.060280000000001
 30
0.0
 11
2.363884
 21
5.060280000000001
 31
0.0
  0
LINE
  5
5AA
330
18
100
AcDbEntity
  8
0
 62
     0
100
AcDbLine
 10
2.46402
 20
5.073462999999999
 30
0.0
 11
2.46402
 21
5.073462999999999
 31
0.0
  0
LINE
  5
5AB
330
18
100
AcDbEntity
  8
0
 62
     0
100
AcDbLine
 10
2.255837
 20
5.23763
 30
0.0
 11
2.255837
 21
5.23763
 31
0.0
  0
LINE
  5
5AC
330
18
100
AcDbEntity
  8
0
 62
     0
100
AcDbLine
 10
2.385027
 20
5.282337999999999
 30
0.0
 11
2.385027
 21
5.282337999999999
 31
0.0
  0
LINE
  5
5AD
330
18
100
AcDbEntity
  8
0
 62
     0
100
AcDbLine
 10
2.469366
 20
5.228608
 30
0.0
 11
2.469366
 21
5.228608
 31
0.0
  0
LINE
  5
5AE
330
18
100
AcDbEntity
  8
0
 62
     0
100
AcDbLine
 10
2.598556
 20
5.273316
 30
0.0
 11
2.598556
 21
5.273316
 31
0.0
  0
LINE
  5
5AF
330
18
100
AcDbEntity
  8
0
 62
     0
100
AcDbLine
 10
2.305447
 20
5.079014
 30
0.0
 11
2.305447
 21
5.079014
 31
0.0
  0
LINE
  5
5B0
330
18
100
AcDbEntity
  8
0
 62
     0
100
AcDbLine
 10
2.230675
 20
5.197734
 30
0.0
 11
2.230675
 21
5.197734
 31
0.0
  0
LINE
  5
5B1
330
18
100
AcDbEntity
  8
0
 62
     0
100
AcDbLine
 10
2.215339
 20
5.465585
 30
0.0
 11
2.215339
 21
5.465585
 31
0.0
  0
LINE
  5
5B2
330
18
100
AcDbEntity
  8
0
 62
     0
100
AcDbLine
 10
2.311186
 20
5.377758
 30
0.0
 11
2.311186
 21
5.377758
 31
0.0
  0
LINE
  5
5B3
330
18
100
AcDbEntity
  8
0
 62
     0
100
AcDbLine
 10
2.463949
 20
5.237776
 30
0.0
 11
2.463949
 21
5.237776
 31
0.0
  0
LINE
  5
5B4
330
18
100
AcDbEntity
  8
0
 62
     0
100
AcDbLine
 10
5.208024
 20
3.403709
 30
0.0
 11
5.208024
 21
3.403709
 31
0.0
  0
LINE
  5
5B5
330
18
100
AcDbEntity
  8
0
 62
     0
100
AcDbLine
 10
5.388908
 20
3.542507
 30
0.0
 11
5.388908
 21
3.542507
 31
0.0
  0
LINE
  5
5B6
330
18
100
AcDbEntity
  8
0
 62
     0
100
AcDbLine
 10
5.591214
 20
3.697741
 30
0.0
 11
5.591214
 21
3.697741
 31
0.0
  0
LINE
  5
5B7
330
18
100
AcDbEntity
  8
0
 62
     0
100
AcDbLine
 10
5.784593
 20
3.846127
 30
0.0
 11
5.784593
 21
3.846127
 31
0.0
  0
LINE
  5
5B8
330
18
100
AcDbEntity
  8
0
 62
     0
100
AcDbLine
 10
5.965478
 20
3.984924
 30
0.0
 11
5.965478
 21
3.984924
 31
0.0
  0
LINE
  5
5B9
330
18
100
AcDbEntity
  8
0
 62
     0
100
AcDbLine
 10
6.167783
 20
4.140158
 30
0.0
 11
6.167783
 21
4.140158
 31
0.0
  0
LINE
  5
5BA
330
18
100
AcDbEntity
  8
0
 62
     0
100
AcDbLine
 10
6.361163
 20
4.288544
 30
0.0
 11
6.361163
 21
4.288544
 31
0.0
  0
LINE
  5
5BB
330
18
100
AcDbEntity
  8
0
 62
     0
100
AcDbLine
 10
6.542048
 20
4.427341999999999
 30
0.0
 11
6.542048
 21
4.427341999999999
 31
0.0
  0
LINE
  5
5BC
330
18
100
AcDbEntity
  8
0
 62
     0
100
AcDbLine
 10
5.198575
 20
3.692733
 30
0.0
 11
5.198575
 21
3.692733
 31
0.0
  0
LINE
  5
5BD
330
18
100
AcDbEntity
  8
0
 62
     0
100
AcDbLine
 10
5.379459
 20
3.83153
 30
0.0
 11
5.379459
 21
3.83153
 31
0.0
  0
LINE
  5
5BE
330
18
100
AcDbEntity
  8
0
 62
     0
100
AcDbLine
 10
5.581765
 20
3.986765
 30
0.0
 11
5.581765
 21
3.986765
 31
0.0
  0
LINE
  5
5BF
330
18
100
AcDbEntity
  8
0
 62
     0
100
AcDbLine
 10
5.775144
 20
4.13515
 30
0.0
 11
5.775144
 21
4.13515
 31
0.0
  0
LINE
  5
5C0
330
18
100
AcDbEntity
  8
0
 62
     0
100
AcDbLine
 10
5.956029
 20
4.273948000000001
 30
0.0
 11
5.956029
 21
4.273948000000001
 31
0.0
  0
LINE
  5
5C1
330
18
100
AcDbEntity
  8
0
 62
     0
100
AcDbLine
 10
5.210341000000001
 20
3.404562
 30
0.0
 11
5.210341000000001
 21
3.404562
 31
0.0
  0
LINE
  5
5C2
330
18
100
AcDbEntity
  8
0
 62
     0
100
AcDbLine
 10
5.414083
 20
3.431386
 30
0.0
 11
5.414083
 21
3.431386
 31
0.0
  0
LINE
  5
5C3
330
18
100
AcDbEntity
  8
0
 62
     0
100
AcDbLine
 10
5.275783000000001
 20
3.801551
 30
0.0
 11
5.275783000000001
 21
3.801551
 31
0.0
  0
LINE
  5
5C4
330
18
100
AcDbEntity
  8
0
 62
     0
100
AcDbLine
 10
5.353859
 20
3.811830000000001
 30
0.0
 11
5.353859
 21
3.811830000000001
 31
0.0
  0
LINE
  5
5C5
330
18
100
AcDbEntity
  8
0
 62
     0
100
AcDbLine
 10
5.475807
 20
3.827884
 30
0.0
 11
5.475807
 21
3.827884
 31
0.0
  0
LINE
  5
5C6
330
18
100
AcDbEntity
  8
0
 62
     0
100
AcDbLine
 10
5.679549
 20
3.854707
 30
0.0
 11
5.679549
 21
3.854707
 31
0.0
  0
LINE
  5
5C7
330
18
100
AcDbEntity
  8
0
 62
     0
100
AcDbLine
 10
5.757625
 20
3.864986
 30
0.0
 11
5.757625
 21
3.864986
 31
0.0
  0
LINE
  5
5C8
330
18
100
AcDbEntity
  8
0
 62
     0
100
AcDbLine
 10
5.879573000000001
 20
3.881041
 30
0.0
 11
5.879573000000001
 21
3.881041
 31
0.0
  0
LINE
  5
5C9
330
18
100
AcDbEntity
  8
0
 62
     0
100
AcDbLine
 10
6.083315
 20
3.907864
 30
0.0
 11
6.083315
 21
3.907864
 31
0.0
  0
LINE
  5
5CA
330
18
100
AcDbEntity
  8
0
 62
     0
100
AcDbLine
 10
5.741274
 20
4.251206
 30
0.0
 11
5.741274
 21
4.251206
 31
0.0
  0
LINE
  5
5CB
330
18
100
AcDbEntity
  8
0
 62
     0
100
AcDbLine
 10
5.945016000000001
 20
4.278029
 30
0.0
 11
5.945016000000001
 21
4.278029
 31
0.0
  0
LINE
  5
5CC
330
18
100
AcDbEntity
  8
0
 62
     0
100
AcDbLine
 10
6.023092
 20
4.288308
 30
0.0
 11
6.023092
 21
4.288308
 31
0.0
  0
LINE
  5
5CD
330
18
100
AcDbEntity
  8
0
 62
     0
100
AcDbLine
 10
6.14504
 20
4.304363
 30
0.0
 11
6.14504
 21
4.304363
 31
0.0
  0
LINE
  5
5CE
330
18
100
AcDbEntity
  8
0
 62
     0
100
AcDbLine
 10
6.348781
 20
4.331186
 30
0.0
 11
6.348781
 21
4.331186
 31
0.0
  0
LINE
  5
5CF
330
18
100
AcDbEntity
  8
0
 62
     0
100
AcDbLine
 10
6.426858
 20
4.341465
 30
0.0
 11
6.426858
 21
4.341465
 31
0.0
  0
LINE
  5
5D0
330
18
100
AcDbEntity
  8
0
 62
     0
100
AcDbLine
 10
6.548805000000001
 20
4.35752
 30
0.0
 11
6.548805000000001
 21
4.35752
 31
0.0
  0
LINE
  5
5D1
330
18
100
AcDbEntity
  8
0
 62
     0
100
AcDbLine
 10
6.752547
 20
4.384343
 30
0.0
 11
6.752547
 21
4.384343
 31
0.0
  0
LINE
  5
5D2
330
18
100
AcDbEntity
  8
0
 62
     0
100
AcDbLine
 10
5.552987
 20
4.104204
 30
0.0
 11
5.552987
 21
4.104204
 31
0.0
  0
LINE
  5
5D3
330
18
100
AcDbEntity
  8
0
 62
     0
100
AcDbLine
 10
5.780702
 20
3.959133
 30
0.0
 11
5.780702
 21
3.959133
 31
0.0
  0
LINE
  5
5D4
330
18
100
AcDbEntity
  8
0
 62
     0
100
AcDbLine
 10
5.956854
 20
4.14535
 30
0.0
 11
5.956854
 21
4.14535
 31
0.0
  0
LINE
  5
5D5
330
18
100
AcDbEntity
  8
0
 62
     0
100
AcDbLine
 10
6.020108000000001
 20
4.105053
 30
0.0
 11
6.020108000000001
 21
4.105053
 31
0.0
  0
LINE
  5
5D6
330
18
100
AcDbEntity
  8
0
 62
     0
100
AcDbLine
 10
6.126679
 20
4.335597
 30
0.0
 11
6.126679
 21
4.335597
 31
0.0
  0
LINE
  5
5D7
330
18
100
AcDbEntity
  8
0
 62
     0
100
AcDbLine
 10
6.423975
 20
4.146199
 30
0.0
 11
6.423975
 21
4.146199
 31
0.0
  0
LINE
  5
5D8
330
18
100
AcDbEntity
  8
0
 62
     0
100
AcDbLine
 10
6.593800999999999
 20
4.336446
 30
0.0
 11
6.593800999999999
 21
4.336446
 31
0.0
  0
LINE
  5
5D9
330
18
100
AcDbEntity
  8
0
 62
     0
100
AcDbLine
 10
5.313581
 20
3.958284
 30
0.0
 11
5.313581
 21
3.958284
 31
0.0
  0
LINE
  5
5DA
330
18
100
AcDbEntity
  8
0
 62
     0
100
AcDbLine
 10
5.610876999999999
 20
3.768886
 30
0.0
 11
5.610876999999999
 21
3.768886
 31
0.0
  0
LINE
  5
5DB
330
18
100
AcDbEntity
  8
0
 62
     0
100
AcDbLine
 10
5.674131
 20
3.728589
 30
0.0
 11
5.674131
 21
3.728589
 31
0.0
  0
LINE
  5
5DC
330
18
100
AcDbEntity
  8
0
 62
     0
100
AcDbLine
 10
5.143755000000001
 20
3.768037
 30
0.0
 11
5.143755000000001
 21
3.768037
 31
0.0
  0
LINE
  5
5DD
330
18
100
AcDbEntity
  8
0
 62
     0
100
AcDbLine
 10
5.20701
 20
3.72774
 30
0.0
 11
5.20701
 21
3.72774
 31
0.0
  0
LINE
  5
5DE
330
18
100
AcDbEntity
  8
0
 62
     0
100
AcDbLine
 10
5.434725
 20
3.582669
 30
0.0
 11
5.434725
 21
3.582669
 31
0.0
  0
LINE
  5
5DF
330
18
100
AcDbEntity
  8
0
 62
     0
100
AcDbLine
 10
5.2649
 20
3.392422
 30
0.0
 11
5.2649
 21
3.392422
 31
0.0
  0
LINE
  5
5E0
330
18
100
AcDbEntity
  8
0
 62
     0
100
AcDbLine
 10
5.328154000000001
 20
3.352125
 30
0.0
 11
5.328154000000001
 21
3.352125
 31
0.0
  0
LINE
  5
5E1
330
18
100
AcDbEntity
  8
0
 62
     0
100
AcDbLine
 10
5.487156
 20
4.065206
 30
0.0
 11
5.487156
 21
4.065206
 31
0.0
  0
LINE
  5
5E2
330
18
100
AcDbEntity
  8
0
 62
     0
100
AcDbLine
 10
5.636455000000001
 20
3.928399
 30
0.0
 11
5.636455000000001
 21
3.928399
 31
0.0
  0
LINE
  5
5E3
330
18
100
AcDbEntity
  8
0
 62
     0
100
AcDbLine
 10
5.664103
 20
3.903065
 30
0.0
 11
5.664103
 21
3.903065
 31
0.0
  0
LINE
  5
5E4
330
18
100
AcDbEntity
  8
0
 62
     0
100
AcDbLine
 10
5.794601
 20
3.783485
 30
0.0
 11
5.794601
 21
3.783485
 31
0.0
  0
LINE
  5
5E5
330
18
100
AcDbEntity
  8
0
 62
     0
100
AcDbLine
 10
5.938075
 20
4.196858
 30
0.0
 11
5.938075
 21
4.196858
 31
0.0
  0
LINE
  5
5E6
330
18
100
AcDbEntity
  8
0
 62
     0
100
AcDbLine
 10
6.087374
 20
4.060051000000001
 30
0.0
 11
6.087374
 21
4.060051000000001
 31
0.0
  0
LINE
  5
5E7
330
18
100
AcDbEntity
  8
0
 62
     0
100
AcDbLine
 10
6.115022
 20
4.034716
 30
0.0
 11
6.115022
 21
4.034716
 31
0.0
  0
LINE
  5
5E8
330
18
100
AcDbEntity
  8
0
 62
     0
100
AcDbLine
 10
6.388994
 20
4.328509
 30
0.0
 11
6.388994
 21
4.328509
 31
0.0
  0
LINE
  5
5E9
330
18
100
AcDbEntity
  8
0
 62
     0
100
AcDbLine
 10
6.538293
 20
4.191701999999999
 30
0.0
 11
6.538293
 21
4.191701999999999
 31
0.0
  0
LINE
  5
5EA
330
18
100
AcDbEntity
  8
0
 62
     0
100
AcDbLine
 10
6.839913
 20
4.46016
 30
0.0
 11
6.839913
 21
4.46016
 31
0.0
  0
LINE
  5
5EB
330
18
100
AcDbEntity
  8
0
 62
     0
100
AcDbLine
 10
5.185536
 20
3.796748000000001
 30
0.0
 11
5.185536
 21
3.796748000000001
 31
0.0
  0
LINE
  5
5EC
330
18
100
AcDbEntity
  8
0
 62
     0
100
AcDbLine
 10
5.213184
 20
3.771413
 30
0.0
 11
5.213184
 21
3.771413
 31
0.0
  0
LINE
  5
5ED
330
18
100
AcDbEntity
  8
0
 62
     0
100
AcDbLine
 10
5.343682
 20
3.651834
 30
0.0
 11
5.343682
 21
3.651834
 31
0.0
  0
LINE
  5
5EE
330
18
100
AcDbEntity
  8
0
 62
     0
100
AcDbLine
 10
5.492980999999999
 20
3.515027
 30
0.0
 11
5.492980999999999
 21
3.515027
 31
0.0
  0
LINE
  5
5EF
330
18
100
AcDbEntity
  8
0
 62
     0
100
AcDbLine
 10
5.520629000000001
 20
3.489692
 30
0.0
 11
5.520629000000001
 21
3.489692
 31
0.0
  0
LINE
  5
5F0
330
18
100
AcDbEntity
  8
0
 62
     0
100
AcDbLine
 10
5.200208
 20
3.238462
 30
0.0
 11
5.200208
 21
3.238462
 31
0.0
  0
LINE
  5
5F1
330
18
100
AcDbEntity
  8
0
 62
     0
100
AcDbLine
 10
4.659801
 20
2.094221
 30
0.0
 11
4.659801
 21
2.094221
 31
0.0
  0
LINE
  5
5F2
330
18
100
AcDbEntity
  8
0
 62
     0
100
AcDbLine
 10
4.840686
 20
2.233019
 30
0.0
 11
4.840686
 21
2.233019
 31
0.0
  0
LINE
  5
5F3
330
18
100
AcDbEntity
  8
0
 62
     0
100
AcDbLine
 10
5.042991000000001
 20
2.388253
 30
0.0
 11
5.042991000000001
 21
2.388253
 31
0.0
  0
LINE
  5
5F4
330
18
100
AcDbEntity
  8
0
 62
     0
100
AcDbLine
 10
5.236371
 20
2.536638
 30
0.0
 11
5.236371
 21
2.536638
 31
0.0
  0
LINE
  5
5F5
330
18
100
AcDbEntity
  8
0
 62
     0
100
AcDbLine
 10
5.417255
 20
2.675436
 30
0.0
 11
5.417255
 21
2.675436
 31
0.0
  0
LINE
  5
5F6
330
18
100
AcDbEntity
  8
0
 62
     0
100
AcDbLine
 10
4.650352
 20
2.383245
 30
0.0
 11
4.650352
 21
2.383245
 31
0.0
  0
LINE
  5
5F7
330
18
100
AcDbEntity
  8
0
 62
     0
100
AcDbLine
 10
4.831237000000001
 20
2.522042
 30
0.0
 11
4.831237000000001
 21
2.522042
 31
0.0
  0
LINE
  5
5F8
330
18
100
AcDbEntity
  8
0
 62
     0
100
AcDbLine
 10
5.033542
 20
2.677276
 30
0.0
 11
5.033542
 21
2.677276
 31
0.0
  0
LINE
  5
5F9
330
18
100
AcDbEntity
  8
0
 62
     0
100
AcDbLine
 10
5.226922
 20
2.825662
 30
0.0
 11
5.226922
 21
2.825662
 31
0.0
  0
LINE
  5
5FA
330
18
100
AcDbEntity
  8
0
 62
     0
100
AcDbLine
 10
5.407806
 20
2.96446
 30
0.0
 11
5.407806
 21
2.96446
 31
0.0
  0
LINE
  5
5FB
330
18
100
AcDbEntity
  8
0
 62
     0
100
AcDbLine
 10
5.610112
 20
3.119694
 30
0.0
 11
5.610112
 21
3.119694
 31
0.0
  0
LINE
  5
5FC
330
18
100
AcDbEntity
  8
0
 62
     0
100
AcDbLine
 10
5.803491
 20
3.268079
 30
0.0
 11
5.803491
 21
3.268079
 31
0.0
  0
LINE
  5
5FD
330
18
100
AcDbEntity
  8
0
 62
     0
100
AcDbLine
 10
4.640903
 20
2.672268
 30
0.0
 11
4.640903
 21
2.672268
 31
0.0
  0
LINE
  5
5FE
330
18
100
AcDbEntity
  8
0
 62
     0
100
AcDbLine
 10
4.821788
 20
2.811066
 30
0.0
 11
4.821788
 21
2.811066
 31
0.0
  0
LINE
  5
5FF
330
18
100
AcDbEntity
  8
0
 62
     0
100
AcDbLine
 10
5.024093
 20
2.9663
 30
0.0
 11
5.024093
 21
2.9663
 31
0.0
  0
LINE
  5
600
330
18
100
AcDbEntity
  8
0
 62
     0
100
AcDbLine
 10
5.217473
 20
3.114686
 30
0.0
 11
5.217473
 21
3.114686
 31
0.0
  0
LINE
  5
601
330
18
100
AcDbEntity
  8
0
 62
     0
100
AcDbLine
 10
5.398357
 20
3.253483
 30
0.0
 11
5.398357
 21
3.253483
 31
0.0
  0
LINE
  5
602
330
18
100
AcDbEntity
  8
0
 62
     0
100
AcDbLine
 10
5.600663
 20
3.408717
 30
0.0
 11
5.600663
 21
3.408717
 31
0.0
  0
LINE
  5
603
330
18
100
AcDbEntity
  8
0
 62
     0
100
AcDbLine
 10
5.794042
 20
3.557103
 30
0.0
 11
5.794042
 21
3.557103
 31
0.0
  0
LINE
  5
604
330
18
100
AcDbEntity
  8
0
 62
     0
100
AcDbLine
 10
5.974927
 20
3.695901
 30
0.0
 11
5.974927
 21
3.695901
 31
0.0
  0
LINE
  5
605
330
18
100
AcDbEntity
  8
0
 62
     0
100
AcDbLine
 10
4.66925
 20
1.805198
 30
0.0
 11
4.66925
 21
1.805198
 31
0.0
  0
LINE
  5
606
330
18
100
AcDbEntity
  8
0
 62
     0
100
AcDbLine
 10
4.850135
 20
1.943995
 30
0.0
 11
4.850135
 21
1.943995
 31
0.0
  0
LINE
  5
607
330
18
100
AcDbEntity
  8
0
 62
     0
100
AcDbLine
 10
5.05244
 20
2.099229
 30
0.0
 11
5.05244
 21
2.099229
 31
0.0
  0
LINE
  5
608
330
18
100
AcDbEntity
  8
0
 62
     0
100
AcDbLine
 10
5.24582
 20
2.247615
 30
0.0
 11
5.24582
 21
2.247615
 31
0.0
  0
LINE
  5
609
330
18
100
AcDbEntity
  8
0
 62
     0
100
AcDbLine
 10
4.678699
 20
1.516174
 30
0.0
 11
4.678699
 21
1.516174
 31
0.0
  0
LINE
  5
60A
330
18
100
AcDbEntity
  8
0
 62
     0
100
AcDbLine
 10
4.859584
 20
1.654972
 30
0.0
 11
4.859584
 21
1.654972
 31
0.0
  0
LINE
  5
60B
330
18
100
AcDbEntity
  8
0
 62
     0
100
AcDbLine
 10
5.061889
 20
1.810206
 30
0.0
 11
5.061889
 21
1.810206
 31
0.0
  0
LINE
  5
60C
330
18
100
AcDbEntity
  8
0
 62
     0
100
AcDbLine
 10
4.688148
 20
1.22715
 30
0.0
 11
4.688148
 21
1.22715
 31
0.0
  0
LINE
  5
60D
330
18
100
AcDbEntity
  8
0
 62
     0
100
AcDbLine
 10
4.695759
 20
2.171699
 30
0.0
 11
4.695759
 21
2.171699
 31
0.0
  0
LINE
  5
60E
330
18
100
AcDbEntity
  8
0
 62
     0
100
AcDbLine
 10
4.817707
 20
2.187753
 30
0.0
 11
4.817707
 21
2.187753
 31
0.0
  0
LINE
  5
60F
330
18
100
AcDbEntity
  8
0
 62
     0
100
AcDbLine
 10
5.021449
 20
2.214577
 30
0.0
 11
5.021449
 21
2.214577
 31
0.0
  0
LINE
  5
610
330
18
100
AcDbEntity
  8
0
 62
     0
100
AcDbLine
 10
5.099525
 20
2.224856
 30
0.0
 11
5.099525
 21
2.224856
 31
0.0
  0
LINE
  5
611
330
18
100
AcDbEntity
  8
0
 62
     0
100
AcDbLine
 10
5.221473000000001
 20
2.24091
 30
0.0
 11
5.221473000000001
 21
2.24091
 31
0.0
  0
LINE
  5
612
330
18
100
AcDbEntity
  8
0
 62
     0
100
AcDbLine
 10
4.679408000000001
 20
2.557919
 30
0.0
 11
4.679408000000001
 21
2.557919
 31
0.0
  0
LINE
  5
613
330
18
100
AcDbEntity
  8
0
 62
     0
100
AcDbLine
 10
4.88315
 20
2.584742
 30
0.0
 11
4.88315
 21
2.584742
 31
0.0
  0
LINE
  5
614
330
18
100
AcDbEntity
  8
0
 62
     0
100
AcDbLine
 10
4.961226
 20
2.595021
 30
0.0
 11
4.961226
 21
2.595021
 31
0.0
  0
LINE
  5
615
330
18
100
AcDbEntity
  8
0
 62
     0
100
AcDbLine
 10
5.083174
 20
2.611075
 30
0.0
 11
5.083174
 21
2.611075
 31
0.0
  0
LINE
  5
616
330
18
100
AcDbEntity
  8
0
 62
     0
100
AcDbLine
 10
5.286915000000001
 20
2.637899
 30
0.0
 11
5.286915000000001
 21
2.637899
 31
0.0
  0
LINE
  5
617
330
18
100
AcDbEntity
  8
0
 62
     0
100
AcDbLine
 10
5.364992
 20
2.648177
 30
0.0
 11
5.364992
 21
2.648177
 31
0.0
  0
LINE
  5
618
330
18
100
AcDbEntity
  8
0
 62
     0
100
AcDbLine
 10
5.486939
 20
2.664232
 30
0.0
 11
5.486939
 21
2.664232
 31
0.0
  0
LINE
  5
619
330
18
100
AcDbEntity
  8
0
 62
     0
100
AcDbLine
 10
4.822926
 20
2.965186
 30
0.0
 11
4.822926
 21
2.965186
 31
0.0
  0
LINE
  5
61A
330
18
100
AcDbEntity
  8
0
 62
     0
100
AcDbLine
 10
4.944874
 20
2.981241
 30
0.0
 11
4.944874
 21
2.981241
 31
0.0
  0
LINE
  5
61B
330
18
100
AcDbEntity
  8
0
 62
     0
100
AcDbLine
 10
5.148616000000001
 20
3.008064
 30
0.0
 11
5.148616000000001
 21
3.008064
 31
0.0
  0
LINE
  5
61C
330
18
100
AcDbEntity
  8
0
 62
     0
100
AcDbLine
 10
5.226692
 20
3.018343
 30
0.0
 11
5.226692
 21
3.018343
 31
0.0
  0
LINE
  5
61D
330
18
100
AcDbEntity
  8
0
 62
     0
100
AcDbLine
 10
5.348640000000001
 20
3.034397
 30
0.0
 11
5.348640000000001
 21
3.034397
 31
0.0
  0
LINE
  5
61E
330
18
100
AcDbEntity
  8
0
 62
     0
100
AcDbLine
 10
5.552382
 20
3.06122
 30
0.0
 11
5.552382
 21
3.06122
 31
0.0
  0
LINE
  5
61F
330
18
100
AcDbEntity
  8
0
 62
     0
100
AcDbLine
 10
5.630458
 20
3.071499
 30
0.0
 11
5.630458
 21
3.071499
 31
0.0
  0
LINE
  5
620
330
18
100
AcDbEntity
  8
0
 62
     0
100
AcDbLine
 10
5.752406
 20
3.087554
 30
0.0
 11
5.752406
 21
3.087554
 31
0.0
  0
LINE
  5
621
330
18
100
AcDbEntity
  8
0
 62
     0
100
AcDbLine
 10
5.492159
 20
3.441664
 30
0.0
 11
5.492159
 21
3.441664
 31
0.0
  0
LINE
  5
622
330
18
100
AcDbEntity
  8
0
 62
     0
100
AcDbLine
 10
5.614107
 20
3.457719
 30
0.0
 11
5.614107
 21
3.457719
 31
0.0
  0
LINE
  5
623
330
18
100
AcDbEntity
  8
0
 62
     0
100
AcDbLine
 10
5.817848000000001
 20
3.484542
 30
0.0
 11
5.817848000000001
 21
3.484542
 31
0.0
  0
LINE
  5
624
330
18
100
AcDbEntity
  8
0
 62
     0
100
AcDbLine
 10
5.895925
 20
3.494821
 30
0.0
 11
5.895925
 21
3.494821
 31
0.0
  0
LINE
  5
625
330
18
100
AcDbEntity
  8
0
 62
     0
100
AcDbLine
 10
6.161391
 20
3.918143
 30
0.0
 11
6.161391
 21
3.918143
 31
0.0
  0
LINE
  5
626
330
18
100
AcDbEntity
  8
0
 62
     0
100
AcDbLine
 10
4.755982
 20
1.791255
 30
0.0
 11
4.755982
 21
1.791255
 31
0.0
  0
LINE
  5
627
330
18
100
AcDbEntity
  8
0
 62
     0
100
AcDbLine
 10
4.834059
 20
1.801534
 30
0.0
 11
4.834059
 21
1.801534
 31
0.0
  0
LINE
  5
628
330
18
100
AcDbEntity
  8
0
 62
     0
100
AcDbLine
 10
4.956006
 20
1.817588
 30
0.0
 11
4.956006
 21
1.817588
 31
0.0
  0
LINE
  5
629
330
18
100
AcDbEntity
  8
0
 62
     0
100
AcDbLine
 10
4.69054
 20
1.394266
 30
0.0
 11
4.69054
 21
1.394266
 31
0.0
  0
LINE
  5
62A
330
18
100
AcDbEntity
  8
0
 62
     0
100
AcDbLine
 10
4.742771
 20
2.829741
 30
0.0
 11
4.742771
 21
2.829741
 31
0.0
  0
LINE
  5
62B
330
18
100
AcDbEntity
  8
0
 62
     0
100
AcDbLine
 10
5.040067
 20
2.640342
 30
0.0
 11
5.040067
 21
2.640342
 31
0.0
  0
LINE
  5
62C
330
18
100
AcDbEntity
  8
0
 62
     0
100
AcDbLine
 10
5.103321
 20
2.600045
 30
0.0
 11
5.103321
 21
2.600045
 31
0.0
  0
LINE
  5
62D
330
18
100
AcDbEntity
  8
0
 62
     0
100
AcDbLine
 10
5.331037
 20
2.454974
 30
0.0
 11
5.331037
 21
2.454974
 31
0.0
  0
LINE
  5
62E
330
18
100
AcDbEntity
  8
0
 62
     0
100
AcDbLine
 10
4.918923
 20
3.015958
 30
0.0
 11
4.918923
 21
3.015958
 31
0.0
  0
LINE
  5
62F
330
18
100
AcDbEntity
  8
0
 62
     0
100
AcDbLine
 10
4.982177
 20
2.97566
 30
0.0
 11
4.982177
 21
2.97566
 31
0.0
  0
LINE
  5
630
330
18
100
AcDbEntity
  8
0
 62
     0
100
AcDbLine
 10
5.209893
 20
2.830589
 30
0.0
 11
5.209893
 21
2.830589
 31
0.0
  0
LINE
  5
631
330
18
100
AcDbEntity
  8
0
 62
     0
100
AcDbLine
 10
5.507187999999999
 20
2.641191
 30
0.0
 11
5.507187999999999
 21
2.641191
 31
0.0
  0
LINE
  5
632
330
18
100
AcDbEntity
  8
0
 62
     0
100
AcDbLine
 10
5.386044
 20
3.016807
 30
0.0
 11
5.386044
 21
3.016807
 31
0.0
  0
LINE
  5
633
330
18
100
AcDbEntity
  8
0
 62
     0
100
AcDbLine
 10
5.449298000000001
 20
2.976509
 30
0.0
 11
5.449298000000001
 21
2.976509
 31
0.0
  0
LINE
  5
634
330
18
100
AcDbEntity
  8
0
 62
     0
100
AcDbLine
 10
5.55587
 20
3.207054
 30
0.0
 11
5.55587
 21
3.207054
 31
0.0
  0
LINE
  5
635
330
18
100
AcDbEntity
  8
0
 62
     0
100
AcDbLine
 10
5.732021
 20
3.393271
 30
0.0
 11
5.732021
 21
3.393271
 31
0.0
  0
LINE
  5
636
330
18
100
AcDbEntity
  8
0
 62
     0
100
AcDbLine
 10
5.795275
 20
3.352973
 30
0.0
 11
5.795275
 21
3.352973
 31
0.0
  0
LINE
  5
637
330
18
100
AcDbEntity
  8
0
 62
     0
100
AcDbLine
 10
5.901847
 20
3.583518
 30
0.0
 11
5.901847
 21
3.583518
 31
0.0
  0
LINE
  5
638
330
18
100
AcDbEntity
  8
0
 62
     0
100
AcDbLine
 10
6.077998
 20
3.769735
 30
0.0
 11
6.077998
 21
3.769735
 31
0.0
  0
LINE
  5
639
330
18
100
AcDbEntity
  8
0
 62
     0
100
AcDbLine
 10
4.6362
 20
2.599196
 30
0.0
 11
4.6362
 21
2.599196
 31
0.0
  0
LINE
  5
63A
330
18
100
AcDbEntity
  8
0
 62
     0
100
AcDbLine
 10
4.863916000000001
 20
2.454125
 30
0.0
 11
4.863916000000001
 21
2.454125
 31
0.0
  0
LINE
  5
63B
330
18
100
AcDbEntity
  8
0
 62
     0
100
AcDbLine
 10
5.161211
 20
2.264727
 30
0.0
 11
5.161211
 21
2.264727
 31
0.0
  0
LINE
  5
63C
330
18
100
AcDbEntity
  8
0
 62
     0
100
AcDbLine
 10
5.224465
 20
2.22443
 30
0.0
 11
5.224465
 21
2.22443
 31
0.0
  0
LINE
  5
63D
330
18
100
AcDbEntity
  8
0
 62
     0
100
AcDbLine
 10
4.69409
 20
2.263878
 30
0.0
 11
4.69409
 21
2.263878
 31
0.0
  0
LINE
  5
63E
330
18
100
AcDbEntity
  8
0
 62
     0
100
AcDbLine
 10
4.757344
 20
2.223581
 30
0.0
 11
4.757344
 21
2.223581
 31
0.0
  0
LINE
  5
63F
330
18
100
AcDbEntity
  8
0
 62
     0
100
AcDbLine
 10
4.98506
 20
2.07851
 30
0.0
 11
4.98506
 21
2.07851
 31
0.0
  0
LINE
  5
640
330
18
100
AcDbEntity
  8
0
 62
     0
100
AcDbLine
 10
4.815233999999999
 20
1.888263
 30
0.0
 11
4.815233999999999
 21
1.888263
 31
0.0
  0
LINE
  5
641
330
18
100
AcDbEntity
  8
0
 62
     0
100
AcDbLine
 10
4.878488
 20
1.847966
 30
0.0
 11
4.878488
 21
1.847966
 31
0.0
  0
LINE
  5
642
330
18
100
AcDbEntity
  8
0
 62
     0
100
AcDbLine
 10
4.639083
 20
1.702046
 30
0.0
 11
4.639083
 21
1.702046
 31
0.0
  0
LINE
  5
643
330
18
100
AcDbEntity
  8
0
 62
     0
100
AcDbLine
 10
4.760227
 20
1.32643
 30
0.0
 11
4.760227
 21
1.32643
 31
0.0
  0
LINE
  5
644
330
18
100
AcDbEntity
  8
0
 62
     0
100
AcDbLine
 10
4.590401
 20
1.136183
 30
0.0
 11
4.590401
 21
1.136183
 31
0.0
  0
LINE
  5
645
330
18
100
AcDbEntity
  8
0
 62
     0
100
AcDbLine
 10
4.653656
 20
1.095886
 30
0.0
 11
4.653656
 21
1.095886
 31
0.0
  0
LINE
  5
646
330
18
100
AcDbEntity
  8
0
 62
     0
100
AcDbLine
 10
4.605814
 20
2.693438
 30
0.0
 11
4.605814
 21
2.693438
 31
0.0
  0
LINE
  5
647
330
18
100
AcDbEntity
  8
0
 62
     0
100
AcDbLine
 10
4.755113
 20
2.556631
 30
0.0
 11
4.755113
 21
2.556631
 31
0.0
  0
LINE
  5
648
330
18
100
AcDbEntity
  8
0
 62
     0
100
AcDbLine
 10
4.782761
 20
2.531296
 30
0.0
 11
4.782761
 21
2.531296
 31
0.0
  0
LINE
  5
649
330
18
100
AcDbEntity
  8
0
 62
     0
100
AcDbLine
 10
4.913259
 20
2.411717
 30
0.0
 11
4.913259
 21
2.411717
 31
0.0
  0
LINE
  5
64A
330
18
100
AcDbEntity
  8
0
 62
     0
100
AcDbLine
 10
5.062558
 20
2.27491
 30
0.0
 11
5.062558
 21
2.27491
 31
0.0
  0
LINE
  5
64B
330
18
100
AcDbEntity
  8
0
 62
     0
100
AcDbLine
 10
5.090205
 20
2.249575
 30
0.0
 11
5.090205
 21
2.249575
 31
0.0
  0
LINE
  5
64C
330
18
100
AcDbEntity
  8
0
 62
     0
100
AcDbLine
 10
5.220704000000001
 20
2.129995
 30
0.0
 11
5.220704000000001
 21
2.129995
 31
0.0
  0
LINE
  5
64D
330
18
100
AcDbEntity
  8
0
 62
     0
100
AcDbLine
 10
4.898587
 20
2.970003
 30
0.0
 11
4.898587
 21
2.970003
 31
0.0
  0
LINE
  5
64E
330
18
100
AcDbEntity
  8
0
 62
     0
100
AcDbLine
 10
4.926235
 20
2.944669
 30
0.0
 11
4.926235
 21
2.944669
 31
0.0
  0
LINE
  5
64F
330
18
100
AcDbEntity
  8
0
 62
     0
100
AcDbLine
 10
5.056733
 20
2.825089
 30
0.0
 11
5.056733
 21
2.825089
 31
0.0
  0
LINE
  5
650
330
18
100
AcDbEntity
  8
0
 62
     0
100
AcDbLine
 10
5.206032
 20
2.688282
 30
0.0
 11
5.206032
 21
2.688282
 31
0.0
  0
LINE
  5
651
330
18
100
AcDbEntity
  8
0
 62
     0
100
AcDbLine
 10
5.233680000000001
 20
2.662947
 30
0.0
 11
5.233680000000001
 21
2.662947
 31
0.0
  0
LINE
  5
652
330
18
100
AcDbEntity
  8
0
 62
     0
100
AcDbLine
 10
5.364178
 20
2.543368
 30
0.0
 11
5.364178
 21
2.543368
 31
0.0
  0
LINE
  5
653
330
18
100
AcDbEntity
  8
0
 62
     0
100
AcDbLine
 10
5.349506
 20
3.101654
 30
0.0
 11
5.349506
 21
3.101654
 31
0.0
  0
LINE
  5
654
330
18
100
AcDbEntity
  8
0
 62
     0
100
AcDbLine
 10
5.377154
 20
3.07632
 30
0.0
 11
5.377154
 21
3.07632
 31
0.0
  0
LINE
  5
655
330
18
100
AcDbEntity
  8
0
 62
     0
100
AcDbLine
 10
5.507651999999999
 20
2.95674
 30
0.0
 11
5.507651999999999
 21
2.95674
 31
0.0
  0
LINE
  5
656
330
18
100
AcDbEntity
  8
0
 62
     0
100
AcDbLine
 10
5.651127
 20
3.370113
 30
0.0
 11
5.651127
 21
3.370113
 31
0.0
  0
LINE
  5
657
330
18
100
AcDbEntity
  8
0
 62
     0
100
AcDbLine
 10
5.800425
 20
3.233306
 30
0.0
 11
5.800425
 21
3.233306
 31
0.0
  0
LINE
  5
658
330
18
100
AcDbEntity
  8
0
 62
     0
100
AcDbLine
 10
5.9439
 20
3.646678
 30
0.0
 11
5.9439
 21
3.646678
 31
0.0
  0
LINE
  5
659
330
18
100
AcDbEntity
  8
0
 62
     0
100
AcDbLine
 10
5.971547
 20
3.621344
 30
0.0
 11
5.971547
 21
3.621344
 31
0.0
  0
LINE
  5
65A
330
18
100
AcDbEntity
  8
0
 62
     0
100
AcDbLine
 10
4.611639
 20
2.143258
 30
0.0
 11
4.611639
 21
2.143258
 31
0.0
  0
LINE
  5
65B
330
18
100
AcDbEntity
  8
0
 62
     0
100
AcDbLine
 10
4.639286
 20
2.117924
 30
0.0
 11
4.639286
 21
2.117924
 31
0.0
  0
LINE
  5
65C
330
18
100
AcDbEntity
  8
0
 62
     0
100
AcDbLine
 10
4.769785
 20
1.998344
 30
0.0
 11
4.769785
 21
1.998344
 31
0.0
  0
LINE
  5
65D
330
18
100
AcDbEntity
  8
0
 62
     0
100
AcDbLine
 10
4.919083000000001
 20
1.861537
 30
0.0
 11
4.919083000000001
 21
1.861537
 31
0.0
  0
LINE
  5
65E
330
18
100
AcDbEntity
  8
0
 62
     0
100
AcDbLine
 10
4.946731
 20
1.836203
 30
0.0
 11
4.946731
 21
1.836203
 31
0.0
  0
LINE
  5
65F
330
18
100
AcDbEntity
  8
0
 62
     0
100
AcDbLine
 10
4.62631
 20
1.584972
 30
0.0
 11
4.62631
 21
1.584972
 31
0.0
  0
LINE
  5
660
330
18
100
AcDbEntity
  8
0
 62
     0
100
AcDbLine
 10
4.775608999999999
 20
1.448165
 30
0.0
 11
4.775608999999999
 21
1.448165
 31
0.0
  0
LINE
  5
661
330
18
100
AcDbEntity
  8
0
 62
     0
100
AcDbLine
 10
4.803257
 20
1.42283
 30
0.0
 11
4.803257
 21
1.42283
 31
0.0
  0
LINE
  5
662
330
18
100
AcDbEntity
  8
0
 62
     0
100
AcDbLine
 10
4.995746
 20
3.833371
 30
0.0
 11
4.995746
 21
3.833371
 31
0.0
  0
LINE
  5
663
330
18
100
AcDbEntity
  8
0
 62
     0
100
AcDbLine
 10
5.189126
 20
3.981756
 30
0.0
 11
5.189126
 21
3.981756
 31
0.0
  0
LINE
  5
664
330
18
100
AcDbEntity
  8
0
 62
     0
100
AcDbLine
 10
5.37001
 20
4.120554
 30
0.0
 11
5.37001
 21
4.120554
 31
0.0
  0
LINE
  5
665
330
18
100
AcDbEntity
  8
0
 62
     0
100
AcDbLine
 10
5.572316000000001
 20
4.275788
 30
0.0
 11
5.572316000000001
 21
4.275788
 31
0.0
  0
LINE
  5
666
330
18
100
AcDbEntity
  8
0
 62
     0
100
AcDbLine
 10
5.765695
 20
4.424174
 30
0.0
 11
5.765695
 21
4.424174
 31
0.0
  0
LINE
  5
667
330
18
100
AcDbEntity
  8
0
 62
     0
100
AcDbLine
 10
5.360561
 20
4.409577
 30
0.0
 11
5.360561
 21
4.409577
 31
0.0
  0
LINE
  5
668
330
18
100
AcDbEntity
  8
0
 62
     0
100
AcDbLine
 10
5.562867
 20
4.564812
 30
0.0
 11
5.562867
 21
4.564812
 31
0.0
  0
LINE
  5
669
330
18
100
AcDbEntity
  8
0
 62
     0
100
AcDbLine
 10
5.21556
 20
4.181995
 30
0.0
 11
5.21556
 21
4.181995
 31
0.0
  0
LINE
  5
66A
330
18
100
AcDbEntity
  8
0
 62
     0
100
AcDbLine
 10
5.337508000000001
 20
4.198049
 30
0.0
 11
5.337508000000001
 21
4.198049
 31
0.0
  0
LINE
  5
66B
330
18
100
AcDbEntity
  8
0
 62
     0
100
AcDbLine
 10
5.54125
 20
4.224873000000001
 30
0.0
 11
5.54125
 21
4.224873000000001
 31
0.0
  0
LINE
  5
66C
330
18
100
AcDbEntity
  8
0
 62
     0
100
AcDbLine
 10
5.619326
 20
4.235151999999999
 30
0.0
 11
5.619326
 21
4.235151999999999
 31
0.0
  0
LINE
  5
66D
330
18
100
AcDbEntity
  8
0
 62
     0
100
AcDbLine
 10
5.40295
 20
4.595038
 30
0.0
 11
5.40295
 21
4.595038
 31
0.0
  0
LINE
  5
66E
330
18
100
AcDbEntity
  8
0
 62
     0
100
AcDbLine
 10
5.481026
 20
4.605316999999999
 30
0.0
 11
5.481026
 21
4.605316999999999
 31
0.0
  0
LINE
  5
66F
330
18
100
AcDbEntity
  8
0
 62
     0
100
AcDbLine
 10
5.602974
 20
4.621371
 30
0.0
 11
5.602974
 21
4.621371
 31
0.0
  0
LINE
  5
670
330
18
100
AcDbEntity
  8
0
 62
     0
100
AcDbLine
 10
4.950093
 20
3.758673
 30
0.0
 11
4.950093
 21
3.758673
 31
0.0
  0
LINE
  5
671
330
18
100
AcDbEntity
  8
0
 62
     0
100
AcDbLine
 10
5.489732
 20
4.144501999999999
 30
0.0
 11
5.489732
 21
4.144501999999999
 31
0.0
  0
LINE
  5
672
330
18
100
AcDbEntity
  8
0
 62
     0
100
AcDbLine
 10
5.368588
 20
4.520117
 30
0.0
 11
5.368588
 21
4.520117
 31
0.0
  0
LINE
  5
673
330
18
100
AcDbEntity
  8
0
 62
     0
100
AcDbLine
 10
5.431842
 20
4.479819
 30
0.0
 11
5.431842
 21
4.479819
 31
0.0
  0
LINE
  5
674
330
18
100
AcDbEntity
  8
0
 62
     0
100
AcDbLine
 10
5.659558000000001
 20
4.334749
 30
0.0
 11
5.659558000000001
 21
4.334749
 31
0.0
  0
LINE
  5
675
330
18
100
AcDbEntity
  8
0
 62
     0
100
AcDbLine
 10
5.538414
 20
4.710364
 30
0.0
 11
5.538414
 21
4.710364
 31
0.0
  0
LINE
  5
676
330
18
100
AcDbEntity
  8
0
 62
     0
100
AcDbLine
 10
5.835709
 20
4.520966000000001
 30
0.0
 11
5.835709
 21
4.520966000000001
 31
0.0
  0
LINE
  5
677
330
18
100
AcDbEntity
  8
0
 62
     0
100
AcDbLine
 10
5.898964
 20
4.480668
 30
0.0
 11
5.898964
 21
4.480668
 31
0.0
  0
LINE
  5
678
330
18
100
AcDbEntity
  8
0
 62
     0
100
AcDbLine
 10
5.32901
 20
4.210121
 30
0.0
 11
5.32901
 21
4.210121
 31
0.0
  0
LINE
  5
679
330
18
100
AcDbEntity
  8
0
 62
     0
100
AcDbLine
 10
5.356658
 20
4.184786
 30
0.0
 11
5.356658
 21
4.184786
 31
0.0
  0
LINE
  5
67A
330
18
100
AcDbEntity
  8
0
 62
     0
100
AcDbLine
 10
5.472485
 20
4.623493
 30
0.0
 11
5.472485
 21
4.623493
 31
0.0
  0
LINE
  5
67B
330
18
100
AcDbEntity
  8
0
 62
     0
100
AcDbLine
 10
5.500133
 20
4.598158
 30
0.0
 11
5.500133
 21
4.598158
 31
0.0
  0
LINE
  5
67C
330
18
100
AcDbEntity
  8
0
 62
     0
100
AcDbLine
 10
5.630631
 20
4.478579
 30
0.0
 11
5.630631
 21
4.478579
 31
0.0
  0
LINE
  5
67D
330
18
100
AcDbEntity
  8
0
 62
     0
100
AcDbLine
 10
5.779929
 20
4.341772
 30
0.0
 11
5.779929
 21
4.341772
 31
0.0
  0
LINE
  5
67E
330
18
100
AcDbEntity
  8
0
 62
     0
100
AcDbLine
 10
5.807576999999999
 20
4.316437000000001
 30
0.0
 11
5.807576999999999
 21
4.316437000000001
 31
0.0
  0
LINE
  5
67F
330
18
100
AcDbEntity
  8
0
 62
     0
100
AcDbLine
 10
5.036237
 20
3.933555
 30
0.0
 11
5.036237
 21
3.933555
 31
0.0
  0
LINE
  5
680
330
18
100
AcDbEntity
  8
0
 62
     0
100
AcDbLine
 10
3.374376
 20
5.255716000000001
 30
0.0
 11
3.374376
 21
5.255716000000001
 31
0.0
  0
LINE
  5
681
330
18
100
AcDbEntity
  8
0
 62
     0
100
AcDbLine
 10
3.555261
 20
5.394514
 30
0.0
 11
3.555261
 21
5.394514
 31
0.0
  0
LINE
  5
682
330
18
100
AcDbEntity
  8
0
 62
     0
100
AcDbLine
 10
2.788358
 20
5.102322
 30
0.0
 11
2.788358
 21
5.102322
 31
0.0
  0
LINE
  5
683
330
18
100
AcDbEntity
  8
0
 62
     0
100
AcDbLine
 10
2.969242
 20
5.24112
 30
0.0
 11
2.969242
 21
5.24112
 31
0.0
  0
LINE
  5
684
330
18
100
AcDbEntity
  8
0
 62
     0
100
AcDbLine
 10
3.171547
 20
5.396354
 30
0.0
 11
3.171547
 21
5.396354
 31
0.0
  0
LINE
  5
685
330
18
100
AcDbEntity
  8
0
 62
     0
100
AcDbLine
 10
3.364927
 20
5.54474
 30
0.0
 11
3.364927
 21
5.54474
 31
0.0
  0
LINE
  5
686
330
18
100
AcDbEntity
  8
0
 62
     0
100
AcDbLine
 10
3.162098
 20
5.685378
 30
0.0
 11
3.162098
 21
5.685378
 31
0.0
  0
LINE
  5
687
330
18
100
AcDbEntity
  8
0
 62
     0
100
AcDbLine
 10
2.781832
 20
5.026706
 30
0.0
 11
2.781832
 21
5.026706
 31
0.0
  0
LINE
  5
688
330
18
100
AcDbEntity
  8
0
 62
     0
100
AcDbLine
 10
2.90378
 20
5.042761000000001
 30
0.0
 11
2.90378
 21
5.042761000000001
 31
0.0
  0
LINE
  5
689
330
18
100
AcDbEntity
  8
0
 62
     0
100
AcDbLine
 10
3.047299
 20
5.450028
 30
0.0
 11
3.047299
 21
5.450028
 31
0.0
  0
LINE
  5
68A
330
18
100
AcDbEntity
  8
0
 62
     0
100
AcDbLine
 10
3.169246
 20
5.466083
 30
0.0
 11
3.169246
 21
5.466083
 31
0.0
  0
LINE
  5
68B
330
18
100
AcDbEntity
  8
0
 62
     0
100
AcDbLine
 10
3.372988
 20
5.492906
 30
0.0
 11
3.372988
 21
5.492906
 31
0.0
  0
LINE
  5
68C
330
18
100
AcDbEntity
  8
0
 62
     0
100
AcDbLine
 10
3.451065
 20
5.503185
 30
0.0
 11
3.451065
 21
5.503185
 31
0.0
  0
LINE
  5
68D
330
18
100
AcDbEntity
  8
0
 62
     0
100
AcDbLine
 10
3.573012
 20
5.51924
 30
0.0
 11
3.573012
 21
5.51924
 31
0.0
  0
LINE
  5
68E
330
18
100
AcDbEntity
  8
0
 62
     0
100
AcDbLine
 10
2.853948
 20
5.226806
 30
0.0
 11
2.853948
 21
5.226806
 31
0.0
  0
LINE
  5
68F
330
18
100
AcDbEntity
  8
0
 62
     0
100
AcDbLine
 10
3.081663
 20
5.081735
 30
0.0
 11
3.081663
 21
5.081735
 31
0.0
  0
LINE
  5
690
330
18
100
AcDbEntity
  8
0
 62
     0
100
AcDbLine
 10
3.257815
 20
5.267951999999999
 30
0.0
 11
3.257815
 21
5.267951999999999
 31
0.0
  0
LINE
  5
691
330
18
100
AcDbEntity
  8
0
 62
     0
100
AcDbLine
 10
3.321069
 20
5.227655
 30
0.0
 11
3.321069
 21
5.227655
 31
0.0
  0
LINE
  5
692
330
18
100
AcDbEntity
  8
0
 62
     0
100
AcDbLine
 10
3.13667
 20
5.643567
 30
0.0
 11
3.13667
 21
5.643567
 31
0.0
  0
LINE
  5
693
330
18
100
AcDbEntity
  8
0
 62
     0
100
AcDbLine
 10
3.199925
 20
5.603269999999999
 30
0.0
 11
3.199925
 21
5.603269999999999
 31
0.0
  0
LINE
  5
694
330
18
100
AcDbEntity
  8
0
 62
     0
100
AcDbLine
 10
3.42764
 20
5.458199
 30
0.0
 11
3.42764
 21
5.458199
 31
0.0
  0
LINE
  5
695
330
18
100
AcDbEntity
  8
0
 62
     0
100
AcDbLine
 10
2.917597
 20
5.330089
 30
0.0
 11
2.917597
 21
5.330089
 31
0.0
  0
LINE
  5
696
330
18
100
AcDbEntity
  8
0
 62
     0
100
AcDbLine
 10
3.048095
 20
5.210509
 30
0.0
 11
3.048095
 21
5.210509
 31
0.0
  0
LINE
  5
697
330
18
100
AcDbEntity
  8
0
 62
     0
100
AcDbLine
 10
3.191569
 20
5.623882
 30
0.0
 11
3.191569
 21
5.623882
 31
0.0
  0
LINE
  5
698
330
18
100
AcDbEntity
  8
0
 62
     0
100
AcDbLine
 10
3.340868
 20
5.487075
 30
0.0
 11
3.340868
 21
5.487075
 31
0.0
  0
LINE
  5
699
330
18
100
AcDbEntity
  8
0
 62
     0
100
AcDbLine
 10
3.368516000000001
 20
5.46174
 30
0.0
 11
3.368516000000001
 21
5.46174
 31
0.0
  0
LINE
  5
69A
330
18
100
AcDbEntity
  8
0
 62
     0
100
AcDbLine
 10
3.499014
 20
5.342161
 30
0.0
 11
3.499014
 21
5.342161
 31
0.0
  0
LINE
  5
69B
330
18
100
AcDbEntity
  8
0
 62
     0
100
AcDbLine
 10
2.746475
 20
4.942051
 30
0.0
 11
2.746475
 21
4.942051
 31
0.0
  0
LINE
  5
69C
330
18
100
AcDbEntity
  8
0
 62
     0
100
AcDbLine
 10
2.774123
 20
4.916716
 30
0.0
 11
2.774123
 21
4.916716
 31
0.0
  0
LINE
  5
69D
330
18
100
AcDbEntity
  8
0
 62
     0
100
AcDbLine
 10
3.901393
 20
4.968805000000001
 30
0.0
 11
3.901393
 21
4.968805000000001
 31
0.0
  0
LINE
  5
69E
330
18
100
AcDbEntity
  8
0
 62
     0
100
AcDbLine
 10
3.005745
 20
4.479065
 30
0.0
 11
3.005745
 21
4.479065
 31
0.0
  0
LINE
  5
69F
330
18
100
AcDbEntity
  8
0
 62
     0
100
AcDbLine
 10
3.126335
 20
4.571597
 30
0.0
 11
3.126335
 21
4.571597
 31
0.0
  0
LINE
  5
6A0
330
18
100
AcDbEntity
  8
0
 62
     0
100
AcDbLine
 10
3.261205
 20
4.675087
 30
0.0
 11
3.261205
 21
4.675087
 31
0.0
  0
LINE
  5
6A1
330
18
100
AcDbEntity
  8
0
 62
     0
100
AcDbLine
 10
3.390125
 20
4.77401
 30
0.0
 11
3.390125
 21
4.77401
 31
0.0
  0
LINE
  5
6A2
330
18
100
AcDbEntity
  8
0
 62
     0
100
AcDbLine
 10
3.510714
 20
4.866542
 30
0.0
 11
3.510714
 21
4.866542
 31
0.0
  0
LINE
  5
6A3
330
18
100
AcDbEntity
  8
0
 62
     0
100
AcDbLine
 10
3.048769
 20
4.544019000000001
 30
0.0
 11
3.048769
 21
4.544019000000001
 31
0.0
  0
LINE
  5
6A4
330
18
100
AcDbEntity
  8
0
 62
     0
100
AcDbLine
 10
3.10082
 20
4.550872
 30
0.0
 11
3.10082
 21
4.550872
 31
0.0
  0
LINE
  5
6A5
330
18
100
AcDbEntity
  8
0
 62
     0
100
AcDbLine
 10
3.182118
 20
4.561575
 30
0.0
 11
3.182118
 21
4.561575
 31
0.0
  0
LINE
  5
6A6
330
18
100
AcDbEntity
  8
0
 62
     0
100
AcDbLine
 10
3.494924
 20
4.861671
 30
0.0
 11
3.494924
 21
4.861671
 31
0.0
  0
LINE
  5
6A7
330
18
100
AcDbEntity
  8
0
 62
     0
100
AcDbLine
 10
3.546975
 20
4.868524
 30
0.0
 11
3.546975
 21
4.868524
 31
0.0
  0
LINE
  5
6A8
330
18
100
AcDbEntity
  8
0
 62
     0
100
AcDbLine
 10
3.628273000000001
 20
4.879226999999999
 30
0.0
 11
3.628273000000001
 21
4.879226999999999
 31
0.0
  0
LINE
  5
6A9
330
18
100
AcDbEntity
  8
0
 62
     0
100
AcDbLine
 10
3.764101
 20
4.897109
 30
0.0
 11
3.764101
 21
4.897109
 31
0.0
  0
LINE
  5
6AA
330
18
100
AcDbEntity
  8
0
 62
     0
100
AcDbLine
 10
3.325133
 20
4.766849
 30
0.0
 11
3.325133
 21
4.766849
 31
0.0
  0
LINE
  5
6AB
330
18
100
AcDbEntity
  8
0
 62
     0
100
AcDbLine
 10
3.367303
 20
4.739984
 30
0.0
 11
3.367303
 21
4.739984
 31
0.0
  0
LINE
  5
6AC
330
18
100
AcDbEntity
  8
0
 62
     0
100
AcDbLine
 10
3.749764
 20
4.894246
 30
0.0
 11
3.749764
 21
4.894246
 31
0.0
  0
LINE
  5
6AD
330
18
100
AcDbEntity
  8
0
 62
     0
100
AcDbLine
 10
3.867199
 20
5.018391
 30
0.0
 11
3.867199
 21
5.018391
 31
0.0
  0
LINE
  5
6AE
330
18
100
AcDbEntity
  8
0
 62
     0
100
AcDbLine
 10
3.909368
 20
4.991526
 30
0.0
 11
3.909368
 21
4.991526
 31
0.0
  0
LINE
  5
6AF
330
18
100
AcDbEntity
  8
0
 62
     0
100
AcDbLine
 10
3.207699
 20
4.642704
 30
0.0
 11
3.207699
 21
4.642704
 31
0.0
  0
LINE
  5
6B0
330
18
100
AcDbEntity
  8
0
 62
     0
100
AcDbLine
 10
3.094482
 20
4.515873
 30
0.0
 11
3.094482
 21
4.515873
 31
0.0
  0
LINE
  5
6B1
330
18
100
AcDbEntity
  8
0
 62
     0
100
AcDbLine
 10
3.416032
 20
4.748097000000001
 30
0.0
 11
3.416032
 21
4.748097000000001
 31
0.0
  0
LINE
  5
6B2
330
18
100
AcDbEntity
  8
0
 62
     0
100
AcDbLine
 10
3.434464
 20
4.731208000000001
 30
0.0
 11
3.434464
 21
4.731208000000001
 31
0.0
  0
LINE
  5
6B3
330
18
100
AcDbEntity
  8
0
 62
     0
100
AcDbLine
 10
3.617112
 20
4.92707
 30
0.0
 11
3.617112
 21
4.92707
 31
0.0
  0
LINE
  5
6B4
330
18
100
AcDbEntity
  8
0
 62
     0
100
AcDbLine
 10
3.917725
 20
5.014837
 30
0.0
 11
3.917725
 21
5.014837
 31
0.0
  0
LINE
  5
6B5
330
18
100
AcDbEntity
  8
0
 62
     0
100
AcDbLine
 10
3.115419
 20
4.66033
 30
0.0
 11
3.115419
 21
4.66033
 31
0.0
  0
LINE
  5
6B6
330
18
100
AcDbEntity
  8
0
 62
     0
100
AcDbLine
 10
3.133851
 20
4.64344
 30
0.0
 11
3.133851
 21
4.64344
 31
0.0
  0
ENDSEC
  0
SECTION
  2
OBJECTS
  0
DICTIONARY
  5
C
330
0
100
AcDbDictionary
281
     1
  3
ACAD_COLOR
350
6BC
  3
ACAD_GROUP
350
D
  3
ACAD_LAYOUT
350
15
  3
ACAD_MATERIAL
350
6BE
  3
ACAD_MLINESTYLE
350
12
  3
ACAD_PLOTSETTINGS
350
14
  3
ACAD_PLOTSTYLENAME
350
E
  3
ACDBHEADERROUNDTRIPXREC
350
6BB
  0
DICTIONARY
  5
6BC
102
{ACAD_REACTORS
330
C
102
}
330
C
100
AcDbDictionary
281
     1
  0
DICTIONARY
  5
D
102
{ACAD_REACTORS
330
C
102
}
330
C
100
AcDbDictionary
281
     1
  0
DICTIONARY
  5
15
102
{ACAD_REACTORS
330
C
102
}
330
C
100
AcDbDictionary
281
     1
  3
Layout1
350
17
  3
Model
350
19
  0
DICTIONARY
  5
6BE
102
{ACAD_REACTORS
330
C
102
}
330
C
100
AcDbDictionary
281
     1
  0
DICTIONARY
  5
12
102
{ACAD_REACTORS
330
C
102
}
330
C
100
AcDbDictionary
281
     1
  3
Standard
350
13
  0
DICTIONARY
  5
14
102
{ACAD_REACTORS
330
C
102
}
330
C
100
AcDbDictionary
281
     1
  0
ACDBDICTIONARYWDFLT
  5
E
102
{ACAD_REACTORS
330
C
102
}
330
C
100
AcDbDictionary
281
     1
  3
Normal
350
F
100
AcDbDictionaryWithDefault
340
F
  0
DICTIONARY
  5
6BB
102
{ACAD_REACTORS
330
C
102
}
330
C
100
AcDbDictionary
281
     1
  3
COLORDICT
350
6BD
  3
MATERIALDICT
350
6BF
  0
LAYOUT
  5
17
102
{ACAD_REACTORS
330
15
102
}
102
{ACAD_XDICTIONARY
360
6C0
102
}
330
15
100
AcDbPlotSettings
  1

  2

  4

  6

 40
0.0
 41
0.0
 42
0.0
 43
0.0
 44
0.0
 45
0.0
 46
0.0
 47
0.0
 48
0.0
 49
0.0
140
0.0
141
0.0
142
1.0
143
1.0
 70
   688
 72
     0
 73
     0
 74
     5
  7

 75
    16
147
1.0
148
0.0
149
0.0
100
AcDbLayout
  1
Layout1
 70
     1
 71
     1
 10
0.0
 20
0.0
 11
12.0
 21
9.0
 12
0.0
 22
0.0
 32
0.0
 14
1.000000000000000E+20
 24
1.000000000000000E+20
 34
1.000000000000000E+20
 15
-1.000000000000000E+20
 25
-1.000000000000000E+20
 35
-1.000000000000000E+20
146
0.0
 13
0.0
 23
0.0
 33
0.0
 16
1.0
 26
0.0
 36
0.0
 17
0.0
 27
1.0
 37
0.0
 76
     0
330
16
  0
LAYOUT
  5
19
102
{ACAD_REACTORS
330
15
102
}
102
{ACAD_XDICTIONARY
360
6C2
102
}
330
15
100
AcDbPlotSettings
  1

  2

  4

  6

 40
0.0
 41
0.0
 42
0.0
 43
0.0
 44
0.0
 45
0.0
 46
0.0
 47
0.0
 48
0.0
 49
0.0
140
0.0
141
0.0
142
1.0
143
1.0
 70
  1712
 72
     0
 73
     0
 74
     0
  7

 75
     0
147
1.0
148
0.0
149
0.0
100
AcDbLayout
  1
Model
 70
     1
 71
     0
 10
0.0
 20
0.0
 11
0.0
 21
0.0
 12
0.0
 22
0.0
 32
0.0
 14
0.0
 24
0.0
 34
0.0
 15
0.0
 25
0.0
 35
0.0
146
0.0
 13
0.0
 23
0.0
 33
0.0
 16
1.0
 26
0.0
 36
0.0
 17
0.0
 27
1.0
 37
0.0
 76
     0
330
18
  0
MLINESTYLE
  5
13
102
{ACAD_REACTORS
330
12
102
}
330
12
100
AcDbMlineStyle
  2
Standard
 70
     0
  3

 62
   256
 51
90.0
 52
90.0
 71
     2
 49
0.5
 62
   256
  6
BYLAYER
 49
-0.5
 62
   256
  6
BYLAYER
  0
ACDBPLACEHOLDER
  5
F
102
{ACAD_REACTORS
330
E
102
}
330
E
  0
XRECORD
  5
6BD
102
{ACAD_REACTORS
330
6BB
102
}
330
6BB
100
AcDbXrecord
340
6BC
  0
XRECORD
  5
6BF
102
{ACAD_REACTORS
330
6BB
102
}
330
6BB
100
AcDbXrecord
340
6BE
  0
DICTIONARY
  5
6C0
330
17
100
AcDbDictionary
280
     1
281
     1
  3
ACAD_XREC_ROUNDTRIP
360
6C1
  0
DICTIONARY
  5
6C2
330
19
100
AcDbDictionary
280
     1
281
     1
  3
ACAD_XREC_ROUNDTRIP
360
6C3
  0
XRECORD
  5
6C1
102
{ACAD_REACTORS
330
6C0
102
}
330
6C0
100
AcDbXrecord
102
SHADEPLOT
 70
     0
102
SHADEPLOTRESLEVEL
 70
     0
102
SHADEPLOTCUSTOMDPI
 70
     0
  0
XRECORD
  5
6C3
102
{ACAD_REACTORS
330
6C2
102
}
330
6C2
100
AcDbXrecord
102
SHADEPLOT
 70
     0
102
SHADEPLOTRESLEVEL
 70
     0
102
SHADEPLOTCUSTOMDPI
 70
     0
  0
ENDSEC
  0
EOF
