  0
SECTION
  2
HEADER
  9
$ACADVER
  1
AC1015
  9
$ACADMAINTVER
 70
     6
  9
$DWGCODEPAGE
  3
ANSI_1252
  9
$INSBASE
 10
0.0
 20
0.0
 30
0.0
  9
$EXTMIN
 10
-11.18022915038843
 20
84.35800613067389
 30
-0.0015258207003612
  9
$EXTMAX
 10
112.417444649875
 20
194.2514310956029
 30
0.0000000349246008
  9
$LIMMIN
 10
-11.24255235460069
 20
84.22690022786458
  9
$LIMMAX
 10
112.5269816080729
 20
194.3825364854601
  9
$ORTHOMODE
 70
     0
  9
$REGENMODE
 70
     1
  9
$FILLMODE
 70
     1
  9
$QTEXTMODE
 70
     0
  9
$MIRRTEXT
 70
     1
  9
$LTSCALE
 40
1.0
  9
$ATTMODE
 70
     1
  9
$TEXTSIZE
 40
0.2
  9
$TRACEWID
 40
0.05
  9
$TEXTSTYLE
  7
STANDARD
  9
$CLAYER
  8
0
  9
$CELTYPE
  6
CONTINUOUS
  9
$CECOLOR
 62
   256
  9
$CELTSCALE
 40
1.0
  9
$DISPSILH
 70
     0
  9
$DIMSCALE
 40
1.0
  9
$DIMASZ
 40
0.18
  9
$DIMEXO
 40
0.0625
  9
$DIMDLI
 40
0.38
  9
$DIMRND
 40
0.0
  9
$DIMDLE
 40
0.0
  9
$DIMEXE
 40
0.18
  9
$DIMTP
 40
0.0
  9
$DIMTM
 40
0.0
  9
$DIMTXT
 40
0.18
  9
$DIMCEN
 40
0.09
  9
$DIMTSZ
 40
0.0
  9
$DIMTOL
 70
     0
  9
$DIMLIM
 70
     0
  9
$DIMTIH
 70
     1
  9
$DIMTOH
 70
     1
  9
$DIMSE1
 70
     0
  9
$DIMSE2
 70
     0
  9
$DIMTAD
 70
     0
  9
$DIMZIN
 70
     0
  9
$DIMBLK
  1

  9
$DIMASO
 70
     1
  9
$DIMSHO
 70
     1
  9
$DIMPOST
  1

  9
$DIMAPOST
  1

  9
$DIMALT
 70
     0
  9
$DIMALTD
 70
     2
  9
$DIMALTF
 40
25.4
  9
$DIMLFAC
 40
1.0
  9
$DIMTOFL
 70
     0
  9
$DIMTVP
 40
0.0
  9
$DIMTIX
 70
     0
  9
$DIMSOXD
 70
     0
  9
$DIMSAH
 70
     0
  9
$DIMBLK1
  1

  9
$DIMBLK2
  1

  9
$DIMSTYLE
  2
STANDARD
  9
$DIMCLRD
 70
     0
  9
$DIMCLRE
 70
     0
  9
$DIMCLRT
 70
     0
  9
$DIMTFAC
 40
1.0
  9
$DIMGAP
 40
0.09
  9
$DIMJUST
 70
     0
  9
$DIMSD1
 70
     0
  9
$DIMSD2
 70
     0
  9
$DIMTOLJ
 70
     1
  9
$DIMTZIN
 70
     0
  9
$DIMALTZ
 70
     0
  9
$DIMALTTZ
 70
     0
  9
$DIMUPT
 70
     0
  9
$DIMDEC
 70
     4
  9
$DIMTDEC
 70
     4
  9
$DIMALTU
 70
     2
  9
$DIMALTTD
 70
     2
  9
$DIMTXSTY
  7
STANDARD
  9
$DIMAUNIT
 70
     0
  9
$DIMADEC
 70
     0
  9
$DIMALTRND
 40
0.0
  9
$DIMAZIN
 70
     0
  9
$DIMDSEP
 70
    46
  9
$DIMATFIT
 70
     3
  9
$DIMFRAC
 70
     0
  9
$DIMLDRBLK
  1

  9
$DIMLUNIT
 70
     2
  9
$DIMLWD
 70
    -2
  9
$DIMLWE
 70
    -2
  9
$DIMTMOVE
 70
     0
  9
$LUNITS
 70
     2
  9
$LUPREC
 70
     4
  9
$SKETCHINC
 40
0.1
  9
$FILLETRAD
 40
0.0
  9
$AUNITS
 70
     0
  9
$AUPREC
 70
     0
  9
$MENU
  1
acad
  9
$ELEVATION
 40
0.0
  9
$PELEVATION
 40
0.0
  9
$THICKNESS
 40
0.0
  9
$LIMCHECK
 70
     0
  9
$CHAMFERA
 40
0.0
  9
$CHAMFERB
 40
0.0
  9
$CHAMFERC
 40
0.0
  9
$CHAMFERD
 40
0.0
  9
$SKPOLY
 70
     0
  9
$TDCREATE
 40
2444971.666666667
  9
$TDUCREATE
 40
2444972.0
  9
$TDUPDATE
 40
2452215.552748727
  9
$TDUUPDATE
 40
2452215.88608206
  9
$TDINDWG
 40
0.0006006944
  9
$TDUSRTIMER
 40
0.0006006944
  9
$USRTIMER
 70
     1
  9
$ANGBASE
 50
0.0
  9
$ANGDIR
 70
     0
  9
$PDMODE
 70
     0
  9
$PDSIZE
 40
0.0
  9
$PLINEWID
 40
0.0
  9
$SPLFRAME
 70
     0
  9
$SPLINETYPE
 70
     6
  9
$SPLINESEGS
 70
     8
  9
$HANDSEED
  5
220
  9
$SURFTAB1
 70
     6
  9
$SURFTAB2
 70
     6
  9
$SURFTYPE
 70
     6
  9
$SURFU
 70
     6
  9
$SURFV
 70
     6
  9
$UCSBASE
  2

  9
$UCSNAME
  2

  9
$UCSORG
 10
0.0
 20
0.0
 30
0.0
  9
$UCSXDIR
 10
1.0
 20
0.0
 30
0.0
  9
$UCSYDIR
 10
0.0
 20
1.0
 30
0.0
  9
$UCSORTHOREF
  2

  9
$UCSORTHOVIEW
 70
     0
  9
$UCSORGTOP
 10
0.0
 20
0.0
 30
0.0
  9
$UCSORGBOTTOM
 10
0.0
 20
0.0
 30
0.0
  9
$UCSORGLEFT
 10
0.0
 20
0.0
 30
0.0
  9
$UCSORGRIGHT
 10
0.0
 20
0.0
 30
0.0
  9
$UCSORGFRONT
 10
0.0
 20
0.0
 30
0.0
  9
$UCSORGBACK
 10
0.0
 20
0.0
 30
0.0
  9
$PUCSBASE
  2

  9
$PUCSNAME
  2

  9
$PUCSORG
 10
0.0
 20
0.0
 30
0.0
  9
$PUCSXDIR
 10
1.0
 20
0.0
 30
0.0
  9
$PUCSYDIR
 10
0.0
 20
1.0
 30
0.0
  9
$PUCSORTHOREF
  2

  9
$PUCSORTHOVIEW
 70
     0
  9
$PUCSORGTOP
 10
0.0
 20
0.0
 30
0.0
  9
$PUCSORGBOTTOM
 10
0.0
 20
0.0
 30
0.0
  9
$PUCSORGLEFT
 10
0.0
 20
0.0
 30
0.0
  9
$PUCSORGRIGHT
 10
0.0
 20
0.0
 30
0.0
  9
$PUCSORGFRONT
 10
0.0
 20
0.0
 30
0.0
  9
$PUCSORGBACK
 10
0.0
 20
0.0
 30
0.0
  9
$USERI1
 70
     0
  9
$USERI2
 70
     0
  9
$USERI3
 70
     0
  9
$USERI4
 70
     0
  9
$USERI5
 70
     0
  9
$USERR1
 40
0.0
  9
$USERR2
 40
0.0
  9
$USERR3
 40
0.0
  9
$USERR4
 40
0.0
  9
$USERR5
 40
0.0
  9
$WORLDVIEW
 70
     1
  9
$SHADEDGE
 70
     3
  9
$SHADEDIF
 70
    70
  9
$TILEMODE
 70
     1
  9
$MAXACTVP
 70
    16
  9
$PINSBASE
 10
0.0
 20
0.0
 30
0.0
  9
$PLIMCHECK
 70
     0
  9
$PEXTMIN
 10
1.000000000000000E+20
 20
1.000000000000000E+20
 30
1.000000000000000E+20
  9
$PEXTMAX
 10
-1.000000000000000E+20
 20
-1.000000000000000E+20
 30
-1.000000000000000E+20
  9
$PLIMMIN
 10
0.0
 20
0.0
  9
$PLIMMAX
 10
12.0
 20
9.0
  9
$UNITMODE
 70
     0
  9
$VISRETAIN
 70
     0
  9
$PLINEGEN
 70
     1
  9
$PSLTSCALE
 70
     0
  9
$TREEDEPTH
 70
  3020
  9
$CMLSTYLE
  2
STANDARD
  9
$CMLJUST
 70
     0
  9
$CMLSCALE
 40
1.0
  9
$PROXYGRAPHICS
 70
     0
  9
$MEASUREMENT
 70
     0
  9
$CELWEIGHT
370
    -1
  9
$ENDCAPS
280
     0
  9
$JOINSTYLE
280
     0
  9
$LWDISPLAY
290
     0
  9
$INSUNITS
 70
     0
  9
$HYPERLINKBASE
  1

  9
$STYLESHEET
  1

  9
$XEDIT
290
     1
  9
$CEPSNTYPE
380
     0
  9
$PSTYLEMODE
290
     1
  9
$FINGERPRINTGUID
  2
{890B554B-CEC8-11D5-923F-00805F198AD5}
  9
$VERSIONGUID
  2
{890B554D-CEC8-11D5-923F-00805F198AD5}
  9
$EXTNAMES
290
     1
  9
$PSVPSCALE
 40
0.0
  9
$OLESTARTUP
290
     0
  0
ENDSEC
  0
SECTION
  2
CLASSES
  0
CLASS
  1
LWPOLYLINE
  2
AcDbPolyline
  3
AutoCAD 2000
 90
        0
280
     0
281
     1
  0
CLASS
  1
IMAGE
  2
AcDbRasterImage
  3
ISM
 90
      127
280
     0
281
     1
  0
CLASS
  1
OLE2FRAME
  2
AcDbOle2Frame
  3
AutoCAD 2000
 90
        0
280
     0
281
     1
  0
CLASS
  1
HATCH
  2
AcDbHatch
  3
AutoCAD 2000
 90
        0
280
     0
281
     1
  0
CLASS
  1
DICTIONARYVAR
  2
AcDbDictionaryVar
  3
AutoCAD 2000
 90
        0
280
     0
281
     0
  0
CLASS
  1
RASTERVARIABLES
  2
AcDbRasterVariables
  3
ISM
 90
        0
280
     0
281
     0
  0
CLASS
  1
IMAGEDEF
  2
AcDbRasterImageDef
  3
ISM
 90
        0
280
     0
281
     0
  0
CLASS
  1
IMAGEDEF_REACTOR
  2
AcDbRasterImageDefReactor
  3
ISM
 90
        1
280
     0
281
     0
  0
CLASS
  1
IDBUFFER
  2
AcDbIdBuffer
  3
AutoCAD 2000
 90
        0
280
     0
281
     0
  0
CLASS
  1
SPATIAL_FILTER
  2
AcDbSpatialFilter
  3
AutoCAD 2000
 90
        0
280
     0
281
     0
  0
CLASS
  1
XRECORD
  2
AcDbXrecord
  3
AutoCAD 2000
 90
        0
280
     0
281
     0
  0
CLASS
  1
SORTENTSTABLE
  2
AcDbSortentsTable
  3
AutoCAD 2000
 90
        0
280
     0
281
     0
  0
CLASS
  1
LAYER_INDEX
  2
AcDbLayerIndex
  3
AutoCAD 2000
 90
        0
280
     0
281
     0
  0
CLASS
  1
SPATIAL_INDEX
  2
AcDbSpatialIndex
  3
AutoCAD 2000
 90
        0
280
     0
281
     0
  0
CLASS
  1
OBJECT_PTR
  2
CAseDLPNTableRecord
  3
ASE-LPNTableRecord
 90
        1
280
     1
281
     0
  0
CLASS
  1
LAYOUT
  2
AcDbLayout
  3
ObjectDBX Classes
 90
        0
280
     0
281
     0
  0
CLASS
  1
PLOTSETTINGS
  2
AcDbPlotSettings
  3
AutoCAD 2000
 90
        0
280
     0
281
     0
  0
CLASS
  1
ACDBDICTIONARYWDFLT
  2
AcDbDictionaryWithDefault
  3
AutoCAD 2000
 90
        0
280
     0
281
     0
  0
CLASS
  1
ACDBPLACEHOLDER
  2
AcDbPlaceHolder
  3
ObjectDBX Classes
 90
        0
280
     0
281
     0
  0
CLASS
  1
VBAPROJECT
  2
AcDbVbaProject
  3
ObjectDBX Classes
 90
        0
280
     0
281
     0
  0
CLASS
  1
WIPEOUT
  2
AcDbWipeout
  3
WipeOut|AutoCAD Express Tool|expresstools@autodesk.com
 90
      127
280
     0
281
     1
  0
CLASS
  1
WIPEOUTVARIABLES
  2
AcDbWipeoutVariables
  3
WipeOut|AutoCAD Express Tool|expresstools@autodesk.com
 90
        0
280
     0
281
     0
  0
CLASS
  1
RTEXT
  2
RText
  3
RText|AutoCAD Express Tool|expresstools@autodesk.com
 90
        0
280
     0
281
     1
  0
CLASS
  1
ARCALIGNEDTEXT
  2
AcDbArcAlignedText
  3
ATEXT|AutoCAD Express Tool|expresstools@autodesk.com
 90
        0
280
     0
281
     1
  0
CLASS
  1
LONG_TRANSACTION
  2
AcDbLongTransaction
  3
AutoCAD 2000
 90
        0
280
     1
281
     0
  0
CLASS
  1
LWPOLYLINE
  2
AcDbPolyline
  3
AutoCAD 2000
 90
        0
280
     0
281
     1
  0
CLASS
  1
HATCH
  2
AcDbHatch
  3
AutoCAD 2000
 90
        0
280
     0
281
     1
  0
CLASS
  1
XRECORD
  2
AcDbXrecord
  3
AutoCAD 2000
 90
        0
280
     0
281
     0
  0
ENDSEC
  0
SECTION
  2
TABLES
  0
TABLE
  2
VPORT
  5
7
330
0
100
AcDbSymbolTable
 70
     2
  0
VPORT
  5
1EC
330
7
100
AcDbSymbolTableRecord
100
AcDbViewportTableRecord
  2
*Active
 70
     0
 10
0.0
 20
0.0
 11
1.0
 21
1.0
 12
50.61860774974327
 22
139.3047186131384
 13
0.0
 23
0.0
 14
1.0
 24
1.0
 15
0.0
 25
0.0
 16
0.0
 26
0.0
 36
1.0
 17
0.0
 27
0.0
 37
0.0
 40
111.624030082487
 41
1.836842105263158
 42
50.0
 43
0.0
 44
0.0
 50
0.0
 51
0.0
 71
     0
 72
   100
 73
     1
 74
     1
 75
     0
 76
     0
 77
     0
 78
     0
281
     0
 65
     1
110
0.0
120
0.0
130
0.0
111
1.0
121
0.0
131
0.0
112
0.0
122
1.0
132
0.0
 79
     0
146
0.0
  0
ENDTAB
  0
TABLE
  2
LTYPE
  5
4
330
0
100
AcDbSymbolTable
 70
     1
  0
LTYPE
  5
11
330
4
100
AcDbSymbolTableRecord
100
AcDbLinetypeTableRecord
  2
BYBLOCK
 70
     0
  3

 72
    65
 73
     0
 40
0.0
  0
LTYPE
  5
12
330
4
100
AcDbSymbolTableRecord
100
AcDbLinetypeTableRecord
  2
BYLAYER
 70
     0
  3

 72
    65
 73
     0
 40
0.0
  0
LTYPE
  5
13
330
4
100
AcDbSymbolTableRecord
100
AcDbLinetypeTableRecord
  2
CONTINUOUS
 70
     0
  3
Solid line
 72
    65
 73
     0
 40
0.0
  0
ENDTAB
  0
TABLE
  2
LAYER
  5
2
330
0
100
AcDbSymbolTable
 70
     2
  0
LAYER
  5
14
330
2
100
AcDbSymbolTableRecord
100
AcDbLayerTableRecord
  2
0
 70
     0
 62
     7
  6
CONTINUOUS
370
    -3
390
0
  0
LAYER
  5
21
330
2
100
AcDbSymbolTableRecord
100
AcDbLayerTableRecord
  2
LAYER_1
 70
     0
 62
     5
  6
CONTINUOUS
370
    -3
390
0
  0
ENDTAB
  0
TABLE
  2
STYLE
  5
3
330
0
100
AcDbSymbolTable
 70
     5
  0
STYLE
  5
17
330
3
100
AcDbSymbolTableRecord
100
AcDbTextStyleTableRecord
  2
STANDARD
 70
     0
 40
0.0
 41
1.0
 50
0.0
 71
     0
 42
0.2
  3
txt
  4

  0
STYLE
  5
1D
330
3
100
AcDbSymbolTableRecord
100
AcDbTextStyleTableRecord
  2
STD
 70
     0
 40
0.0
 41
1.0
 50
0.0
 71
     0
 42
0.2
  3
txt
  4

  0
STYLE
  5
1E
330
3
100
AcDbSymbolTableRecord
100
AcDbTextStyleTableRecord
  2
TATESTD
 70
     4
 40
0.0
 41
1.0
 50
0.0
 71
     0
 42
0.2
  3
txt
  4

  0
STYLE
  5
1F
330
3
100
AcDbSymbolTableRecord
100
AcDbTextStyleTableRecord
  2
KANJISTD
 70
     0
 40
0.0
 41
1.0
 50
0.0
 71
     0
 42
0.2
  3
txt
  4
extfont
  0
STYLE
  5
20
330
3
100
AcDbSymbolTableRecord
100
AcDbTextStyleTableRecord
  2
KANJITATE
 70
     4
 40
0.0
 41
1.0
 50
0.0
 71
     0
 42
0.2
  3
txt
  4
extfont
  0
ENDTAB
  0
TABLE
  2
VIEW
  5
5
330
0
100
AcDbSymbolTable
 70
     0
  0
ENDTAB
  0
TABLE
  2
UCS
  5
6
330
0
100
AcDbSymbolTable
 70
     0
  0
ENDTAB
  0
TABLE
  2
APPID
  5
8
330
0
100
AcDbSymbolTable
 70
     1
  0
APPID
  5
16
330
8
100
AcDbSymbolTableRecord
100
AcDbRegAppTableRecord
  2
ACAD
 70
     0
  0
ENDTAB
  0
TABLE
  2
DIMSTYLE
  5
9
330
0
100
AcDbSymbolTable
 70
     1
100
AcDbDimStyleTable
  0
DIMSTYLE
105
18
330
9
100
AcDbSymbolTableRecord
100
AcDbDimStyleTableRecord
  2
STANDARD
 70
     0
  3

  4

289
     0
340
17
  0
ENDTAB
  0
TABLE
  2
BLOCK_RECORD
  5
1
330
0
100
AcDbSymbolTable
 70
     3
  0
BLOCK_RECORD
  5
A
330
1
100
AcDbSymbolTableRecord
100
AcDbBlockTableRecord
  2
*MODEL_SPACE
340
1E7
  0
BLOCK_RECORD
  5
B
330
1
100
AcDbSymbolTableRecord
100
AcDbBlockTableRecord
  2
*PAPER_SPACE
340
1E8
  0
BLOCK_RECORD
  5
109
330
1
100
AcDbSymbolTableRecord
100
AcDbBlockTableRecord
  2
AI9-BLK1
340
0
102
{BLKREFS
331
10A
102
}
  0
BLOCK_RECORD
  5
13D
330
1
100
AcDbSymbolTableRecord
100
AcDbBlockTableRecord
  2
AI9-BLK2
340
0
102
{BLKREFS
331
13E
102
}
  0
BLOCK_RECORD
  5
184
330
1
100
AcDbSymbolTableRecord
100
AcDbBlockTableRecord
  2
AI9-BLK3
340
0
102
{BLKREFS
331
185
102
}
  0
ENDTAB
  0
ENDSEC
  0
SECTION
  2
BLOCKS
  0
BLOCK
  5
D
330
A
100
AcDbEntity
  8
0
100
AcDbBlockBegin
  2
*MODEL_SPACE
 70
     0
 10
0.0
 20
0.0
 30
0.0
  3
*MODEL_SPACE
  1

  4

  0
ENDBLK
  5
E
330
A
100
AcDbEntity
  8
0
100
AcDbBlockEnd
  0
BLOCK
  5
F
330
B
100
AcDbEntity
 67
     1
  8
0
100
AcDbBlockBegin
  2
*PAPER_SPACE
 70
     0
 10
0.0
 20
0.0
 30
0.0
  3
*PAPER_SPACE
  1

  4

  0
ENDBLK
  5
10
330
B
100
AcDbEntity
 67
     1
  8
0
100
AcDbBlockEnd
  0
BLOCK
  5
10B
330
109
100
AcDbEntity
  8
LAYER_1
 62
     7
100
AcDbBlockBegin
  2
AI9-BLK1
 70
     0
 10
0.0
 20
0.0
 30
0.0
  3
AI9-BLK1
  1

  4

  0
LWPOLYLINE
  5
130
330
109
100
AcDbEntity
  8
LAYER_1
 62
     7
100
AcDbPolyline
 90
       10
 70
     1
 43
0.0
 10
-5.700944010416666
 20
-27.38971489800347
 10
14.22376573350694
 20
-14.09664171006944
 10
14.25236002604167
 20
23.63628336588542
 10
6.999055989583333
 20
27.44621446397569
 10
-12.33309733072917
 20
16.29788547092014
 10
-12.24834798177083
 20
-2.187118869357639
 10
-14.25236002604167
 20
-5.037590874565971
 10
-11.54296468098958
 20
-7.323756239149305
 10
-12.30501980251736
 20
-8.932271321614582
 10
-12.33309733072917
 20
-22.70490180121528
  0
LWPOLYLINE
  5
127
330
109
100
AcDbEntity
  8
LAYER_1
 62
     7
100
AcDbPolyline
 90
        7
 70
     0
 43
0.0
 10
-5.729021538628472
 20
-27.44621446397569
 10
-5.729021538628472
 20
-13.01057535807292
 10
-4.712718370225694
 20
-11.54279242621528
 10
-7.421941460503471
 20
-9.115894911024304
 10
-5.729021538628472
 20
-6.293500434027777
 10
-5.729021538628472
 20
11.89539794921875
 10
-12.33309733072917
 20
16.29788547092014
  0
LINE
  5
126
330
109
100
AcDbEntity
  8
LAYER_1
 62
     7
100
AcDbLine
 10
-5.729021538628472
 20
-6.293500434027777
 30
0.0
 11
-12.24834798177083
 21
-2.187118869357639
 31
0.0
  0
LINE
  5
125
330
109
100
AcDbEntity
  8
LAYER_1
 62
     7
100
AcDbLine
 10
-7.421941460503471
 20
-9.115894911024304
 30
0.0
 11
-14.25236002604167
 21
-5.037590874565971
 31
0.0
  0
LINE
  5
124
330
109
100
AcDbEntity
  8
LAYER_1
 62
     7
100
AcDbLine
 10
-5.67252197265625
 20
-13.01057535807292
 30
0.0
 11
-12.30501980251736
 21
-8.932271321614582
 31
0.0
  0
LINE
  5
123
330
109
100
AcDbEntity
  8
LAYER_1
 62
     7
100
AcDbLine
 10
-4.712718370225694
 20
-11.54279242621528
 30
0.0
 11
-11.54296468098958
 21
-7.323756239149305
 31
0.0
  0
LINE
  5
122
330
109
100
AcDbEntity
  8
LAYER_1
 62
     7
100
AcDbLine
 10
-5.729021538628472
 20
11.89539794921875
 30
0.0
 11
14.25236002604167
 21
23.63628336588542
 31
0.0
  0
SPLINE
  5
121
330
109
100
AcDbEntity
  8
LAYER_1
 62
     7
100
AcDbSpline
210
0.0
220
0.0
230
1.0
 70
     8
 71
     3
 72
    14
 73
    10
 74
     0
 42
0.0000000001
 43
0.0000000001
 40
0.0
 40
0.0
 40
0.0
 40
0.0
 40
1.0
 40
1.0
 40
1.0
 40
2.0
 40
2.0
 40
2.0
 40
3.0
 40
3.0
 40
3.0
 40
3.0
 10
-7.21075710720486
 20
12.95373128255208
 30
0.0
 10
-6.877788628472222
 20
12.7093017578125
 30
0.0
 10
-6.892258029513888
 20
11.75707736545139
 30
0.0
 10
-6.670049370659721
 20
11.38138970269097
 30
0.0
 10
-6.482808430989583
 20
11.06512993706597
 30
0.0
 10
-6.095579698350694
 20
-2.158352322048611
 30
0.0
 10
-5.949507649739583
 20
-2.49752197265625
 30
0.0
 10
-5.86475830078125
 20
-2.694753689236111
 30
0.0
 10
-5.891113281249999
 20
-2.947795952690972
 30
0.0
 10
-5.771396213107638
 20
-3.132625325520833
 30
0.0
  0
SPLINE
  5
120
330
109
100
AcDbEntity
  8
LAYER_1
 62
     7
100
AcDbSpline
210
0.0
220
0.0
230
1.0
 70
     8
 71
     3
 72
    17
 73
    13
 74
     0
 42
0.0000000001
 43
0.0000000001
 40
0.0
 40
0.0
 40
0.0
 40
0.0
 40
1.0
 40
1.0
 40
1.0
 40
2.0
 40
2.0
 40
2.0
 40
3.0
 40
3.0
 40
3.0
 40
4.0
 40
4.0
 40
4.0
 40
4.0
 10
-9.158097330729166
 20
14.1388441297743
 30
0.0
 10
-8.917285156249999
 20
13.51752115885417
 30
0.0
 10
-8.75140380859375
 20
12.84021538628472
 30
0.0
 10
-8.449957953559027
 20
12.26609022352431
 30
0.0
 10
-8.128186035156249
 20
11.65217420789931
 30
0.0
 10
-7.641910807291666
 20
-1.845365397135417
 30
0.0
 10
-7.30377468532986
 20
-2.454458279079861
 30
0.0
 10
-6.987514919704861
 20
-3.022899034288194
 30
0.0
 10
-6.872965494791666
 20
-3.641121419270833
 30
0.0
 10
-6.619923231336805
 20
-4.231094021267361
 30
0.0
 10
-6.395130750868055
 20
-4.756298828125
 30
0.0
 10
-5.969316948784722
 20
-5.251875813802083
 30
0.0
 10
-5.771396213107638
 20
-5.757271321614583
 30
0.0
  0
SPLINE
  5
11F
330
109
100
AcDbEntity
  8
LAYER_1
 62
     7
100
AcDbSpline
210
0.0
220
0.0
230
1.0
 70
     8
 71
     3
 72
    17
 73
    13
 74
     0
 42
0.0000000001
 43
0.0000000001
 40
0.0
 40
0.0
 40
0.0
 40
0.0
 40
1.0
 40
1.0
 40
1.0
 40
2.0
 40
2.0
 40
2.0
 40
3.0
 40
3.0
 40
3.0
 40
4.0
 40
4.0
 40
4.0
 40
4.0
 10
-10.59745822482639
 20
15.11277262369792
 30
0.0
 10
-10.23899603949653
 20
14.59290771484375
 30
0.0
 10
-9.931004503038194
 20
14.21825358072917
 30
0.0
 10
-9.741524251302083
 20
13.59865315755208
 30
0.0
 10
-9.654191080729166
 20
13.31253797743056
 30
0.0
 10
-9.638343641493055
 20
13.0379638671875
 30
0.0
 10
-9.573231336805554
 20
12.74151340060764
 30
0.0
 10
-9.423369683159722
 20
12.06076253255208
 30
0.0
 10
-9.130192057291666
 20
-1.660191514756944
 30
0.0
 10
-8.905055067274304
 20
-2.321133083767361
 30
0.0
 10
-8.566746690538194
 20
-3.312803819444444
 30
0.0
 10
-8.094424099392361
 20
-4.245218912760416
 30
0.0
 10
-7.676534016927083
 20
-5.122340223524305
 30
0.0
  0
SPLINE
  5
11E
330
109
100
AcDbEntity
  8
LAYER_1
 62
     7
100
AcDbSpline
210
0.0
220
0.0
230
1.0
 70
     8
 71
     3
 72
    14
 73
    10
 74
     0
 42
0.0000000001
 43
0.0000000001
 40
0.0
 40
0.0
 40
0.0
 40
0.0
 40
1.0
 40
1.0
 40
1.0
 40
2.0
 40
2.0
 40
2.0
 40
3.0
 40
3.0
 40
3.0
 40
3.0
 10
-12.1637708875868
 20
15.45125325520833
 30
0.0
 10
-11.71470269097222
 20
15.06161295572917
 30
0.0
 10
-11.49662814670139
 20
14.2968017578125
 30
0.0
 10
-11.32626817491319
 20
13.75902235243055
 30
0.0
 10
-11.10543755425347
 20
13.0598402235243
 30
0.0
 10
-10.87754448784722
 20
12.34291585286458
 30
0.0
 10
-10.64810112847222
 20
11.639599609375
 30
0.0
 10
-10.40556640625
 20
10.89752604166667
 30
0.0
 10
-10.24847005208333
 20
-2.995338270399305
 30
0.0
 10
-9.877605523003471
 20
-3.654901801215277
 30
0.0
  0
SPLINE
  5
11D
330
109
100
AcDbEntity
  8
LAYER_1
 62
     7
100
AcDbSpline
210
0.0
220
0.0
230
1.0
 70
     8
 71
     3
 72
    11
 73
     7
 74
     0
 42
0.0000000001
 43
0.0000000001
 40
0.0
 40
0.0
 40
0.0
 40
0.0
 40
1.0
 40
1.0
 40
1.0
 40
2.0
 40
2.0
 40
2.0
 40
2.0
 10
-12.20597330729167
 20
12.69965549045139
 30
0.0
 10
-11.96946750217014
 20
12.28348795572917
 30
0.0
 10
-11.76827392578125
 20
11.92020263671875
 30
0.0
 10
-11.58034396701389
 20
11.45942111545139
 30
0.0
 10
-11.43254937065972
 20
11.09613579644097
 30
0.0
 10
-11.32609592013889
 20
-2.421902126736111
 30
0.0
 10
-11.23238932291667
 20
-2.751597764756944
 30
0.0
  0
SPLINE
  5
11C
330
109
100
AcDbEntity
  8
LAYER_1
 62
     7
100
AcDbSpline
210
0.0
220
0.0
230
1.0
 70
     8
 71
     3
 72
     8
 73
     4
 74
     0
 42
0.0000000001
 43
0.0000000001
 40
0.0
 40
0.0
 40
0.0
 40
0.0
 40
1.0
 40
1.0
 40
1.0
 40
1.0
 10
-6.491076660156249
 20
-7.365958658854166
 30
0.0
 10
-7.760938856336805
 20
-7.916312662760416
 30
0.0
 10
-9.539124891493055
 20
-7.831563313802083
 30
0.0
 10
-9.539124891493055
 20
-7.831563313802083
 30
0.0
  0
SPLINE
  5
11B
330
109
100
AcDbEntity
  8
LAYER_1
 62
     7
100
AcDbSpline
210
0.0
220
0.0
230
1.0
 70
     8
 71
     3
 72
    14
 73
    10
 74
     0
 42
0.0000000001
 43
0.0000000001
 40
0.0
 40
0.0
 40
0.0
 40
0.0
 40
1.0
 40
1.0
 40
1.0
 40
2.0
 40
2.0
 40
2.0
 40
3.0
 40
3.0
 40
3.0
 40
3.0
 10
-6.491076660156249
 20
-5.968972439236111
 30
0.0
 10
-7.078120930989583
 20
-5.953124999999999
 30
0.0
 10
-7.934054904513888
 20
-5.867686631944444
 30
0.0
 10
-8.478552246093749
 20
-6.052860514322916
 30
0.0
 10
-8.750887044270833
 20
-6.145533582899305
 30
0.0
 10
-8.900748697916665
 20
-6.425447591145833
 30
0.0
 10
-9.1250244140625
 20
-6.561701117621527
 30
0.0
 10
-9.537057834201388
 20
-6.8119873046875
 30
0.0
 10
-10.73267822265625
 20
-6.624918619791666
 30
0.0
 10
-11.23238932291667
 20
-6.646450466579861
 30
0.0
  0
SPLINE
  5
11A
330
109
100
AcDbEntity
  8
LAYER_1
 62
     7
100
AcDbSpline
210
0.0
220
0.0
230
1.0
 70
     8
 71
     3
 72
    14
 73
    10
 74
     0
 42
0.0000000001
 43
0.0000000001
 40
0.0
 40
0.0
 40
0.0
 40
0.0
 40
1.0
 40
1.0
 40
1.0
 40
2.0
 40
2.0
 40
2.0
 40
3.0
 40
3.0
 40
3.0
 40
3.0
 10
-7.789533148871527
 20
-5.122340223524305
 30
0.0
 10
-8.399659559461805
 20
-5.255320909288194
 30
0.0
 10
-9.473495822482638
 20
-4.802118598090277
 30
0.0
 10
-9.960115559895833
 20
-5.172983127170139
 30
0.0
 10
-10.24020182291667
 20
-5.386234537760417
 30
0.0
 10
-10.40952826605903
 20
-5.430331759982638
 30
0.0
 10
-10.77608642578125
 20
-5.463404676649305
 30
0.0
 10
-11.46958414713542
 20
-5.525760904947917
 30
0.0
 10
-12.27797580295139
 20
-5.68681911892361
 30
0.0
 10
-12.9823255750868
 20
-5.68681911892361
 30
0.0
  0
SPLINE
  5
119
330
109
100
AcDbEntity
  8
LAYER_1
 62
     7
100
AcDbSpline
210
0.0
220
0.0
230
1.0
 70
     8
 71
     3
 72
    14
 73
    10
 74
     0
 42
0.0000000001
 43
0.0000000001
 40
0.0
 40
0.0
 40
0.0
 40
0.0
 40
1.0
 40
1.0
 40
1.0
 40
2.0
 40
2.0
 40
2.0
 40
3.0
 40
3.0
 40
3.0
 40
3.0
 10
-9.877605523003471
 20
-3.654901801215277
 30
0.0
 10
-10.53337944878472
 20
-3.654901801215277
 30
0.0
 10
-10.89115261501736
 20
-4.08226589626736
 30
0.0
 10
-11.50799696180556
 20
-4.261410861545139
 30
0.0
 10
-11.91003960503472
 20
-4.670515950520833
 30
0.0
 10
-12.24645317925347
 20
-4.4245361328125
 30
0.0
 10
-12.62765299479167
 20
-4.431770833333333
 30
0.0
 10
-12.97440185546875
 20
-4.438316514756944
 30
0.0
 10
-13.4102064344618
 20
-4.251936848958333
 30
0.0
 10
-13.74438069661458
 20
-4.388534884982638
 30
0.0
  0
SPLINE
  5
118
330
109
100
AcDbEntity
  8
LAYER_1
 62
     7
100
AcDbSpline
210
0.0
220
0.0
230
1.0
 70
     8
 71
     3
 72
     8
 73
     4
 74
     0
 42
0.0000000001
 43
0.0000000001
 40
0.0
 40
0.0
 40
0.0
 40
0.0
 40
1.0
 40
1.0
 40
1.0
 40
1.0
 10
-11.23238932291667
 20
-2.751597764756944
 30
0.0
 10
-11.91830783420139
 20
-2.727309841579861
 30
0.0
 10
-12.34756673177083
 20
-3.499700249565972
 30
0.0
 10
-12.99627821180556
 20
-3.471450466579861
 30
0.0
  0
SPLINE
  5
117
330
109
100
AcDbEntity
  8
LAYER_1
 62
     7
100
AcDbSpline
210
0.0
220
0.0
230
1.0
 70
     8
 71
     3
 72
     8
 73
     4
 74
     0
 42
0.0000000001
 43
0.0000000001
 40
0.0
 40
0.0
 40
0.0
 40
0.0
 40
1.0
 40
1.0
 40
1.0
 40
1.0
 10
-11.00690782335069
 20
-6.928603786892361
 30
0.0
 10
-10.94248453776042
 20
-7.24951443142361
 30
0.0
 10
-9.513286675347221
 20
-8.553999837239582
 30
0.0
 10
-9.256971571180555
 20
-8.734867350260416
 30
0.0
  0
SPLINE
  5
116
330
109
100
AcDbEntity
  8
LAYER_1
 62
     7
100
AcDbSpline
210
0.0
220
0.0
230
1.0
 70
     8
 71
     3
 72
     8
 73
     4
 74
     0
 42
0.0000000001
 43
0.0000000001
 40
0.0
 40
0.0
 40
0.0
 40
0.0
 40
1.0
 40
1.0
 40
1.0
 40
1.0
 10
-9.256971571180555
 20
-8.113716634114583
 30
0.0
 10
-9.002723524305555
 20
-8.364519585503471
 30
0.0
 10
-7.673088921440971
 20
-9.465916612413194
 30
0.0
 10
-7.507207573784721
 20
-9.750826009114583
 30
0.0
  0
SPLINE
  5
115
330
109
100
AcDbEntity
  8
LAYER_1
 62
     7
100
AcDbSpline
210
0.0
220
0.0
230
1.0
 70
     8
 71
     3
 72
     8
 73
     4
 74
     0
 42
0.0000000001
 43
0.0000000001
 40
0.0
 40
0.0
 40
0.0
 40
0.0
 40
1.0
 40
1.0
 40
1.0
 40
1.0
 10
-5.305791558159722
 20
-11.17588975694444
 30
0.0
 10
-7.394380696614583
 20
-11.10560980902778
 30
0.0
 10
-8.418263075086804
 20
-11.40068223741319
 30
0.0
 10
-8.636165364583333
 20
-11.10560980902778
 30
0.0
  0
SPLINE
  5
114
330
109
100
AcDbEntity
  8
LAYER_1
 62
     7
100
AcDbSpline
210
0.0
220
0.0
230
1.0
 70
     8
 71
     3
 72
     8
 73
     4
 74
     0
 42
0.0000000001
 43
0.0000000001
 40
0.0
 40
0.0
 40
0.0
 40
0.0
 40
1.0
 40
1.0
 40
1.0
 40
1.0
 10
-5.221042209201388
 20
-12.19202067057292
 30
0.0
 10
-5.636865234375
 20
-12.27608100043403
 30
0.0
 10
-6.57789306640625
 20
-12.09641927083333
 30
0.0
 10
-6.999055989583333
 20
-12.12156846788194
 30
0.0
  0
SPLINE
  5
113
330
109
100
AcDbEntity
  8
LAYER_1
 62
     7
100
AcDbSpline
210
0.0
220
0.0
230
1.0
 70
     8
 71
     3
 72
    11
 73
     7
 74
     0
 42
0.0000000001
 43
0.0000000001
 40
0.0
 40
0.0
 40
0.0
 40
0.0
 40
1.0
 40
1.0
 40
1.0
 40
2.0
 40
2.0
 40
2.0
 40
2.0
 10
-7.337708875868055
 20
-10.03297932942708
 30
0.0
 10
-7.769034830729166
 20
-9.874332682291666
 30
0.0
 10
-8.406722005208332
 20
-9.920841471354166
 30
0.0
 10
-8.861646864149305
 20
-9.920152452256943
 30
0.0
 10
-9.382373046874999
 20
-9.919635687934028
 30
0.0
 10
-10.076904296875
 20
-10.1762953016493
 30
0.0
 10
-10.49875623914931
 20
-9.97647976345486
 30
0.0
  0
SPLINE
  5
112
330
109
100
AcDbEntity
  8
LAYER_1
 62
     7
100
AcDbSpline
210
0.0
220
0.0
230
1.0
 70
     8
 71
     3
 72
     8
 73
     4
 74
     0
 42
0.0000000001
 43
0.0000000001
 40
0.0
 40
0.0
 40
0.0
 40
0.0
 40
1.0
 40
1.0
 40
1.0
 40
1.0
 10
-9.256971571180555
 20
-8.734867350260416
 30
0.0
 10
-10.38575710720486
 20
-9.186347113715277
 30
0.0
 10
-11.37587754991319
 20
-8.923658582899305
 30
0.0
 10
-11.90986735026042
 20
-9.073520236545138
 30
0.0
  0
SPLINE
  5
111
330
109
100
AcDbEntity
  8
LAYER_1
 62
     7
100
AcDbSpline
210
0.0
220
0.0
230
1.0
 70
     8
 71
     3
 72
     8
 73
     4
 74
     0
 42
0.0000000001
 43
0.0000000001
 40
0.0
 40
0.0
 40
0.0
 40
0.0
 40
1.0
 40
1.0
 40
1.0
 40
1.0
 10
-10.41435139973958
 20
-7.972812228732638
 30
0.0
 10
-10.72372097439236
 20
-8.262544759114583
 30
0.0
 10
-11.48474256727431
 20
-8.17503933376736
 30
0.0
 10
-11.89591471354167
 20
-8.311637369791667
 30
0.0
  0
SPLINE
  5
110
330
109
100
AcDbEntity
  8
LAYER_1
 62
     7
100
AcDbSpline
210
0.0
220
0.0
230
1.0
 70
     8
 71
     3
 72
    11
 73
     7
 74
     0
 42
0.0000000001
 43
0.0000000001
 40
0.0
 40
0.0
 40
0.0
 40
0.0
 40
1.0
 40
1.0
 40
1.0
 40
2.0
 40
2.0
 40
2.0
 40
2.0
 10
-7.21075710720486
 20
-11.98049180772569
 30
0.0
 10
-7.183713107638888
 20
-12.80352511935764
 30
0.0
 10
-6.617511664496528
 20
-13.36852077907986
 30
0.0
 10
-6.356890190972222
 20
-14.09957004123264
 30
0.0
 10
-6.233383517795138
 20
-14.44614664713542
 30
0.0
 10
-5.650128851996527
 20
-22.68612603081597
 30
0.0
 10
-5.771396213107638
 20
-23.00118001302083
 30
0.0
  0
SPLINE
  5
10F
330
109
100
AcDbEntity
  8
LAYER_1
 62
     7
100
AcDbSpline
210
0.0
220
0.0
230
1.0
 70
     8
 71
     3
 72
    23
 73
    19
 74
     0
 42
0.0000000001
 43
0.0000000001
 40
0.0
 40
0.0
 40
0.0
 40
0.0
 40
1.0
 40
1.0
 40
1.0
 40
2.0
 40
2.0
 40
2.0
 40
3.0
 40
3.0
 40
3.0
 40
4.0
 40
4.0
 40
4.0
 40
5.0
 40
5.0
 40
5.0
 40
6.0
 40
6.0
 40
6.0
 40
6.0
 10
-8.861646864149305
 20
-11.10560980902778
 30
0.0
 10
-8.738312445746526
 20
-11.64924587673611
 30
0.0
 10
-8.808247884114582
 20
-12.03234049479167
 30
0.0
 10
-8.607743326822916
 20
-12.57235921223958
 30
0.0
 10
-8.415162489149305
 20
-13.09187961154514
 30
0.0
 10
-8.189336480034722
 20
-12.89981553819444
 30
0.0
 10
-7.837936740451388
 20
-13.24794243706597
 30
0.0
 10
-7.473101128472222
 20
-13.61002197265625
 30
0.0
 10
-7.361652289496528
 20
-14.48628200954861
 30
0.0
 10
-7.221781412760416
 20
-14.96601155598958
 30
0.0
 10
-7.04332546657986
 20
-15.57786051432292
 30
0.0
 10
-6.861252170138888
 20
-23.80922715928819
 30
0.0
 10
-6.564801703559027
 20
-24.37284478081597
 30
0.0
 10
-6.420796712239583
 20
-24.64741889105903
 30
0.0
 10
-6.203238932291666
 20
-24.86153157552083
 30
0.0
 10
-6.058544921875
 20
-25.1178466796875
 30
0.0
 10
-5.926942274305555
 20
-25.35073513454861
 30
0.0
 10
-5.913850911458333
 20
-25.6172132703993
 30
0.0
 10
-5.771396213107638
 20
-25.83752712673611
 30
0.0
  0
SPLINE
  5
10E
330
109
100
AcDbEntity
  8
LAYER_1
 62
     7
100
AcDbSpline
210
0.0
220
0.0
230
1.0
 70
     8
 71
     3
 72
    17
 73
    13
 74
     0
 42
0.0000000001
 43
0.0000000001
 40
0.0
 40
0.0
 40
0.0
 40
0.0
 40
1.0
 40
1.0
 40
1.0
 40
2.0
 40
2.0
 40
2.0
 40
3.0
 40
3.0
 40
3.0
 40
4.0
 40
4.0
 40
4.0
 40
4.0
 10
-10.66808268229167
 20
-9.97647976345486
 30
0.0
 10
-10.48566487630208
 20
-10.74904242621528
 30
0.0
 10
-10.60796576605903
 20
-11.40412733289931
 30
0.0
 10
-10.21866997612847
 20
-12.13052571614583
 30
0.0
 10
-9.836092122395833
 20
-12.84452175564236
 30
0.0
 10
-9.430604383680555
 20
-13.54008653428819
 30
0.0
 10
-9.079376898871526
 20
-14.26700168185764
 30
0.0
 10
-8.713335503472221
 20
-15.02440592447917
 30
0.0
 10
-8.506802029079861
 20
-23.40236138237847
 30
0.0
 10
-8.328173828124999
 20
-24.24640977647569
 30
0.0
 10
-8.209490288628471
 20
-24.80899386935764
 30
0.0
 10
-8.367275661892361
 20
-25.36503228081597
 30
0.0
 10
-8.057389322916666
 20
-25.75277777777778
 30
0.0
  0
SPLINE
  5
10D
330
109
100
AcDbEntity
  8
LAYER_1
 62
     7
100
AcDbSpline
210
0.0
220
0.0
230
1.0
 70
     8
 71
     3
 72
    20
 73
    16
 74
     0
 42
0.0000000001
 43
0.0000000001
 40
0.0
 40
0.0
 40
0.0
 40
0.0
 40
1.0
 40
1.0
 40
1.0
 40
2.0
 40
2.0
 40
2.0
 40
3.0
 40
3.0
 40
3.0
 40
4.0
 40
4.0
 40
4.0
 40
5.0
 40
5.0
 40
5.0
 40
5.0
 10
-12.33309733072917
 20
-9.313298882378472
 30
0.0
 10
-12.13534884982639
 20
-9.860724555121527
 30
0.0
 10
-12.01029188368056
 20
-10.39144151475694
 30
0.0
 10
-11.73640679253472
 20
-10.91457926432292
 30
0.0
 10
-11.58292778862847
 20
-11.20844590928819
 30
0.0
 10
-11.27218017578125
 20
-11.5930908203125
 30
0.0
 10
-11.19638807508681
 20
-11.92106391059028
 30
0.0
 10
-11.13058675130208
 20
-12.20786810980903
 30
0.0
 10
-11.19501003689236
 20
-12.52860649956597
 30
0.0
 10
-11.13919949001736
 20
-12.82454020182292
 30
0.0
 10
-11.03619113498264
 20
-13.36800401475694
 30
0.0
 10
-10.82604031032986
 20
-13.90216606987847
 30
0.0
 10
-10.72974989149306
 20
-14.45010850694444
 30
0.0
 10
-10.64758436414931
 20
-14.91795247395833
 30
0.0
 10
-10.43157687717014
 20
-24.05003933376736
 30
0.0
 10
-10.089306640625
 20
-24.18663736979167
 30
0.0
  0
SPLINE
  5
10C
330
109
100
AcDbEntity
  8
LAYER_1
 62
     7
100
AcDbSpline
210
0.0
220
0.0
230
1.0
 70
     8
 71
     3
 72
    14
 73
    10
 74
     0
 42
0.0000000001
 43
0.0000000001
 40
0.0
 40
0.0
 40
0.0
 40
0.0
 40
1.0
 40
1.0
 40
1.0
 40
2.0
 40
2.0
 40
2.0
 40
3.0
 40
3.0
 40
3.0
 40
3.0
 10
-12.24834798177083
 20
-12.99645046657986
 30
0.0
 10
-11.96274956597222
 20
-13.59227973090278
 30
0.0
 10
-11.58137749565972
 20
-14.01792127821181
 30
0.0
 10
-11.48336452907986
 20
-14.70228949652778
 30
0.0
 10
-11.45787082248264
 20
-14.88005642361111
 30
0.0
 10
-11.46682807074653
 20
-22.60533854166667
 30
0.0
 10
-11.44409044053819
 20
-22.78121066623264
 30
0.0
 10
-11.41825222439236
 20
-22.97964816623264
 30
0.0
 10
-11.41549614800347
 20
-23.15086941189236
 30
0.0
 10
-11.35934109157986
 20
-23.34000515407986
 30
0.0
  0
ENDBLK
  5
13C
330
109
100
AcDbEntity
  8
LAYER_1
100
AcDbBlockEnd
  0
BLOCK
  5
13F
330
13D
100
AcDbEntity
  8
LAYER_1
 62
     7
100
AcDbBlockBegin
  2
AI9-BLK2
 70
     0
 10
0.0
 20
0.0
 30
0.0
  3
AI9-BLK2
  1

  4

  0
LWPOLYLINE
  5
164
330
13D
100
AcDbEntity
  8
LAYER_1
 62
     7
100
AcDbPolyline
 90
       10
 70
     1
 43
0.0
 10
-9.467122395833332
 20
-26.49988979763455
 10
17.99011637369792
 20
-9.116799248589409
 10
17.42563747829861
 20
22.88736267089844
 10
10.65223524305556
 20
26.49988979763455
 10
-16.07085367838542
 20
14.53490091959635
 10
-16.07085367838542
 20
-1.327610609266493
 10
-17.99011637369792
 20
-4.091438462999132
 10
-15.28089328342014
 20
-6.377431572808159
 10
-16.04277615017361
 20
-7.985946655273437
 10
-16.07085367838542
 20
-21.75857713487413
  0
LWPOLYLINE
  5
15B
330
13D
100
AcDbEntity
  8
LAYER_1
 62
     7
100
AcDbPolyline
 90
        7
 70
     0
 43
0.0
 10
-9.467122395833332
 20
-26.49988979763455
 10
-9.467122395833332
 20
-12.06425069173177
 10
-8.45064697265625
 20
-10.59646775987413
 10
-11.16004231770833
 20
-8.169570244683159
 10
-9.467122395833332
 20
-5.347175767686632
 10
-9.467122395833332
 20
10.13232727050781
 10
-16.07085367838542
 20
14.53490091959635
  0
LINE
  5
15A
330
13D
100
AcDbEntity
  8
LAYER_1
 62
     7
100
AcDbLine
 10
-9.467122395833332
 20
-5.347175767686632
 30
0.0
 11
-16.07085367838542
 21
-1.327610609266493
 31
0.0
  0
LINE
  5
159
330
13D
100
AcDbEntity
  8
LAYER_1
 62
     7
100
AcDbLine
 10
-11.16004231770833
 20
-8.169570244683159
 30
0.0
 11
-17.99011637369792
 21
-4.091438462999132
 31
0.0
  0
LINE
  5
158
330
13D
100
AcDbEntity
  8
LAYER_1
 62
     7
100
AcDbLine
 10
-9.410450575086804
 20
-12.06425069173177
 30
0.0
 11
-16.04277615017361
 21
-7.985946655273437
 31
0.0
  0
LINE
  5
157
330
13D
100
AcDbEntity
  8
LAYER_1
 62
     7
100
AcDbLine
 10
-8.45064697265625
 20
-10.59646775987413
 30
0.0
 11
-15.28089328342014
 21
-6.377431572808159
 31
0.0
  0
LINE
  5
156
330
13D
100
AcDbEntity
  8
LAYER_1
 62
     7
100
AcDbLine
 10
-9.467122395833332
 20
10.13232727050781
 30
0.0
 11
17.42563747829861
 21
22.68978644476997
 31
0.0
  0
SPLINE
  5
155
330
13D
100
AcDbEntity
  8
LAYER_1
 62
     7
100
AcDbSpline
210
0.0
220
0.0
230
1.0
 70
     8
 71
     3
 72
    14
 73
    10
 74
     0
 42
0.0000000001
 43
0.0000000001
 40
0.0
 40
0.0
 40
0.0
 40
0.0
 40
1.0
 40
1.0
 40
1.0
 40
2.0
 40
2.0
 40
2.0
 40
3.0
 40
3.0
 40
3.0
 40
3.0
 10
-10.94868570963542
 20
11.19066060384115
 30
0.0
 10
-10.61554497612847
 20
10.94623107910156
 30
0.0
 10
-10.63018663194444
 20
9.99400668674045
 30
0.0
 10
-10.40797797309028
 20
9.618319023980034
 30
0.0
 10
-10.22073703342014
 20
9.302145385742186
 30
0.0
 10
-9.833336046006943
 20
-1.212027655707465
 30
0.0
 10
-9.687263997395833
 20
-1.55136956108941
 30
0.0
 10
-9.602686903211804
 20
-1.748429022894965
 30
0.0
 10
-9.629041883680555
 20
-2.001471286349826
 30
0.0
 10
-9.509152560763887
 20
-2.186472913953993
 30
0.0
  0
SPLINE
  5
154
330
13D
100
AcDbEntity
  8
LAYER_1
 62
     7
100
AcDbSpline
210
0.0
220
0.0
230
1.0
 70
     8
 71
     3
 72
    17
 73
    13
 74
     0
 42
0.0000000001
 43
0.0000000001
 40
0.0
 40
0.0
 40
0.0
 40
0.0
 40
1.0
 40
1.0
 40
1.0
 40
2.0
 40
2.0
 40
2.0
 40
3.0
 40
3.0
 40
3.0
 40
4.0
 40
4.0
 40
4.0
 40
4.0
 10
-12.89585367838542
 20
12.37603183322483
 30
0.0
 10
-12.65521375868056
 20
11.75453660753038
 30
0.0
 10
-12.48916015625
 20
11.07714470757378
 30
0.0
 10
-12.18788655598958
 20
10.50301954481337
 30
0.0
 10
-11.8661146375868
 20
9.889189656575519
 30
0.0
 10
-11.37983940972222
 20
-0.8992129855685763
 30
0.0
 10
-11.04153103298611
 20
-1.50796135796441
 30
0.0
 10
-10.72544352213542
 20
-2.076574367947048
 30
0.0
 10
-10.61089409722222
 20
-2.694624498155382
 30
0.0
 10
-10.35802408854167
 20
-3.28459710015191
 30
0.0
 10
-10.13305935329861
 20
-3.809801907009548
 30
0.0
 10
-9.707073296440971
 20
-4.305723402235243
 30
0.0
 10
-9.509152560763887
 20
-4.810946655273437
 30
0.0
  0
SPLINE
  5
153
330
13D
100
AcDbEntity
  8
LAYER_1
 62
     7
100
AcDbSpline
210
0.0
220
0.0
230
1.0
 70
     8
 71
     3
 72
    17
 73
    13
 74
     0
 42
0.0000000001
 43
0.0000000001
 40
0.0
 40
0.0
 40
0.0
 40
0.0
 40
1.0
 40
1.0
 40
1.0
 40
2.0
 40
2.0
 40
2.0
 40
3.0
 40
3.0
 40
3.0
 40
4.0
 40
4.0
 40
4.0
 40
4.0
 10
-14.33538682725694
 20
13.34961581759982
 30
0.0
 10
-13.97675238715278
 20
12.82975090874566
 30
0.0
 10
-13.66893310546875
 20
12.45535515679253
 30
0.0
 10
-13.47945285373264
 20
11.83558247884115
 30
0.0
 10
-13.39194742838542
 20
11.54946729871962
 30
0.0
 10
-13.37627224392361
 20
11.27497931586371
 30
0.0
 10
-13.3109876844618
 20
10.97870110405816
 30
0.0
 10
-13.16129828559028
 20
10.29769185384115
 30
0.0
 10
-12.86812065972222
 20
-0.7140391031901041
 30
0.0
 10
-12.64281141493055
 20
-1.37463616265191
 30
0.0
 10
-12.30467529296875
 20
-2.366651407877604
 30
0.0
 10
-11.83235270182292
 20
-3.298894246419271
 30
0.0
 10
-11.41429036458333
 20
-4.17601555718316
 30
0.0
  0
SPLINE
  5
152
330
13D
100
AcDbEntity
  8
LAYER_1
 62
     7
100
AcDbSpline
210
0.0
220
0.0
230
1.0
 70
     8
 71
     3
 72
    14
 73
    10
 74
     0
 42
0.0000000001
 43
0.0000000001
 40
0.0
 40
0.0
 40
0.0
 40
0.0
 40
1.0
 40
1.0
 40
1.0
 40
2.0
 40
2.0
 40
2.0
 40
3.0
 40
3.0
 40
3.0
 40
3.0
 10
-15.90152723524305
 20
13.68826870388455
 30
0.0
 10
-15.45245903862847
 20
13.29871453179253
 30
0.0
 10
-15.23455674913194
 20
12.53373107910156
 30
0.0
 10
-15.06419677734375
 20
11.99595167371962
 30
0.0
 10
-14.84319390190972
 20
11.29676954481337
 30
0.0
 10
-14.61547309027778
 20
10.57975904676649
 30
0.0
 10
-14.38585747612847
 20
9.876615058051215
 30
0.0
 10
-14.14349500868056
 20
9.134455362955729
 30
0.0
 10
-13.87650010850694
 20
-2.191985066731771
 30
0.0
 10
-13.50580783420139
 20
-2.851376342773437
 30
0.0
  0
SPLINE
  5
151
330
13D
100
AcDbEntity
  8
LAYER_1
 62
     7
100
AcDbSpline
210
0.0
220
0.0
230
1.0
 70
     8
 71
     3
 72
    11
 73
     7
 74
     0
 42
0.0000000001
 43
0.0000000001
 40
0.0
 40
0.0
 40
0.0
 40
0.0
 40
1.0
 40
1.0
 40
1.0
 40
2.0
 40
2.0
 40
2.0
 40
2.0
 10
-15.94390190972222
 20
10.93658481174045
 30
0.0
 10
-15.707568359375
 20
10.52058953179254
 30
0.0
 10
-15.50620252821181
 20
10.15713195800781
 30
0.0
 10
-15.31827256944444
 20
9.696350436740451
 30
0.0
 10
-15.17047797309028
 20
9.333323499891492
 30
0.0
 10
-15.06712510850694
 20
-1.561877102322049
 30
0.0
 10
-14.97376302083333
 20
-1.891572740342882
 30
0.0
  0
SPLINE
  5
150
330
13D
100
AcDbEntity
  8
LAYER_1
 62
     7
100
AcDbSpline
210
0.0
220
0.0
230
1.0
 70
     8
 71
     3
 72
     8
 73
     4
 74
     0
 42
0.0000000001
 43
0.0000000001
 40
0.0
 40
0.0
 40
0.0
 40
0.0
 40
1.0
 40
1.0
 40
1.0
 40
1.0
 10
-10.22900526258681
 20
-6.419806247287326
 30
0.0
 10
-11.49903971354167
 20
-6.96998799641927
 30
0.0
 10
-13.27705349392361
 20
-6.885410902235242
 30
0.0
 10
-13.27705349392361
 20
-6.885410902235242
 30
0.0
  0
SPLINE
  5
14F
330
13D
100
AcDbEntity
  8
LAYER_1
 62
     7
100
AcDbSpline
210
0.0
220
0.0
230
1.0
 70
     8
 71
     3
 72
    14
 73
    10
 74
     0
 42
0.0000000001
 43
0.0000000001
 40
0.0
 40
0.0
 40
0.0
 40
0.0
 40
1.0
 40
1.0
 40
1.0
 40
2.0
 40
2.0
 40
2.0
 40
3.0
 40
3.0
 40
3.0
 40
3.0
 10
-10.22900526258681
 20
-5.022647772894965
 30
0.0
 10
-10.81604953342014
 20
-5.006972588433159
 30
0.0
 10
-11.67198350694444
 20
-4.921534220377604
 30
0.0
 10
-12.21630859375
 20
-5.106708102756076
 30
0.0
 10
-12.48881564670139
 20
-5.199381171332465
 30
0.0
 10
-12.63867730034722
 20
-5.478950670030382
 30
0.0
 10
-12.86278076171875
 20
-5.615376451280381
 30
0.0
 10
-13.27498643663194
 20
-5.865834893120659
 30
0.0
 10
-14.4706068250868
 20
-5.678421698676215
 30
0.0
 10
-14.97031792534722
 20
-5.69995354546441
 30
0.0
  0
SPLINE
  5
14E
330
13D
100
AcDbEntity
  8
LAYER_1
 62
     7
100
AcDbSpline
210
0.0
220
0.0
230
1.0
 70
     8
 71
     3
 72
    14
 73
    10
 74
     0
 42
0.0000000001
 43
0.0000000001
 40
0.0
 40
0.0
 40
0.0
 40
0.0
 40
1.0
 40
1.0
 40
1.0
 40
2.0
 40
2.0
 40
2.0
 40
3.0
 40
3.0
 40
3.0
 40
3.0
 10
-11.52746175130208
 20
-4.17601555718316
 30
0.0
 10
-12.13776041666667
 20
-4.308996242947048
 30
0.0
 10
-13.2115966796875
 20
-3.855966186523437
 30
0.0
 10
-13.69787190755208
 20
-4.226658460828992
 30
0.0
 10
-13.97813042534722
 20
-4.43990987141927
 30
0.0
 10
-14.14745686848958
 20
-4.484007093641493
 30
0.0
 10
-14.51401502821181
 20
-4.51708001030816
 30
0.0
 10
-15.20751274956597
 20
-4.57943623860677
 30
0.0
 10
-16.01573215060764
 20
-4.740666707356771
 30
0.0
 10
-16.72008192274306
 20
-4.740666707356771
 30
0.0
  0
SPLINE
  5
14D
330
13D
100
AcDbEntity
  8
LAYER_1
 62
     7
100
AcDbSpline
210
0.0
220
0.0
230
1.0
 70
     8
 71
     3
 72
    14
 73
    10
 74
     0
 42
0.0000000001
 43
0.0000000001
 40
0.0
 40
0.0
 40
0.0
 40
0.0
 40
1.0
 40
1.0
 40
1.0
 40
2.0
 40
2.0
 40
2.0
 40
3.0
 40
3.0
 40
3.0
 40
3.0
 10
-13.44965277777778
 20
-3.077030097113715
 30
0.0
 10
-14.10508219401042
 20
-3.077030097113715
 30
0.0
 10
-14.62890896267361
 20
-3.13576897515191
 30
0.0
 10
-15.2457533094618
 20
-3.315258449978298
 30
0.0
 10
-15.64796820746528
 20
-3.724363538953993
 30
0.0
 10
-15.98420952690972
 20
-3.478039211697048
 30
0.0
 10
-16.36558159722222
 20
-3.485618421766493
 30
0.0
 10
-16.71233045789931
 20
-3.492164103190104
 30
0.0
 10
-17.14830729166667
 20
-3.305439927842881
 30
0.0
 10
-17.48230929904514
 20
-3.442210218641493
 30
0.0
  0
SPLINE
  5
14C
330
13D
100
AcDbEntity
  8
LAYER_1
 62
     7
100
AcDbSpline
210
0.0
220
0.0
230
1.0
 70
     8
 71
     3
 72
     8
 73
     4
 74
     0
 42
0.0000000001
 43
0.0000000001
 40
0.0
 40
0.0
 40
0.0
 40
0.0
 40
1.0
 40
1.0
 40
1.0
 40
1.0
 10
-14.97031792534722
 20
-2.200597805447048
 30
0.0
 10
-15.65623643663194
 20
-2.17613762749566
 30
0.0
 10
-16.08549533420139
 20
-2.553547837999132
 30
0.0
 10
-16.7340345594618
 20
-2.52495354546441
 30
0.0
  0
SPLINE
  5
14B
330
13D
100
AcDbEntity
  8
LAYER_1
 62
     7
100
AcDbSpline
210
0.0
220
0.0
230
1.0
 70
     8
 71
     3
 72
     8
 73
     4
 74
     0
 42
0.0000000001
 43
0.0000000001
 40
0.0
 40
0.0
 40
0.0
 40
0.0
 40
1.0
 40
1.0
 40
1.0
 40
1.0
 10
-14.74466417100694
 20
-5.982106865776909
 30
0.0
 10
-14.68024088541667
 20
-6.30336201985677
 30
0.0
 10
-13.25121527777778
 20
-7.607675170898437
 30
0.0
 10
-12.99490017361111
 20
-7.78854268391927
 30
0.0
  0
SPLINE
  5
14A
330
13D
100
AcDbEntity
  8
LAYER_1
 62
     7
100
AcDbSpline
210
0.0
220
0.0
230
1.0
 70
     8
 71
     3
 72
     8
 73
     4
 74
     0
 42
0.0000000001
 43
0.0000000001
 40
0.0
 40
0.0
 40
0.0
 40
0.0
 40
1.0
 40
1.0
 40
1.0
 40
1.0
 10
-12.99490017361111
 20
-7.167391967773437
 30
0.0
 10
-12.74047987196181
 20
-7.418194919162326
 30
0.0
 10
-11.41084526909722
 20
-8.519419691297742
 30
0.0
 10
-11.24496392144097
 20
-8.804501342773436
 30
0.0
  0
SPLINE
  5
149
330
13D
100
AcDbEntity
  8
LAYER_1
 62
     7
100
AcDbSpline
210
0.0
220
0.0
230
1.0
 70
     8
 71
     3
 72
     8
 73
     4
 74
     0
 42
0.0000000001
 43
0.0000000001
 40
0.0
 40
0.0
 40
0.0
 40
0.0
 40
1.0
 40
1.0
 40
1.0
 40
1.0
 10
-9.043720160590278
 20
-10.2297373453776
 30
0.0
 10
-11.13230929904514
 20
-10.15928514268663
 30
0.0
 10
-12.15601942274305
 20
-10.45418531629774
 30
0.0
 10
-12.37409396701389
 20
-10.15928514268663
 30
0.0
  0
SPLINE
  5
148
330
13D
100
AcDbEntity
  8
LAYER_1
 62
     7
100
AcDbSpline
210
0.0
220
0.0
230
1.0
 70
     8
 71
     3
 72
     8
 73
     4
 74
     0
 42
0.0000000001
 43
0.0000000001
 40
0.0
 40
0.0
 40
0.0
 40
0.0
 40
1.0
 40
1.0
 40
1.0
 40
1.0
 10
-8.958970811631943
 20
-11.24569600423177
 30
0.0
 10
-9.374621582031249
 20
-11.32958407931858
 30
0.0
 10
-10.3156494140625
 20
-11.15026685926649
 30
0.0
 10
-10.73698459201389
 20
-11.1752438015408
 30
0.0
  0
SPLINE
  5
147
330
13D
100
AcDbEntity
  8
LAYER_1
 62
     7
100
AcDbSpline
210
0.0
220
0.0
230
1.0
 70
     8
 71
     3
 72
    11
 73
     7
 74
     0
 42
0.0000000001
 43
0.0000000001
 40
0.0
 40
0.0
 40
0.0
 40
0.0
 40
1.0
 40
1.0
 40
1.0
 40
2.0
 40
2.0
 40
2.0
 40
2.0
 10
-11.07563747829861
 20
-9.086654663085938
 30
0.0
 10
-11.50679117838542
 20
-8.927835761176214
 30
0.0
 10
-12.14447835286458
 20
-8.974689059787325
 30
0.0
 10
-12.59974772135417
 20
-8.974000040690104
 30
0.0
 10
-13.12012939453125
 20
-8.973138766818575
 30
0.0
 10
-13.81466064453125
 20
-9.22997063530816
 30
0.0
 10
-14.23685709635417
 20
-9.030155097113715
 30
0.0
  0
SPLINE
  5
146
330
13D
100
AcDbEntity
  8
LAYER_1
 62
     7
100
AcDbSpline
210
0.0
220
0.0
230
1.0
 70
     8
 71
     3
 72
     8
 73
     4
 74
     0
 42
0.0000000001
 43
0.0000000001
 40
0.0
 40
0.0
 40
0.0
 40
0.0
 40
1.0
 40
1.0
 40
1.0
 40
1.0
 10
-12.99490017361111
 20
-7.78854268391927
 30
0.0
 10
-14.12368570963542
 20
-8.24002244737413
 30
0.0
 10
-15.11380615234375
 20
-7.977506171332465
 30
0.0
 10
-15.64762369791667
 20
-8.127367824978299
 30
0.0
  0
SPLINE
  5
145
330
13D
100
AcDbEntity
  8
LAYER_1
 62
     7
100
AcDbSpline
210
0.0
220
0.0
230
1.0
 70
     8
 71
     3
 72
     8
 73
     4
 74
     0
 42
0.0000000001
 43
0.0000000001
 40
0.0
 40
0.0
 40
0.0
 40
0.0
 40
1.0
 40
1.0
 40
1.0
 40
1.0
 10
-14.15210774739583
 20
-7.026659817165798
 30
0.0
 10
-14.46164957682292
 20
-7.316220092773436
 30
0.0
 10
-15.22249891493055
 20
-7.228542412651909
 30
0.0
 10
-15.63367106119792
 20
-7.365140448676215
 30
0.0
  0
SPLINE
  5
144
330
13D
100
AcDbEntity
  8
LAYER_1
 62
     7
100
AcDbSpline
210
0.0
220
0.0
230
1.0
 70
     8
 71
     3
 72
    11
 73
     7
 74
     0
 42
0.0000000001
 43
0.0000000001
 40
0.0
 40
0.0
 40
0.0
 40
0.0
 40
1.0
 40
1.0
 40
1.0
 40
2.0
 40
2.0
 40
2.0
 40
2.0
 10
-10.94868570963542
 20
-11.03399488661024
 30
0.0
 10
-10.92146945529514
 20
-11.85720045301649
 30
0.0
 10
-10.35526801215278
 20
-12.42202385796441
 30
0.0
 10
-10.09464653862847
 20
-13.1534176296658
 30
0.0
 10
-9.971484374999999
 20
-13.49999423556858
 30
0.0
 10
-9.387885199652777
 20
-21.73980136447483
 30
0.0
 10
-9.509152560763887
 20
-22.05502760145399
 30
0.0
  0
SPLINE
  5
143
330
13D
100
AcDbEntity
  8
LAYER_1
 62
     7
100
AcDbSpline
210
0.0
220
0.0
230
1.0
 70
     8
 71
     3
 72
    23
 73
    19
 74
     0
 42
0.0000000001
 43
0.0000000001
 40
0.0
 40
0.0
 40
0.0
 40
0.0
 40
1.0
 40
1.0
 40
1.0
 40
2.0
 40
2.0
 40
2.0
 40
3.0
 40
3.0
 40
3.0
 40
4.0
 40
4.0
 40
4.0
 40
5.0
 40
5.0
 40
5.0
 40
6.0
 40
6.0
 40
6.0
 40
6.0
 10
-12.59974772135417
 20
-10.15928514268663
 30
0.0
 10
-12.47624104817708
 20
-10.70292121039496
 30
0.0
 10
-12.54617648654514
 20
-11.08584357367622
 30
0.0
 10
-12.34567192925347
 20
-11.62603454589844
 30
0.0
 10
-12.15326334635417
 20
-12.1457271999783
 30
0.0
 10
-11.92726508246528
 20
-11.9534908718533
 30
0.0
 10
-11.57569308810764
 20
-12.30179002549913
 30
0.0
 10
-11.21085747612847
 20
-12.66386956108941
 30
0.0
 10
-11.09940863715278
 20
-13.53995734320746
 30
0.0
 10
-10.95953776041667
 20
-14.01985914442274
 30
0.0
 10
-10.78125406901042
 20
-14.63170810275608
 30
0.0
 10
-10.59900851779514
 20
-22.86290249294705
 30
0.0
 10
-10.30273030598958
 20
-23.42652011447482
 30
0.0
 10
-10.15855305989583
 20
-23.70092196994358
 30
0.0
 10
-9.941167534722222
 20
-23.91537916395399
 30
0.0
 10
-9.796301269531249
 20
-24.17169426812066
 30
0.0
 10
-9.664698621961804
 20
-24.40441046820746
 30
0.0
 10
-9.651779513888888
 20
-24.67106085883246
 30
0.0
 10
-9.509152560763887
 20
-24.89120246039497
 30
0.0
  0
SPLINE
  5
142
330
13D
100
AcDbEntity
  8
LAYER_1
 62
     7
100
AcDbSpline
210
0.0
220
0.0
230
1.0
 70
     8
 71
     3
 72
    17
 73
    13
 74
     0
 42
0.0000000001
 43
0.0000000001
 40
0.0
 40
0.0
 40
0.0
 40
0.0
 40
1.0
 40
1.0
 40
1.0
 40
2.0
 40
2.0
 40
2.0
 40
3.0
 40
3.0
 40
3.0
 40
4.0
 40
4.0
 40
4.0
 40
4.0
 10
-14.40601128472222
 20
-9.030155097113715
 30
0.0
 10
-14.22359347873264
 20
-9.802717759874131
 30
0.0
 10
-14.34589436848958
 20
-10.45797492133247
 30
0.0
 10
-13.95677083333333
 20
-11.18402879503038
 30
0.0
 10
-13.57384847005208
 20
-11.89819708930122
 30
0.0
 10
-13.16853298611111
 20
-12.59376186794705
 30
0.0
 10
-12.81730550130208
 20
-13.32067701551649
 30
0.0
 10
-12.45109185112847
 20
-14.07790900336372
 30
0.0
 10
-12.24473063151042
 20
-22.45620897081163
 30
0.0
 10
-12.06610243055556
 20
-23.30008511013455
 30
0.0
 10
-11.94759114583333
 20
-23.86266920301649
 30
0.0
 10
-12.10520426432292
 20
-24.41870761447482
 30
0.0
 10
-11.79531792534722
 20
-24.80662536621093
 30
0.0
  0
SPLINE
  5
141
330
13D
100
AcDbEntity
  8
LAYER_1
 62
     7
100
AcDbSpline
210
0.0
220
0.0
230
1.0
 70
     8
 71
     3
 72
    20
 73
    16
 74
     0
 42
0.0000000001
 43
0.0000000001
 40
0.0
 40
0.0
 40
0.0
 40
0.0
 40
1.0
 40
1.0
 40
1.0
 40
2.0
 40
2.0
 40
2.0
 40
3.0
 40
3.0
 40
3.0
 40
4.0
 40
4.0
 40
4.0
 40
5.0
 40
5.0
 40
5.0
 40
5.0
 10
-16.07085367838542
 20
-8.367146470811631
 30
0.0
 10
-15.87327745225694
 20
-8.91439988878038
 30
0.0
 10
-15.74822048611111
 20
-9.445289103190103
 30
0.0
 10
-15.47433539496528
 20
-9.968426852756075
 30
0.0
 10
-15.32102864583333
 20
-10.26212124294705
 30
0.0
 10
-15.01010877821181
 20
-10.64659389919705
 30
0.0
 10
-14.93414442274306
 20
-10.97491149902344
 30
0.0
 10
-14.86851535373264
 20
-11.26154344346788
 30
0.0
 10
-14.93293863932292
 20
-11.58245408799913
 30
0.0
 10
-14.87695583767361
 20
-11.87838779025608
 30
0.0
 10
-14.7742919921875
 20
-12.4218516031901
 30
0.0
 10
-14.56379665798611
 20
-12.95601365831163
 30
0.0
 10
-14.46767849392361
 20
-13.5039560953776
 30
0.0
 10
-14.38568522135417
 20
-13.97145555284288
 30
0.0
 10
-14.169677734375
 20
-23.10354241265191
 30
0.0
 10
-13.82723524305555
 20
-23.24014044867622
 30
0.0
  0
SPLINE
  5
140
330
13D
100
AcDbEntity
  8
LAYER_1
 62
     7
100
AcDbSpline
210
0.0
220
0.0
230
1.0
 70
     8
 71
     3
 72
    14
 73
    10
 74
     0
 42
0.0000000001
 43
0.0000000001
 40
0.0
 40
0.0
 40
0.0
 40
0.0
 40
1.0
 40
1.0
 40
1.0
 40
2.0
 40
2.0
 40
2.0
 40
3.0
 40
3.0
 40
3.0
 40
3.0
 10
-15.98627658420139
 20
-12.04995354546441
 30
0.0
 10
-15.70050591362847
 20
-12.64595506456163
 30
0.0
 10
-15.31930609809028
 20
-13.07176886664496
 30
0.0
 10
-15.22129313151042
 20
-13.75596483018663
 30
0.0
 10
-15.1959716796875
 20
-13.93390401204427
 30
0.0
 10
-15.20475667317708
 20
-21.65918613009983
 30
0.0
 10
-15.18201904296875
 20
-21.8350582546658
 30
0.0
 10
-15.15618082682292
 20
-22.0334957546658
 30
0.0
 10
-15.15359700520833
 20
-22.20437249077691
 30
0.0
 10
-15.09726969401042
 20
-22.39350823296441
 30
0.0
  0
ENDBLK
  5
170
330
13D
100
AcDbEntity
  8
LAYER_1
100
AcDbBlockEnd
  0
BLOCK
  5
186
330
184
100
AcDbEntity
  8
LAYER_1
 62
     7
100
AcDbBlockBegin
  2
AI9-BLK3
 70
     0
 10
0.0
 20
0.0
 30
0.0
  3
AI9-BLK3
  1

  4

  0
LWPOLYLINE
  5
1D4
330
184
100
AcDbEntity
  8
LAYER_1
 62
     7
100
AcDbPolyline
 90
       11
 70
     0
 43
0.0
 10
-49.57905815972222
 20
18.53922153049045
 10
-58.93800455729166
 20
24.48287251790364
 10
-58.93800455729166
 20
30.23316752115885
 10
-61.75247531467014
 20
32.04356519911024
 10
-61.75247531467014
 20
38.93599548339844
 10
-57.48624131944444
 20
40.70866936577691
 10
-56.01191270616319
 20
40.41325242784288
 10
-56.01191270616319
 20
43.01412726508247
 10
-53.6062025282118
 20
42.29875318739149
 10
-49.45882432725694
 20
44.01492750379774
 10
-47.03313259548611
 20
42.56437004937066
  0
LINE
  5
1D3
330
184
100
AcDbEntity
  8
LAYER_1
 62
     7
100
AcDbLine
 10
15.13843858506944
 20
-22.56042310926649
 30
0.0
 11
-32.11828070746527
 21
7.450492689344618
 31
0.0
  0
LWPOLYLINE
  5
1C8
330
184
100
AcDbEntity
  8
LAYER_1
 62
     7
100
AcDbPolyline
 90
        9
 70
     0
 43
0.0
 10
57.78837619357638
 20
-20.12267354329427
 10
61.60123562282985
 20
-22.40298224555122
 10
61.74541286892361
 20
-36.0080088297526
 10
59.67215440538194
 20
-37.11319546169705
 10
59.67215440538194
 20
-39.32408548990885
 10
54.09196099175347
 20
-38.86881612141927
 10
54.09109971788194
 20
-40.26390753851996
 10
48.92190619574652
 20
-44.01492750379774
 10
25.38243001302083
 20
-29.06596917046441
  0
LWPOLYLINE
  5
1C3
330
184
100
AcDbEntity
  8
LAYER_1
 62
     7
100
AcDbPolyline
 90
        3
 70
     0
 43
0.0
 10
30.0975599500868
 20
-25.61208869086372
 10
48.93172471788194
 20
-37.42618238661024
 10
54.10109049479166
 20
-33.75422736273871
  0
LINE
  5
1C2
330
184
100
AcDbEntity
  8
LAYER_1
 62
     7
100
AcDbLine
 10
-27.2388197157118
 20
10.35298563639323
 30
0.0
 11
15.20923529730903
 21
-16.27329610188802
 31
0.0
  0
LINE
  5
1C1
330
184
100
AcDbEntity
  8
LAYER_1
 62
     7
100
AcDbLine
 10
-58.9237074110243
 20
30.22774149576823
 30
0.0
 11
-50.25567491319444
 21
24.79051954481337
 31
0.0
  0
SPLINE
  5
1C0
330
184
100
AcDbEntity
  8
LAYER_1
 62
     7
100
AcDbSpline
210
0.0
220
0.0
230
1.0
 70
     8
 71
     3
 72
     8
 73
     4
 74
     0
 42
0.0000000001
 43
0.0000000001
 40
0.0
 40
0.0
 40
0.0
 40
0.0
 40
1.0
 40
1.0
 40
1.0
 40
1.0
 10
-21.35838623046875
 20
14.15309821234809
 30
0.0
 10
-12.13293728298611
 20
8.47437506781684
 30
0.0
 10
-3.7982177734375
 20
3.322923787434895
 30
0.0
 10
0.4332207573784722
 20
0.6553863525390624
 30
0.0
  0
SPLINE
  5
1BF
330
184
100
AcDbEntity
  8
LAYER_1
 62
     7
100
AcDbSpline
210
0.0
220
0.0
230
1.0
 70
     8
 71
     3
 72
     8
 73
     4
 74
     0
 42
0.0000000001
 43
0.0000000001
 40
0.0
 40
0.0
 40
0.0
 40
0.0
 40
1.0
 40
1.0
 40
1.0
 40
1.0
 10
-61.69752604166666
 20
38.90120001898871
 30
0.0
 10
-61.69752604166666
 20
38.90120001898871
 30
0.0
 10
-56.76139322916666
 20
35.88140157063802
 30
0.0
 10
-49.60851372612846
 20
31.49794820149739
 30
0.0
  0
LWPOLYLINE
  5
1BA
330
184
100
AcDbEntity
  8
LAYER_1
 62
     7
100
AcDbPolyline
 90
        3
 70
     0
 43
0.0
 10
-55.98245713975694
 20
40.41428595648871
 10
-55.06916232638888
 20
40.25064392089843
 10
-55.97970106336805
 20
42.98139885796441
  0
LWPOLYLINE
  5
1B1
330
184
100
AcDbEntity
  8
LAYER_1
 62
     7
100
AcDbPolyline
 90
        7
 70
     0
 43
0.0
 10
48.93172471788194
 20
-43.98736673990885
 10
48.93172471788194
 20
-30.04334275987413
 10
54.10195176866319
 20
-26.57843797471788
 10
53.29528266059027
 20
-24.99800042046441
 10
59.66061333550347
 20
-25.28187628851996
 10
59.39999186197916
 20
-23.84234313964844
 10
61.60123562282985
 20
-22.40298224555122
  0
LINE
  5
1B0
330
184
100
AcDbEntity
  8
LAYER_1
 62
     7
100
AcDbLine
 10
54.10109049479166
 20
-26.59376864963107
 30
0.0
 11
54.10109049479166
 21
-38.84659525553385
 31
0.0
  0
LINE
  5
1AF
330
184
100
AcDbEntity
  8
LAYER_1
 62
     7
100
AcDbLine
 10
59.66061333550347
 20
-37.07891676161024
 30
0.0
 11
59.66061333550347
 21
-25.28187628851996
 31
0.0
  0
SPLINE
  5
1AE
330
184
100
AcDbEntity
  8
LAYER_1
 62
     7
100
AcDbSpline
210
0.0
220
0.0
230
1.0
 70
     8
 71
     3
 72
     8
 73
     4
 74
     0
 42
0.0000000001
 43
0.0000000001
 40
0.0
 40
0.0
 40
0.0
 40
0.0
 40
1.0
 40
1.0
 40
1.0
 40
1.0
 10
35.9638685438368
 20
-21.83695305718316
 30
0.0
 10
43.37168511284722
 20
-26.53089565700955
 30
0.0
 10
48.92380099826389
 20
-30.05006069607205
 30
0.0
 10
48.92380099826389
 20
-30.05006069607205
 30
0.0
  0
SPLINE
  5
1AD
330
184
100
AcDbEntity
  8
LAYER_1
 62
     7
100
AcDbSpline
210
0.0
220
0.0
230
1.0
 70
     8
 71
     3
 72
     8
 73
     4
 74
     0
 42
0.0000000001
 43
0.0000000001
 40
0.0
 40
0.0
 40
0.0
 40
0.0
 40
1.0
 40
1.0
 40
1.0
 40
1.0
 10
0.4332207573784722
 20
0.6553863525390624
 30
0.0
 10
2.921785481770833
 20
-0.9131656222873263
 30
0.0
 10
8.039474826388888
 20
-4.150694105360243
 30
0.0
 10
14.05375027126736
 20
-7.958558146158853
 30
0.0
  0
SPLINE
  5
1AC
330
184
100
AcDbEntity
  8
LAYER_1
 62
     7
100
AcDbSpline
210
0.0
220
0.0
230
1.0
 70
     8
 71
     3
 72
    11
 73
     7
 74
     0
 42
0.0000000001
 43
0.0000000001
 40
0.0
 40
0.0
 40
0.0
 40
0.0
 40
1.0
 40
1.0
 40
1.0
 40
2.0
 40
2.0
 40
2.0
 40
2.0
 10
53.93658718532986
 20
-26.22497117784288
 30
0.0
 10
54.28919270833333
 20
-26.25442674424913
 30
0.0
 10
54.29418809678819
 20
-26.09130147298177
 30
0.0
 10
54.95168457031249
 20
-26.20964050292968
 30
0.0
 10
57.79113226996527
 20
-26.72106492784288
 30
0.0
 10
59.02809380425347
 20
-26.34916687011718
 30
0.0
 10
59.48456895616319
 20
-26.46698913574219
 30
0.0
  0
SPLINE
  5
1AB
330
184
100
AcDbEntity
  8
LAYER_1
 62
     7
100
AcDbSpline
210
0.0
220
0.0
230
1.0
 70
     8
 71
     3
 72
    17
 73
    13
 74
     0
 42
0.0000000001
 43
0.0000000001
 40
0.0
 40
0.0
 40
0.0
 40
0.0
 40
1.0
 40
1.0
 40
1.0
 40
2.0
 40
2.0
 40
2.0
 40
3.0
 40
3.0
 40
3.0
 40
4.0
 40
4.0
 40
4.0
 40
4.0
 10
54.11435411241319
 20
-27.22491014268663
 30
0.0
 10
54.61440972222222
 20
-27.31310458713108
 30
0.0
 10
55.21747368706597
 20
-27.54788784450955
 30
0.0
 10
55.54062364366319
 20
-27.47467956542969
 30
0.0
 10
55.86394585503471
 20
-27.40129903157552
 30
0.0
 10
56.12904595269097
 20
-27.38648512098524
 30
0.0
 10
56.40861545138888
 20
-27.44539625379774
 30
0.0
 10
56.68801269531249
 20
-27.50430738661024
 30
0.0
 10
57.3951185438368
 20
-27.57837693956163
 30
0.0
 10
57.58597683376735
 20
-27.59250183105468
 30
0.0
 10
57.77717963324653
 20
-27.60679897732205
 30
0.0
 10
59.13213568793402
 20
-27.68534715440538
 30
0.0
 10
59.48456895616319
 20
-27.56769714355469
 30
0.0
  0
SPLINE
  5
1AA
330
184
100
AcDbEntity
  8
LAYER_1
 62
     7
100
AcDbSpline
210
0.0
220
0.0
230
1.0
 70
     8
 71
     3
 72
    23
 73
    19
 74
     0
 42
0.0000000001
 43
0.0000000001
 40
0.0
 40
0.0
 40
0.0
 40
0.0
 40
1.0
 40
1.0
 40
1.0
 40
2.0
 40
2.0
 40
2.0
 40
3.0
 40
3.0
 40
3.0
 40
4.0
 40
4.0
 40
4.0
 40
5.0
 40
5.0
 40
5.0
 40
6.0
 40
6.0
 40
6.0
 40
6.0
 10
54.1426038953993
 20
-28.0486324734158
 30
0.0
 10
54.40787624782985
 20
-28.18092414008246
 30
0.0
 10
54.452490234375
 20
-28.31287129720052
 30
0.0
 10
54.83455132378472
 20
-28.28341573079427
 30
0.0
 10
55.21695692274305
 20
-28.25396016438802
 30
0.0
 10
55.26105414496527
 20
-28.21037970648871
 30
0.0
 10
55.54062364366319
 20
-28.29874640570746
 30
0.0
 10
55.8200208875868
 20
-28.38694085015191
 30
0.0
 10
56.04171278211805
 20
-28.41622416178385
 30
0.0
 10
56.27632378472222
 20
-28.38694085015191
 30
0.0
 10
56.51110704210069
 20
-28.35765753851996
 30
0.0
 10
56.7162624782986
 20
-28.4022715250651
 30
0.0
 10
56.93778211805555
 20
-28.44585198296441
 30
0.0
 10
57.15930175781249
 20
-28.48994920518663
 30
0.0
 10
58.26242133246527
 20
-28.69493238661024
 30
0.0
 10
58.54199083116319
 20
-28.68063524034288
 30
0.0
 10
58.8213880750868
 20
-28.66633809407552
 30
0.0
 10
59.4540798611111
 20
-28.69579366048177
 30
0.0
 10
59.67473822699652
 20
-28.72524922688802
 30
0.0
  0
SPLINE
  5
1A9
330
184
100
AcDbEntity
  8
LAYER_1
 62
     7
100
AcDbSpline
210
0.0
220
0.0
230
1.0
 70
     8
 71
     3
 72
    20
 73
    16
 74
     0
 42
0.0000000001
 43
0.0000000001
 40
0.0
 40
0.0
 40
0.0
 40
0.0
 40
1.0
 40
1.0
 40
1.0
 40
2.0
 40
2.0
 40
2.0
 40
3.0
 40
3.0
 40
3.0
 40
4.0
 40
4.0
 40
4.0
 40
5.0
 40
5.0
 40
5.0
 40
5.0
 10
54.12555067274305
 20
-29.43976203070746
 30
0.0
 10
54.41924506293402
 20
-29.39600931803385
 30
0.0
 10
55.34976535373264
 20
-29.59306877983941
 30
0.0
 10
55.79073757595486
 20
-29.59306877983941
 30
0.0
 10
56.23153754340277
 20
-29.59306877983941
 30
0.0
 10
56.73262668185763
 20
-29.69659389919705
 30
0.0
 10
56.98239610460069
 20
-29.76980217827691
 30
0.0
 10
57.23233778211805
 20
-29.84283820258246
 30
0.0
 10
57.48141818576389
 20
-29.91725226508246
 30
0.0
 10
57.61422661675347
 20
-29.85834113226996
 30
0.0
 10
57.74755181206596
 20
-29.79908548990885
 30
0.0
 10
58.07156304253472
 20
-29.85696309407552
 30
0.0
 10
58.23313802083333
 20
-29.87229376898871
 30
0.0
 10
58.39454074435763
 20
-29.88779669867621
 30
0.0
 10
59.14471028645833
 20
-30.12326897515191
 30
0.0
 10
59.65957980685764
 20
-30.00544670952691
 30
0.0
  0
SPLINE
  5
1A8
330
184
100
AcDbEntity
  8
LAYER_1
 62
     7
100
AcDbSpline
210
0.0
220
0.0
230
1.0
 70
     8
 71
     3
 72
    11
 73
     7
 74
     0
 42
0.0000000001
 43
0.0000000001
 40
0.0
 40
0.0
 40
0.0
 40
0.0
 40
1.0
 40
1.0
 40
1.0
 40
2.0
 40
2.0
 40
2.0
 40
2.0
 10
59.77722981770833
 20
-29.59306877983941
 30
0.0
 10
59.89539659288194
 20
-29.53415764702691
 30
0.0
 10
59.99806043836805
 20
-29.38670756022135
 30
0.0
 10
60.2631605360243
 20
-29.3572519938151
 30
0.0
 10
60.52843288845486
 20
-29.32779642740885
 30
0.0
 10
61.4257080078125
 20
-28.76331753200955
 30
0.0
 10
61.60123562282985
 20
-28.49890645345052
 30
0.0
  0
SPLINE
  5
1A7
330
184
100
AcDbEntity
  8
LAYER_1
 62
     7
100
AcDbSpline
210
0.0
220
0.0
230
1.0
 70
     8
 71
     3
 72
    14
 73
    10
 74
     0
 42
0.0000000001
 43
0.0000000001
 40
0.0
 40
0.0
 40
0.0
 40
0.0
 40
1.0
 40
1.0
 40
1.0
 40
2.0
 40
2.0
 40
2.0
 40
3.0
 40
3.0
 40
3.0
 40
3.0
 10
54.12830674913194
 20
-30.77043016221788
 30
0.0
 10
54.46678738064236
 20
-30.72581617567274
 30
0.0
 10
55.0541761610243
 20
-30.6376217312283
 30
0.0
 10
55.5254652235243
 20
-30.6965328640408
 30
0.0
 10
55.9969265407986
 20
-30.7554439968533
 30
0.0
 10
56.98239610460069
 20
-30.81401062011718
 30
0.0
 10
57.2028822157118
 20
-30.81401062011718
 30
0.0
 10
57.42354058159722
 20
-30.81401062011718
 30
0.0
 10
59.27665744357638
 20
-30.75441046820746
 30
0.0
 10
59.64424913194444
 20
-30.87188822428385
 30
0.0
  0
LINE
  5
1A6
330
184
100
AcDbEntity
  8
LAYER_1
 62
     7
100
AcDbLine
 10
59.73795572916666
 20
-30.60075920952691
 30
0.0
 11
61.73335503472222
 21
-29.46715053982205
 31
0.0
  0
LINE
  5
1A5
330
184
100
AcDbEntity
  8
LAYER_1
 62
     7
100
AcDbLine
 10
59.63598090277777
 20
-32.99458380805121
 30
0.0
 11
54.13381890190972
 21
-32.21943732367621
 31
0.0
  0
SPLINE
  5
1A4
330
184
100
AcDbEntity
  8
LAYER_1
 62
     7
100
AcDbSpline
210
0.0
220
0.0
230
1.0
 70
     8
 71
     3
 72
    20
 73
    16
 74
     0
 42
0.0000000001
 43
0.0000000001
 40
0.0
 40
0.0
 40
0.0
 40
0.0
 40
1.0
 40
1.0
 40
1.0
 40
2.0
 40
2.0
 40
2.0
 40
3.0
 40
3.0
 40
3.0
 40
4.0
 40
4.0
 40
4.0
 40
5.0
 40
5.0
 40
5.0
 40
5.0
 10
48.96341959635416
 20
-31.81102125379774
 30
0.0
 10
49.26314290364583
 20
-31.51026441786024
 30
0.0
 10
49.56269395616319
 20
-31.22466600206163
 30
0.0
 10
49.73736029730902
 20
-31.06705288357205
 30
0.0
 10
49.91237114800347
 20
-30.90978427463107
 30
0.0
 10
50.08600396050347
 20
-29.72208760579427
 30
0.0
 10
50.33904622395833
 20
-29.56378546820746
 30
0.0
 10
50.59208848741319
 20
-29.40496656629774
 30
0.0
 10
50.76572129991319
 20
-29.21496955023871
 30
0.0
 10
50.87648111979166
 20
-29.0098141140408
 30
0.0
 10
50.98724093967014
 20
-28.80465867784288
 30
0.0
 10
51.32365451388888
 20
-28.33302510579427
 30
0.0
 10
51.4452663845486
 20
-28.2193369547526
 30
0.0
 10
51.71450059678819
 20
-27.96629469129774
 30
0.0
 10
52.25193549262152
 20
-27.50826924641927
 30
0.0
 10
52.39456244574652
 20
-27.42903205023871
 30
0.0
  0
SPLINE
  5
1A3
330
184
100
AcDbEntity
  8
LAYER_1
 62
     7
100
AcDbSpline
210
0.0
220
0.0
230
1.0
 70
     8
 71
     3
 72
    20
 73
    16
 74
     0
 42
0.0000000001
 43
0.0000000001
 40
0.0
 40
0.0
 40
0.0
 40
0.0
 40
1.0
 40
1.0
 40
1.0
 40
2.0
 40
2.0
 40
2.0
 40
3.0
 40
3.0
 40
3.0
 40
4.0
 40
4.0
 40
4.0
 40
5.0
 40
5.0
 40
5.0
 40
5.0
 10
49.04265679253471
 20
-33.12256910536024
 30
0.0
 10
49.23179253472222
 20
-32.86952684190538
 30
0.0
 10
49.5322048611111
 20
-32.55343933105468
 30
0.0
 10
49.81676974826389
 20
-32.33209194607205
 30
0.0
 10
50.10116238064236
 20
-32.1105723063151
 30
0.0
 10
50.63859727647569
 20
-30.82934129503038
 30
0.0
 10
50.93935411241319
 20
-30.48104214138455
 30
0.0
 10
51.240283203125
 20
-30.13257073296441
 30
0.0
 10
51.50831163194444
 20
-29.9120846218533
 30
0.0
 10
51.69830864800347
 20
-29.50039571126302
 30
0.0
 10
51.8884779188368
 20
-29.08905131022135
 30
0.0
 10
52.03162163628472
 20
-28.78760545518663
 30
0.0
 10
52.29982231987847
 20
-28.56677483452691
 30
0.0
 10
52.56819525824653
 20
-28.3462887234158
 30
0.0
 10
53.65908474392361
 20
-27.43006557888455
 30
0.0
 10
54.08575981987847
 20
-26.82855190700955
 30
0.0
  0
SPLINE
  5
1A2
330
184
100
AcDbEntity
  8
LAYER_1
 62
     7
100
AcDbSpline
210
0.0
220
0.0
230
1.0
 70
     8
 71
     3
 72
    32
 73
    28
 74
     0
 42
0.0000000001
 43
0.0000000001
 40
0.0
 40
0.0
 40
0.0
 40
0.0
 40
1.0
 40
1.0
 40
1.0
 40
2.0
 40
2.0
 40
2.0
 40
3.0
 40
3.0
 40
3.0
 40
4.0
 40
4.0
 40
4.0
 40
5.0
 40
5.0
 40
5.0
 40
6.0
 40
6.0
 40
6.0
 40
7.0
 40
7.0
 40
7.0
 40
8.0
 40
8.0
 40
8.0
 40
9.0
 40
9.0
 40
9.0
 40
9.0
 10
49.02629258897569
 20
-34.68802049424913
 30
0.0
 10
49.24781222873263
 20
-34.53057963053385
 30
0.0
 10
49.31068522135416
 20
-34.56227450900607
 30
0.0
 10
49.56372748480902
 20
-34.2932125515408
 30
0.0
 10
49.81676974826389
 20
-34.0238060845269
 30
0.0
 10
50.32371554904513
 20
-32.67746276855468
 30
0.0
 10
50.38658854166666
 20
-32.47247958713108
 30
0.0
 10
50.4498060438368
 20
-32.26697964138455
 30
0.0
 10
50.5767578125
 20
-32.18757019042968
 30
0.0
 10
50.70284830729166
 20
-32.09334682888455
 30
0.0
 10
50.82876654730902
 20
-31.9989512125651
 30
0.0
 10
50.98724093967014
 20
-31.80998772515191
 30
0.0
 10
51.05028618706596
 20
-31.63514912923177
 30
0.0
 10
51.11315917968749
 20
-31.46048278808593
 30
0.0
 10
51.11419270833333
 20
-31.2236324734158
 30
0.0
 10
51.240283203125
 20
-31.0499996609158
 30
0.0
 10
51.36620144314236
 20
-30.87602233886718
 30
0.0
 10
51.36723497178819
 20
-30.71651441786024
 30
0.0
 10
51.60408528645833
 20
-30.67000562879774
 30
0.0
 10
51.84059109157985
 20
-30.62332458496093
 30
0.0
 10
52.17287055121528
 20
-30.3866465250651
 30
0.0
 10
52.34650336371527
 20
-30.22799987792968
 30
0.0
 10
52.52013617621527
 20
-30.06935323079427
 30
0.0
 10
52.72546386718749
 20
-29.9120846218533
 30
0.0
 10
52.96334771050347
 20
-29.67454528808593
 30
0.0
 10
53.20105929904513
 20
-29.43666144476996
 30
0.0
 10
54.02288682725694
 20
-28.56780836317274
 30
0.0
 10
54.08575981987847
 20
-28.52026604546441
 30
0.0
  0
SPLINE
  5
1A1
330
184
100
AcDbEntity
  8
LAYER_1
 62
     7
100
AcDbSpline
210
0.0
220
0.0
230
1.0
 70
     8
 71
     3
 72
    26
 73
    22
 74
     0
 42
0.0000000001
 43
0.0000000001
 40
0.0
 40
0.0
 40
0.0
 40
0.0
 40
1.0
 40
1.0
 40
1.0
 40
2.0
 40
2.0
 40
2.0
 40
3.0
 40
3.0
 40
3.0
 40
4.0
 40
4.0
 40
4.0
 40
5.0
 40
5.0
 40
5.0
 40
6.0
 40
6.0
 40
6.0
 40
7.0
 40
7.0
 40
7.0
 40
7.0
 10
48.94688313802083
 20
-36.58609585232205
 30
0.0
 10
49.18373345269097
 20
-36.31686164008247
 30
0.0
 10
49.4856960720486
 20
-36.03126322428385
 30
0.0
 10
49.77026095920139
 20
-35.76323479546441
 30
0.0
 10
50.05465359157986
 20
-35.49486185709635
 30
0.0
 10
50.67046440972221
 20
-34.19657762315538
 30
0.0
 10
50.86011691623263
 20
-33.86429816351996
 30
0.0
 10
51.05028618706596
 20
-33.53201870388455
 30
0.0
 10
51.49418674045138
 20
-33.10517137315538
 30
0.0
 10
51.68297797309027
 20
-32.96306118435329
 30
0.0
 10
51.87211371527777
 20
-32.82077874077691
 30
0.0
 10
52.20439317491319
 20
-32.58427293565538
 30
0.0
 10
52.31515299479166
 20
-32.31469421386719
 30
0.0
 10
52.42591281467013
 20
-32.0454600016276
 30
0.0
 10
52.45743543836805
 20
-31.79138420952691
 30
0.0
 10
52.64708794487846
 20
-31.46048278808593
 30
0.0
 10
52.8372572157118
 20
-31.12906460232205
 30
0.0
 10
52.86877983940972
 20
-30.97162373860677
 30
0.0
 10
53.0108900282118
 20
-30.87602233886718
 30
0.0
 10
53.15317247178819
 20
-30.78076544867621
 30
0.0
 10
53.70714382595486
 20
-30.40163269042969
 30
0.0
 10
54.07042914496527
 20
-29.87952846950955
 30
0.0
  0
SPLINE
  5
1A0
330
184
100
AcDbEntity
  8
LAYER_1
 62
     7
100
AcDbSpline
210
0.0
220
0.0
230
1.0
 70
     8
 71
     3
 72
    17
 73
    13
 74
     0
 42
0.0000000001
 43
0.0000000001
 40
0.0
 40
0.0
 40
0.0
 40
0.0
 40
1.0
 40
1.0
 40
1.0
 40
2.0
 40
2.0
 40
2.0
 40
3.0
 40
3.0
 40
3.0
 40
4.0
 40
4.0
 40
4.0
 40
4.0
 10
50.97087673611111
 20
-35.35051235622829
 30
0.0
 10
51.0980007595486
 20
-35.11297302246094
 30
0.0
 10
51.44612765842013
 20
-34.7645016140408
 30
0.0
 10
51.68297797309027
 20
-34.49612867567274
 30
0.0
 10
51.92000054253472
 20
-34.2281002468533
 30
0.0
 10
52.28380262586805
 20
-33.65810919867622
 30
0.0
 10
52.47345513237847
 20
-33.45260925292968
 30
0.0
 10
52.6636244032118
 20
-33.24762607150608
 30
0.0
 10
53.01192355685763
 20
-32.66333787706163
 30
0.0
 10
53.20105929904513
 20
-32.50486348470052
 30
0.0
 10
53.39002278645833
 20
-32.34638909233941
 30
0.0
 10
53.9131605360243
 20
-31.93607821994358
 30
0.0
 10
54.07042914496527
 20
-31.77725931803385
 30
0.0
  0
SPLINE
  5
19F
330
184
100
AcDbEntity
  8
LAYER_1
 62
     7
100
AcDbSpline
210
0.0
220
0.0
230
1.0
 70
     8
 71
     3
 72
     8
 73
     4
 74
     0
 42
0.0000000001
 43
0.0000000001
 40
0.0
 40
0.0
 40
0.0
 40
0.0
 40
1.0
 40
1.0
 40
1.0
 40
1.0
 10
54.07042914496527
 20
-33.08880716959635
 30
0.0
 10
53.96018608940972
 20
-33.37337205674913
 30
0.0
 10
53.18503960503472
 20
-34.17900763617621
 30
0.0
 10
52.93199734157986
 20
-34.35384623209635
 30
0.0
  0
SPLINE
  5
19E
330
184
100
AcDbEntity
  8
LAYER_1
 62
     7
100
AcDbSpline
210
0.0
220
0.0
230
1.0
 70
     8
 71
     3
 72
    14
 73
    10
 74
     0
 42
0.0000000001
 43
0.0000000001
 40
0.0
 40
0.0
 40
0.0
 40
0.0
 40
1.0
 40
1.0
 40
1.0
 40
2.0
 40
2.0
 40
2.0
 40
3.0
 40
3.0
 40
3.0
 40
3.0
 10
50.57572428385416
 20
-35.6514414469401
 30
0.0
 10
50.93935411241319
 20
-35.63490498860677
 30
0.0
 10
51.68194444444444
 20
-35.76099548339843
 30
0.0
 10
51.95135091145833
 20
-35.6981224907769
 30
0.0
 10
52.2204128689236
 20
-35.63490498860677
 30
0.0
 10
52.790576171875
 20
-35.52448967827691
 30
0.0
 10
53.05894911024305
 20
-35.55584004720052
 30
0.0
 10
53.3271497938368
 20
-35.58736267089844
 30
0.0
 10
53.89679633246527
 20
-35.53861456976996
 30
0.0
 10
54.07042914496527
 20
-35.49158901638455
 30
0.0
  0
SPLINE
  5
19D
330
184
100
AcDbEntity
  8
LAYER_1
 62
     7
100
AcDbSpline
210
0.0
220
0.0
230
1.0
 70
     8
 71
     3
 72
    17
 73
    13
 74
     0
 42
0.0000000001
 43
0.0000000001
 40
0.0
 40
0.0
 40
0.0
 40
0.0
 40
1.0
 40
1.0
 40
1.0
 40
2.0
 40
2.0
 40
2.0
 40
3.0
 40
3.0
 40
3.0
 40
4.0
 40
4.0
 40
4.0
 40
4.0
 10
48.97875027126736
 20
-37.58155619303385
 30
0.0
 10
49.31068522135416
 20
-37.6296152750651
 30
0.0
 10
49.7862806532118
 20
-36.91596374511718
 30
0.0
 10
50.2761732313368
 20
-36.80520392523872
 30
0.0
 10
50.76572129991319
 20
-36.69478861490885
 30
0.0
 10
51.31917588975694
 20
-36.58402879503038
 30
0.0
 10
51.60408528645833
 20
-36.53614196777343
 30
0.0
 10
51.8884779188368
 20
-36.4885996500651
 30
0.0
 10
52.64708794487846
 20
-36.39385952419705
 30
0.0
 10
52.97953965928819
 20
-36.39385952419705
 30
0.0
 10
53.31181911892361
 20
-36.39385952419705
 30
0.0
 10
53.78517523871528
 20
-36.36354268391927
 30
0.0
 10
54.06974012586805
 20
-36.29963616265191
 30
0.0
  0
SPLINE
  5
19C
330
184
100
AcDbEntity
  8
LAYER_1
 62
     7
100
AcDbSpline
210
0.0
220
0.0
230
1.0
 70
     8
 71
     3
 72
    17
 73
    13
 74
     0
 42
0.0000000001
 43
0.0000000001
 40
0.0
 40
0.0
 40
0.0
 40
0.0
 40
1.0
 40
1.0
 40
1.0
 40
2.0
 40
2.0
 40
2.0
 40
3.0
 40
3.0
 40
3.0
 40
4.0
 40
4.0
 40
4.0
 40
4.0
 10
49.02629258897569
 20
-38.76735805935329
 30
0.0
 10
49.24781222873263
 20
-38.67296244303385
 30
0.0
 10
49.48466254340277
 20
-38.51517706976996
 30
0.0
 10
49.8481201171875
 20
-38.5783945719401
 30
0.0
 10
50.21192220052083
 20
-38.64126756456163
 30
0.0
 10
50.71904025607638
 20
-37.75415547688802
 30
0.0
 10
51.06665039062499
 20
-37.67509053548177
 30
0.0
 10
51.413916015625
 20
-37.59568108452691
 30
0.0
 10
52.39301215277777
 20
-37.5178219265408
 30
0.0
 10
52.63106825086805
 20
-37.45339864095052
 30
0.0
 10
52.86877983940972
 20
-37.38983662923177
 30
0.0
 10
53.45513509114583
 20
-37.2484154595269
 30
0.0
 10
54.03907877604166
 20
-37.32765265570746
 30
0.0
  0
SPLINE
  5
19B
330
184
100
AcDbEntity
  8
LAYER_1
 62
     7
100
AcDbSpline
210
0.0
220
0.0
230
1.0
 70
     8
 71
     3
 72
    17
 73
    13
 74
     0
 42
0.0000000001
 43
0.0000000001
 40
0.0
 40
0.0
 40
0.0
 40
0.0
 40
1.0
 40
1.0
 40
1.0
 40
2.0
 40
2.0
 40
2.0
 40
3.0
 40
3.0
 40
3.0
 40
4.0
 40
4.0
 40
4.0
 40
4.0
 10
48.97875027126736
 20
-39.74869350857205
 30
0.0
 10
49.24781222873263
 20
-39.63793368869357
 30
0.0
 10
49.65932888454861
 20
-39.46343960232205
 30
0.0
 10
49.94389377170138
 20
-39.46343960232205
 30
0.0
 10
50.22828640407986
 20
-39.46343960232205
 30
0.0
 10
50.82876654730902
 20
-38.45040927463107
 30
0.0
 10
51.08146430121527
 20
-38.35463562011719
 30
0.0
 10
51.33467881944444
 20
-38.25920647515191
 30
0.0
 10
51.98270128038194
 20
-38.05318976508247
 30
0.0
 10
52.28380262586805
 20
-38.00616421169705
 30
0.0
 10
52.58421495225694
 20
-37.95948316786024
 30
0.0
 10
53.73849419487847
 20
-37.72177157931857
 30
0.0
 10
54.07042914496527
 20
-37.72177157931857
 30
0.0
  0
SPLINE
  5
19A
330
184
100
AcDbEntity
  8
LAYER_1
 62
     7
100
AcDbSpline
210
0.0
220
0.0
230
1.0
 70
     8
 71
     3
 72
    17
 73
    13
 74
     0
 42
0.0000000001
 43
0.0000000001
 40
0.0
 40
0.0
 40
0.0
 40
0.0
 40
1.0
 40
1.0
 40
1.0
 40
2.0
 40
2.0
 40
2.0
 40
3.0
 40
3.0
 40
3.0
 40
4.0
 40
4.0
 40
4.0
 40
4.0
 10
49.0111341688368
 20
-40.9658457438151
 30
0.0
 10
49.26417643229166
 20
-40.88643629286024
 30
0.0
 10
49.61040852864583
 20
-40.76069030761718
 30
0.0
 10
49.95887993706597
 20
-40.74415384928385
 30
0.0
 10
50.30769585503472
 20
-40.72813415527343
 30
0.0
 10
51.16087375217013
 20
-39.6978783501519
 30
0.0
 10
51.49332546657985
 20
-39.63500535753038
 30
0.0
 10
51.82526041666666
 20
-39.57178785536024
 30
0.0
 10
52.790576171875
 20
-39.44586961534288
 30
0.0
 10
53.16919216579861
 20
-39.42950541178385
 30
0.0
 10
53.54832492404513
 20
-39.41348571777343
 30
0.0
 10
53.88077663845485
 20
-39.27120327419704
 30
0.0
 10
54.07042914496527
 20
-39.28739522298177
 30
0.0
  0
SPLINE
  5
199
330
184
100
AcDbEntity
  8
LAYER_1
 62
     7
100
AcDbSpline
210
0.0
220
0.0
230
1.0
 70
     8
 71
     3
 72
    14
 73
    10
 74
     0
 42
0.0000000001
 43
0.0000000001
 40
0.0
 40
0.0
 40
0.0
 40
0.0
 40
1.0
 40
1.0
 40
1.0
 40
2.0
 40
2.0
 40
2.0
 40
3.0
 40
3.0
 40
3.0
 40
3.0
 10
48.93172471788194
 20
-42.37299499511718
 30
0.0
 10
49.20095893012152
 20
-42.27859937879774
 30
0.0
 10
49.77026095920139
 20
-42.08739657931857
 30
0.0
 10
50.08600396050347
 20
-42.1035885281033
 30
0.0
 10
50.40209147135416
 20
-42.12012498643663
 30
0.0
 10
51.01773003472222
 20
-41.01045973036024
 30
0.0
 10
51.47696126302083
 20
-40.91606411404079
 30
0.0
 10
51.2867919921875
 20
-40.95464918348524
 30
0.0
 10
52.49894883897569
 20
-40.63149922688802
 30
0.0
 10
53.34230821397569
 20
-40.63149922688802
 30
0.0
  0
SPLINE
  5
198
330
184
100
AcDbEntity
  8
LAYER_1
 62
     7
100
AcDbSpline
210
0.0
220
0.0
230
1.0
 70
     8
 71
     3
 72
    11
 73
     7
 74
     0
 42
0.0000000001
 43
0.0000000001
 40
0.0
 40
0.0
 40
0.0
 40
0.0
 40
1.0
 40
1.0
 40
1.0
 40
2.0
 40
2.0
 40
2.0
 40
2.0
 10
49.04265679253471
 20
-43.30575459798177
 30
0.0
 10
49.26417643229166
 20
-43.30575459798177
 30
0.0
 10
49.73873833550347
 20
-43.3067881266276
 30
0.0
 10
49.94389377170138
 20
-43.24270935058593
 30
0.0
 10
50.1490492078993
 20
-43.17880282931857
 30
0.0
 10
50.46599799262152
 20
-42.07017110188802
 30
0.0
 10
50.79724392361111
 20
-42.07017110188802
 30
0.0
  0
SPLINE
  5
197
330
184
100
AcDbEntity
  8
LAYER_1
 62
     7
100
AcDbSpline
210
0.0
220
0.0
230
1.0
 70
     8
 71
     3
 72
    17
 73
    13
 74
     0
 42
0.0000000001
 43
0.0000000001
 40
0.0
 40
0.0
 40
0.0
 40
0.0
 40
1.0
 40
1.0
 40
1.0
 40
2.0
 40
2.0
 40
2.0
 40
3.0
 40
3.0
 40
3.0
 40
4.0
 40
4.0
 40
4.0
 40
4.0
 10
54.12934027777777
 20
-31.9493418375651
 30
0.0
 10
54.61440972222222
 20
-31.92574293348524
 30
0.0
 10
55.00560031467013
 20
-31.97242397732205
 30
0.0
 10
55.28172471788194
 20
-31.92574293348524
 30
0.0
 10
55.55819363064236
 20
-31.87906188964843
 30
0.0
 10
56.24996880425347
 20
-31.76416795518663
 30
0.0
 10
56.78016899956597
 20
-31.76416795518663
 30
0.0
 10
57.31088595920139
 20
-31.76416795518663
 30
0.0
 10
58.30135091145833
 20
-31.80998772515191
 30
0.0
 10
58.67014838324652
 20
-31.83306986490885
 30
0.0
 10
59.03894585503472
 20
-31.85666876898871
 30
0.0
 10
59.33832465277777
 20
-31.83410339355469
 30
0.0
 10
59.63804796006944
 20
-31.90317755805121
 30
0.0
  0
SPLINE
  5
196
330
184
100
AcDbEntity
  8
LAYER_1
 62
     7
100
AcDbSpline
210
0.0
220
0.0
230
1.0
 70
     8
 71
     3
 72
    17
 73
    13
 74
     0
 42
0.0000000001
 43
0.0000000001
 40
0.0
 40
0.0
 40
0.0
 40
0.0
 40
1.0
 40
1.0
 40
1.0
 40
2.0
 40
2.0
 40
2.0
 40
3.0
 40
3.0
 40
3.0
 40
4.0
 40
4.0
 40
4.0
 40
4.0
 10
56.68801269531249
 20
-32.59323018391927
 30
0.0
 10
57.0106458875868
 20
-32.68573099772135
 30
0.0
 10
57.49347601996527
 20
-32.80148620605468
 30
0.0
 10
57.70173204210069
 20
-32.89381476508246
 30
0.0
 10
57.9099880642361
 20
-32.98631557888454
 30
0.0
 10
58.18645697699652
 20
-33.10103725857205
 30
0.0
 10
58.46258138020833
 20
-33.19371032714844
 30
0.0
 10
58.73922254774305
 20
-33.28603888617622
 30
0.0
 10
58.78590359157985
 20
-33.51548224555121
 30
0.0
 10
59.01638047960069
 20
-33.51548224555121
 30
0.0
 10
59.24720187717013
 20
-33.51548224555121
 30
0.0
 10
59.50024414062499
 20
-33.63175421820746
 30
0.0
 10
59.59240044487846
 20
-33.79315694173177
 30
0.0
  0
SPLINE
  5
195
330
184
100
AcDbEntity
  8
LAYER_1
 62
     7
100
AcDbSpline
210
0.0
220
0.0
230
1.0
 70
     8
 71
     3
 72
    17
 73
    13
 74
     0
 42
0.0000000001
 43
0.0000000001
 40
0.0
 40
0.0
 40
0.0
 40
0.0
 40
1.0
 40
1.0
 40
1.0
 40
2.0
 40
2.0
 40
2.0
 40
3.0
 40
3.0
 40
3.0
 40
4.0
 40
4.0
 40
4.0
 40
4.0
 10
54.1519056532118
 20
-32.8237070719401
 30
0.0
 10
54.47505560980903
 20
-32.75480516221788
 30
0.0
 10
54.82042643229166
 20
-32.80045267740885
 30
0.0
 10
55.12032199435763
 20
-32.91620788574218
 30
0.0
 10
55.419873046875
 20
-33.03196309407552
 30
0.0
 10
55.92802463107638
 20
-33.30860426161024
 30
0.0
 10
56.18089463975694
 20
-33.33168640136719
 30
0.0
 10
56.4339369032118
 20
-33.35511305067274
 30
0.0
 10
57.12485080295139
 20
-33.58472866482205
 30
0.0
 10
57.54032931857638
 20
-33.67740173339843
 30
0.0
 10
57.95580783420139
 20
-33.76955803765191
 30
0.0
 10
58.67014838324652
 20
-33.95473192003038
 30
0.0
 10
59.63804796006944
 20
-34.57657165527343
 30
0.0
  0
SPLINE
  5
194
330
184
100
AcDbEntity
  8
LAYER_1
 62
     7
100
AcDbSpline
210
0.0
220
0.0
230
1.0
 70
     8
 71
     3
 72
    14
 73
    10
 74
     0
 42
0.0000000001
 43
0.0000000001
 40
0.0
 40
0.0
 40
0.0
 40
0.0
 40
1.0
 40
1.0
 40
1.0
 40
2.0
 40
2.0
 40
2.0
 40
3.0
 40
3.0
 40
3.0
 40
3.0
 10
54.0836927625868
 20
-33.56250779893663
 30
0.0
 10
54.42940809461805
 20
-33.47086825900608
 30
0.0
 10
54.91309950086805
 20
-33.49240010579427
 30
0.0
 10
55.14357638888888
 20
-33.6081553141276
 30
0.0
 10
55.37439778645833
 20
-33.72391052246093
 30
0.0
 10
56.31094699435764
 20
-34.28184373643663
 30
0.0
 10
56.78016899956597
 20
-34.34557800292969
 30
0.0
 10
57.63283013237847
 20
-34.46133321126302
 30
0.0
 10
58.11634928385416
 20
-34.85269605848524
 30
0.0
 10
59.56931830512152
 20
-35.08317294650608
 30
0.0
  0
SPLINE
  5
193
330
184
100
AcDbEntity
  8
LAYER_1
 62
     7
100
AcDbSpline
210
0.0
220
0.0
230
1.0
 70
     8
 71
     3
 72
    17
 73
    13
 74
     0
 42
0.0000000001
 43
0.0000000001
 40
0.0
 40
0.0
 40
0.0
 40
0.0
 40
1.0
 40
1.0
 40
1.0
 40
2.0
 40
2.0
 40
2.0
 40
3.0
 40
3.0
 40
3.0
 40
4.0
 40
4.0
 40
4.0
 40
4.0
 10
54.1519056532118
 20
-34.57657165527343
 30
0.0
 10
54.49813774956597
 20
-34.76140102810329
 30
0.0
 10
54.58977728949652
 20
-35.08317294650608
 30
0.0
 10
55.12032199435763
 20
-35.10677185058594
 30
0.0
 10
55.65052218967013
 20
-35.13002624511719
 30
0.0
 10
56.06479492187499
 20
-35.1768795437283
 30
0.0
 10
56.66441379123263
 20
-35.36084764268663
 30
0.0
 10
57.26368815104166
 20
-35.54447123209635
 30
0.0
 10
57.65505099826388
 20
-35.72947285970052
 30
0.0
 10
58.13994818793402
 20
-36.00594177246094
 30
0.0
 10
58.62450086805555
 20
-36.28206617567274
 30
0.0
 10
59.36192355685763
 20
-36.55870734320746
 30
0.0
 10
59.63804796006944
 20
-36.62760925292969
 30
0.0
  0
SPLINE
  5
192
330
184
100
AcDbEntity
  8
LAYER_1
 62
     7
100
AcDbSpline
210
0.0
220
0.0
230
1.0
 70
     8
 71
     3
 72
    17
 73
    13
 74
     0
 42
0.0000000001
 43
0.0000000001
 40
0.0
 40
0.0
 40
0.0
 40
0.0
 40
1.0
 40
1.0
 40
1.0
 40
2.0
 40
2.0
 40
2.0
 40
3.0
 40
3.0
 40
3.0
 40
4.0
 40
4.0
 40
4.0
 40
4.0
 10
54.08283148871527
 20
-35.86762118869358
 30
0.0
 10
54.38238254123264
 20
-35.86762118869358
 30
0.0
 10
54.52173665364583
 20
-35.72843933105469
 30
0.0
 10
55.00560031467013
 20
-35.98251512315538
 30
0.0
 10
55.48911946614583
 20
-36.23641866048177
 30
0.0
 10
55.74319525824652
 20
-36.37473924424913
 30
0.0
 10
56.08839382595485
 20
-36.39816589355468
 30
0.0
 10
56.4339369032118
 20
-36.42142028808593
 30
0.0
 10
57.24060601128472
 20
-36.53614196777343
 30
0.0
 10
57.56375596788194
 20
-36.67446255154079
 30
0.0
 10
57.88690592447916
 20
-36.81261088053385
 30
0.0
 10
59.31524251302083
 20
-37.2759762234158
 30
0.0
 10
59.63804796006944
 20
-37.52867397732204
 30
0.0
  0
SPLINE
  5
191
330
184
100
AcDbEntity
  8
LAYER_1
 62
     7
100
AcDbSpline
210
0.0
220
0.0
230
1.0
 70
     8
 71
     3
 72
    17
 73
    13
 74
     0
 42
0.0000000001
 43
0.0000000001
 40
0.0
 40
0.0
 40
0.0
 40
0.0
 40
1.0
 40
1.0
 40
1.0
 40
2.0
 40
2.0
 40
2.0
 40
3.0
 40
3.0
 40
3.0
 40
4.0
 40
4.0
 40
4.0
 40
4.0
 10
54.1083251953125
 20
-36.8573971218533
 30
0.0
 10
54.59184434678819
 20
-37.08787400987413
 30
0.0
 10
55.02782118055555
 20
-37.36623772515191
 30
0.0
 10
55.46552056206597
 20
-37.36623772515191
 30
0.0
 10
55.90356445312499
 20
-37.36623772515191
 30
0.0
 10
56.78016899956597
 20
-37.45787726508246
 30
0.0
 10
57.05681016710069
 20
-37.57363247341579
 30
0.0
 10
57.3329345703125
 20
-37.68938768174913
 30
0.0
 10
57.81748725043402
 20
-37.87232225206163
 30
0.0
 10
58.18645697699652
 20
-38.08057827419705
 30
0.0
 10
58.55525444878472
 20
-38.28848978678385
 30
0.0
 10
59.06220024956597
 20
-38.49691806369357
 30
0.0
 10
59.63804796006944
 20
-38.38116285536024
 30
0.0
  0
SPLINE
  5
190
330
184
100
AcDbEntity
  8
LAYER_1
 62
     7
100
AcDbSpline
210
0.0
220
0.0
230
1.0
 70
     8
 71
     3
 72
    17
 73
    13
 74
     0
 42
0.0000000001
 43
0.0000000001
 40
0.0
 40
0.0
 40
0.0
 40
0.0
 40
1.0
 40
1.0
 40
1.0
 40
2.0
 40
2.0
 40
2.0
 40
3.0
 40
3.0
 40
3.0
 40
4.0
 40
4.0
 40
4.0
 40
4.0
 10
54.11435411241319
 20
-38.28280537923177
 30
0.0
 10
54.35309922960069
 20
-38.32242397732205
 30
0.0
 10
54.464892578125
 20
-38.17824673122829
 30
0.0
 10
54.71190592447916
 20
-38.35394660101996
 30
0.0
 10
54.95857476128472
 20
-38.52930196126302
 30
0.0
 10
54.98992513020833
 20
-38.52826843261718
 30
0.0
 10
55.20576036241319
 20
-38.55290086534288
 30
0.0
 10
55.42090657552083
 20
-38.57736104329427
 30
0.0
 10
55.97057156032986
 20
-38.71947123209635
 30
0.0
 10
56.15350613064236
 20
-38.78337775336371
 30
0.0
 10
56.33644070095485
 20
-38.84745652940538
 30
0.0
 10
56.47958441840277
 20
-38.94323018391927
 30
0.0
 10
57.29124891493055
 20
-39.11875779893663
 30
0.0
  0
SPLINE
  5
18F
330
184
100
AcDbEntity
  8
LAYER_1
 62
     7
100
AcDbSpline
210
0.0
220
0.0
230
1.0
 70
     8
 71
     3
 72
    11
 73
     7
 74
     0
 42
0.0000000001
 43
0.0000000001
 40
0.0
 40
0.0
 40
0.0
 40
0.0
 40
1.0
 40
1.0
 40
1.0
 40
2.0
 40
2.0
 40
2.0
 40
2.0
 10
59.70040418836805
 20
-31.59535827636719
 30
0.0
 10
60.06989067925347
 20
-31.51112569173177
 30
0.0
 10
60.37994927300347
 20
-31.28357713487413
 30
0.0
 10
60.64315456814236
 20
-31.30786505805121
 30
0.0
 10
60.90601535373263
 20
-31.33249749077691
 30
0.0
 10
61.45481906467013
 20
-31.26135626898871
 30
0.0
 10
61.74162326388888
 20
-31.26135626898871
 30
0.0
  0
SPLINE
  5
18E
330
184
100
AcDbEntity
  8
LAYER_1
 62
     7
100
AcDbSpline
210
0.0
220
0.0
230
1.0
 70
     8
 71
     3
 72
    11
 73
     7
 74
     0
 42
0.0000000001
 43
0.0000000001
 40
0.0
 40
0.0
 40
0.0
 40
0.0
 40
1.0
 40
1.0
 40
1.0
 40
2.0
 40
2.0
 40
2.0
 40
2.0
 10
59.68800184461805
 20
-32.54861619737413
 30
0.0
 10
59.97446153428819
 20
-32.4175303141276
 30
0.0
 10
60.16669786241319
 20
-32.28730570475261
 30
0.0
 10
60.44075520833333
 20
-32.34638909233941
 30
0.0
 10
60.71532931857638
 20
-32.40530022515191
 30
0.0
 10
61.43070339626735
 20
-32.66816101074218
 30
0.0
 10
61.72939317491319
 20
-32.52501729329427
 30
0.0
  0
SPLINE
  5
18D
330
184
100
AcDbEntity
  8
LAYER_1
 62
     7
100
AcDbSpline
210
0.0
220
0.0
230
1.0
 70
     8
 71
     3
 72
    11
 73
     7
 74
     0
 42
0.0000000001
 43
0.0000000001
 40
0.0
 40
0.0
 40
0.0
 40
0.0
 40
1.0
 40
1.0
 40
1.0
 40
2.0
 40
2.0
 40
2.0
 40
2.0
 10
59.71349555121527
 20
-33.28793368869357
 30
0.0
 10
59.96447075737846
 20
-33.26485154893663
 30
0.0
 10
60.3096693250868
 20
-33.28896721733941
 30
0.0
 10
60.47658420138888
 20
-33.3601084391276
 30
0.0
 10
60.64315456814236
 20
-33.43159417046441
 30
0.0
 10
61.20367160373263
 20
-33.65810919867622
 30
0.0
 10
61.72939317491319
 20
-33.56250779893663
 30
0.0
  0
SPLINE
  5
18C
330
184
100
AcDbEntity
  8
LAYER_1
 62
     7
100
AcDbSpline
210
0.0
220
0.0
230
1.0
 70
     8
 71
     3
 72
    11
 73
     7
 74
     0
 42
0.0000000001
 43
0.0000000001
 40
0.0
 40
0.0
 40
0.0
 40
0.0
 40
1.0
 40
1.0
 40
1.0
 40
2.0
 40
2.0
 40
2.0
 40
2.0
 10
59.66560872395833
 20
-34.20742967393663
 30
0.0
 10
59.96343722873263
 20
-34.24308641221788
 30
0.0
 10
60.29640570746528
 20
-34.33886006673177
 30
0.0
 10
60.64315456814236
 20
-34.33886006673177
 30
0.0
 10
60.98938666449652
 20
-34.33886006673177
 30
0.0
 10
61.43173692491319
 20
-34.38536885579427
 30
0.0
 10
61.72939317491319
 20
-34.18331400553385
 30
0.0
  0
SPLINE
  5
18B
330
184
100
AcDbEntity
  8
LAYER_1
 62
     7
100
AcDbSpline
210
0.0
220
0.0
230
1.0
 70
     8
 71
     3
 72
    11
 73
     7
 74
     0
 42
0.0000000001
 43
0.0000000001
 40
0.0
 40
0.0
 40
0.0
 40
0.0
 40
1.0
 40
1.0
 40
1.0
 40
2.0
 40
2.0
 40
2.0
 40
2.0
 10
59.74898003472222
 20
-35.50691969129774
 30
0.0
 10
60.04663628472222
 20
-35.44800855848524
 30
0.0
 10
60.1298353407118
 20
-35.4126963297526
 30
0.0
 10
60.47658420138888
 20
-35.43577846950954
 30
0.0
 10
60.82281629774305
 20
-35.4592051188151
 30
0.0
 10
61.52596028645833
 20
-35.4592051188151
 30
0.0
 10
61.75247531467014
 20
-35.36360371907552
 30
0.0
  0
SPLINE
  5
18A
330
184
100
AcDbEntity
  8
LAYER_1
 62
     7
100
AcDbSpline
210
0.0
220
0.0
230
1.0
 70
     8
 71
     3
 72
     8
 73
     4
 74
     0
 42
0.0000000001
 43
0.0000000001
 40
0.0
 40
0.0
 40
0.0
 40
0.0
 40
1.0
 40
1.0
 40
1.0
 40
1.0
 10
59.73864474826388
 20
-28.32975226508246
 30
0.0
 10
60.1732435438368
 20
-28.25568271213107
 30
0.0
 10
61.11651068793402
 20
-27.54134216308594
 30
0.0
 10
61.43190917968749
 20
-27.22904425726996
 30
0.0
  0
SPLINE
  5
189
330
184
100
AcDbEntity
  8
LAYER_1
 62
     7
100
AcDbSpline
210
0.0
220
0.0
230
1.0
 70
     8
 71
     3
 72
     8
 73
     4
 74
     0
 42
0.0000000001
 43
0.0000000001
 40
0.0
 40
0.0
 40
0.0
 40
0.0
 40
1.0
 40
1.0
 40
1.0
 40
1.0
 10
61.34733208550347
 20
-24.43507181803385
 30
0.0
 10
61.11220431857638
 20
-24.88017815483941
 30
0.0
 10
60.22078586154513
 20
-25.77021857367621
 30
0.0
 10
59.73864474826388
 20
-25.78968336317274
 30
0.0
  0
SPLINE
  5
188
330
184
100
AcDbEntity
  8
LAYER_1
 62
     7
100
AcDbSpline
210
0.0
220
0.0
230
1.0
 70
     8
 71
     3
 72
    11
 73
     7
 74
     0
 42
0.0000000001
 43
0.0000000001
 40
0.0
 40
0.0
 40
0.0
 40
0.0
 40
1.0
 40
1.0
 40
1.0
 40
2.0
 40
2.0
 40
2.0
 40
2.0
 10
59.56931830512152
 20
-24.94305114746094
 30
0.0
 10
60.17720540364583
 20
-24.84210984971788
 30
0.0
 10
60.16618109809027
 20
-24.29210035536024
 30
0.0
 10
60.5174085828993
 20
-23.92278611924913
 30
0.0
 10
60.75787624782986
 20
-23.66974385579427
 30
0.0
 10
61.1749050564236
 20
-23.50765211317274
 30
0.0
 10
61.43190917968749
 20
-23.33436381022135
 30
0.0
  0
SPLINE
  5
187
330
184
100
AcDbEntity
  8
LAYER_1
 62
     7
100
AcDbSpline
210
0.0
220
0.0
230
1.0
 70
     8
 71
     3
 72
     8
 73
     4
 74
     0
 42
0.0000000001
 43
0.0000000001
 40
0.0
 40
0.0
 40
0.0
 40
0.0
 40
1.0
 40
1.0
 40
1.0
 40
1.0
 10
59.65406765407985
 20
-27.14446716308594
 30
0.0
 10
59.93846028645833
 20
-26.62132941351996
 30
0.0
 10
61.02125379774305
 20
-26.44459601508246
 30
0.0
 10
61.43190917968749
 20
-25.87443271213108
 30
0.0
  0
ENDBLK
  5
1E1
330
184
100
AcDbEntity
  8
LAYER_1
100
AcDbBlockEnd
  0
ENDSEC
  0
SECTION
  2
ENTITIES
  0
INSERT
  5
185
330
A
100
AcDbEntity
  8
LAYER_1
 62
     7
100
AcDbBlockReference
  2
AI9-BLK3
 10
50.64221462673611
 20
128.374119398329
 30
0.0
  0
LINE
  5
183
330
A
100
AcDbEntity
  8
LAYER_1
 62
     7
100
AcDbLine
 10
35.02783610026042
 20
146.1597262912326
 30
0.0
 11
50.06481662326389
 21
136.7394571940104
 31
0.0
  0
LWPOLYLINE
  5
172
330
A
100
AcDbEntity
  8
LAYER_1
 62
     7
100
AcDbPolyline
 90
       15
 70
     0
 43
0.0
 10
92.60123833550347
 20
110.091643608941
 10
102.7611694335937
 20
103.8263929578993
 10
108.5186130099826
 20
108.398206922743
 10
108.6571058485243
 20
123.8923516167535
 10
106.7404269748264
 20
124.5696573893229
 10
111.1430867513021
 20
127.6175333658854
 10
108.687939453125
 20
129.8189493815104
 10
108.8570936414931
 20
145.9903998480903
 10
15.49793429904514
 20
194.2502448187934
 10
9.288838704427082
 20
191.4280225965712
 10
9.288838704427082
 20
177.5425652398003
 10
7.708573404947916
 20
176.1879536946615
 10
10.07931586371528
 20
174.3818623860677
 10
9.402010091145833
 20
173.9302103678385
 10
9.396842447916665
 20
173.3886413574219
  0
LINE
  5
171
330
A
100
AcDbEntity
  8
LAYER_1
 62
     7
100
AcDbLine
 10
60.64194878472222
 20
130.1133327907986
 30
0.0
 11
65.94860161675346
 21
126.7889879014757
 31
0.0
  0
INSERT
  5
13E
330
A
100
AcDbEntity
  8
LAYER_1
 62
     7
100
AcDbBlockReference
  2
AI9-BLK2
 10
17.09421929253472
 20
155.2198537190755
 30
0.0
  0
INSERT
  5
10A
330
A
100
AcDbEntity
  8
LAYER_1
 62
     7
100
AcDbBlockReference
  2
AI9-BLK1
 10
78.15147433810763
 20
124.3579562717014
 30
0.0
  0
SPLINE
  5
108
330
A
100
AcDbEntity
  8
LAYER_1
 62
     7
100
AcDbSpline
210
0.0
220
0.0
230
1.0
 70
     8
 71
     3
 72
    47
 73
    43
 74
     0
 42
0.0000000001
 43
0.0000000001
 40
0.0
 40
0.0
 40
0.0
 40
0.0
 40
1.0
 40
1.0
 40
1.0
 40
2.0
 40
2.0
 40
2.0
 40
3.0
 40
3.0
 40
3.0
 40
4.0
 40
4.0
 40
4.0
 40
5.0
 40
5.0
 40
5.0
 40
6.0
 40
6.0
 40
6.0
 40
7.0
 40
7.0
 40
7.0
 40
8.0
 40
8.0
 40
8.0
 40
9.0
 40
9.0
 40
9.0
 40
10.0
 40
10.0
 40
10.0
 40
11.0
 40
11.0
 40
11.0
 40
12.0
 40
12.0
 40
12.0
 40
13.0
 40
13.0
 40
13.0
 40
14.0
 40
14.0
 40
14.0
 40
14.0
 10
49.92373996310764
 20
136.528961859809
 30
0.0
 10
49.92373996310764
 20
136.528961859809
 30
0.0
 10
50.69561360677083
 20
136.8714043511285
 30
0.0
 10
50.69561360677083
 20
136.8714043511285
 30
0.0
 10
50.69561360677083
 20
136.8714043511285
 30
0.0
 10
50.74591200086805
 20
144.0237670898437
 30
0.0
 10
50.74591200086805
 20
144.0237670898437
 30
0.0
 10
50.74591200086805
 20
144.0237670898437
 30
0.0
 10
51.87383626302083
 20
145.1618543836806
 30
0.0
 10
51.87383626302083
 20
145.1618543836806
 30
0.0
 10
51.87383626302083
 20
145.1618543836806
 30
0.0
 10
52.36166178385416
 20
145.3649427625868
 30
0.0
 10
52.36166178385416
 20
145.3649427625868
 30
0.0
 10
52.36166178385416
 20
145.3649427625868
 30
0.0
 10
60.7315212673611
 20
140.5697143554687
 30
0.0
 10
60.7315212673611
 20
140.5697143554687
 30
0.0
 10
60.7315212673611
 20
140.5697143554687
 30
0.0
 10
61.29100477430555
 20
138.7834323459201
 30
0.0
 10
61.29100477430555
 20
138.7834323459201
 30
0.0
 10
61.29100477430555
 20
138.7834323459201
 30
0.0
 10
61.30030653211805
 20
131.8562065972222
 30
0.0
 10
61.30030653211805
 20
131.4498575846354
 30
0.0
 10
61.30030653211805
 20
130.7181193033854
 30
0.0
 10
61.21900227864582
 20
130.3691311306424
 30
0.0
 10
60.65004475911458
 20
130.1252183702257
 30
0.0
 10
60.08125949435763
 20
129.881305609809
 30
0.0
 10
56.65545654296874
 20
128.0908894856771
 30
0.0
 10
56.65545654296874
 20
128.0908894856771
 30
0.0
 10
56.65545654296874
 20
128.0908894856771
 30
0.0
 10
53.21759575737847
 20
128.0858940972222
 30
0.0
 10
53.21759575737847
 20
128.0858940972222
 30
0.0
 10
53.21759575737847
 20
128.0858940972222
 30
0.0
 10
45.41566026475694
 20
132.9217746310764
 30
0.0
 10
45.41566026475694
 20
132.9217746310764
 30
0.0
 10
45.41566026475694
 20
132.9217746310764
 30
0.0
 10
45.41566026475694
 20
133.4910766601562
 30
0.0
 10
45.41566026475694
 20
133.4910766601562
 30
0.0
 10
45.41566026475694
 20
133.4910766601562
 30
0.0
 10
45.45631239149305
 20
134.5473429361979
 30
0.0
 10
45.45631239149305
 20
134.5473429361979
 30
0.0
 10
45.45631239149305
 20
134.5473429361979
 30
0.0
 10
48.52089708116319
 20
135.9067776150174
 30
0.0
 10
48.52089708116319
 20
135.9067776150174
 30
0.0
  0
LINE
  5
107
330
A
100
AcDbEntity
  8
LAYER_1
 62
     7
100
AcDbLine
 10
56.65545654296874
 20
128.6700100368923
 30
0.0
 11
56.65545654296874
 21
128.0888224283854
 31
0.0
  0
LINE
  5
106
330
A
100
AcDbEntity
  8
LAYER_1
 62
     7
100
AcDbLine
 10
53.2093275282118
 20
128.6700100368923
 30
0.0
 11
53.2093275282118
 21
128.0888224283854
 31
0.0
  0
LWPOLYLINE
  5
F8
330
A
100
AcDbEntity
  8
LAYER_1
 62
     7
100
AcDbPolyline
 90
       12
 70
     1
 43
0.0
 10
50.56349419487847
 20
136.161370171441
 10
49.92666829427083
 20
136.522760687934
 10
49.05178629557291
 20
136.5139756944444
 10
48.55569254557291
 20
136.0972913953993
 10
48.57894694010416
 20
136.0835110134549
 10
48.55569254557291
 20
136.0829942491319
 10
48.55569254557291
 20
135.3169772677951
 10
49.15927327473958
 20
134.9595486111111
 10
50.07963053385416
 20
134.9531751844618
 10
50.56349419487847
 20
135.3812282986111
 10
50.56349419487847
 20
136.1338094075521
 10
50.53145480685763
 20
136.1329481336805
  0
LINE
  5
F7
330
A
100
AcDbEntity
  8
LAYER_1
 62
     7
100
AcDbLine
 10
49.16650797526042
 20
134.9728122287326
 30
0.0
 11
49.16650797526042
 21
135.7171251085069
 31
0.0
  0
LINE
  5
F6
330
A
100
AcDbEntity
  8
LAYER_1
 62
     7
100
AcDbLine
 10
50.07670220269097
 20
134.9728122287326
 30
0.0
 11
50.07670220269097
 21
135.7171251085069
 31
0.0
  0
LWPOLYLINE
  5
EE
330
A
100
AcDbEntity
  8
LAYER_1
 62
     7
100
AcDbPolyline
 90
        6
 70
     1
 43
0.0
 10
58.97366129557291
 20
132.4620266384549
 10
58.43123101128472
 20
132.7657118055556
 10
58.25432535807291
 20
133.5704861111111
 10
58.52149251302083
 20
134.2949896918403
 10
59.07408582899305
 20
134.0071519639757
 10
59.24289550781249
 20
133.1539740668403
  0
LWPOLYLINE
  5
E6
330
A
100
AcDbEntity
  8
LAYER_1
 62
     7
100
AcDbPolyline
 90
        6
 70
     0
 43
0.0
 10
58.54991455078125
 20
134.3048082139757
 10
59.3608900282118
 20
134.5864447699653
 10
59.91365559895833
 20
134.2991238064236
 10
60.08229302300347
 20
133.4454291449653
 10
59.81288655598958
 20
132.7534817165798
 10
58.9888197157118
 20
132.4670220269097
  0
LINE
  5
E5
330
A
100
AcDbEntity
  8
LAYER_1
 62
     7
100
AcDbLine
 10
60.06696234809027
 20
133.4466349283854
 30
0.0
 11
59.26528862847222
 21
133.1682712131076
 31
0.0
  0
LINE
  5
E4
330
A
100
AcDbEntity
  8
LAYER_1
 62
     7
100
AcDbLine
 10
59.89315728081597
 20
134.2887885199653
 30
0.0
 11
59.09131130642361
 21
134.0102525499132
 31
0.0
  0
LWPOLYLINE
  5
DC
330
A
100
AcDbEntity
  8
LAYER_1
 62
     7
100
AcDbPolyline
 90
        6
 70
     1
 43
0.0
 10
58.71372884114583
 20
138.0213772243924
 10
58.17078179253472
 20
138.3252346462674
 10
57.99439290364583
 20
139.1300089518229
 10
58.26156005859374
 20
139.8543402777778
 10
58.81415337456597
 20
139.5668470594618
 10
58.98279079861111
 20
138.7133246527778
  0
LWPOLYLINE
  5
D4
330
A
100
AcDbEntity
  8
LAYER_1
 62
     7
100
AcDbPolyline
 90
        6
 70
     0
 43
0.0
 10
58.28998209635416
 20
139.8645033094618
 10
59.10061306423611
 20
140.1459676106771
 10
59.65337863498263
 20
139.8583021375868
 10
59.82201605902777
 20
139.0049519856771
 10
59.55260959201388
 20
138.313176812066
 10
58.72888726128472
 20
138.0265448676215
  0
LINE
  5
D3
330
A
100
AcDbEntity
  8
LAYER_1
 62
     7
100
AcDbLine
 10
59.80668538411458
 20
139.0059855143229
 30
0.0
 11
59.00518391927083
 21
138.7276217990451
 31
0.0
  0
LINE
  5
D2
330
A
100
AcDbEntity
  8
LAYER_1
 62
     7
100
AcDbLine
 10
59.63305257161458
 20
139.8483113606771
 30
0.0
 11
58.83155110677083
 21
139.5699476453993
 31
0.0
  0
LWPOLYLINE
  5
CA
330
A
100
AcDbEntity
  8
LAYER_1
 62
     7
100
AcDbPolyline
 90
        6
 70
     1
 43
0.0
 10
51.72363009982639
 20
141.630287000868
 10
51.18085530598958
 20
141.9339721679687
 10
51.00429416232638
 20
142.7384019639757
 10
51.27163357204861
 20
143.4632500542535
 10
51.82422688802083
 20
143.1754123263889
 10
51.99286431206597
 20
142.3222344292535
  0
LWPOLYLINE
  5
C2
330
A
100
AcDbEntity
  8
LAYER_1
 62
     7
100
AcDbPolyline
 90
        6
 70
     0
 43
0.0
 10
51.29988335503472
 20
143.4730685763889
 10
52.11068657769097
 20
143.7547051323785
 10
52.66345214843749
 20
143.4670396592882
 10
52.83208957248264
 20
142.6138617621528
 10
52.56268310546874
 20
141.9219143337674
 10
51.73896077473958
 20
141.6352823893229
  0
LINE
  5
C1
330
A
100
AcDbEntity
  8
LAYER_1
 62
     7
100
AcDbLine
 10
52.81675889756944
 20
142.6148952907986
 30
0.0
 11
52.01508517795138
 21
142.3363593207465
 31
0.0
  0
LINE
  5
C0
330
A
100
AcDbEntity
  8
LAYER_1
 62
     7
100
AcDbLine
 10
52.64312608506944
 20
143.4570488823785
 30
0.0
 11
51.84145236545138
 21
143.1786851671007
 31
0.0
  0
LWPOLYLINE
  5
B8
330
A
100
AcDbEntity
  8
LAYER_1
 62
     7
100
AcDbPolyline
 90
        6
 70
     1
 43
0.0
 10
51.43096923828124
 20
137.2410630967882
 10
50.88853895399305
 20
137.5452650282118
 10
50.71163330078124
 20
138.3496948242187
 10
50.97897271050347
 20
139.0740261501736
 10
51.53139377170138
 20
138.7867051866319
 10
51.70020345052083
 20
137.9330105251736
  0
LWPOLYLINE
  5
B0
330
A
100
AcDbEntity
  8
LAYER_1
 62
     7
100
AcDbPolyline
 90
        6
 70
     0
 43
0.0
 10
51.00722249348958
 20
139.0843614366319
 10
51.81802571614583
 20
139.3658257378472
 10
52.37096354166666
 20
139.078160264757
 10
52.53942871093749
 20
138.2248101128472
 10
52.27002224392361
 20
137.5328626844618
 10
51.44629991319444
 20
137.246575249566
  0
LINE
  5
AF
330
A
100
AcDbEntity
  8
LAYER_1
 62
     7
100
AcDbLine
 10
52.5240980360243
 20
138.2256713867187
 30
0.0
 11
51.72259657118055
 21
137.947307671441
 31
0.0
  0
LINE
  5
AE
330
A
100
AcDbEntity
  8
LAYER_1
 62
     7
100
AcDbLine
 10
52.3504652235243
 20
139.0678249782986
 30
0.0
 11
51.54879150390624
 21
138.7896335177951
 31
0.0
  0
LINE
  5
AD
330
A
100
AcDbEntity
  8
LAYER_1
 62
     7
100
AcDbLine
 10
56.76690538194444
 20
137.4119398328993
 30
0.0
 11
56.5982679578993
 21
136.8562459309896
 31
0.0
  0
LINE
  5
AC
330
A
100
AcDbEntity
  8
LAYER_1
 62
     7
100
AcDbLine
 10
56.49887695312499
 20
136.527239312066
 30
0.0
 11
55.15373942057291
 21
132.0861667209201
 31
0.0
  0
LINE
  5
AB
330
A
100
AcDbEntity
  8
LAYER_1
 62
     7
100
AcDbLine
 10
55.01438530815972
 20
131.6279690212674
 30
0.0
 11
54.89535725911458
 21
131.2357449001736
 31
0.0
  0
LINE
  5
AA
330
A
100
AcDbEntity
  8
LAYER_1
 62
     7
100
AcDbLine
 10
53.9131605360243
 20
138.8159884982639
 30
0.0
 11
53.69439697265624
 21
138.5203993055555
 31
0.0
  0
LINE
  5
A9
330
A
100
AcDbEntity
  8
LAYER_1
 62
     7
100
AcDbLine
 10
53.44686686197916
 20
138.1851915147569
 30
0.0
 11
50.90576443142361
 21
134.7428521050347
 31
0.0
  0
LINE
  5
A8
330
A
100
AcDbEntity
  8
LAYER_1
 62
     7
100
AcDbLine
 10
50.71059977213541
 20
134.4789577907986
 30
0.0
 11
50.44756673177083
 21
134.121184624566
 31
0.0
  0
SPLINE
  5
A7
330
A
100
AcDbEntity
  8
LAYER_1
 62
     7
100
AcDbSpline
210
0.0
220
0.0
230
1.0
 70
     8
 71
     3
 72
     8
 73
     4
 74
     0
 42
0.0000000001
 43
0.0000000001
 40
0.0
 40
0.0
 40
0.0
 40
0.0
 40
1.0
 40
1.0
 40
1.0
 40
1.0
 10
52.67947184244791
 20
139.5727037217882
 30
0.0
 10
52.89324001736111
 20
140.2810153537326
 30
0.0
 10
53.35316026475694
 20
140.3318305121528
 30
0.0
 10
53.73728841145833
 20
140.229338921441
 30
0.0
  0
SPLINE
  5
A6
330
A
100
AcDbEntity
  8
LAYER_1
 62
     7
100
AcDbSpline
210
0.0
220
0.0
230
1.0
 70
     8
 71
     3
 72
     8
 73
     4
 74
     0
 42
0.0000000001
 43
0.0000000001
 40
0.0
 40
0.0
 40
0.0
 40
0.0
 40
1.0
 40
1.0
 40
1.0
 40
1.0
 10
54.15293918185763
 20
140.0577731662326
 30
0.0
 10
54.65678439670138
 20
139.7811319986979
 30
0.0
 10
56.78619791666666
 20
138.5131646050347
 30
0.0
 10
57.04630262586805
 20
138.3507283528646
 30
0.0
  0
SPLINE
  5
A5
330
A
100
AcDbEntity
  8
LAYER_1
 62
     7
100
AcDbSpline
210
0.0
220
0.0
230
1.0
 70
     8
 71
     3
 72
     8
 73
     4
 74
     0
 42
0.0000000001
 43
0.0000000001
 40
0.0
 40
0.0
 40
0.0
 40
0.0
 40
1.0
 40
1.0
 40
1.0
 40
1.0
 10
57.49864366319444
 20
138.0947577582465
 30
0.0
 10
57.80422363281249
 20
137.9014879014757
 30
0.0
 10
58.1700927734375
 20
137.6010755750868
 30
0.0
 10
58.3499267578125
 20
137.1263414171007
 30
0.0
  0
SPLINE
  5
A4
330
A
100
AcDbEntity
  8
LAYER_1
 62
     7
100
AcDbSpline
210
0.0
220
0.0
230
1.0
 70
    24
 71
     3
 72
     8
 73
     4
 74
     0
 42
0.0000000001
 43
0.0000000001
 40
0.0
 40
0.0
 40
0.0
 40
0.0
 40
1.0
 40
1.0
 40
1.0
 40
1.0
 10
58.46068657769096
 20
136.4974392361111
 30
0.0
 10
58.46068657769096
 20
135.9805026584201
 30
0.0
 10
58.46068657769096
 20
134.2858601888021
 30
0.0
 10
58.46068657769096
 20
134.2858601888021
 30
0.0
  0
LINE
  5
A3
330
A
100
AcDbEntity
  8
LAYER_1
 62
     7
100
AcDbLine
 10
50.8528822157118
 20
136.5463595920139
 30
0.0
 11
51.61683213975694
 21
136.0421698676215
 31
0.0
  0
LINE
  5
A2
330
A
100
AcDbEntity
  8
LAYER_1
 62
     7
100
AcDbLine
 10
52.88497178819444
 20
137.8305189344618
 30
0.0
 11
50.93435872395833
 21
135.1970879448785
 31
0.0
  0
SPLINE
  5
A1
330
A
100
AcDbEntity
  8
LAYER_1
 62
     7
100
AcDbSpline
210
0.0
220
0.0
230
1.0
 70
     8
 71
     3
 72
     8
 73
     4
 74
     0
 42
0.0000000001
 43
0.0000000001
 40
0.0
 40
0.0
 40
0.0
 40
0.0
 40
1.0
 40
1.0
 40
1.0
 40
1.0
 10
49.92666829427083
 20
134.644322374132
 30
0.0
 10
49.81470269097222
 20
134.544586859809
 30
0.0
 10
49.48638509114583
 20
133.9547865125868
 30
0.0
 10
49.6744873046875
 20
133.4707505967882
 30
0.0
  0
SPLINE
  5
A0
330
A
100
AcDbEntity
  8
LAYER_1
 62
     7
100
AcDbSpline
210
0.0
220
0.0
230
1.0
 70
     8
 71
     3
 72
     8
 73
     4
 74
     0
 42
0.0000000001
 43
0.0000000001
 40
0.0
 40
0.0
 40
0.0
 40
0.0
 40
1.0
 40
1.0
 40
1.0
 40
1.0
 10
54.64024793836805
 20
130.352594672309
 30
0.0
 10
54.85177680121527
 20
130.2550984700521
 30
0.0
 10
55.89219563802083
 20
130.1579467773437
 30
0.0
 10
56.31490885416666
 20
130.4016872829861
 30
0.0
  0
SPLINE
  5
9F
330
A
100
AcDbEntity
  8
LAYER_1
 62
     7
100
AcDbSpline
210
0.0
220
0.0
230
1.0
 70
     8
 71
     3
 72
     8
 73
     4
 74
     0
 42
0.0000000001
 43
0.0000000001
 40
0.0
 40
0.0
 40
0.0
 40
0.0
 40
1.0
 40
1.0
 40
1.0
 40
1.0
 10
50.02381998697916
 20
133.0676744249132
 30
0.0
 10
50.43619791666666
 20
132.8132541232639
 30
0.0
 10
51.68607855902777
 20
132.0716973198785
 30
0.0
 10
52.78265245225694
 20
131.4269476996528
 30
0.0
  0
SPLINE
  5
9E
330
A
100
AcDbEntity
  8
LAYER_1
 62
     7
100
AcDbSpline
210
0.0
220
0.0
230
1.0
 70
     8
 71
     3
 72
    26
 73
    22
 74
     0
 42
0.0000000001
 43
0.0000000001
 40
0.0
 40
0.0
 40
0.0
 40
0.0
 40
1.0
 40
1.0
 40
1.0
 40
2.0
 40
2.0
 40
2.0
 40
3.0
 40
3.0
 40
3.0
 40
4.0
 40
4.0
 40
4.0
 40
5.0
 40
5.0
 40
5.0
 40
6.0
 40
6.0
 40
6.0
 40
7.0
 40
7.0
 40
7.0
 40
7.0
 10
45.42789035373264
 20
133.5062350802951
 30
0.0
 10
45.42789035373264
 20
133.5062350802951
 30
0.0
 10
53.2093275282118
 20
128.6812065972222
 30
0.0
 10
53.2093275282118
 20
128.6812065972222
 30
0.0
 10
53.2093275282118
 20
128.6812065972222
 30
0.0
 10
56.65649007161458
 20
128.6729383680556
 30
0.0
 10
56.65649007161458
 20
128.6729383680556
 30
0.0
 10
56.65649007161458
 20
128.6729383680556
 30
0.0
 10
60.07195773654513
 20
130.4006537543403
 30
0.0
 10
60.28520914713541
 20
130.5155476888021
 30
0.0
 10
60.58389892578124
 20
130.6791897243924
 30
0.0
 10
60.78836534288194
 20
130.9239637586805
 30
0.0
 10
60.78836534288194
 20
131.4124782986111
 30
0.0
 10
60.78836534288194
 20
131.9013373480903
 30
0.0
 10
60.78836534288194
 20
138.4136013454861
 30
0.0
 10
60.78836534288194
 20
138.4136013454861
 30
0.0
 10
60.78836534288194
 20
138.4136013454861
 30
0.0
 10
60.29950629340277
 20
140.2637898763021
 30
0.0
 10
60.29950629340277
 20
140.2637898763021
 30
0.0
 10
60.29950629340277
 20
140.2637898763021
 30
0.0
 10
51.89829644097222
 20
145.1427341037326
 30
0.0
 10
51.89829644097222
 20
145.1427341037326
 30
0.0
  0
LINE
  5
9D
330
A
100
AcDbEntity
  8
LAYER_1
 62
     7
100
AcDbLine
 10
60.72618136935763
 20
140.5676472981771
 30
0.0
 11
60.30053982204861
 21
140.278948296441
 31
0.0
  0
LINE
  5
9C
330
A
100
AcDbEntity
  8
LAYER_1
 62
     7
100
AcDbLine
 10
61.28997124565971
 20
138.7937676323785
 30
0.0
 11
60.80834689670138
 21
138.4439181857639
 31
0.0
  0
LWPOLYLINE
  5
94
330
A
100
AcDbEntity
  8
LAYER_1
 62
     7
100
AcDbPolyline
 90
        6
 70
     1
 43
0.0
 10
48.55569254557291
 20
136.0972913953993
 10
49.05178629557291
 20
136.5139756944444
 10
49.92666829427083
 20
136.522760687934
 10
50.56349419487847
 20
136.161370171441
 10
50.07963053385416
 20
135.733489312066
 10
49.15927327473958
 20
135.739690483941
  0
LWPOLYLINE
  5
86
330
A
100
AcDbEntity
  8
LAYER_1
 62
     7
100
AcDbPolyline
 90
       12
 70
     1
 43
0.0
 10
48.80770128038194
 20
134.1130886501736
 10
48.170703125
 20
134.474651421441
 10
47.29582112630208
 20
134.4656941731771
 10
46.800244140625
 20
134.0490098741319
 10
46.82332628038194
 20
134.0354017469618
 10
46.800244140625
 20
134.0347127278646
 10
46.800244140625
 20
133.2688680013021
 10
47.40382486979166
 20
132.9109225802951
 10
48.32418212890624
 20
132.9050659179687
 10
48.80770128038194
 20
133.3326022677951
 10
48.80770128038194
 20
134.085700141059
 10
48.77583414713541
 20
134.0846666124132
  0
LINE
  5
85
330
A
100
AcDbEntity
  8
LAYER_1
 62
     7
100
AcDbLine
 10
47.41054280598958
 20
132.9240139431423
 30
0.0
 11
47.41054280598958
 21
133.6690158420139
 31
0.0
  0
LINE
  5
84
330
A
100
AcDbEntity
  8
LAYER_1
 62
     7
100
AcDbLine
 10
48.32108154296875
 20
132.9240139431423
 30
0.0
 11
48.32108154296875
 21
133.6690158420139
 31
0.0
  0
LWPOLYLINE
  5
7C
330
A
100
AcDbEntity
  8
LAYER_1
 62
     7
100
AcDbPolyline
 90
        6
 70
     1
 43
0.0
 10
46.800244140625
 20
134.0490098741319
 10
47.29582112630208
 20
134.4656941731771
 10
48.170703125
 20
134.474651421441
 10
48.80770128038194
 20
134.1130886501736
 10
48.32418212890624
 20
133.6852077907986
 10
47.40382486979166
 20
133.6914089626736
  0
LWPOLYLINE
  5
6E
330
A
100
AcDbEntity
  8
LAYER_1
 62
     7
100
AcDbPolyline
 90
       12
 70
     1
 43
0.0
 10
54.54481879340278
 20
131.0157755533854
 10
53.8482204861111
 20
131.4114447699653
 10
52.89151746961805
 20
131.4014539930556
 10
52.34943169487847
 20
130.9456678602431
 10
52.37458089192708
 20
130.9308539496528
 10
52.34943169487847
 20
130.9301649305556
 10
52.34943169487847
 20
130.0924899631076
 10
53.00916748046875
 20
129.701471625434
 10
54.01599663628472
 20
129.6945814344618
 10
54.54481879340278
 20
130.1624254014757
 10
54.54481879340278
 20
130.9858032226562
 10
54.51002332899305
 20
130.985114203559
  0
LINE
  5
6D
330
A
100
AcDbEntity
  8
LAYER_1
 62
     7
100
AcDbLine
 10
53.01726345486111
 20
129.7157687717014
 30
0.0
 11
53.01726345486111
 21
130.5303615993923
 31
0.0
  0
LINE
  5
6C
330
A
100
AcDbEntity
  8
LAYER_1
 62
     7
100
AcDbLine
 10
54.01272379557291
 20
129.7157687717014
 30
0.0
 11
54.01272379557291
 21
130.5303615993923
 31
0.0
  0
LWPOLYLINE
  5
64
330
A
100
AcDbEntity
  8
LAYER_1
 62
     7
100
AcDbPolyline
 90
        6
 70
     1
 43
0.0
 10
52.34943169487847
 20
130.9456678602431
 10
52.89151746961805
 20
131.4014539930556
 10
53.8482204861111
 20
131.4114447699653
 10
54.54481879340278
 20
131.0157755533854
 10
54.01599663628472
 20
130.5482760959201
 10
53.00916748046875
 20
130.5548217773437
  0
LWPOLYLINE
  5
56
330
A
100
AcDbEntity
  8
LAYER_1
 62
     7
100
AcDbPolyline
 90
       12
 70
     1
 43
0.0
 10
59.09234483506944
 20
131.4272922092014
 10
58.39574652777777
 20
131.822789171007
 10
57.43904351128472
 20
131.8127983940972
 10
56.89695773654513
 20
131.357184516059
 10
56.92210693359375
 20
131.3423706054687
 10
56.89695773654513
 20
131.3415093315972
 10
56.89695773654513
 20
130.5040066189236
 10
57.55669352213541
 20
130.1128160264757
 10
58.56352267795138
 20
130.1062703450521
 10
59.09234483506944
 20
130.574114312066
 10
59.09234483506944
 20
131.3971476236979
 10
59.05754937065971
 20
131.3964586046007
  0
LINE
  5
55
330
A
100
AcDbEntity
  8
LAYER_1
 62
     7
100
AcDbLine
 10
57.56478949652777
 20
130.127113172743
 30
0.0
 11
57.56478949652777
 21
130.941706000434
 31
0.0
  0
LINE
  5
54
330
A
100
AcDbEntity
  8
LAYER_1
 62
     7
100
AcDbLine
 10
58.56024983723958
 20
130.127113172743
 30
0.0
 11
58.56024983723958
 21
130.941706000434
 31
0.0
  0
LWPOLYLINE
  5
4C
330
A
100
AcDbEntity
  8
LAYER_1
 62
     7
100
AcDbPolyline
 90
        6
 70
     1
 43
0.0
 10
56.89695773654513
 20
131.357184516059
 10
57.43904351128472
 20
131.8127983940972
 10
58.39574652777777
 20
131.822789171007
 10
59.09234483506944
 20
131.4272922092014
 10
58.56352267795138
 20
130.9596204969618
 10
57.55669352213541
 20
130.9661661783854
  0
LINE
  5
4B
330
A
100
AcDbEntity
  8
LAYER_1
 62
     7
100
AcDbLine
 10
52.55975477430555
 20
138.5622572157118
 30
0.0
 11
52.63485785590277
 21
139.233189561632
 31
0.0
  0
LWPOLYLINE
  5
46
330
A
100
AcDbEntity
  8
LAYER_1
 62
     7
100
AcDbPolyline
 90
        3
 70
     0
 43
0.0
 10
108.8570936414931
 20
145.9903998480903
 10
102.7611694335937
 20
142.6036987304688
 10
9.289010959201388
 20
191.315195719401
  0
LWPOLYLINE
  5
3E
330
A
100
AcDbEntity
  8
LAYER_1
 62
     7
100
AcDbPolyline
 90
        6
 70
     0
 43
0.0
 10
102.7611694335937
 20
142.6036987304688
 10
102.7611694335937
 20
125.8396918402778
 10
105.1319118923611
 20
123.4689493815104
 10
101.5757120768229
 20
121.1829562717014
 10
102.7611694335937
 20
119.9129218207465
 10
102.7611694335937
 20
103.9955471462674
  0
LINE
  5
3D
330
A
100
AcDbEntity
  8
LAYER_1
 62
     7
100
AcDbLine
 10
102.7611694335937
 20
125.8396918402778
 30
0.0
 11
108.7723442925347
 21
129.9036987304687
 31
0.0
  0
LINE
  5
3C
330
A
100
AcDbEntity
  8
LAYER_1
 62
     7
100
AcDbLine
 10
105.2164889865451
 20
123.5536987304687
 30
0.0
 11
111.1007120768229
 21
127.6599080403646
 31
0.0
  0
LINE
  5
3B
330
A
100
AcDbEntity
  8
LAYER_1
 62
     7
100
AcDbLine
 10
102.7611694335937
 20
119.9129218207465
 30
0.0
 11
108.687939453125
 21
123.8076022677951
 31
0.0
  0
SPLINE
  5
3A
330
A
100
AcDbEntity
  8
LAYER_1
 62
     7
100
AcDbSpline
210
0.0
220
0.0
230
1.0
 70
     8
 71
     3
 72
    14
 73
    10
 74
     0
 42
0.0000000001
 43
0.0000000001
 40
0.0
 40
0.0
 40
0.0
 40
0.0
 40
1.0
 40
1.0
 40
1.0
 40
2.0
 40
2.0
 40
2.0
 40
3.0
 40
3.0
 40
3.0
 40
3.0
 10
103.9464545355903
 20
143.3655815972222
 30
0.0
 10
103.8615329318576
 20
142.7564887152778
 30
0.0
 10
103.5826524522569
 20
142.1870144314236
 30
0.0
 10
103.4403700086806
 20
141.5875678168403
 30
0.0
 10
103.3769802517361
 20
141.3204006618923
 30
0.0
 10
103.4055745442708
 20
140.9724460177951
 30
0.0
 10
103.2706990559896
 20
140.7412801106771
 30
0.0
 10
103.0682996961806
 20
140.3936699761285
 30
0.0
 10
102.6598836263021
 20
140.5979641384548
 30
0.0
 10
102.6764200846354
 20
140.063629828559
 30
0.0
  0
SPLINE
  5
39
330
A
100
AcDbEntity
  8
LAYER_1
 62
     7
100
AcDbSpline
210
0.0
220
0.0
230
1.0
 70
     8
 71
     3
 72
    14
 73
    10
 74
     0
 42
0.0000000001
 43
0.0000000001
 40
0.0
 40
0.0
 40
0.0
 40
0.0
 40
1.0
 40
1.0
 40
1.0
 40
2.0
 40
2.0
 40
2.0
 40
3.0
 40
3.0
 40
3.0
 40
3.0
 10
105.0471625434028
 20
143.7889838324653
 30
0.0
 10
105.0740342881944
 20
142.9373562282986
 30
0.0
 10
104.7898139105903
 20
142.6555474175347
 30
0.0
 10
104.4754489474826
 20
141.9263929578993
 30
0.0
 10
104.1883002387153
 20
141.2594224717882
 30
0.0
 10
104.2225789388021
 20
140.6515353732639
 30
0.0
 10
104.0124281141493
 20
139.9788804796007
 30
0.0
 10
103.6455254448785
 20
138.8054809570313
 30
0.0
 10
103.0459065755208
 20
137.7075290256076
 30
0.0
 10
102.7611694335937
 20
136.5923516167535
 30
0.0
  0
SPLINE
  5
38
330
A
100
AcDbEntity
  8
LAYER_1
 62
     7
100
AcDbSpline
210
0.0
220
0.0
230
1.0
 70
     8
 71
     3
 72
    17
 73
    13
 74
     0
 42
0.0000000001
 43
0.0000000001
 40
0.0
 40
0.0
 40
0.0
 40
0.0
 40
1.0
 40
1.0
 40
1.0
 40
2.0
 40
2.0
 40
2.0
 40
3.0
 40
3.0
 40
3.0
 40
4.0
 40
4.0
 40
4.0
 40
4.0
 10
106.5712727864583
 20
144.7203653971354
 30
0.0
 10
106.0911987304688
 20
143.5123426649305
 30
0.0
 10
105.2004692925347
 20
142.8576022677951
 30
0.0
 10
105.1319118923611
 20
141.5029907226563
 30
0.0
 10
105.068694390191
 20
140.256382921007
 30
0.0
 10
105.2025363498264
 20
139.0495659722222
 30
0.0
 10
104.7174669053819
 20
137.8722045898437
 30
0.0
 10
104.2606472439236
 20
136.7632283528646
 30
0.0
 10
103.9104532877604
 20
135.8030802408854
 30
0.0
 10
103.6310560438368
 20
134.6448391384548
 30
0.0
 10
103.4424370659722
 20
133.8633192274305
 30
0.0
 10
103.1425415039062
 20
132.7336724175347
 30
0.0
 10
102.7611694335937
 20
132.1049424913194
 30
0.0
  0
SPLINE
  5
37
330
A
100
AcDbEntity
  8
LAYER_1
 62
     7
100
AcDbSpline
210
0.0
220
0.0
230
1.0
 70
     8
 71
     3
 72
    23
 73
    19
 74
     0
 42
0.0000000001
 43
0.0000000001
 40
0.0
 40
0.0
 40
0.0
 40
0.0
 40
1.0
 40
1.0
 40
1.0
 40
2.0
 40
2.0
 40
2.0
 40
3.0
 40
3.0
 40
3.0
 40
4.0
 40
4.0
 40
4.0
 40
5.0
 40
5.0
 40
5.0
 40
6.0
 40
6.0
 40
6.0
 40
6.0
 10
107.9257120768229
 20
145.4822482638889
 30
0.0
 10
107.3615776909722
 20
144.2321953667535
 30
0.0
 10
107.1307562934028
 20
142.9786973741319
 30
0.0
 10
106.7170003255208
 20
141.668010796441
 30
0.0
 10
106.5013373480903
 20
140.9850206163195
 30
0.0
 10
106.2298638237847
 20
140.3437160915798
 30
0.0
 10
106.0631212022569
 20
139.6403998480903
 30
0.0
 10
105.8927612304687
 20
138.9212361653646
 30
0.0
 10
105.984228515625
 20
138.1521185980903
 30
0.0
 10
105.8133517795139
 20
137.4389838324653
 30
0.0
 10
105.6269721137153
 20
136.6588419596354
 30
0.0
 10
105.1188205295139
 20
136.0313178168403
 30
0.0
 10
104.8755967881944
 20
135.2544487847222
 30
0.0
 10
104.5696723090278
 20
134.2782809787326
 30
0.0
 10
104.2976820203993
 20
133.2607720269097
 30
0.0
 10
104.0522189670139
 20
132.2465359157986
 30
0.0
 10
103.7428493923611
 20
130.966510687934
 30
0.0
 10
103.1895670572917
 20
129.5671129014757
 30
0.0
 10
102.8457465277778
 20
128.2948391384549
 30
0.0
  0
SPLINE
  5
36
330
A
100
AcDbEntity
  8
LAYER_1
 62
     7
100
AcDbSpline
210
0.0
220
0.0
230
1.0
 70
     8
 71
     3
 72
    23
 73
    19
 74
     0
 42
0.0000000001
 43
0.0000000001
 40
0.0
 40
0.0
 40
0.0
 40
0.0
 40
1.0
 40
1.0
 40
1.0
 40
2.0
 40
2.0
 40
2.0
 40
3.0
 40
3.0
 40
3.0
 40
4.0
 40
4.0
 40
4.0
 40
5.0
 40
5.0
 40
5.0
 40
6.0
 40
6.0
 40
6.0
 40
6.0
 10
108.9418429904514
 20
144.8896918402778
 30
0.0
 10
107.846819390191
 20
143.4412014431424
 30
0.0
 10
108.3606553819444
 20
141.8462944878472
 30
0.0
 10
107.8645616319444
 20
140.2348510742187
 30
0.0
 10
107.4015407986111
 20
138.730377875434
 30
0.0
 10
106.228313530816
 20
137.3304633246528
 30
0.0
 10
106.0634657118056
 20
135.7455471462673
 30
0.0
 10
105.8862155490451
 20
134.0407416449653
 30
0.0
 10
105.4452433268229
 20
132.5815714518229
 30
0.0
 10
104.7953260633681
 20
131.0042344835069
 30
0.0
 10
104.5093831380208
 20
130.3107367621528
 30
0.0
 10
104.2308471679688
 20
129.5939846462674
 30
0.0
 10
104.1138861762153
 20
128.8708591037326
 30
0.0
 10
104.0015760633681
 20
128.1785671657986
 30
0.0
 10
104.1316284179687
 20
127.475250922309
 30
0.0
 10
103.7748887803819
 20
126.8578898111979
 30
0.0
 10
103.7006469726562
 20
126.7304212782118
 30
0.0
 10
103.7177001953125
 20
126.7130235460069
 30
0.0
 10
103.6078016493055
 20
126.6015747070312
 30
0.0
  0
SPLINE
  5
35
330
A
100
AcDbEntity
  8
LAYER_1
 62
     7
100
AcDbSpline
210
0.0
220
0.0
230
1.0
 70
     8
 71
     3
 72
    17
 73
    13
 74
     0
 42
0.0000000001
 43
0.0000000001
 40
0.0
 40
0.0
 40
0.0
 40
0.0
 40
1.0
 40
1.0
 40
1.0
 40
2.0
 40
2.0
 40
2.0
 40
3.0
 40
3.0
 40
3.0
 40
4.0
 40
4.0
 40
4.0
 40
4.0
 10
108.6031901041667
 20
139.2169976128472
 30
0.0
 10
108.2976101345486
 20
138.6256469726562
 30
0.0
 10
107.7112548828125
 20
138.2122355143229
 30
0.0
 10
107.4161824544271
 20
137.6064154730903
 30
0.0
 10
107.201897515191
 20
137.1661322699653
 30
0.0
 10
107.201897515191
 20
136.6805460611979
 30
0.0
 10
107.0854532877604
 20
136.2300998263889
 30
0.0
 10
106.8231092664931
 20
135.2158637152778
 30
0.0
 10
106.5178738064236
 20
134.2033501519097
 30
0.0
 10
106.4021185980903
 20
133.1209011501736
 30
0.0
 10
106.213671875
 20
131.3568400065104
 30
0.0
 10
105.8436686197917
 20
129.5190538194444
 30
0.0
 10
105.5553141276042
 20
127.7870320638021
 30
0.0
  0
SPLINE
  5
34
330
A
100
AcDbEntity
  8
LAYER_1
 62
     7
100
AcDbSpline
210
0.0
220
0.0
230
1.0
 70
     8
 71
     3
 72
    17
 73
    13
 74
     0
 42
0.0000000001
 43
0.0000000001
 40
0.0
 40
0.0
 40
0.0
 40
0.0
 40
1.0
 40
1.0
 40
1.0
 40
2.0
 40
2.0
 40
2.0
 40
3.0
 40
3.0
 40
3.0
 40
4.0
 40
4.0
 40
4.0
 40
4.0
 10
108.7723442925347
 20
136.8462551540798
 30
0.0
 10
108.317591688368
 20
136.4529975043403
 30
0.0
 10
108.346875
 20
135.4869927300347
 30
0.0
 10
108.175481499566
 20
134.9221693250868
 30
0.0
 10
107.9816948784722
 20
134.2834486219618
 30
0.0
 10
107.7331312391493
 20
133.7423963758681
 30
0.0
 10
107.5679389105903
 20
133.0406304253472
 30
0.0
 10
107.3982679578993
 20
132.3192274305555
 30
0.0
 10
107.0799411349826
 20
131.739417860243
 30
0.0
 10
107.0132785373264
 20
131.0102634006076
 30
0.0
 10
106.9481662326389
 20
130.2957505967882
 30
0.0
 10
107.1731309678819
 20
129.2281155056423
 30
0.0
 10
106.9097534179687
 20
128.6336642795139
 30
0.0
  0
SPLINE
  5
33
330
A
100
AcDbEntity
  8
LAYER_1
 62
     7
100
AcDbSpline
210
0.0
220
0.0
230
1.0
 70
     8
 71
     3
 72
     8
 73
     4
 74
     0
 42
0.0000000001
 43
0.0000000001
 40
0.0
 40
0.0
 40
0.0
 40
0.0
 40
1.0
 40
1.0
 40
1.0
 40
1.0
 10
108.687939453125
 20
132.9515747070312
 30
0.0
 10
107.7994493272569
 20
131.9797132703993
 30
0.0
 10
108.1334513346354
 20
130.3388142903646
 30
0.0
 10
107.9257120768229
 20
129.141643608941
 30
0.0
  0
SPLINE
  5
32
330
A
100
AcDbEntity
  8
LAYER_1
 62
     7
100
AcDbSpline
210
0.0
220
0.0
230
1.0
 70
     8
 71
     3
 72
     8
 73
     4
 74
     0
 42
0.0000000001
 43
0.0000000001
 40
0.0
 40
0.0
 40
0.0
 40
0.0
 40
1.0
 40
1.0
 40
1.0
 40
1.0
 10
107.9257120768229
 20
129.2263929578993
 30
0.0
 10
108.5997450086805
 20
129.3438707139757
 30
0.0
 10
108.9227227105035
 20
128.8388197157118
 30
0.0
 10
109.5345716688368
 20
128.8875678168403
 30
0.0
  0
SPLINE
  5
31
330
A
100
AcDbEntity
  8
LAYER_1
 62
     7
100
AcDbSpline
210
0.0
220
0.0
230
1.0
 70
     8
 71
     3
 72
    11
 73
     7
 74
     0
 42
0.0000000001
 43
0.0000000001
 40
0.0
 40
0.0
 40
0.0
 40
0.0
 40
1.0
 40
1.0
 40
1.0
 40
2.0
 40
2.0
 40
2.0
 40
2.0
 10
106.5712727864583
 20
128.3795884874132
 30
0.0
 10
107.4239339192708
 20
128.3795884874132
 30
0.0
 10
107.8109903971354
 20
128.1394653320313
 30
0.0
 10
108.5187852647569
 20
127.9565307617187
 30
0.0
 10
109.208837890625
 20
127.7779025607639
 30
0.0
 10
109.9588351779514
 20
127.7994344075521
 30
0.0
 10
110.6352796766493
 20
127.6175333658854
 30
0.0
  0
SPLINE
  5
30
330
A
100
AcDbEntity
  8
LAYER_1
 62
     7
100
AcDbSpline
210
0.0
220
0.0
230
1.0
 70
     8
 71
     3
 72
    11
 73
     7
 74
     0
 42
0.0000000001
 43
0.0000000001
 40
0.0
 40
0.0
 40
0.0
 40
0.0
 40
1.0
 40
1.0
 40
1.0
 40
2.0
 40
2.0
 40
2.0
 40
2.0
 10
104.9624131944444
 20
127.363629828559
 30
0.0
 10
105.7124104817708
 20
127.4459676106771
 30
0.0
 10
106.5449178059896
 20
127.0925008138021
 30
0.0
 10
107.3331556532118
 20
127.0246324327257
 30
0.0
 10
108.163079155816
 20
126.9531467013889
 30
0.0
 10
109.0269368489583
 20
126.7111287434896
 30
0.0
 10
109.8730523003472
 20
126.7709011501736
 30
0.0
  0
SPLINE
  5
2F
330
A
100
AcDbEntity
  8
LAYER_1
 62
     7
100
AcDbSpline
210
0.0
220
0.0
230
1.0
 70
     8
 71
     3
 72
    11
 73
     7
 74
     0
 42
0.0000000001
 43
0.0000000001
 40
0.0
 40
0.0
 40
0.0
 40
0.0
 40
1.0
 40
1.0
 40
1.0
 40
2.0
 40
2.0
 40
2.0
 40
2.0
 10
103.6923787434896
 20
126.5169976128472
 30
0.0
 10
104.4360026041667
 20
126.4670437282986
 30
0.0
 10
105.1591281467014
 20
126.1020358615451
 30
0.0
 10
105.9761325412326
 20
126.0939398871528
 30
0.0
 10
106.66015625
 20
126.0872219509549
 30
0.0
 10
107.2823404947917
 20
126.0787814670139
 30
0.0
 10
107.8411349826389
 20
125.6703653971354
 30
0.0
  0
SPLINE
  5
2E
330
A
100
AcDbEntity
  8
LAYER_1
 62
     7
100
AcDbSpline
210
0.0
220
0.0
230
1.0
 70
     8
 71
     3
 72
     8
 73
     4
 74
     0
 42
0.0000000001
 43
0.0000000001
 40
0.0
 40
0.0
 40
0.0
 40
0.0
 40
1.0
 40
1.0
 40
1.0
 40
1.0
 10
103.6078016493055
 20
124.993059624566
 30
0.0
 10
104.4165378146701
 20
124.688685438368
 30
0.0
 10
105.8243760850694
 20
125.1797837999132
 30
0.0
 10
106.4865234375
 20
124.5696573893229
 30
0.0
  0
SPLINE
  5
2D
330
A
100
AcDbEntity
  8
LAYER_1
 62
     7
100
AcDbSpline
210
0.0
220
0.0
230
1.0
 70
     8
 71
     3
 72
     8
 73
     4
 74
     0
 42
0.0000000001
 43
0.0000000001
 40
0.0
 40
0.0
 40
0.0
 40
0.0
 40
1.0
 40
1.0
 40
1.0
 40
1.0
 10
105.8090454101562
 20
123.9771009657118
 30
0.0
 10
106.550774468316
 20
123.6045138888889
 30
0.0
 10
107.3601996527778
 20
123.7827975802951
 30
0.0
 10
108.0952107747396
 20
123.4689493815104
 30
0.0
  0
SPLINE
  5
2C
330
A
100
AcDbEntity
  8
LAYER_1
 62
     7
100
AcDbSpline
210
0.0
220
0.0
230
1.0
 70
     8
 71
     3
 72
     8
 73
     4
 74
     0
 42
0.0000000001
 43
0.0000000001
 40
0.0
 40
0.0
 40
0.0
 40
0.0
 40
1.0
 40
1.0
 40
1.0
 40
1.0
 10
104.3698567708333
 20
122.960797797309
 30
0.0
 10
105.3451633029514
 20
122.9272081163194
 30
0.0
 10
106.2927368164063
 20
123.0565714518229
 30
0.0
 10
107.2485785590278
 20
122.960797797309
 30
0.0
  0
SPLINE
  5
2B
330
A
100
AcDbEntity
  8
LAYER_1
 62
     7
100
AcDbSpline
210
0.0
220
0.0
230
1.0
 70
     8
 71
     3
 72
     8
 73
     4
 74
     0
 42
0.0000000001
 43
0.0000000001
 40
0.0
 40
0.0
 40
0.0
 40
0.0
 40
1.0
 40
1.0
 40
1.0
 40
1.0
 10
102.9304958767361
 20
122.0295884874132
 30
0.0
 10
103.9144151475694
 20
121.9389824761285
 30
0.0
 10
105.1057291666667
 20
122.1029690212674
 30
0.0
 10
106.0631212022569
 20
122.1989149305556
 30
0.0
  0
SPLINE
  5
2A
330
A
100
AcDbEntity
  8
LAYER_1
 62
     7
100
AcDbSpline
210
0.0
220
0.0
230
1.0
 70
     8
 71
     3
 72
     8
 73
     4
 74
     0
 42
0.0000000001
 43
0.0000000001
 40
0.0
 40
0.0
 40
0.0
 40
0.0
 40
1.0
 40
1.0
 40
1.0
 40
1.0
 10
101.999114312066
 20
121.013629828559
 30
0.0
 10
102.7711602105035
 20
120.9984714084201
 30
0.0
 10
103.5070326063368
 20
121.0408460828993
 30
0.0
 10
104.2852796766493
 20
121.013629828559
 30
0.0
  0
SPLINE
  5
29
330
A
100
AcDbEntity
  8
LAYER_1
 62
     7
100
AcDbSpline
210
0.0
220
0.0
230
1.0
 70
     8
 71
     3
 72
    11
 73
     7
 74
     0
 42
0.0000000001
 43
0.0000000001
 40
0.0
 40
0.0
 40
0.0
 40
0.0
 40
1.0
 40
1.0
 40
1.0
 40
2.0
 40
2.0
 40
2.0
 40
2.0
 10
103.8618774414062
 20
120.5056504991319
 30
0.0
 10
103.8982231987847
 20
120.1158379448785
 30
0.0
 10
103.6425971137153
 20
119.1403591579861
 30
0.0
 10
103.5228800455729
 20
118.7274644639757
 30
0.0
 10
103.3914496527778
 20
118.2742621527778
 30
0.0
 10
103.0507297092014
 20
117.5097954644097
 30
0.0
 10
102.8457465277778
 20
117.1189493815104
 30
0.0
  0
SPLINE
  5
28
330
A
100
AcDbEntity
  8
LAYER_1
 62
     7
100
AcDbSpline
210
0.0
220
0.0
230
1.0
 70
     8
 71
     3
 72
    14
 73
    10
 74
     0
 42
0.0000000001
 43
0.0000000001
 40
0.0
 40
0.0
 40
0.0
 40
0.0
 40
1.0
 40
1.0
 40
1.0
 40
2.0
 40
2.0
 40
2.0
 40
3.0
 40
3.0
 40
3.0
 40
3.0
 10
105.4705647786458
 20
121.5216091579861
 30
0.0
 10
104.0081217447917
 20
121.2542697482639
 30
0.0
 10
104.8309828016493
 20
118.2236192491319
 30
0.0
 10
104.1817545572917
 20
117.1358303493924
 30
0.0
 10
103.7142550998264
 20
116.3527601453993
 30
0.0
 10
103.5013481987847
 20
116.0552761501736
 30
0.0
 10
103.2899915907118
 20
115.1507663302951
 30
0.0
 10
103.1332397460937
 20
114.4801784939236
 30
0.0
 10
103.0469401041667
 20
113.6121866861979
 30
0.0
 10
102.6764200846354
 20
113.0549424913194
 30
0.0
  0
SPLINE
  5
27
330
A
100
AcDbEntity
  8
LAYER_1
 62
     7
100
AcDbSpline
210
0.0
220
0.0
230
1.0
 70
     8
 71
     3
 72
    23
 73
    19
 74
     0
 42
0.0000000001
 43
0.0000000001
 40
0.0
 40
0.0
 40
0.0
 40
0.0
 40
1.0
 40
1.0
 40
1.0
 40
2.0
 40
2.0
 40
2.0
 40
3.0
 40
3.0
 40
3.0
 40
4.0
 40
4.0
 40
4.0
 40
5.0
 40
5.0
 40
5.0
 40
6.0
 40
6.0
 40
6.0
 40
6.0
 10
106.7404269748264
 20
122.5375678168403
 30
0.0
 10
106.5530137803819
 20
122.0347561306424
 30
0.0
 10
106.6263943142361
 20
121.5116183810764
 30
0.0
 10
106.4903130425347
 20
121.0094957139757
 30
0.0
 10
106.3590549045139
 20
120.5242540147569
 30
0.0
 10
105.9185994466146
 20
120.1458102756076
 30
0.0
 10
105.7410047743056
 20
119.6777940538194
 30
0.0
 10
105.2741943359375
 20
118.4478949652778
 30
0.0
 10
105.4915798611111
 20
117.1084418402778
 30
0.0
 10
105.2352647569444
 20
115.8509819878472
 30
0.0
 10
105.0371717664931
 20
114.878948296441
 30
0.0
 10
104.3579711914062
 20
113.8955457899306
 30
0.0
 10
103.8406901041667
 20
112.9726047092014
 30
0.0
 10
103.5764512803819
 20
112.5007988823785
 30
0.0
 10
103.2209174262153
 20
112.0584486219618
 30
0.0
 10
103.0765679253472
 20
111.5313490125868
 30
0.0
 10
102.9470323350694
 20
111.0571316189236
 30
0.0
 10
102.9883734809028
 20
110.612542046441
 30
0.0
 10
102.7611694335937
 20
110.1763929578993
 30
0.0
  0
SPLINE
  5
26
330
A
100
AcDbEntity
  8
LAYER_1
 62
     7
100
AcDbSpline
210
0.0
220
0.0
230
1.0
 70
     8
 71
     3
 72
    14
 73
    10
 74
     0
 42
0.0000000001
 43
0.0000000001
 40
0.0
 40
0.0
 40
0.0
 40
0.0
 40
1.0
 40
1.0
 40
1.0
 40
2.0
 40
2.0
 40
2.0
 40
3.0
 40
3.0
 40
3.0
 40
3.0
 10
108.349114312066
 20
123.6382758246528
 30
0.0
 10
107.3533094618056
 20
122.9368543836805
 30
0.0
 10
107.3043891059028
 20
120.3743923611111
 30
0.0
 10
107.0728786892361
 20
119.231654188368
 30
0.0
 10
106.7542073567708
 20
117.6574178059896
 30
0.0
 10
105.9694146050347
 20
116.4833292643229
 30
0.0
 10
105.8116292317708
 20
114.8329562717014
 30
0.0
 10
105.5420505099826
 20
112.0212415907118
 30
0.0
 10
104.0570421006944
 20
109.7516126844618
 30
0.0
 10
102.7611694335937
 20
107.3822482638889
 30
0.0
  0
SPLINE
  5
25
330
A
100
AcDbEntity
  8
LAYER_1
 62
     7
100
AcDbSpline
210
0.0
220
0.0
230
1.0
 70
     8
 71
     3
 72
    20
 73
    16
 74
     0
 42
0.0000000001
 43
0.0000000001
 40
0.0
 40
0.0
 40
0.0
 40
0.0
 40
1.0
 40
1.0
 40
1.0
 40
2.0
 40
2.0
 40
2.0
 40
3.0
 40
3.0
 40
3.0
 40
4.0
 40
4.0
 40
4.0
 40
5.0
 40
5.0
 40
5.0
 40
5.0
 10
108.4338636610243
 20
121.4370320638021
 30
0.0
 10
108.365478515625
 20
120.5512980143229
 30
0.0
 10
108.0021931966146
 20
119.9428941514757
 30
0.0
 10
107.6659518771701
 20
119.170159233941
 30
0.0
 10
107.4091200086806
 20
118.5807033962674
 30
0.0
 10
107.3347059461806
 20
117.6865288628472
 30
0.0
 10
107.1807101779514
 20
117.0385064019097
 30
0.0
 10
106.8258653428819
 20
115.5452297634549
 30
0.0
 10
106.029876030816
 20
114.2743340386285
 30
0.0
 10
105.7906141493055
 20
112.8008666992187
 30
0.0
 10
105.5405002170139
 20
111.2612535264757
 30
0.0
 10
104.8211642795139
 20
109.8339504665799
 30
0.0
 10
104.5183403862847
 20
108.2924424913194
 30
0.0
 10
104.3641723632812
 20
107.5085110134549
 30
0.0
 10
103.8668728298611
 20
104.9369194878472
 30
0.0
 10
103.3538981119792
 20
104.5882758246528
 30
0.0
  0
SPLINE
  5
24
330
A
100
AcDbEntity
  8
LAYER_1
 62
     7
100
AcDbSpline
210
0.0
220
0.0
230
1.0
 70
     8
 71
     3
 72
    14
 73
    10
 74
     0
 42
0.0000000001
 43
0.0000000001
 40
0.0
 40
0.0
 40
0.0
 40
0.0
 40
1.0
 40
1.0
 40
1.0
 40
2.0
 40
2.0
 40
2.0
 40
3.0
 40
3.0
 40
3.0
 40
3.0
 10
108.6031901041667
 20
117.6271009657118
 30
0.0
 10
108.067822265625
 20
116.4793674045139
 30
0.0
 10
107.7138387044271
 20
115.6752821180556
 30
0.0
 10
107.5021375868056
 20
114.4057644314236
 30
0.0
 10
107.3076619466146
 20
113.2378770616319
 30
0.0
 10
106.5475016276042
 20
112.3499037000868
 30
0.0
 10
106.3998792860243
 20
111.1327514648437
 30
0.0
 10
106.1583780924479
 20
109.1418307834201
 30
0.0
 10
105.6590115017361
 20
107.3117960611979
 30
0.0
 10
104.7930867513021
 20
105.6042344835069
 30
0.0
  0
SPLINE
  5
23
330
A
100
AcDbEntity
  8
LAYER_1
 62
     7
100
AcDbSpline
210
0.0
220
0.0
230
1.0
 70
     8
 71
     3
 72
    14
 73
    10
 74
     0
 42
0.0000000001
 43
0.0000000001
 40
0.0
 40
0.0
 40
0.0
 40
0.0
 40
1.0
 40
1.0
 40
1.0
 40
2.0
 40
2.0
 40
2.0
 40
3.0
 40
3.0
 40
3.0
 40
3.0
 10
108.6031901041667
 20
113.4781724717882
 30
0.0
 10
108.1108859592014
 20
113.2742228190104
 30
0.0
 10
108.0540418836805
 20
112.3602389865451
 30
0.0
 10
107.9238172743056
 20
111.8696573893229
 30
0.0
 10
107.7364040798611
 20
111.1641018337674
 30
0.0
 10
107.2547797309028
 20
110.6118530273437
 30
0.0
 10
107.0751180013021
 20
109.9200778537326
 30
0.0
 10
106.8136352539062
 20
108.9141099717882
 30
0.0
 10
107.3088677300347
 20
107.3757025824653
 30
0.0
 10
106.2324476453993
 20
106.7049424913194
 30
0.0
  0
SPLINE
  5
22
330
A
100
AcDbEntity
  8
LAYER_1
 62
     7
100
AcDbSpline
210
0.0
220
0.0
230
1.0
 70
     8
 71
     3
 72
     8
 73
     4
 74
     0
 42
0.0000000001
 43
0.0000000001
 40
0.0
 40
0.0
 40
0.0
 40
0.0
 40
1.0
 40
1.0
 40
1.0
 40
1.0
 10
108.5186130099826
 20
110.599622938368
 30
0.0
 10
108.007533094618
 20
109.762981499566
 30
0.0
 10
107.9734266493056
 20
108.4789944118923
 30
0.0
 10
107.4179050021701
 20
107.7209011501736
 30
0.0
  0
ENDSEC
  0
SECTION
  2
OBJECTS
  0
DICTIONARY
  5
19
330
0
100
AcDbDictionary
281
     1
  3
ACAD_COLOR
350
218
  3
ACAD_GROUP
350
1A
  3
ACAD_LAYOUT
350
1E5
  3
ACAD_MATERIAL
350
21A
  3
ACAD_MLINESTYLE
350
1B
  3
ACAD_PLOTSETTINGS
350
1E6
  3
ACAD_PLOTSTYLENAME
350
1E3
  3
ACDBHEADERROUNDTRIPXREC
350
217
  0
DICTIONARY
  5
218
102
{ACAD_REACTORS
330
19
102
}
330
19
100
AcDbDictionary
281
     1
  0
DICTIONARY
  5
1A
102
{ACAD_REACTORS
330
19
102
}
330
19
100
AcDbDictionary
281
     1
  0
DICTIONARY
  5
1E5
102
{ACAD_REACTORS
330
19
102
}
330
19
100
AcDbDictionary
281
     1
  3
Layout1
350
1E8
  3
Model
350
1E7
  0
DICTIONARY
  5
21A
102
{ACAD_REACTORS
330
19
102
}
330
19
100
AcDbDictionary
281
     1
  0
DICTIONARY
  5
1B
102
{ACAD_REACTORS
330
19
102
}
330
19
100
AcDbDictionary
281
     1
  3
STANDARD
350
1C
  0
DICTIONARY
  5
1E6
102
{ACAD_REACTORS
330
19
102
}
330
19
100
AcDbDictionary
281
     1
  0
ACDBDICTIONARYWDFLT
  5
1E3
102
{ACAD_REACTORS
330
19
102
}
330
19
100
AcDbDictionary
281
     1
  3
Normal
350
1E4
100
AcDbDictionaryWithDefault
340
1E4
  0
DICTIONARY
  5
217
102
{ACAD_REACTORS
330
19
102
}
330
19
100
AcDbDictionary
281
     1
  3
COLORDICT
350
219
  3
MATERIALDICT
350
21B
  0
LAYOUT
  5
1E8
102
{ACAD_REACTORS
330
1E5
102
}
102
{ACAD_XDICTIONARY
360
21C
102
}
330
1E5
100
AcDbPlotSettings
  1

  2
Support Center HP LaserJet 4
  4

  6

 40
0.0
 41
0.0
 42
0.0
 43
0.0
 44
0.0
 45
0.0
 46
0.0
 47
0.0
 48
0.0
 49
0.0
140
0.0
141
0.0
142
1.0
143
1.0
 70
   688
 72
     0
 73
     0
 74
     5
  7

 75
    16
147
1.0
148
0.0
149
0.0
100
AcDbLayout
  1
Layout1
 70
     0
 71
     1
 10
0.0
 20
0.0
 11
12.0
 21
9.0
 12
0.0
 22
0.0
 32
0.0
 14
1.000000000000000E+20
 24
1.000000000000000E+20
 34
1.000000000000000E+20
 15
-1.000000000000000E+20
 25
-1.000000000000000E+20
 35
-1.000000000000000E+20
146
0.0
 13
0.0
 23
0.0
 33
0.0
 16
1.0
 26
0.0
 36
0.0
 17
0.0
 27
1.0
 37
0.0
 76
     0
330
B
  0
LAYOUT
  5
1E7
102
{ACAD_REACTORS
330
1E5
102
}
102
{ACAD_XDICTIONARY
360
21E
102
}
330
1E5
100
AcDbPlotSettings
  1

  2
Support Center HP LaserJet 4
  4

  6

 40
0.0
 41
0.0
 42
0.0
 43
0.0
 44
0.0
 45
0.0
 46
0.0
 47
0.0
 48
0.0
 49
0.0
140
0.0
141
0.0
142
1.0
143
1.0
 70
  1712
 72
     0
 73
     0
 74
     0
  7

 75
     0
147
1.0
148
0.0
149
0.0
100
AcDbLayout
  1
Model
 70
     1
 71
     0
 10
0.0
 20
0.0
 11
12.0
 21
9.0
 12
0.0
 22
0.0
 32
0.0
 14
0.0
 24
0.0
 34
0.0
 15
0.0
 25
0.0
 35
0.0
146
0.0
 13
0.0
 23
0.0
 33
0.0
 16
1.0
 26
0.0
 36
0.0
 17
0.0
 27
1.0
 37
0.0
 76
     0
330
A
  0
MLINESTYLE
  5
1C
102
{ACAD_REACTORS
330
1B
102
}
330
1B
100
AcDbMlineStyle
  2
STANDARD
 70
     0
  3

 62
     0
 51
90.0000000000002
 52
90.0000000000002
 71
     2
 49
0.5
 62
   256
  6
BYLAYER
 49
-0.5
 62
   256
  6
BYLAYER
  0
ACDBPLACEHOLDER
  5
1E4
102
{ACAD_REACTORS
330
1E3
102
}
330
1E3
  0
XRECORD
  5
219
102
{ACAD_REACTORS
330
217
102
}
330
217
100
AcDbXrecord
340
218
  0
XRECORD
  5
21B
102
{ACAD_REACTORS
330
217
102
}
330
217
100
AcDbXrecord
340
21A
  0
DICTIONARY
  5
21C
330
1E8
100
AcDbDictionary
280
     1
281
     1
  3
ACAD_XREC_ROUNDTRIP
360
21D
  0
DICTIONARY
  5
21E
330
1E7
100
AcDbDictionary
280
     1
281
     1
  3
ACAD_XREC_ROUNDTRIP
360
21F
  0
XRECORD
  5
21D
102
{ACAD_REACTORS
330
21C
102
}
330
21C
100
AcDbXrecord
102
SHADEPLOT
 70
     0
102
SHADEPLOTRESLEVEL
 70
     0
102
SHADEPLOTCUSTOMDPI
 70
     0
  0
XRECORD
  5
21F
102
{ACAD_REACTORS
330
21E
102
}
330
21E
100
AcDbXrecord
102
SHADEPLOT
 70
     0
102
SHADEPLOTRESLEVEL
 70
     0
102
SHADEPLOTCUSTOMDPI
 70
     0
  0
ENDSEC
  0
EOF
