  0
SECTION
  2
HEADER
  9
$ACADVER
  1
AC1015
  9
$ACADMAINTVER
 70
     6
  9
$DWGCODEPAGE
  3
ANSI_1252
  9
$INSBASE
 10
0.0
 20
0.0
 30
0.0
  9
$EXTMIN
 10
9.505938215881823
 20
23.91964063332734
 30
-0.0015258207003612
  9
$EXTMAX
 10
80.84588002530931
 20
169.7694589274291
 30
0.0000000349246008
  9
$LIMMIN
 10
9.508119032118055
 20
23.79045138888889
  9
$LIMMAX
 10
80.97455783420138
 20
169.7650037977431
  9
$ORTHOMODE
 70
     0
  9
$REGENMODE
 70
     1
  9
$FILLMODE
 70
     1
  9
$QTEXTMODE
 70
     0
  9
$MIRRTEXT
 70
     1
  9
$LTSCALE
 40
1.0
  9
$ATTMODE
 70
     1
  9
$TEXTSIZE
 40
0.2
  9
$TRACEWID
 40
0.05
  9
$TEXTSTYLE
  7
STANDARD
  9
$CLAYER
  8
0
  9
$CELTYPE
  6
CONTINUOUS
  9
$CECOLOR
 62
   256
  9
$CELTSCALE
 40
1.0
  9
$DISPSILH
 70
     0
  9
$DIMSCALE
 40
1.0
  9
$DIMASZ
 40
0.18
  9
$DIMEXO
 40
0.0625
  9
$DIMDLI
 40
0.38
  9
$DIMRND
 40
0.0
  9
$DIMDLE
 40
0.0
  9
$DIMEXE
 40
0.18
  9
$DIMTP
 40
0.0
  9
$DIMTM
 40
0.0
  9
$DIMTXT
 40
0.18
  9
$DIMCEN
 40
0.09
  9
$DIMTSZ
 40
0.0
  9
$DIMTOL
 70
     0
  9
$DIMLIM
 70
     0
  9
$DIMTIH
 70
     1
  9
$DIMTOH
 70
     1
  9
$DIMSE1
 70
     0
  9
$DIMSE2
 70
     0
  9
$DIMTAD
 70
     0
  9
$DIMZIN
 70
     0
  9
$DIMBLK
  1

  9
$DIMASO
 70
     1
  9
$DIMSHO
 70
     1
  9
$DIMPOST
  1

  9
$DIMAPOST
  1

  9
$DIMALT
 70
     0
  9
$DIMALTD
 70
     2
  9
$DIMALTF
 40
25.4
  9
$DIMLFAC
 40
1.0
  9
$DIMTOFL
 70
     0
  9
$DIMTVP
 40
0.0
  9
$DIMTIX
 70
     0
  9
$DIMSOXD
 70
     0
  9
$DIMSAH
 70
     0
  9
$DIMBLK1
  1

  9
$DIMBLK2
  1

  9
$DIMSTYLE
  2
STANDARD
  9
$DIMCLRD
 70
     0
  9
$DIMCLRE
 70
     0
  9
$DIMCLRT
 70
     0
  9
$DIMTFAC
 40
1.0
  9
$DIMGAP
 40
0.09
  9
$DIMJUST
 70
     0
  9
$DIMSD1
 70
     0
  9
$DIMSD2
 70
     0
  9
$DIMTOLJ
 70
     1
  9
$DIMTZIN
 70
     0
  9
$DIMALTZ
 70
     0
  9
$DIMALTTZ
 70
     0
  9
$DIMUPT
 70
     0
  9
$DIMDEC
 70
     4
  9
$DIMTDEC
 70
     4
  9
$DIMALTU
 70
     2
  9
$DIMALTTD
 70
     2
  9
$DIMTXSTY
  7
STANDARD
  9
$DIMAUNIT
 70
     0
  9
$DIMADEC
 70
     0
  9
$DIMALTRND
 40
0.0
  9
$DIMAZIN
 70
     0
  9
$DIMDSEP
 70
    46
  9
$DIMATFIT
 70
     3
  9
$DIMFRAC
 70
     0
  9
$DIMLDRBLK
  1

  9
$DIMLUNIT
 70
     2
  9
$DIMLWD
 70
    -2
  9
$DIMLWE
 70
    -2
  9
$DIMTMOVE
 70
     0
  9
$LUNITS
 70
     2
  9
$LUPREC
 70
     4
  9
$SKETCHINC
 40
0.1
  9
$FILLETRAD
 40
0.0
  9
$AUNITS
 70
     0
  9
$AUPREC
 70
     0
  9
$MENU
  1
acad
  9
$ELEVATION
 40
0.0
  9
$PELEVATION
 40
0.0
  9
$THICKNESS
 40
0.0
  9
$LIMCHECK
 70
     0
  9
$CHAMFERA
 40
0.0
  9
$CHAMFERB
 40
0.0
  9
$CHAMFERC
 40
0.0
  9
$CHAMFERD
 40
0.0
  9
$SKPOLY
 70
     0
  9
$TDCREATE
 40
2444971.666666667
  9
$TDUCREATE
 40
2444972.0
  9
$TDUPDATE
 40
2452215.554333565
  9
$TDUUPDATE
 40
2452215.887666898
  9
$TDINDWG
 40
0.0006115741
  9
$TDUSRTIMER
 40
0.0006115741
  9
$USRTIMER
 70
     1
  9
$ANGBASE
 50
0.0
  9
$ANGDIR
 70
     0
  9
$PDMODE
 70
     0
  9
$PDSIZE
 40
0.0
  9
$PLINEWID
 40
0.0
  9
$SPLFRAME
 70
     0
  9
$SPLINETYPE
 70
     6
  9
$SPLINESEGS
 70
     8
  9
$HANDSEED
  5
184
  9
$SURFTAB1
 70
     6
  9
$SURFTAB2
 70
     6
  9
$SURFTYPE
 70
     6
  9
$SURFU
 70
     6
  9
$SURFV
 70
     6
  9
$UCSBASE
  2

  9
$UCSNAME
  2

  9
$UCSORG
 10
0.0
 20
0.0
 30
0.0
  9
$UCSXDIR
 10
1.0
 20
0.0
 30
0.0
  9
$UCSYDIR
 10
0.0
 20
1.0
 30
0.0
  9
$UCSORTHOREF
  2

  9
$UCSORTHOVIEW
 70
     0
  9
$UCSORGTOP
 10
0.0
 20
0.0
 30
0.0
  9
$UCSORGBOTTOM
 10
0.0
 20
0.0
 30
0.0
  9
$UCSORGLEFT
 10
0.0
 20
0.0
 30
0.0
  9
$UCSORGRIGHT
 10
0.0
 20
0.0
 30
0.0
  9
$UCSORGFRONT
 10
0.0
 20
0.0
 30
0.0
  9
$UCSORGBACK
 10
0.0
 20
0.0
 30
0.0
  9
$PUCSBASE
  2

  9
$PUCSNAME
  2

  9
$PUCSORG
 10
0.0
 20
0.0
 30
0.0
  9
$PUCSXDIR
 10
1.0
 20
0.0
 30
0.0
  9
$PUCSYDIR
 10
0.0
 20
1.0
 30
0.0
  9
$PUCSORTHOREF
  2

  9
$PUCSORTHOVIEW
 70
     0
  9
$PUCSORGTOP
 10
0.0
 20
0.0
 30
0.0
  9
$PUCSORGBOTTOM
 10
0.0
 20
0.0
 30
0.0
  9
$PUCSORGLEFT
 10
0.0
 20
0.0
 30
0.0
  9
$PUCSORGRIGHT
 10
0.0
 20
0.0
 30
0.0
  9
$PUCSORGFRONT
 10
0.0
 20
0.0
 30
0.0
  9
$PUCSORGBACK
 10
0.0
 20
0.0
 30
0.0
  9
$USERI1
 70
     0
  9
$USERI2
 70
     0
  9
$USERI3
 70
     0
  9
$USERI4
 70
     0
  9
$USERI5
 70
     0
  9
$USERR1
 40
0.0
  9
$USERR2
 40
0.0
  9
$USERR3
 40
0.0
  9
$USERR4
 40
0.0
  9
$USERR5
 40
0.0
  9
$WORLDVIEW
 70
     1
  9
$SHADEDGE
 70
     3
  9
$SHADEDIF
 70
    70
  9
$TILEMODE
 70
     1
  9
$MAXACTVP
 70
    16
  9
$PINSBASE
 10
0.0
 20
0.0
 30
0.0
  9
$PLIMCHECK
 70
     0
  9
$PEXTMIN
 10
1.000000000000000E+20
 20
1.000000000000000E+20
 30
1.000000000000000E+20
  9
$PEXTMAX
 10
-1.000000000000000E+20
 20
-1.000000000000000E+20
 30
-1.000000000000000E+20
  9
$PLIMMIN
 10
0.0
 20
0.0
  9
$PLIMMAX
 10
12.0
 20
9.0
  9
$UNITMODE
 70
     0
  9
$VISRETAIN
 70
     0
  9
$PLINEGEN
 70
     1
  9
$PSLTSCALE
 70
     0
  9
$TREEDEPTH
 70
  3020
  9
$CMLSTYLE
  2
STANDARD
  9
$CMLJUST
 70
     0
  9
$CMLSCALE
 40
1.0
  9
$PROXYGRAPHICS
 70
     0
  9
$MEASUREMENT
 70
     0
  9
$CELWEIGHT
370
    -1
  9
$ENDCAPS
280
     0
  9
$JOINSTYLE
280
     0
  9
$LWDISPLAY
290
     0
  9
$INSUNITS
 70
     0
  9
$HYPERLINKBASE
  1

  9
$STYLESHEET
  1

  9
$XEDIT
290
     1
  9
$CEPSNTYPE
380
     0
  9
$PSTYLEMODE
290
     1
  9
$FINGERPRINTGUID
  2
{890B5551-CEC8-11D5-923F-00805F198AD5}
  9
$VERSIONGUID
  2
{890B5553-CEC8-11D5-923F-00805F198AD5}
  9
$EXTNAMES
290
     1
  9
$PSVPSCALE
 40
0.0
  9
$OLESTARTUP
290
     0
  0
ENDSEC
  0
SECTION
  2
CLASSES
  0
CLASS
  1
LWPOLYLINE
  2
AcDbPolyline
  3
AutoCAD 2000
 90
        0
280
     0
281
     1
  0
CLASS
  1
IMAGE
  2
AcDbRasterImage
  3
ISM
 90
      127
280
     0
281
     1
  0
CLASS
  1
OLE2FRAME
  2
AcDbOle2Frame
  3
AutoCAD 2000
 90
        0
280
     0
281
     1
  0
CLASS
  1
HATCH
  2
AcDbHatch
  3
AutoCAD 2000
 90
        0
280
     0
281
     1
  0
CLASS
  1
DICTIONARYVAR
  2
AcDbDictionaryVar
  3
AutoCAD 2000
 90
        0
280
     0
281
     0
  0
CLASS
  1
RASTERVARIABLES
  2
AcDbRasterVariables
  3
ISM
 90
        0
280
     0
281
     0
  0
CLASS
  1
IMAGEDEF
  2
AcDbRasterImageDef
  3
ISM
 90
        0
280
     0
281
     0
  0
CLASS
  1
IMAGEDEF_REACTOR
  2
AcDbRasterImageDefReactor
  3
ISM
 90
        1
280
     0
281
     0
  0
CLASS
  1
IDBUFFER
  2
AcDbIdBuffer
  3
AutoCAD 2000
 90
        0
280
     0
281
     0
  0
CLASS
  1
SPATIAL_FILTER
  2
AcDbSpatialFilter
  3
AutoCAD 2000
 90
        0
280
     0
281
     0
  0
CLASS
  1
XRECORD
  2
AcDbXrecord
  3
AutoCAD 2000
 90
        0
280
     0
281
     0
  0
CLASS
  1
SORTENTSTABLE
  2
AcDbSortentsTable
  3
AutoCAD 2000
 90
        0
280
     0
281
     0
  0
CLASS
  1
LAYER_INDEX
  2
AcDbLayerIndex
  3
AutoCAD 2000
 90
        0
280
     0
281
     0
  0
CLASS
  1
SPATIAL_INDEX
  2
AcDbSpatialIndex
  3
AutoCAD 2000
 90
        0
280
     0
281
     0
  0
CLASS
  1
OBJECT_PTR
  2
CAseDLPNTableRecord
  3
ASE-LPNTableRecord
 90
        1
280
     1
281
     0
  0
CLASS
  1
LAYOUT
  2
AcDbLayout
  3
ObjectDBX Classes
 90
        0
280
     0
281
     0
  0
CLASS
  1
PLOTSETTINGS
  2
AcDbPlotSettings
  3
AutoCAD 2000
 90
        0
280
     0
281
     0
  0
CLASS
  1
ACDBDICTIONARYWDFLT
  2
AcDbDictionaryWithDefault
  3
AutoCAD 2000
 90
        0
280
     0
281
     0
  0
CLASS
  1
ACDBPLACEHOLDER
  2
AcDbPlaceHolder
  3
ObjectDBX Classes
 90
        0
280
     0
281
     0
  0
CLASS
  1
VBAPROJECT
  2
AcDbVbaProject
  3
ObjectDBX Classes
 90
        0
280
     0
281
     0
  0
CLASS
  1
WIPEOUT
  2
AcDbWipeout
  3
WipeOut|AutoCAD Express Tool|expresstools@autodesk.com
 90
      127
280
     0
281
     1
  0
CLASS
  1
WIPEOUTVARIABLES
  2
AcDbWipeoutVariables
  3
WipeOut|AutoCAD Express Tool|expresstools@autodesk.com
 90
        0
280
     0
281
     0
  0
CLASS
  1
RTEXT
  2
RText
  3
RText|AutoCAD Express Tool|expresstools@autodesk.com
 90
        0
280
     0
281
     1
  0
CLASS
  1
ARCALIGNEDTEXT
  2
AcDbArcAlignedText
  3
ATEXT|AutoCAD Express Tool|expresstools@autodesk.com
 90
        0
280
     0
281
     1
  0
CLASS
  1
LONG_TRANSACTION
  2
AcDbLongTransaction
  3
AutoCAD 2000
 90
        0
280
     1
281
     0
  0
CLASS
  1
LWPOLYLINE
  2
AcDbPolyline
  3
AutoCAD 2000
 90
        0
280
     0
281
     1
  0
CLASS
  1
HATCH
  2
AcDbHatch
  3
AutoCAD 2000
 90
        0
280
     0
281
     1
  0
CLASS
  1
XRECORD
  2
AcDbXrecord
  3
AutoCAD 2000
 90
        0
280
     0
281
     0
  0
ENDSEC
  0
SECTION
  2
TABLES
  0
TABLE
  2
VPORT
  5
7
330
0
100
AcDbSymbolTable
 70
     2
  0
VPORT
  5
150
330
7
100
AcDbSymbolTableRecord
100
AcDbViewportTableRecord
  2
*Active
 70
     0
 10
0.0
 20
0.0
 11
1.0
 21
1.0
 12
45.17590912059557
 22
96.8445497803782
 13
0.0
 23
0.0
 14
1.0
 24
1.0
 15
0.0
 25
0.0
 16
0.0
 26
0.0
 36
1.0
 17
0.0
 27
0.0
 37
0.0
 40
148.1466658262923
 41
1.836842105263158
 42
50.0
 43
0.0
 44
0.0
 50
0.0
 51
0.0
 71
     0
 72
   100
 73
     1
 74
     1
 75
     0
 76
     0
 77
     0
 78
     0
281
     0
 65
     1
110
0.0
120
0.0
130
0.0
111
1.0
121
0.0
131
0.0
112
0.0
122
1.0
132
0.0
 79
     0
146
0.0
  0
ENDTAB
  0
TABLE
  2
LTYPE
  5
4
330
0
100
AcDbSymbolTable
 70
     1
  0
LTYPE
  5
11
330
4
100
AcDbSymbolTableRecord
100
AcDbLinetypeTableRecord
  2
BYBLOCK
 70
     0
  3

 72
    65
 73
     0
 40
0.0
  0
LTYPE
  5
12
330
4
100
AcDbSymbolTableRecord
100
AcDbLinetypeTableRecord
  2
BYLAYER
 70
     0
  3

 72
    65
 73
     0
 40
0.0
  0
LTYPE
  5
13
330
4
100
AcDbSymbolTableRecord
100
AcDbLinetypeTableRecord
  2
CONTINUOUS
 70
     0
  3
Solid line
 72
    65
 73
     0
 40
0.0
  0
ENDTAB
  0
TABLE
  2
LAYER
  5
2
330
0
100
AcDbSymbolTable
 70
     2
  0
LAYER
  5
14
330
2
100
AcDbSymbolTableRecord
100
AcDbLayerTableRecord
  2
0
 70
     0
 62
     7
  6
CONTINUOUS
370
    -3
390
0
  0
LAYER
  5
21
330
2
100
AcDbSymbolTableRecord
100
AcDbLayerTableRecord
  2
LAYER_1
 70
     0
 62
     5
  6
CONTINUOUS
370
    -3
390
0
  0
ENDTAB
  0
TABLE
  2
STYLE
  5
3
330
0
100
AcDbSymbolTable
 70
     5
  0
STYLE
  5
17
330
3
100
AcDbSymbolTableRecord
100
AcDbTextStyleTableRecord
  2
STANDARD
 70
     0
 40
0.0
 41
1.0
 50
0.0
 71
     0
 42
0.2
  3
txt
  4

  0
STYLE
  5
1D
330
3
100
AcDbSymbolTableRecord
100
AcDbTextStyleTableRecord
  2
STD
 70
     0
 40
0.0
 41
1.0
 50
0.0
 71
     0
 42
0.2
  3
txt
  4

  0
STYLE
  5
1E
330
3
100
AcDbSymbolTableRecord
100
AcDbTextStyleTableRecord
  2
TATESTD
 70
     4
 40
0.0
 41
1.0
 50
0.0
 71
     0
 42
0.2
  3
txt
  4

  0
STYLE
  5
1F
330
3
100
AcDbSymbolTableRecord
100
AcDbTextStyleTableRecord
  2
KANJISTD
 70
     0
 40
0.0
 41
1.0
 50
0.0
 71
     0
 42
0.2
  3
txt
  4
extfont
  0
STYLE
  5
20
330
3
100
AcDbSymbolTableRecord
100
AcDbTextStyleTableRecord
  2
KANJITATE
 70
     4
 40
0.0
 41
1.0
 50
0.0
 71
     0
 42
0.2
  3
txt
  4
extfont
  0
ENDTAB
  0
TABLE
  2
VIEW
  5
5
330
0
100
AcDbSymbolTable
 70
     0
  0
ENDTAB
  0
TABLE
  2
UCS
  5
6
330
0
100
AcDbSymbolTable
 70
     0
  0
ENDTAB
  0
TABLE
  2
APPID
  5
8
330
0
100
AcDbSymbolTable
 70
     1
  0
APPID
  5
16
330
8
100
AcDbSymbolTableRecord
100
AcDbRegAppTableRecord
  2
ACAD
 70
     0
  0
ENDTAB
  0
TABLE
  2
DIMSTYLE
  5
9
330
0
100
AcDbSymbolTable
 70
     1
100
AcDbDimStyleTable
  0
DIMSTYLE
105
18
330
9
100
AcDbSymbolTableRecord
100
AcDbDimStyleTableRecord
  2
STANDARD
 70
     0
  3

  4

289
     0
340
17
  0
ENDTAB
  0
TABLE
  2
BLOCK_RECORD
  5
1
330
0
100
AcDbSymbolTable
 70
     0
  0
BLOCK_RECORD
  5
A
330
1
100
AcDbSymbolTableRecord
100
AcDbBlockTableRecord
  2
*MODEL_SPACE
340
14B
  0
BLOCK_RECORD
  5
B
330
1
100
AcDbSymbolTableRecord
100
AcDbBlockTableRecord
  2
*PAPER_SPACE
340
14C
  0
ENDTAB
  0
ENDSEC
  0
SECTION
  2
BLOCKS
  0
BLOCK
  5
D
330
A
100
AcDbEntity
  8
0
100
AcDbBlockBegin
  2
*MODEL_SPACE
 70
     0
 10
0.0
 20
0.0
 30
0.0
  3
*MODEL_SPACE
  1

  4

  0
ENDBLK
  5
E
330
A
100
AcDbEntity
  8
0
100
AcDbBlockEnd
  0
BLOCK
  5
F
330
B
100
AcDbEntity
 67
     1
  8
0
100
AcDbBlockBegin
  2
*PAPER_SPACE
 70
     0
 10
0.0
 20
0.0
 30
0.0
  3
*PAPER_SPACE
  1

  4

  0
ENDBLK
  5
10
330
B
100
AcDbEntity
 67
     1
  8
0
100
AcDbBlockEnd
  0
ENDSEC
  0
SECTION
  2
ENTITIES
  0
LWPOLYLINE
  5
138
330
A
100
AcDbEntity
  8
LAYER_1
 62
     7
100
AcDbPolyline
 90
       12
 70
     1
 43
0.0
 10
16.66943901909722
 20
125.1324137369792
 10
79.7939236111111
 20
148.7168484157986
 10
79.91036783854166
 20
98.51974012586804
 10
80.84226616753472
 20
97.52961968315971
 10
78.39659288194444
 20
95.14216851128471
 10
79.85214572482639
 20
93.91915961371527
 10
79.91036783854166
 20
50.53541666666666
 10
17.01877170138889
 20
27.06708170572917
 10
16.7276611328125
 20
77.67208930121527
 10
15.50465223524305
 20
78.77865397135416
 10
18.24178059895833
 20
81.340771484375
 10
16.78588324652778
 20
82.44733615451388
  0
LWPOLYLINE
  5
130
330
A
100
AcDbEntity
  8
LAYER_1
 62
     7
100
AcDbPolyline
 90
        6
 70
     0
 43
0.0
 10
41.84085693359375
 20
101.8544203016493
 10
33.44050835503472
 20
98.75262858072915
 10
22.318017578125
 20
128.3353190104167
 10
63.95475260416666
 20
143.7672797309028
 10
75.07724338107639
 20
114.1263671875
 10
57.38908962673611
 20
107.5954996744792
  0
LWPOLYLINE
  5
12A
330
A
100
AcDbEntity
  8
LAYER_1
 62
     7
100
AcDbPolyline
 90
        4
 70
     1
 43
0.0
 10
42.40843641493055
 20
134.6243408203125
 10
56.50094401041666
 20
134.6829074435764
 10
56.6756103515625
 20
69.22816026475694
 10
42.69954698350694
 20
69.22816026475694
  0
LINE
  5
129
330
A
100
AcDbEntity
  8
LAYER_1
 62
     7
100
AcDbLine
 10
64.5076904296875
 20
52.10775824652777
 30
0.0
 11
78.0761990017361
 21
57.17377115885416
 31
0.0
  0
LINE
  5
128
330
A
100
AcDbEntity
  8
LAYER_1
 62
     7
100
AcDbLine
 10
16.96054958767361
 20
34.34622395833333
 30
0.0
 11
61.98829210069444
 21
51.16862521701388
 31
0.0
  0
LINE
  5
127
330
A
100
AcDbEntity
  8
LAYER_1
 62
     7
100
AcDbLine
 10
68.48953179253472
 20
60.78147515190972
 30
0.0
 11
77.05713975694444
 21
63.9871365017361
 31
0.0
  0
LINE
  5
126
330
A
100
AcDbEntity
  8
LAYER_1
 62
     7
100
AcDbLine
 10
57.82937282986111
 20
56.79343261718749
 30
0.0
 11
65.35483940972222
 21
59.60979817708333
 31
0.0
  0
LINE
  5
125
330
A
100
AcDbEntity
  8
LAYER_1
 62
     7
100
AcDbLine
 10
16.93161078559028
 20
41.47998318142361
 30
0.0
 11
56.36417371961805
 21
56.24600694444444
 31
0.0
  0
LINE
  5
124
330
A
100
AcDbEntity
  8
LAYER_1
 62
     7
100
AcDbLine
 10
70.98998209635415
 20
68.5849609375
 30
0.0
 11
77.78508843315971
 21
71.12089572482638
 31
0.0
  0
LINE
  5
123
330
A
100
AcDbEntity
  8
LAYER_1
 62
     7
100
AcDbLine
 10
16.90232747395833
 20
48.38050944010416
 30
0.0
 11
62.10852593315972
 21
65.26836751302083
 31
0.0
  0
LINE
  5
122
330
A
100
AcDbEntity
  8
LAYER_1
 62
     7
100
AcDbLine
 10
16.84410536024306
 20
55.39782443576389
 30
0.0
 11
51.05597059461805
 21
68.23838433159722
 31
0.0
  0
LINE
  5
121
330
A
100
AcDbEntity
  8
LAYER_1
 62
     7
100
AcDbLine
 10
16.81482204861111
 20
62.26941189236111
 30
0.0
 11
41.82621527777778
 21
71.55773383246527
 31
0.0
  0
LINE
  5
120
330
A
100
AcDbEntity
  8
LAYER_1
 62
     7
100
AcDbLine
 10
16.75694444444444
 20
69.02455512152777
 30
0.0
 11
41.79693196614583
 21
78.34181586371527
 31
0.0
  0
LINE
  5
11F
330
A
100
AcDbEntity
  8
LAYER_1
 62
     7
100
AcDbLine
 10
16.7276611328125
 20
76.33263617621527
 30
0.0
 11
41.7679931640625
 21
85.62095811631944
 31
0.0
  0
LINE
  5
11E
330
A
100
AcDbEntity
  8
LAYER_1
 62
     7
100
AcDbLine
 10
16.75694444444444
 20
83.14600151909721
 30
0.0
 11
41.73870985243055
 21
92.46326226128471
 31
0.0
  0
LINE
  5
11D
330
A
100
AcDbEntity
  8
LAYER_1
 62
     7
100
AcDbLine
 10
16.75694444444444
 20
90.30869954427082
 30
0.0
 11
41.68048773871527
 21
99.50951605902777
 31
0.0
  0
LINE
  5
11C
330
A
100
AcDbEntity
  8
LAYER_1
 62
     7
100
AcDbLine
 10
16.75694444444444
 20
97.2967312282986
 30
0.0
 11
31.83922797309027
 21
102.8870876736111
 31
0.0
  0
LINE
  5
11B
330
A
100
AcDbEntity
  8
LAYER_1
 62
     7
100
AcDbLine
 10
16.75694444444444
 20
104.3722683376736
 30
0.0
 11
29.45143229166666
 21
109.0889485677083
 31
0.0
  0
LINE
  5
11A
330
A
100
AcDbEntity
  8
LAYER_1
 62
     7
100
AcDbLine
 10
16.69837782118055
 20
111.2438557942708
 30
0.0
 11
27.15148654513889
 21
115.1454264322917
 31
0.0
  0
SPLINE
  5
119
330
A
100
AcDbEntity
  8
LAYER_1
 62
     7
100
AcDbSpline
210
0.0
220
0.0
230
1.0
 70
     8
 71
     3
 72
     8
 73
     4
 74
     0
 42
0.0000000001
 43
0.0000000001
 40
0.0
 40
0.0
 40
0.0
 40
0.0
 40
1.0
 40
1.0
 40
1.0
 40
1.0
 10
58.27689073350694
 20
109.4093424479167
 30
0.0
 10
57.89827473958333
 20
109.1182318793403
 30
0.0
 10
57.54894205729166
 20
109.1471706814236
 30
0.0
 10
57.28711480034722
 20
109.3221815321181
 30
0.0
  0
SPLINE
  5
118
330
A
100
AcDbEntity
  8
LAYER_1
 62
     7
100
AcDbSpline
210
0.0
220
0.0
230
1.0
 70
     8
 71
     3
 72
     8
 73
     4
 74
     0
 42
0.0000000001
 43
0.0000000001
 40
0.0
 40
0.0
 40
0.0
 40
0.0
 40
1.0
 40
1.0
 40
1.0
 40
1.0
 10
58.27689073350694
 20
110.1083523220486
 30
0.0
 10
57.89827473958333
 20
109.8168972439236
 30
0.0
 10
57.54894205729166
 20
109.8461805555556
 30
0.0
 10
57.28711480034722
 20
110.0208468967014
 30
0.0
  0
SPLINE
  5
117
330
A
100
AcDbEntity
  8
LAYER_1
 62
     7
100
AcDbSpline
210
0.0
220
0.0
230
1.0
 70
     8
 71
     3
 72
     8
 73
     4
 74
     0
 42
0.0000000001
 43
0.0000000001
 40
0.0
 40
0.0
 40
0.0
 40
0.0
 40
1.0
 40
1.0
 40
1.0
 40
1.0
 10
58.24795193142361
 20
110.8359564887153
 30
0.0
 10
57.8693359375
 20
110.5448459201389
 30
0.0
 10
57.52000325520833
 20
110.5741292317708
 30
0.0
 10
57.25783148871528
 20
110.7487955729167
 30
0.0
  0
SPLINE
  5
116
330
A
100
AcDbEntity
  8
LAYER_1
 62
     7
100
AcDbSpline
210
0.0
220
0.0
230
1.0
 70
     8
 71
     3
 72
     8
 73
     4
 74
     0
 42
0.0000000001
 43
0.0000000001
 40
0.0
 40
0.0
 40
0.0
 40
0.0
 40
1.0
 40
1.0
 40
1.0
 40
1.0
 10
58.30617404513888
 20
111.5056830512153
 30
0.0
 10
57.92755805121527
 20
111.2145724826389
 30
0.0
 10
57.5782253689236
 20
111.2438557942708
 30
0.0
 10
57.31605360243055
 20
111.4185221354167
 30
0.0
  0
SPLINE
  5
115
330
A
100
AcDbEntity
  8
LAYER_1
 62
     7
100
AcDbSpline
210
0.0
220
0.0
230
1.0
 70
     8
 71
     3
 72
     8
 73
     4
 74
     0
 42
0.0000000001
 43
0.0000000001
 40
0.0
 40
0.0
 40
0.0
 40
0.0
 40
1.0
 40
1.0
 40
1.0
 40
1.0
 10
58.21866861979166
 20
112.1464708116319
 30
0.0
 10
57.84005262586805
 20
111.8550157335069
 30
0.0
 10
57.49071994357639
 20
111.8842990451389
 30
0.0
 10
57.22889268663194
 20
112.0589653862847
 30
0.0
  0
SPLINE
  5
114
330
A
100
AcDbEntity
  8
LAYER_1
 62
     7
100
AcDbSpline
210
0.0
220
0.0
230
1.0
 70
     8
 71
     3
 72
     8
 73
     4
 74
     0
 42
0.0000000001
 43
0.0000000001
 40
0.0
 40
0.0
 40
0.0
 40
0.0
 40
1.0
 40
1.0
 40
1.0
 40
1.0
 10
58.33511284722222
 20
112.7869140625
 30
0.0
 10
57.9564968532986
 20
112.4958034939236
 30
0.0
 10
57.60716417100694
 20
112.5247422960069
 30
0.0
 10
57.34533691406249
 20
112.6997531467014
 30
0.0
  0
SPLINE
  5
113
330
A
100
AcDbEntity
  8
LAYER_1
 62
     7
100
AcDbSpline
210
0.0
220
0.0
230
1.0
 70
     8
 71
     3
 72
     8
 73
     4
 74
     0
 42
0.0000000001
 43
0.0000000001
 40
0.0
 40
0.0
 40
0.0
 40
0.0
 40
1.0
 40
1.0
 40
1.0
 40
1.0
 10
58.30617404513888
 20
113.456640625
 30
0.0
 10
57.92755805121527
 20
113.1655300564236
 30
0.0
 10
57.5782253689236
 20
113.1944688585069
 30
0.0
 10
57.31605360243055
 20
113.3691351996528
 30
0.0
  0
SPLINE
  5
112
330
A
100
AcDbEntity
  8
LAYER_1
 62
     7
100
AcDbSpline
210
0.0
220
0.0
230
1.0
 70
     8
 71
     3
 72
     8
 73
     4
 74
     0
 42
0.0000000001
 43
0.0000000001
 40
0.0
 40
0.0
 40
0.0
 40
0.0
 40
1.0
 40
1.0
 40
1.0
 40
1.0
 10
58.27689073350694
 20
114.0970838758681
 30
0.0
 10
57.89827473958333
 20
113.8059733072917
 30
0.0
 10
57.54894205729166
 20
113.8352566189236
 30
0.0
 10
57.28711480034722
 20
114.0099229600694
 30
0.0
  0
SPLINE
  5
111
330
A
100
AcDbEntity
  8
LAYER_1
 62
     7
100
AcDbSpline
210
0.0
220
0.0
230
1.0
 70
     8
 71
     3
 72
     8
 73
     4
 74
     0
 42
0.0000000001
 43
0.0000000001
 40
0.0
 40
0.0
 40
0.0
 40
0.0
 40
1.0
 40
1.0
 40
1.0
 40
1.0
 10
58.24795193142361
 20
114.8250325520833
 30
0.0
 10
57.8693359375
 20
114.5339219835069
 30
0.0
 10
57.52000325520833
 20
114.5632052951389
 30
0.0
 10
57.25783148871528
 20
114.7378716362847
 30
0.0
  0
SPLINE
  5
110
330
A
100
AcDbEntity
  8
LAYER_1
 62
     7
100
AcDbSpline
210
0.0
220
0.0
230
1.0
 70
     8
 71
     3
 72
     8
 73
     4
 74
     0
 42
0.0000000001
 43
0.0000000001
 40
0.0
 40
0.0
 40
0.0
 40
0.0
 40
1.0
 40
1.0
 40
1.0
 40
1.0
 10
58.30617404513888
 20
115.4947591145833
 30
0.0
 10
57.92755805121527
 20
115.2036485460069
 30
0.0
 10
57.5782253689236
 20
115.2325873480903
 30
0.0
 10
57.31605360243055
 20
115.4075981987847
 30
0.0
  0
SPLINE
  5
10F
330
A
100
AcDbEntity
  8
LAYER_1
 62
     7
100
AcDbSpline
210
0.0
220
0.0
230
1.0
 70
     8
 71
     3
 72
     8
 73
     4
 74
     0
 42
0.0000000001
 43
0.0000000001
 40
0.0
 40
0.0
 40
0.0
 40
0.0
 40
1.0
 40
1.0
 40
1.0
 40
1.0
 10
58.21866861979166
 20
116.1352023654514
 30
0.0
 10
57.84005262586805
 20
115.844091796875
 30
0.0
 10
57.49071994357639
 20
115.8733751085069
 30
0.0
 10
57.22889268663194
 20
116.0480414496528
 30
0.0
  0
SPLINE
  5
10E
330
A
100
AcDbEntity
  8
LAYER_1
 62
     7
100
AcDbSpline
210
0.0
220
0.0
230
1.0
 70
     8
 71
     3
 72
     8
 73
     4
 74
     0
 42
0.0000000001
 43
0.0000000001
 40
0.0
 40
0.0
 40
0.0
 40
0.0
 40
1.0
 40
1.0
 40
1.0
 40
1.0
 10
58.33511284722222
 20
116.7759901258681
 30
0.0
 10
57.9564968532986
 20
116.4848795572917
 30
0.0
 10
57.60716417100694
 20
116.513818359375
 30
0.0
 10
57.34533691406249
 20
116.6884847005208
 30
0.0
  0
SPLINE
  5
10D
330
A
100
AcDbEntity
  8
LAYER_1
 62
     7
100
AcDbSpline
210
0.0
220
0.0
230
1.0
 70
     8
 71
     3
 72
     8
 73
     4
 74
     0
 42
0.0000000001
 43
0.0000000001
 40
0.0
 40
0.0
 40
0.0
 40
0.0
 40
1.0
 40
1.0
 40
1.0
 40
1.0
 10
58.30617404513888
 20
117.4457166883681
 30
0.0
 10
57.92755805121527
 20
117.154261610243
 30
0.0
 10
57.5782253689236
 20
117.183544921875
 30
0.0
 10
57.31605360243055
 20
117.3582112630208
 30
0.0
  0
SPLINE
  5
10C
330
A
100
AcDbEntity
  8
LAYER_1
 62
     7
100
AcDbSpline
210
0.0
220
0.0
230
1.0
 70
     8
 71
     3
 72
     8
 73
     4
 74
     0
 42
0.0000000001
 43
0.0000000001
 40
0.0
 40
0.0
 40
0.0
 40
0.0
 40
1.0
 40
1.0
 40
1.0
 40
1.0
 10
58.24795193142361
 20
118.2026041666667
 30
0.0
 10
57.8693359375
 20
117.9114935980903
 30
0.0
 10
57.52000325520833
 20
117.9404324001736
 30
0.0
 10
57.25783148871528
 20
118.115443250868
 30
0.0
  0
SPLINE
  5
10B
330
A
100
AcDbEntity
  8
LAYER_1
 62
     7
100
AcDbSpline
210
0.0
220
0.0
230
1.0
 70
     8
 71
     3
 72
     8
 73
     4
 74
     0
 42
0.0000000001
 43
0.0000000001
 40
0.0
 40
0.0
 40
0.0
 40
0.0
 40
1.0
 40
1.0
 40
1.0
 40
1.0
 10
58.21866861979166
 20
118.9305528428819
 30
0.0
 10
57.84005262586805
 20
118.6394422743056
 30
0.0
 10
57.49071994357639
 20
118.6683810763889
 30
0.0
 10
57.22889268663194
 20
118.8430474175347
 30
0.0
  0
SPLINE
  5
10A
330
A
100
AcDbEntity
  8
LAYER_1
 62
     7
100
AcDbSpline
210
0.0
220
0.0
230
1.0
 70
     8
 71
     3
 72
     8
 73
     4
 74
     0
 42
0.0000000001
 43
0.0000000001
 40
0.0
 40
0.0
 40
0.0
 40
0.0
 40
1.0
 40
1.0
 40
1.0
 40
1.0
 10
58.27689073350694
 20
119.6002794053819
 30
0.0
 10
57.89827473958333
 20
119.3091688368055
 30
0.0
 10
57.54894205729166
 20
119.3381076388889
 30
0.0
 10
57.28711480034722
 20
119.5127739800347
 30
0.0
  0
SPLINE
  5
109
330
A
100
AcDbEntity
  8
LAYER_1
 62
     7
100
AcDbSpline
210
0.0
220
0.0
230
1.0
 70
     8
 71
     3
 72
     8
 73
     4
 74
     0
 42
0.0000000001
 43
0.0000000001
 40
0.0
 40
0.0
 40
0.0
 40
0.0
 40
1.0
 40
1.0
 40
1.0
 40
1.0
 10
58.18972981770833
 20
120.24072265625
 30
0.0
 10
57.81111382378472
 20
119.9496120876736
 30
0.0
 10
57.46178114149305
 20
119.9788953993055
 30
0.0
 10
57.19960937499999
 20
120.1535617404514
 30
0.0
  0
SPLINE
  5
108
330
A
100
AcDbEntity
  8
LAYER_1
 62
     7
100
AcDbSpline
210
0.0
220
0.0
230
1.0
 70
     8
 71
     3
 72
     8
 73
     4
 74
     0
 42
0.0000000001
 43
0.0000000001
 40
0.0
 40
0.0
 40
0.0
 40
0.0
 40
1.0
 40
1.0
 40
1.0
 40
1.0
 10
58.30617404513888
 20
120.8815104166667
 30
0.0
 10
57.92755805121527
 20
120.5900553385417
 30
0.0
 10
57.5782253689236
 20
120.6193386501736
 30
0.0
 10
57.31605360243055
 20
120.7940049913194
 30
0.0
  0
SPLINE
  5
107
330
A
100
AcDbEntity
  8
LAYER_1
 62
     7
100
AcDbSpline
210
0.0
220
0.0
230
1.0
 70
     8
 71
     3
 72
     8
 73
     4
 74
     0
 42
0.0000000001
 43
0.0000000001
 40
0.0
 40
0.0
 40
0.0
 40
0.0
 40
1.0
 40
1.0
 40
1.0
 40
1.0
 10
58.27689073350694
 20
121.5512369791667
 30
0.0
 10
57.89827473958333
 20
121.2597819010417
 30
0.0
 10
57.54894205729166
 20
121.2890652126736
 30
0.0
 10
57.28711480034722
 20
121.4637315538194
 30
0.0
  0
SPLINE
  5
106
330
A
100
AcDbEntity
  8
LAYER_1
 62
     7
100
AcDbSpline
210
0.0
220
0.0
230
1.0
 70
     8
 71
     3
 72
     8
 73
     4
 74
     0
 42
0.0000000001
 43
0.0000000001
 40
0.0
 40
0.0
 40
0.0
 40
0.0
 40
1.0
 40
1.0
 40
1.0
 40
1.0
 10
58.24795193142361
 20
122.1916802300347
 30
0.0
 10
57.8693359375
 20
121.9005696614583
 30
0.0
 10
57.52000325520833
 20
121.9295084635417
 30
0.0
 10
57.25783148871528
 20
122.1041748046875
 30
0.0
  0
SPLINE
  5
105
330
A
100
AcDbEntity
  8
LAYER_1
 62
     7
100
AcDbSpline
210
0.0
220
0.0
230
1.0
 70
     8
 71
     3
 72
     8
 73
     4
 74
     0
 42
0.0000000001
 43
0.0000000001
 40
0.0
 40
0.0
 40
0.0
 40
0.0
 40
1.0
 40
1.0
 40
1.0
 40
1.0
 10
58.21866861979166
 20
122.91962890625
 30
0.0
 10
57.84005262586805
 20
122.6285183376736
 30
0.0
 10
57.49071994357639
 20
122.6574571397569
 30
0.0
 10
57.22889268663194
 20
122.8321234809028
 30
0.0
  0
SPLINE
  5
104
330
A
100
AcDbEntity
  8
LAYER_1
 62
     7
100
AcDbSpline
210
0.0
220
0.0
230
1.0
 70
     8
 71
     3
 72
     8
 73
     4
 74
     0
 42
0.0000000001
 43
0.0000000001
 40
0.0
 40
0.0
 40
0.0
 40
0.0
 40
1.0
 40
1.0
 40
1.0
 40
1.0
 10
58.27689073350694
 20
123.58935546875
 30
0.0
 10
57.89827473958333
 20
123.297900390625
 30
0.0
 10
57.54894205729166
 20
123.3271837022569
 30
0.0
 10
57.28711480034722
 20
123.5018500434028
 30
0.0
  0
SPLINE
  5
103
330
A
100
AcDbEntity
  8
LAYER_1
 62
     7
100
AcDbSpline
210
0.0
220
0.0
230
1.0
 70
     8
 71
     3
 72
     8
 73
     4
 74
     0
 42
0.0000000001
 43
0.0000000001
 40
0.0
 40
0.0
 40
0.0
 40
0.0
 40
1.0
 40
1.0
 40
1.0
 40
1.0
 10
58.18972981770833
 20
124.2297987196181
 30
0.0
 10
57.81111382378472
 20
123.9386881510417
 30
0.0
 10
57.46178114149305
 20
123.967626953125
 30
0.0
 10
57.19960937499999
 20
124.1422932942708
 30
0.0
  0
SPLINE
  5
102
330
A
100
AcDbEntity
  8
LAYER_1
 62
     7
100
AcDbSpline
210
0.0
220
0.0
230
1.0
 70
     8
 71
     3
 72
     8
 73
     4
 74
     0
 42
0.0000000001
 43
0.0000000001
 40
0.0
 40
0.0
 40
0.0
 40
0.0
 40
1.0
 40
1.0
 40
1.0
 40
1.0
 10
58.30617404513888
 20
124.8702419704861
 30
0.0
 10
57.92755805121527
 20
124.5791314019097
 30
0.0
 10
57.5782253689236
 20
124.6084147135417
 30
0.0
 10
57.31605360243055
 20
124.7830810546875
 30
0.0
  0
SPLINE
  5
101
330
A
100
AcDbEntity
  8
LAYER_1
 62
     7
100
AcDbSpline
210
0.0
220
0.0
230
1.0
 70
     8
 71
     3
 72
     8
 73
     4
 74
     0
 42
0.0000000001
 43
0.0000000001
 40
0.0
 40
0.0
 40
0.0
 40
0.0
 40
1.0
 40
1.0
 40
1.0
 40
1.0
 10
58.27689073350694
 20
125.5399685329861
 30
0.0
 10
57.89827473958333
 20
125.2488579644097
 30
0.0
 10
57.54894205729166
 20
125.2781412760417
 30
0.0
 10
57.28711480034722
 20
125.4528076171875
 30
0.0
  0
SPLINE
  5
100
330
A
100
AcDbEntity
  8
LAYER_1
 62
     7
100
AcDbSpline
210
0.0
220
0.0
230
1.0
 70
     8
 71
     3
 72
     8
 73
     4
 74
     0
 42
0.0000000001
 43
0.0000000001
 40
0.0
 40
0.0
 40
0.0
 40
0.0
 40
1.0
 40
1.0
 40
1.0
 40
1.0
 10
58.18972981770833
 20
126.1514729817708
 30
0.0
 10
57.81111382378472
 20
125.8603624131944
 30
0.0
 10
57.46178114149305
 20
125.8896457248264
 30
0.0
 10
57.19960937499999
 20
126.0643120659722
 30
0.0
  0
SPLINE
  5
FF
330
A
100
AcDbEntity
  8
LAYER_1
 62
     7
100
AcDbSpline
210
0.0
220
0.0
230
1.0
 70
     8
 71
     3
 72
     8
 73
     4
 74
     0
 42
0.0000000001
 43
0.0000000001
 40
0.0
 40
0.0
 40
0.0
 40
0.0
 40
1.0
 40
1.0
 40
1.0
 40
1.0
 10
58.16044650607638
 20
126.8794216579861
 30
0.0
 10
57.78183051215277
 20
126.5883110894097
 30
0.0
 10
57.43249782986111
 20
126.6172498914931
 30
0.0
 10
57.17067057291666
 20
126.7922607421875
 30
0.0
  0
SPLINE
  5
FE
330
A
100
AcDbEntity
  8
LAYER_1
 62
     7
100
AcDbSpline
210
0.0
220
0.0
230
1.0
 70
     8
 71
     3
 72
     8
 73
     4
 74
     0
 42
0.0000000001
 43
0.0000000001
 40
0.0
 40
0.0
 40
0.0
 40
0.0
 40
1.0
 40
1.0
 40
1.0
 40
1.0
 10
58.21866861979166
 20
127.5491482204861
 30
0.0
 10
57.84005262586805
 20
127.2580376519097
 30
0.0
 10
57.49071994357639
 20
127.2869764539931
 30
0.0
 10
57.22889268663194
 20
127.4616427951389
 30
0.0
  0
SPLINE
  5
FD
330
A
100
AcDbEntity
  8
LAYER_1
 62
     7
100
AcDbSpline
210
0.0
220
0.0
230
1.0
 70
     8
 71
     3
 72
     8
 73
     4
 74
     0
 42
0.0000000001
 43
0.0000000001
 40
0.0
 40
0.0
 40
0.0
 40
0.0
 40
1.0
 40
1.0
 40
1.0
 40
1.0
 10
58.13150770399305
 20
128.1895914713542
 30
0.0
 10
57.75289171006944
 20
127.8984809027778
 30
0.0
 10
57.40355902777777
 20
127.9277642144097
 30
0.0
 10
57.14138726128472
 20
128.1024305555555
 30
0.0
  0
SPLINE
  5
FC
330
A
100
AcDbEntity
  8
LAYER_1
 62
     7
100
AcDbSpline
210
0.0
220
0.0
230
1.0
 70
     8
 71
     3
 72
     8
 73
     4
 74
     0
 42
0.0000000001
 43
0.0000000001
 40
0.0
 40
0.0
 40
0.0
 40
0.0
 40
1.0
 40
1.0
 40
1.0
 40
1.0
 10
58.24795193142361
 20
128.8303792317708
 30
0.0
 10
57.8693359375
 20
128.5389241536458
 30
0.0
 10
57.52000325520833
 20
128.5682074652778
 30
0.0
 10
57.25783148871528
 20
128.7428738064236
 30
0.0
  0
SPLINE
  5
FB
330
A
100
AcDbEntity
  8
LAYER_1
 62
     7
100
AcDbSpline
210
0.0
220
0.0
230
1.0
 70
     8
 71
     3
 72
     8
 73
     4
 74
     0
 42
0.0000000001
 43
0.0000000001
 40
0.0
 40
0.0
 40
0.0
 40
0.0
 40
1.0
 40
1.0
 40
1.0
 40
1.0
 10
58.21866861979166
 20
129.5001057942708
 30
0.0
 10
57.84005262586805
 20
129.2086507161458
 30
0.0
 10
57.49071994357639
 20
129.2379340277778
 30
0.0
 10
57.22889268663194
 20
129.4126003689236
 30
0.0
  0
SPLINE
  5
FA
330
A
100
AcDbEntity
  8
LAYER_1
 62
     7
100
AcDbSpline
210
0.0
220
0.0
230
1.0
 70
     8
 71
     3
 72
     8
 73
     4
 74
     0
 42
0.0000000001
 43
0.0000000001
 40
0.0
 40
0.0
 40
0.0
 40
0.0
 40
1.0
 40
1.0
 40
1.0
 40
1.0
 10
58.21866861979166
 20
130.1987711588542
 30
0.0
 10
57.84005262586805
 20
129.9076605902778
 30
0.0
 10
57.49071994357639
 20
129.9365993923611
 30
0.0
 10
57.22889268663194
 20
130.1112657335069
 30
0.0
  0
SPLINE
  5
F9
330
A
100
AcDbEntity
  8
LAYER_1
 62
     7
100
AcDbSpline
210
0.0
220
0.0
230
1.0
 70
     8
 71
     3
 72
     8
 73
     4
 74
     0
 42
0.0000000001
 43
0.0000000001
 40
0.0
 40
0.0
 40
0.0
 40
0.0
 40
1.0
 40
1.0
 40
1.0
 40
1.0
 10
58.18972981770833
 20
130.9267198350694
 30
0.0
 10
57.81111382378472
 20
130.6356092664931
 30
0.0
 10
57.46178114149305
 20
130.6645480685764
 30
0.0
 10
57.19960937499999
 20
130.8392144097222
 30
0.0
  0
SPLINE
  5
F8
330
A
100
AcDbEntity
  8
LAYER_1
 62
     7
100
AcDbSpline
210
0.0
220
0.0
230
1.0
 70
     8
 71
     3
 72
     8
 73
     4
 74
     0
 42
0.0000000001
 43
0.0000000001
 40
0.0
 40
0.0
 40
0.0
 40
0.0
 40
1.0
 40
1.0
 40
1.0
 40
1.0
 10
58.24795193142361
 20
131.5964463975694
 30
0.0
 10
57.8693359375
 20
131.305335828993
 30
0.0
 10
57.52000325520833
 20
131.3342746310764
 30
0.0
 10
57.25783148871528
 20
131.5089409722222
 30
0.0
  0
SPLINE
  5
F7
330
A
100
AcDbEntity
  8
LAYER_1
 62
     7
100
AcDbSpline
210
0.0
220
0.0
230
1.0
 70
     8
 71
     3
 72
     8
 73
     4
 74
     0
 42
0.0000000001
 43
0.0000000001
 40
0.0
 40
0.0
 40
0.0
 40
0.0
 40
1.0
 40
1.0
 40
1.0
 40
1.0
 10
58.16044650607638
 20
132.2368896484375
 30
0.0
 10
57.78183051215277
 20
131.9457790798611
 30
0.0
 10
57.43249782986111
 20
131.9750623914931
 30
0.0
 10
57.17067057291666
 20
132.1497287326389
 30
0.0
  0
SPLINE
  5
F6
330
A
100
AcDbEntity
  8
LAYER_1
 62
     7
100
AcDbSpline
210
0.0
220
0.0
230
1.0
 70
     8
 71
     3
 72
     8
 73
     4
 74
     0
 42
0.0000000001
 43
0.0000000001
 40
0.0
 40
0.0
 40
0.0
 40
0.0
 40
1.0
 40
1.0
 40
1.0
 40
1.0
 10
58.27689073350694
 20
132.8776774088542
 30
0.0
 10
57.89827473958333
 20
132.5862223307292
 30
0.0
 10
57.54894205729166
 20
132.6155056423611
 30
0.0
 10
57.28711480034722
 20
132.7901719835069
 30
0.0
  0
SPLINE
  5
F5
330
A
100
AcDbEntity
  8
LAYER_1
 62
     7
100
AcDbSpline
210
0.0
220
0.0
230
1.0
 70
     8
 71
     3
 72
     8
 73
     4
 74
     0
 42
0.0000000001
 43
0.0000000001
 40
0.0
 40
0.0
 40
0.0
 40
0.0
 40
1.0
 40
1.0
 40
1.0
 40
1.0
 10
58.24795193142361
 20
133.5470594618055
 30
0.0
 10
57.8693359375
 20
133.2559488932292
 30
0.0
 10
57.52000325520833
 20
133.2852322048611
 30
0.0
 10
57.25783148871528
 20
133.4598985460069
 30
0.0
  0
SPLINE
  5
F4
330
A
100
AcDbEntity
  8
LAYER_1
 62
     7
100
AcDbSpline
210
0.0
220
0.0
230
1.0
 70
     8
 71
     3
 72
     8
 73
     4
 74
     0
 42
0.0000000001
 43
0.0000000001
 40
0.0
 40
0.0
 40
0.0
 40
0.0
 40
1.0
 40
1.0
 40
1.0
 40
1.0
 10
58.30617404513888
 20
134.2460693359375
 30
0.0
 10
57.92755805121527
 20
133.9549587673611
 30
0.0
 10
57.5782253689236
 20
133.9838975694444
 30
0.0
 10
57.31605360243055
 20
134.1585639105903
 30
0.0
  0
SPLINE
  5
F3
330
A
100
AcDbEntity
  8
LAYER_1
 62
     7
100
AcDbSpline
210
0.0
220
0.0
230
1.0
 70
     8
 71
     3
 72
     8
 73
     4
 74
     0
 42
0.0000000001
 43
0.0000000001
 40
0.0
 40
0.0
 40
0.0
 40
0.0
 40
1.0
 40
1.0
 40
1.0
 40
1.0
 10
41.68048773871527
 20
103.5568142361111
 30
0.0
 10
41.30187174479166
 20
103.2657036675347
 30
0.0
 10
40.95253906249999
 20
103.2949869791667
 30
0.0
 10
40.69036729600694
 20
103.4696533203125
 30
0.0
  0
SPLINE
  5
F2
330
A
100
AcDbEntity
  8
LAYER_1
 62
     7
100
AcDbSpline
210
0.0
220
0.0
230
1.0
 70
     8
 71
     3
 72
     8
 73
     4
 74
     0
 42
0.0000000001
 43
0.0000000001
 40
0.0
 40
0.0
 40
0.0
 40
0.0
 40
1.0
 40
1.0
 40
1.0
 40
1.0
 10
41.65154893663194
 20
104.2847629123264
 30
0.0
 10
41.27293294270833
 20
103.99365234375
 30
0.0
 10
40.92360026041666
 20
104.0229356553819
 30
0.0
 10
40.66142849392361
 20
104.1976019965278
 30
0.0
  0
SPLINE
  5
F1
330
A
100
AcDbEntity
  8
LAYER_1
 62
     7
100
AcDbSpline
210
0.0
220
0.0
230
1.0
 70
     8
 71
     3
 72
     8
 73
     4
 74
     0
 42
0.0000000001
 43
0.0000000001
 40
0.0
 40
0.0
 40
0.0
 40
0.0
 40
1.0
 40
1.0
 40
1.0
 40
1.0
 10
41.70942654079861
 20
104.9544894748264
 30
0.0
 10
41.3311550564236
 20
104.66337890625
 30
0.0
 10
40.98182237413194
 20
104.6923177083333
 30
0.0
 10
40.71965060763888
 20
104.8669840494792
 30
0.0
  0
SPLINE
  5
F0
330
A
100
AcDbEntity
  8
LAYER_1
 62
     7
100
AcDbSpline
210
0.0
220
0.0
230
1.0
 70
     8
 71
     3
 72
     8
 73
     4
 74
     0
 42
0.0000000001
 43
0.0000000001
 40
0.0
 40
0.0
 40
0.0
 40
0.0
 40
1.0
 40
1.0
 40
1.0
 40
1.0
 10
41.59298231336805
 20
105.3620442708333
 30
0.0
 10
41.21471082899305
 20
105.0709337022569
 30
0.0
 10
40.86537814670139
 20
105.1002170138889
 30
0.0
 10
40.60320638020833
 20
105.2748833550347
 30
0.0
  0
SPLINE
  5
EF
330
A
100
AcDbEntity
  8
LAYER_1
 62
     7
100
AcDbSpline
210
0.0
220
0.0
230
1.0
 70
     8
 71
     3
 72
     8
 73
     4
 74
     0
 42
0.0000000001
 43
0.0000000001
 40
0.0
 40
0.0
 40
0.0
 40
0.0
 40
1.0
 40
1.0
 40
1.0
 40
1.0
 10
41.56404351128472
 20
106.0899929470486
 30
0.0
 10
41.18542751736111
 20
105.7988823784722
 30
0.0
 10
40.83609483506944
 20
105.8281656901042
 30
0.0
 10
40.57392306857638
 20
106.00283203125
 30
0.0
  0
SPLINE
  5
EE
330
A
100
AcDbEntity
  8
LAYER_1
 62
     7
100
AcDbSpline
210
0.0
220
0.0
230
1.0
 70
     8
 71
     3
 72
     8
 73
     4
 74
     0
 42
0.0000000001
 43
0.0000000001
 40
0.0
 40
0.0
 40
0.0
 40
0.0
 40
1.0
 40
1.0
 40
1.0
 40
1.0
 10
41.622265625
 20
106.7597195095486
 30
0.0
 10
41.24364963107639
 20
106.4686089409722
 30
0.0
 10
40.89431694878472
 20
106.4975477430556
 30
0.0
 10
40.63214518229167
 20
106.6722140842014
 30
0.0
  0
SPLINE
  5
ED
330
A
100
AcDbEntity
  8
LAYER_1
 62
     7
100
AcDbSpline
210
0.0
220
0.0
230
1.0
 70
     8
 71
     3
 72
     8
 73
     4
 74
     0
 42
0.0000000001
 43
0.0000000001
 40
0.0
 40
0.0
 40
0.0
 40
0.0
 40
1.0
 40
1.0
 40
1.0
 40
1.0
 10
41.53476019965277
 20
107.4001627604167
 30
0.0
 10
41.15648871527777
 20
107.1090521918403
 30
0.0
 10
40.8068115234375
 20
107.1383355034722
 30
0.0
 10
40.54498426649305
 20
107.313001844618
 30
0.0
  0
SPLINE
  5
EC
330
A
100
AcDbEntity
  8
LAYER_1
 62
     7
100
AcDbSpline
210
0.0
220
0.0
230
1.0
 70
     8
 71
     3
 72
     8
 73
     4
 74
     0
 42
0.0000000001
 43
0.0000000001
 40
0.0
 40
0.0
 40
0.0
 40
0.0
 40
1.0
 40
1.0
 40
1.0
 40
1.0
 10
41.65154893663194
 20
108.0409505208333
 30
0.0
 10
41.27293294270833
 20
107.7498399522569
 30
0.0
 10
40.92360026041666
 20
107.7787787543403
 30
0.0
 10
40.66142849392361
 20
107.9534450954861
 30
0.0
  0
SPLINE
  5
EB
330
A
100
AcDbEntity
  8
LAYER_1
 62
     7
100
AcDbSpline
210
0.0
220
0.0
230
1.0
 70
     8
 71
     3
 72
     8
 73
     4
 74
     0
 42
0.0000000001
 43
0.0000000001
 40
0.0
 40
0.0
 40
0.0
 40
0.0
 40
1.0
 40
1.0
 40
1.0
 40
1.0
 10
41.622265625
 20
108.7106770833333
 30
0.0
 10
41.24364963107639
 20
108.4195665147569
 30
0.0
 10
40.89431694878472
 20
108.4485053168403
 30
0.0
 10
40.63214518229167
 20
108.6231716579861
 30
0.0
  0
SPLINE
  5
EA
330
A
100
AcDbEntity
  8
LAYER_1
 62
     7
100
AcDbSpline
210
0.0
220
0.0
230
1.0
 70
     8
 71
     3
 72
     8
 73
     4
 74
     0
 42
0.0000000001
 43
0.0000000001
 40
0.0
 40
0.0
 40
0.0
 40
0.0
 40
1.0
 40
1.0
 40
1.0
 40
1.0
 10
41.622265625
 20
109.4093424479167
 30
0.0
 10
41.24364963107639
 20
109.1182318793403
 30
0.0
 10
40.89431694878472
 20
109.1471706814236
 30
0.0
 10
40.63214518229167
 20
109.3221815321181
 30
0.0
  0
SPLINE
  5
E9
330
A
100
AcDbEntity
  8
LAYER_1
 62
     7
100
AcDbSpline
210
0.0
220
0.0
230
1.0
 70
     8
 71
     3
 72
     8
 73
     4
 74
     0
 42
0.0000000001
 43
0.0000000001
 40
0.0
 40
0.0
 40
0.0
 40
0.0
 40
1.0
 40
1.0
 40
1.0
 40
1.0
 10
41.59298231336805
 20
110.1372911241319
 30
0.0
 10
41.21471082899305
 20
109.8461805555556
 30
0.0
 10
40.86537814670139
 20
109.8751193576389
 30
0.0
 10
40.60320638020833
 20
110.0497856987847
 30
0.0
  0
SPLINE
  5
E8
330
A
100
AcDbEntity
  8
LAYER_1
 62
     7
100
AcDbSpline
210
0.0
220
0.0
230
1.0
 70
     8
 71
     3
 72
     8
 73
     4
 74
     0
 42
0.0000000001
 43
0.0000000001
 40
0.0
 40
0.0
 40
0.0
 40
0.0
 40
1.0
 40
1.0
 40
1.0
 40
1.0
 10
41.65154893663194
 20
110.8070176866319
 30
0.0
 10
41.27293294270833
 20
110.5159071180556
 30
0.0
 10
40.92360026041666
 20
110.5448459201389
 30
0.0
 10
40.66142849392361
 20
110.7195122612847
 30
0.0
  0
SPLINE
  5
E7
330
A
100
AcDbEntity
  8
LAYER_1
 62
     7
100
AcDbSpline
210
0.0
220
0.0
230
1.0
 70
     8
 71
     3
 72
     8
 73
     4
 74
     0
 42
0.0000000001
 43
0.0000000001
 40
0.0
 40
0.0
 40
0.0
 40
0.0
 40
1.0
 40
1.0
 40
1.0
 40
1.0
 10
41.56404351128472
 20
111.4474609375
 30
0.0
 10
41.18542751736111
 20
111.1563503689236
 30
0.0
 10
40.83609483506944
 20
111.1856336805555
 30
0.0
 10
40.57392306857638
 20
111.3603000217014
 30
0.0
  0
SPLINE
  5
E6
330
A
100
AcDbEntity
  8
LAYER_1
 62
     7
100
AcDbSpline
210
0.0
220
0.0
230
1.0
 70
     8
 71
     3
 72
     8
 73
     4
 74
     0
 42
0.0000000001
 43
0.0000000001
 40
0.0
 40
0.0
 40
0.0
 40
0.0
 40
1.0
 40
1.0
 40
1.0
 40
1.0
 10
41.68048773871527
 20
112.0882486979167
 30
0.0
 10
41.30187174479166
 20
111.7971381293403
 30
0.0
 10
40.95253906249999
 20
111.8260769314236
 30
0.0
 10
40.69036729600694
 20
112.0007432725694
 30
0.0
  0
SPLINE
  5
E5
330
A
100
AcDbEntity
  8
LAYER_1
 62
     7
100
AcDbSpline
210
0.0
220
0.0
230
1.0
 70
     8
 71
     3
 72
     8
 73
     4
 74
     0
 42
0.0000000001
 43
0.0000000001
 40
0.0
 40
0.0
 40
0.0
 40
0.0
 40
1.0
 40
1.0
 40
1.0
 40
1.0
 10
41.65154893663194
 20
112.7576307508681
 30
0.0
 10
41.27293294270833
 20
112.4665201822917
 30
0.0
 10
40.92360026041666
 20
112.4958034939236
 30
0.0
 10
40.66142849392361
 20
112.6704698350694
 30
0.0
  0
SPLINE
  5
E4
330
A
100
AcDbEntity
  8
LAYER_1
 62
     7
100
AcDbSpline
210
0.0
220
0.0
230
1.0
 70
     8
 71
     3
 72
     8
 73
     4
 74
     0
 42
0.0000000001
 43
0.0000000001
 40
0.0
 40
0.0
 40
0.0
 40
0.0
 40
1.0
 40
1.0
 40
1.0
 40
1.0
 10
41.622265625
 20
113.3984185112847
 30
0.0
 10
41.24364963107639
 20
113.1073079427083
 30
0.0
 10
40.89431694878472
 20
113.1362467447917
 30
0.0
 10
40.63214518229167
 20
113.3109130859375
 30
0.0
  0
SPLINE
  5
E3
330
A
100
AcDbEntity
  8
LAYER_1
 62
     7
100
AcDbSpline
210
0.0
220
0.0
230
1.0
 70
     8
 71
     3
 72
     8
 73
     4
 74
     0
 42
0.0000000001
 43
0.0000000001
 40
0.0
 40
0.0
 40
0.0
 40
0.0
 40
1.0
 40
1.0
 40
1.0
 40
1.0
 10
41.59298231336805
 20
114.1263671875
 30
0.0
 10
41.21471082899305
 20
113.8352566189236
 30
0.0
 10
40.86537814670139
 20
113.8641954210069
 30
0.0
 10
40.60320638020833
 20
114.0388617621528
 30
0.0
  0
SPLINE
  5
E2
330
A
100
AcDbEntity
  8
LAYER_1
 62
     7
100
AcDbSpline
210
0.0
220
0.0
230
1.0
 70
     8
 71
     3
 72
     8
 73
     4
 74
     0
 42
0.0000000001
 43
0.0000000001
 40
0.0
 40
0.0
 40
0.0
 40
0.0
 40
1.0
 40
1.0
 40
1.0
 40
1.0
 10
41.65154893663194
 20
114.79609375
 30
0.0
 10
41.27293294270833
 20
114.5049831814236
 30
0.0
 10
40.92360026041666
 20
114.5339219835069
 30
0.0
 10
40.66142849392361
 20
114.7085883246528
 30
0.0
  0
SPLINE
  5
E1
330
A
100
AcDbEntity
  8
LAYER_1
 62
     7
100
AcDbSpline
210
0.0
220
0.0
230
1.0
 70
     8
 71
     3
 72
     8
 73
     4
 74
     0
 42
0.0000000001
 43
0.0000000001
 40
0.0
 40
0.0
 40
0.0
 40
0.0
 40
1.0
 40
1.0
 40
1.0
 40
1.0
 10
41.56404351128472
 20
115.436537000868
 30
0.0
 10
41.18542751736111
 20
115.1454264322917
 30
0.0
 10
40.83609483506944
 20
115.174365234375
 30
0.0
 10
40.57392306857638
 20
115.3490315755208
 30
0.0
  0
SPLINE
  5
E0
330
A
100
AcDbEntity
  8
LAYER_1
 62
     7
100
AcDbSpline
210
0.0
220
0.0
230
1.0
 70
     8
 71
     3
 72
     8
 73
     4
 74
     0
 42
0.0000000001
 43
0.0000000001
 40
0.0
 40
0.0
 40
0.0
 40
0.0
 40
1.0
 40
1.0
 40
1.0
 40
1.0
 10
41.68048773871527
 20
116.0769802517361
 30
0.0
 10
41.30187174479166
 20
115.7858696831597
 30
0.0
 10
40.95253906249999
 20
115.8151529947917
 30
0.0
 10
40.69036729600694
 20
115.9898193359375
 30
0.0
  0
SPLINE
  5
DF
330
A
100
AcDbEntity
  8
LAYER_1
 62
     7
100
AcDbSpline
210
0.0
220
0.0
230
1.0
 70
     8
 71
     3
 72
     8
 73
     4
 74
     0
 42
0.0000000001
 43
0.0000000001
 40
0.0
 40
0.0
 40
0.0
 40
0.0
 40
1.0
 40
1.0
 40
1.0
 40
1.0
 10
41.65154893663194
 20
116.7467068142361
 30
0.0
 10
41.27293294270833
 20
116.4555962456597
 30
0.0
 10
40.92360026041666
 20
116.4848795572917
 30
0.0
 10
40.66142849392361
 20
116.6595458984375
 30
0.0
  0
SPLINE
  5
DE
330
A
100
AcDbEntity
  8
LAYER_1
 62
     7
100
AcDbSpline
210
0.0
220
0.0
230
1.0
 70
     8
 71
     3
 72
     8
 73
     4
 74
     0
 42
0.0000000001
 43
0.0000000001
 40
0.0
 40
0.0
 40
0.0
 40
0.0
 40
1.0
 40
1.0
 40
1.0
 40
1.0
 10
41.59298231336805
 20
117.5039388020833
 30
0.0
 10
41.21471082899305
 20
117.2128282335069
 30
0.0
 10
40.86537814670139
 20
117.2417670355903
 30
0.0
 10
40.60320638020833
 20
117.4164333767361
 30
0.0
  0
SPLINE
  5
DD
330
A
100
AcDbEntity
  8
LAYER_1
 62
     7
100
AcDbSpline
210
0.0
220
0.0
230
1.0
 70
     8
 71
     3
 72
     8
 73
     4
 74
     0
 42
0.0000000001
 43
0.0000000001
 40
0.0
 40
0.0
 40
0.0
 40
0.0
 40
1.0
 40
1.0
 40
1.0
 40
1.0
 10
41.56404351128472
 20
118.2318874782986
 30
0.0
 10
41.18542751736111
 20
117.9404324001736
 30
0.0
 10
40.83609483506944
 20
117.9697157118056
 30
0.0
 10
40.57392306857638
 20
118.1443820529514
 30
0.0
  0
SPLINE
  5
DC
330
A
100
AcDbEntity
  8
LAYER_1
 62
     7
100
AcDbSpline
210
0.0
220
0.0
230
1.0
 70
     8
 71
     3
 72
     8
 73
     4
 74
     0
 42
0.0000000001
 43
0.0000000001
 40
0.0
 40
0.0
 40
0.0
 40
0.0
 40
1.0
 40
1.0
 40
1.0
 40
1.0
 10
41.622265625
 20
118.9016140407986
 30
0.0
 10
41.24364963107639
 20
118.6101589626736
 30
0.0
 10
40.89431694878472
 20
118.6394422743056
 30
0.0
 10
40.63214518229167
 20
118.8141086154514
 30
0.0
  0
SPLINE
  5
DB
330
A
100
AcDbEntity
  8
LAYER_1
 62
     7
100
AcDbSpline
210
0.0
220
0.0
230
1.0
 70
     8
 71
     3
 72
     8
 73
     4
 74
     0
 42
0.0000000001
 43
0.0000000001
 40
0.0
 40
0.0
 40
0.0
 40
0.0
 40
1.0
 40
1.0
 40
1.0
 40
1.0
 10
41.53476019965277
 20
119.5420572916667
 30
0.0
 10
41.15648871527777
 20
119.2509467230903
 30
0.0
 10
40.8068115234375
 20
119.2798855251736
 30
0.0
 10
40.54498426649305
 20
119.4545518663194
 30
0.0
  0
SPLINE
  5
DA
330
A
100
AcDbEntity
  8
LAYER_1
 62
     7
100
AcDbSpline
210
0.0
220
0.0
230
1.0
 70
     8
 71
     3
 72
     8
 73
     4
 74
     0
 42
0.0000000001
 43
0.0000000001
 40
0.0
 40
0.0
 40
0.0
 40
0.0
 40
1.0
 40
1.0
 40
1.0
 40
1.0
 10
41.65154893663194
 20
120.1825005425347
 30
0.0
 10
41.27293294270833
 20
119.8913899739583
 30
0.0
 10
40.92360026041666
 20
119.9206732855903
 30
0.0
 10
40.66142849392361
 20
120.0953396267361
 30
0.0
  0
SPLINE
  5
D9
330
A
100
AcDbEntity
  8
LAYER_1
 62
     7
100
AcDbSpline
210
0.0
220
0.0
230
1.0
 70
     8
 71
     3
 72
     8
 73
     4
 74
     0
 42
0.0000000001
 43
0.0000000001
 40
0.0
 40
0.0
 40
0.0
 40
0.0
 40
1.0
 40
1.0
 40
1.0
 40
1.0
 10
41.622265625
 20
120.8522271050347
 30
0.0
 10
41.24364963107639
 20
120.5611165364583
 30
0.0
 10
40.89431694878472
 20
120.5900553385417
 30
0.0
 10
40.63214518229167
 20
120.7647216796875
 30
0.0
  0
SPLINE
  5
D8
330
A
100
AcDbEntity
  8
LAYER_1
 62
     7
100
AcDbSpline
210
0.0
220
0.0
230
1.0
 70
     8
 71
     3
 72
     8
 73
     4
 74
     0
 42
0.0000000001
 43
0.0000000001
 40
0.0
 40
0.0
 40
0.0
 40
0.0
 40
1.0
 40
1.0
 40
1.0
 40
1.0
 10
41.59298231336805
 20
121.4926703559028
 30
0.0
 10
41.21471082899305
 20
121.2015597873264
 30
0.0
 10
40.86537814670139
 20
121.2308430989583
 30
0.0
 10
40.60320638020833
 20
121.4055094401042
 30
0.0
  0
SPLINE
  5
D7
330
A
100
AcDbEntity
  8
LAYER_1
 62
     7
100
AcDbSpline
210
0.0
220
0.0
230
1.0
 70
     8
 71
     3
 72
     8
 73
     4
 74
     0
 42
0.0000000001
 43
0.0000000001
 40
0.0
 40
0.0
 40
0.0
 40
0.0
 40
1.0
 40
1.0
 40
1.0
 40
1.0
 10
41.56404351128472
 20
122.2206190321181
 30
0.0
 10
41.18542751736111
 20
121.9295084635417
 30
0.0
 10
40.83609483506944
 20
121.9587917751736
 30
0.0
 10
40.57392306857638
 20
122.1334581163194
 30
0.0
  0
SPLINE
  5
D6
330
A
100
AcDbEntity
  8
LAYER_1
 62
     7
100
AcDbSpline
210
0.0
220
0.0
230
1.0
 70
     8
 71
     3
 72
     8
 73
     4
 74
     0
 42
0.0000000001
 43
0.0000000001
 40
0.0
 40
0.0
 40
0.0
 40
0.0
 40
1.0
 40
1.0
 40
1.0
 40
1.0
 10
41.622265625
 20
122.890345594618
 30
0.0
 10
41.24364963107639
 20
122.5992350260417
 30
0.0
 10
40.89431694878472
 20
122.6285183376736
 30
0.0
 10
40.63214518229167
 20
122.8031846788194
 30
0.0
  0
SPLINE
  5
D5
330
A
100
AcDbEntity
  8
LAYER_1
 62
     7
100
AcDbSpline
210
0.0
220
0.0
230
1.0
 70
     8
 71
     3
 72
     8
 73
     4
 74
     0
 42
0.0000000001
 43
0.0000000001
 40
0.0
 40
0.0
 40
0.0
 40
0.0
 40
1.0
 40
1.0
 40
1.0
 40
1.0
 10
41.53476019965277
 20
123.5311333550347
 30
0.0
 10
41.15648871527777
 20
123.2396782769097
 30
0.0
 10
40.8068115234375
 20
123.2689615885417
 30
0.0
 10
40.54498426649305
 20
123.4436279296875
 30
0.0
  0
SPLINE
  5
D4
330
A
100
AcDbEntity
  8
LAYER_1
 62
     7
100
AcDbSpline
210
0.0
220
0.0
230
1.0
 70
     8
 71
     3
 72
     8
 73
     4
 74
     0
 42
0.0000000001
 43
0.0000000001
 40
0.0
 40
0.0
 40
0.0
 40
0.0
 40
1.0
 40
1.0
 40
1.0
 40
1.0
 10
41.65154893663194
 20
124.1715766059028
 30
0.0
 10
41.27293294270833
 20
123.8804660373264
 30
0.0
 10
40.92360026041666
 20
123.9094048394097
 30
0.0
 10
40.66142849392361
 20
124.0844156901042
 30
0.0
  0
SPLINE
  5
D3
330
A
100
AcDbEntity
  8
LAYER_1
 62
     7
100
AcDbSpline
210
0.0
220
0.0
230
1.0
 70
     8
 71
     3
 72
     8
 73
     4
 74
     0
 42
0.0000000001
 43
0.0000000001
 40
0.0
 40
0.0
 40
0.0
 40
0.0
 40
1.0
 40
1.0
 40
1.0
 40
1.0
 10
41.622265625
 20
124.8413031684028
 30
0.0
 10
41.24364963107639
 20
124.5501925998264
 30
0.0
 10
40.89431694878472
 20
124.5791314019097
 30
0.0
 10
40.63214518229167
 20
124.7537977430555
 30
0.0
  0
SPLINE
  5
D2
330
A
100
AcDbEntity
  8
LAYER_1
 62
     7
100
AcDbSpline
210
0.0
220
0.0
230
1.0
 70
     8
 71
     3
 72
     8
 73
     4
 74
     0
 42
0.0000000001
 43
0.0000000001
 40
0.0
 40
0.0
 40
0.0
 40
0.0
 40
1.0
 40
1.0
 40
1.0
 40
1.0
 10
41.53476019965277
 20
125.4528076171875
 30
0.0
 10
41.15648871527777
 20
125.1616970486111
 30
0.0
 10
40.8068115234375
 20
125.1906358506944
 30
0.0
 10
40.54498426649305
 20
125.3653021918403
 30
0.0
  0
SPLINE
  5
D1
330
A
100
AcDbEntity
  8
LAYER_1
 62
     7
100
AcDbSpline
210
0.0
220
0.0
230
1.0
 70
     8
 71
     3
 72
     8
 73
     4
 74
     0
 42
0.0000000001
 43
0.0000000001
 40
0.0
 40
0.0
 40
0.0
 40
0.0
 40
1.0
 40
1.0
 40
1.0
 40
1.0
 10
41.50582139756944
 20
126.1807562934028
 30
0.0
 10
41.12720540364583
 20
125.8896457248264
 30
0.0
 10
40.77787272135416
 20
125.9185845269097
 30
0.0
 10
40.51570095486111
 20
126.0932508680556
 30
0.0
  0
SPLINE
  5
D0
330
A
100
AcDbEntity
  8
LAYER_1
 62
     7
100
AcDbSpline
210
0.0
220
0.0
230
1.0
 70
     8
 71
     3
 72
     8
 73
     4
 74
     0
 42
0.0000000001
 43
0.0000000001
 40
0.0
 40
0.0
 40
0.0
 40
0.0
 40
1.0
 40
1.0
 40
1.0
 40
1.0
 10
41.56404351128472
 20
126.8501383463542
 30
0.0
 10
41.18542751736111
 20
126.5590277777778
 30
0.0
 10
40.83609483506944
 20
126.5883110894097
 30
0.0
 10
40.57392306857638
 20
126.7629774305555
 30
0.0
  0
SPLINE
  5
CF
330
A
100
AcDbEntity
  8
LAYER_1
 62
     7
100
AcDbSpline
210
0.0
220
0.0
230
1.0
 70
     8
 71
     3
 72
     8
 73
     4
 74
     0
 42
0.0000000001
 43
0.0000000001
 40
0.0
 40
0.0
 40
0.0
 40
0.0
 40
1.0
 40
1.0
 40
1.0
 40
1.0
 10
41.4765380859375
 20
127.4909261067708
 30
0.0
 10
41.09826660156249
 20
127.1998155381944
 30
0.0
 10
40.74893391927083
 20
127.2287543402778
 30
0.0
 10
40.48676215277777
 20
127.4034206814236
 30
0.0
  0
SPLINE
  5
CE
330
A
100
AcDbEntity
  8
LAYER_1
 62
     7
100
AcDbSpline
210
0.0
220
0.0
230
1.0
 70
     8
 71
     3
 72
     8
 73
     4
 74
     0
 42
0.0000000001
 43
0.0000000001
 40
0.0
 40
0.0
 40
0.0
 40
0.0
 40
1.0
 40
1.0
 40
1.0
 40
1.0
 10
41.59298231336805
 20
128.1313693576389
 30
0.0
 10
41.21471082899305
 20
127.8402587890625
 30
0.0
 10
40.86537814670139
 20
127.8695421006944
 30
0.0
 10
40.60320638020833
 20
128.0442084418403
 30
0.0
  0
SPLINE
  5
CD
330
A
100
AcDbEntity
  8
LAYER_1
 62
     7
100
AcDbSpline
210
0.0
220
0.0
230
1.0
 70
     8
 71
     3
 72
     8
 73
     4
 74
     0
 42
0.0000000001
 43
0.0000000001
 40
0.0
 40
0.0
 40
0.0
 40
0.0
 40
1.0
 40
1.0
 40
1.0
 40
1.0
 10
41.56404351128472
 20
128.8010959201389
 30
0.0
 10
41.18542751736111
 20
128.5099853515625
 30
0.0
 10
40.83609483506944
 20
128.5389241536458
 30
0.0
 10
40.57392306857638
 20
128.7139350043403
 30
0.0
  0
SPLINE
  5
CC
330
A
100
AcDbEntity
  8
LAYER_1
 62
     7
100
AcDbSpline
210
0.0
220
0.0
230
1.0
 70
     8
 71
     3
 72
     8
 73
     4
 74
     0
 42
0.0000000001
 43
0.0000000001
 40
0.0
 40
0.0
 40
0.0
 40
0.0
 40
1.0
 40
1.0
 40
1.0
 40
1.0
 10
41.56404351128472
 20
129.5001057942708
 30
0.0
 10
41.18542751736111
 20
129.2086507161458
 30
0.0
 10
40.83609483506944
 20
129.2379340277778
 30
0.0
 10
40.57392306857638
 20
129.4126003689236
 30
0.0
  0
SPLINE
  5
CB
330
A
100
AcDbEntity
  8
LAYER_1
 62
     7
100
AcDbSpline
210
0.0
220
0.0
230
1.0
 70
     8
 71
     3
 72
     8
 73
     4
 74
     0
 42
0.0000000001
 43
0.0000000001
 40
0.0
 40
0.0
 40
0.0
 40
0.0
 40
1.0
 40
1.0
 40
1.0
 40
1.0
 10
41.53476019965277
 20
130.2277099609375
 30
0.0
 10
41.15648871527777
 20
129.9365993923611
 30
0.0
 10
40.8068115234375
 20
129.965882703993
 30
0.0
 10
40.54498426649305
 20
130.1405490451389
 30
0.0
  0
SPLINE
  5
CA
330
A
100
AcDbEntity
  8
LAYER_1
 62
     7
100
AcDbSpline
210
0.0
220
0.0
230
1.0
 70
     8
 71
     3
 72
     8
 73
     4
 74
     0
 42
0.0000000001
 43
0.0000000001
 40
0.0
 40
0.0
 40
0.0
 40
0.0
 40
1.0
 40
1.0
 40
1.0
 40
1.0
 10
41.59298231336805
 20
130.8974365234375
 30
0.0
 10
41.21471082899305
 20
130.6063259548611
 30
0.0
 10
40.86537814670139
 20
130.6356092664931
 30
0.0
 10
40.60320638020833
 20
130.8102756076389
 30
0.0
  0
SPLINE
  5
C9
330
A
100
AcDbEntity
  8
LAYER_1
 62
     7
100
AcDbSpline
210
0.0
220
0.0
230
1.0
 70
     8
 71
     3
 72
     8
 73
     4
 74
     0
 42
0.0000000001
 43
0.0000000001
 40
0.0
 40
0.0
 40
0.0
 40
0.0
 40
1.0
 40
1.0
 40
1.0
 40
1.0
 10
41.50582139756944
 20
131.5382242838542
 30
0.0
 10
41.12720540364583
 20
131.2471137152778
 30
0.0
 10
40.77787272135416
 20
131.2760525173611
 30
0.0
 10
40.51570095486111
 20
131.450718858507
 30
0.0
  0
SPLINE
  5
C8
330
A
100
AcDbEntity
  8
LAYER_1
 62
     7
100
AcDbSpline
210
0.0
220
0.0
230
1.0
 70
     8
 71
     3
 72
     8
 73
     4
 74
     0
 42
0.0000000001
 43
0.0000000001
 40
0.0
 40
0.0
 40
0.0
 40
0.0
 40
1.0
 40
1.0
 40
1.0
 40
1.0
 10
41.622265625
 20
132.1786675347222
 30
0.0
 10
41.24364963107639
 20
131.8875569661458
 30
0.0
 10
40.89431694878472
 20
131.9164957682292
 30
0.0
 10
40.63214518229167
 20
132.091162109375
 30
0.0
  0
SPLINE
  5
C7
330
A
100
AcDbEntity
  8
LAYER_1
 62
     7
100
AcDbSpline
210
0.0
220
0.0
230
1.0
 70
     8
 71
     3
 72
     8
 73
     4
 74
     0
 42
0.0000000001
 43
0.0000000001
 40
0.0
 40
0.0
 40
0.0
 40
0.0
 40
1.0
 40
1.0
 40
1.0
 40
1.0
 10
41.59298231336805
 20
132.8483940972222
 30
0.0
 10
41.21471082899305
 20
132.5572835286458
 30
0.0
 10
40.86537814670139
 20
132.5862223307292
 30
0.0
 10
40.60320638020833
 20
132.760888671875
 30
0.0
  0
SPLINE
  5
C6
330
A
100
AcDbEntity
  8
LAYER_1
 62
     7
100
AcDbSpline
210
0.0
220
0.0
230
1.0
 70
     8
 71
     3
 72
     8
 73
     4
 74
     0
 42
0.0000000001
 43
0.0000000001
 40
0.0
 40
0.0
 40
0.0
 40
0.0
 40
1.0
 40
1.0
 40
1.0
 40
1.0
 10
41.65154893663194
 20
133.5470594618055
 30
0.0
 10
41.27293294270833
 20
133.2559488932292
 30
0.0
 10
40.92360026041666
 20
133.2852322048611
 30
0.0
 10
40.66142849392361
 20
133.4598985460069
 30
0.0
  0
SPLINE
  5
C5
330
A
100
AcDbEntity
  8
LAYER_1
 62
     7
100
AcDbSpline
210
0.0
220
0.0
230
1.0
 70
     8
 71
     3
 72
     8
 73
     4
 74
     0
 42
0.0000000001
 43
0.0000000001
 40
0.0
 40
0.0
 40
0.0
 40
0.0
 40
1.0
 40
1.0
 40
1.0
 40
1.0
 10
41.622265625
 20
134.100341796875
 30
0.0
 10
41.24364963107639
 20
133.8092312282986
 30
0.0
 10
40.89431694878472
 20
133.838170030382
 30
0.0
 10
40.63214518229167
 20
134.0131808810764
 30
0.0
  0
SPLINE
  5
C4
330
A
100
AcDbEntity
  8
LAYER_1
 62
     7
100
AcDbSpline
210
0.0
220
0.0
230
1.0
 70
    11
 71
     3
 72
    35
 73
    31
 74
     0
 42
0.0000000001
 43
0.0000000001
 40
0.0
 40
0.0
 40
0.0
 40
0.0
 40
1.0
 40
1.0
 40
1.0
 40
2.0
 40
2.0
 40
2.0
 40
3.0
 40
3.0
 40
3.0
 40
4.0
 40
4.0
 40
4.0
 40
5.0
 40
5.0
 40
5.0
 40
6.0
 40
6.0
 40
6.0
 40
7.0
 40
7.0
 40
7.0
 40
8.0
 40
8.0
 40
8.0
 40
9.0
 40
9.0
 40
9.0
 40
10.0
 40
10.0
 40
10.0
 40
10.0
 10
41.59298231336805
 20
134.2167860243056
 30
0.0
 10
41.59298231336805
 20
134.799351671007
 30
0.0
 10
42.29199218749999
 20
134.8865125868055
 30
0.0
 10
42.29199218749999
 20
134.3042914496528
 30
0.0
 10
42.29199218749999
 20
133.7217258029514
 30
0.0
 10
42.67060818142361
 20
69.25744357638888
 30
0.0
 10
42.67060818142361
 20
69.25744357638888
 30
0.0
 10
42.67060818142361
 20
69.25744357638888
 30
0.0
 10
56.6756103515625
 20
69.19922146267361
 30
0.0
 10
56.6756103515625
 20
69.19922146267361
 30
0.0
 10
56.6756103515625
 20
69.19922146267361
 30
0.0
 10
56.52988281249999
 20
134.0421196831597
 30
0.0
 10
56.52988281249999
 20
134.3625135633681
 30
0.0
 10
56.52988281249999
 20
134.9157958984375
 30
0.0
 10
57.19960937499999
 20
134.8575737847222
 30
0.0
 10
57.19960937499999
 20
134.3914523654514
 30
0.0
 10
57.19960937499999
 20
133.9256754557292
 30
0.0
 10
57.46178114149305
 20
69.51961534288193
 30
0.0
 10
57.46178114149305
 20
69.16993815104166
 30
0.0
 10
57.46178114149305
 20
68.41305067274305
 30
0.0
 10
57.28711480034722
 20
68.29660644531249
 30
0.0
 10
56.55916612413194
 20
68.26732313368055
 30
0.0
 10
55.83121744791666
 20
68.23838433159722
 30
0.0
 10
43.25282931857638
 20
68.20910101996527
 30
0.0
 10
42.67060818142361
 20
68.20910101996527
 30
0.0
 10
42.08804253472222
 20
68.20910101996527
 30
0.0
 10
41.82621527777778
 20
68.50021158854166
 30
0.0
 10
41.85515407986111
 20
69.11171603732639
 30
0.0
 10
41.88443739149305
 20
69.7232204861111
 30
0.0
 10
41.59298231336805
 20
133.8092312282986
 30
0.0
 10
41.59298231336805
 20
134.2167860243056
 30
0.0
  0
LINE
  5
C3
330
A
100
AcDbEntity
  8
LAYER_1
 62
     7
100
AcDbLine
 10
42.43737521701389
 20
128.3646023220486
 30
0.0
 11
56.50094401041666
 21
128.3935411241319
 31
0.0
  0
LINE
  5
C2
330
A
100
AcDbEntity
  8
LAYER_1
 62
     7
100
AcDbLine
 10
42.43737521701389
 20
121.7259033203125
 30
0.0
 11
56.41343858506944
 21
121.8130642361111
 31
0.0
  0
LINE
  5
C1
330
A
100
AcDbEntity
  8
LAYER_1
 62
     7
100
AcDbLine
 10
42.5248806423611
 20
115.3200927734375
 30
0.0
 11
56.44272189670139
 21
115.3490315755208
 31
0.0
  0
SPLINE
  5
C0
330
A
100
AcDbEntity
  8
LAYER_1
 62
     7
100
AcDbSpline
210
0.0
220
0.0
230
1.0
 70
     8
 71
     3
 72
     8
 73
     4
 74
     0
 42
0.0000000001
 43
0.0000000001
 40
0.0
 40
0.0
 40
0.0
 40
0.0
 40
1.0
 40
1.0
 40
1.0
 40
1.0
 10
42.67060818142361
 20
112.0007432725694
 30
0.0
 10
43.6314453125
 20
112.1464708116319
 30
0.0
 10
47.56195475260417
 20
112.7869140625
 30
0.0
 10
48.61029730902777
 20
112.7869140625
 30
0.0
  0
SPLINE
  5
BF
330
A
100
AcDbEntity
  8
LAYER_1
 62
     7
100
AcDbSpline
210
0.0
220
0.0
230
1.0
 70
     8
 71
     3
 72
     8
 73
     4
 74
     0
 42
0.0000000001
 43
0.0000000001
 40
0.0
 40
0.0
 40
0.0
 40
0.0
 40
1.0
 40
1.0
 40
1.0
 40
1.0
 10
42.67060818142361
 20
110.777734375
 30
0.0
 10
44.35904947916666
 20
110.6612901475694
 30
0.0
 10
46.04783528645833
 20
111.3892388237847
 30
0.0
 10
47.62017686631944
 20
111.3892388237847
 30
0.0
  0
SPLINE
  5
BE
330
A
100
AcDbEntity
  8
LAYER_1
 62
     7
100
AcDbSpline
210
0.0
220
0.0
230
1.0
 70
     8
 71
     3
 72
    11
 73
     7
 74
     0
 42
0.0000000001
 43
0.0000000001
 40
0.0
 40
0.0
 40
0.0
 40
0.0
 40
1.0
 40
1.0
 40
1.0
 40
2.0
 40
2.0
 40
2.0
 40
2.0
 10
42.55416395399305
 20
109.4386257595486
 30
0.0
 10
43.74788953993055
 20
109.4093424479167
 30
0.0
 10
45.20378689236111
 20
109.6132921006944
 30
0.0
 10
46.13534071180555
 20
109.8751193576389
 30
0.0
 10
47.0672390407986
 20
110.1372911241319
 30
0.0
 10
50.61913248697916
 20
110.777734375
 30
0.0
 10
51.69675835503472
 20
110.6905734592014
 30
0.0
  0
SPLINE
  5
BD
330
A
100
AcDbEntity
  8
LAYER_1
 62
     7
100
AcDbSpline
210
0.0
220
0.0
230
1.0
 70
     8
 71
     3
 72
    11
 73
     7
 74
     0
 42
0.0000000001
 43
0.0000000001
 40
0.0
 40
0.0
 40
0.0
 40
0.0
 40
1.0
 40
1.0
 40
1.0
 40
2.0
 40
2.0
 40
2.0
 40
2.0
 10
48.11523708767361
 20
108.7978379991319
 30
0.0
 10
48.95962999131944
 20
109.060009765625
 30
0.0
 10
50.32802191840278
 20
109.2053927951389
 30
0.0
 10
51.14347601996527
 20
109.2928982204861
 30
0.0
 10
51.95858561197916
 20
109.3804036458333
 30
0.0
 10
53.29803873697916
 20
109.4093424479167
 30
0.0
 10
53.73487684461805
 20
109.6715142144097
 30
0.0
  0
SPLINE
  5
BC
330
A
100
AcDbEntity
  8
LAYER_1
 62
     7
100
AcDbSpline
210
0.0
220
0.0
230
1.0
 70
     8
 71
     3
 72
    11
 73
     7
 74
     0
 42
0.0000000001
 43
0.0000000001
 40
0.0
 40
0.0
 40
0.0
 40
0.0
 40
1.0
 40
1.0
 40
1.0
 40
2.0
 40
2.0
 40
2.0
 40
2.0
 10
50.06619466145833
 20
107.8662841796875
 30
0.0
 10
50.96880967881944
 20
107.7498399522569
 30
0.0
 10
52.62831217447916
 20
107.3712239583333
 30
0.0
 10
53.61808810763888
 20
107.3419406467014
 30
0.0
 10
54.60820855034721
 20
107.313001844618
 30
0.0
 10
55.97660047743055
 20
106.8761637369792
 30
0.0
 10
56.47166069878472
 20
106.9054470486111
 30
0.0
  0
LINE
  5
BB
330
A
100
AcDbEntity
  8
LAYER_1
 62
     7
100
AcDbLine
 10
42.5248806423611
 20
108.7106770833333
 30
0.0
 11
56.47166069878472
 21
108.7106770833333
 31
0.0
  0
SPLINE
  5
BA
330
A
100
AcDbEntity
  8
LAYER_1
 62
     7
100
AcDbSpline
210
0.0
220
0.0
230
1.0
 70
     8
 71
     3
 72
    11
 73
     7
 74
     0
 42
0.0000000001
 43
0.0000000001
 40
0.0
 40
0.0
 40
0.0
 40
0.0
 40
1.0
 40
1.0
 40
1.0
 40
2.0
 40
2.0
 40
2.0
 40
2.0
 10
50.50268825954861
 20
106.7597195095486
 30
0.0
 10
51.25992024739583
 20
106.643275282118
 30
0.0
 10
52.86120062934027
 20
106.2939425998264
 30
0.0
 10
53.93848198784722
 20
106.1192762586805
 30
0.0
 10
55.01576334635416
 20
105.9446099175347
 30
0.0
 10
56.32627766927083
 20
105.6531548394097
 30
0.0
 10
56.47166069878472
 20
105.7117214626736
 30
0.0
  0
SPLINE
  5
B9
330
A
100
AcDbEntity
  8
LAYER_1
 62
     7
100
AcDbSpline
210
0.0
220
0.0
230
1.0
 70
     8
 71
     3
 72
    11
 73
     7
 74
     0
 42
0.0000000001
 43
0.0000000001
 40
0.0
 40
0.0
 40
0.0
 40
0.0
 40
1.0
 40
1.0
 40
1.0
 40
2.0
 40
2.0
 40
2.0
 40
2.0
 10
51.69675835503472
 20
105.3620442708333
 30
0.0
 10
52.39542371961805
 20
105.3038221571181
 30
0.0
 10
54.40460340711805
 20
104.8669840494792
 30
0.0
 10
54.60820855034721
 20
104.8380452473958
 30
0.0
 10
54.81215820312499
 20
104.8091064453125
 30
0.0
 10
56.15126681857638
 20
104.5758734809028
 30
0.0
 10
56.50094401041666
 20
104.4594292534722
 30
0.0
  0
SPLINE
  5
B8
330
A
100
AcDbEntity
  8
LAYER_1
 62
     7
100
AcDbSpline
210
0.0
220
0.0
230
1.0
 70
     8
 71
     3
 72
    11
 73
     7
 74
     0
 42
0.0000000001
 43
0.0000000001
 40
0.0
 40
0.0
 40
0.0
 40
0.0
 40
1.0
 40
1.0
 40
1.0
 40
2.0
 40
2.0
 40
2.0
 40
2.0
 10
46.018896484375
 20
104.6051567925347
 30
0.0
 10
47.03795572916666
 20
104.6051567925347
 30
0.0
 10
51.02703179253471
 20
104.0518744574653
 30
0.0
 10
51.57996961805555
 20
103.99365234375
 30
0.0
 10
52.133251953125
 20
103.9354302300347
 30
0.0
 10
56.23877224392361
 20
103.32392578125
 30
0.0
 10
56.47166069878472
 20
103.2074815538194
 30
0.0
  0
SPLINE
  5
B7
330
A
100
AcDbEntity
  8
LAYER_1
 62
     7
100
AcDbSpline
210
0.0
220
0.0
230
1.0
 70
     8
 71
     3
 72
    11
 73
     7
 74
     0
 42
0.0000000001
 43
0.0000000001
 40
0.0
 40
0.0
 40
0.0
 40
0.0
 40
1.0
 40
1.0
 40
1.0
 40
2.0
 40
2.0
 40
2.0
 40
2.0
 10
44.009716796875
 20
103.1492594401042
 30
0.0
 10
45.02877604166666
 20
103.1199761284722
 30
0.0
 10
47.79484320746527
 20
102.9163709852431
 30
0.0
 10
48.78496365017361
 20
102.8288655598958
 30
0.0
 10
49.77473958333333
 20
102.7417046440972
 30
0.0
 10
53.23981662326388
 20
102.3923719618056
 30
0.0
 10
53.76381564670138
 20
102.1591389973958
 30
0.0
  0
LINE
  5
B6
330
A
100
AcDbEntity
  8
LAYER_1
 62
     7
100
AcDbLine
 10
42.5248806423611
 20
102.1012613932292
 30
0.0
 11
56.52988281249999
 21
102.1302001953125
 31
0.0
  0
SPLINE
  5
B5
330
A
100
AcDbEntity
  8
LAYER_1
 62
     7
100
AcDbSpline
210
0.0
220
0.0
230
1.0
 70
     8
 71
     3
 72
    11
 73
     7
 74
     0
 42
0.0000000001
 43
0.0000000001
 40
0.0
 40
0.0
 40
0.0
 40
0.0
 40
1.0
 40
1.0
 40
1.0
 40
2.0
 40
2.0
 40
2.0
 40
2.0
 10
42.64132486979166
 20
100.1792426215278
 30
0.0
 10
43.16532389322916
 20
100.4996365017361
 30
0.0
 10
45.29094780815972
 20
100.8782524956597
 30
0.0
 10
45.84423014322916
 20
100.936474609375
 30
0.0
 10
46.39751247829861
 20
100.9946967230903
 30
0.0
 10
49.92046712239583
 20
101.4604736328125
 30
0.0
 10
50.85202094184027
 20
101.2858072916667
 30
0.0
  0
SPLINE
  5
B4
330
A
100
AcDbEntity
  8
LAYER_1
 62
     7
100
AcDbSpline
210
0.0
220
0.0
230
1.0
 70
     8
 71
     3
 72
     8
 73
     4
 74
     0
 42
0.0000000001
 43
0.0000000001
 40
0.0
 40
0.0
 40
0.0
 40
0.0
 40
1.0
 40
1.0
 40
1.0
 40
1.0
 10
49.94940592447916
 20
100.1503038194444
 30
0.0
 10
50.76486002604166
 20
100.1210205078125
 30
0.0
 10
51.72569715711805
 20
100.2960313585069
 30
0.0
 10
52.16253526475694
 20
100.1210205078125
 30
0.0
  0
SPLINE
  5
B3
330
A
100
AcDbEntity
  8
LAYER_1
 62
     7
100
AcDbSpline
210
0.0
220
0.0
230
1.0
 70
     8
 71
     3
 72
    11
 73
     7
 74
     0
 42
0.0000000001
 43
0.0000000001
 40
0.0
 40
0.0
 40
0.0
 40
0.0
 40
1.0
 40
1.0
 40
1.0
 40
2.0
 40
2.0
 40
2.0
 40
2.0
 10
42.64132486979166
 20
99.45129394531249
 30
0.0
 10
43.54393988715277
 20
99.62630479600693
 30
0.0
 10
44.97055392795139
 20
99.88813205295138
 30
0.0
 10
45.61134168836805
 20
99.85919325086805
 30
0.0
 10
46.25178493923611
 20
99.8299099392361
 30
0.0
 10
47.82412651909722
 20
99.94635416666665
 30
0.0
 10
48.17345920138889
 20
100.0920817057292
 30
0.0
  0
SPLINE
  5
B2
330
A
100
AcDbEntity
  8
LAYER_1
 62
     7
100
AcDbSpline
210
0.0
220
0.0
230
1.0
 70
     8
 71
     3
 72
    11
 73
     7
 74
     0
 42
0.0000000001
 43
0.0000000001
 40
0.0
 40
0.0
 40
0.0
 40
0.0
 40
1.0
 40
1.0
 40
1.0
 40
2.0
 40
2.0
 40
2.0
 40
2.0
 10
42.72883029513888
 20
98.02467990451387
 30
0.0
 10
43.16532389322916
 20
98.25756835937499
 30
0.0
 10
44.67944335937499
 20
98.46151801215277
 30
0.0
 10
45.17450358072917
 20
98.43223470052082
 30
0.0
 10
45.66956380208333
 20
98.40329589843749
 30
0.0
 10
47.53301595052083
 20
98.51974012586804
 30
0.0
 10
47.79484320746527
 20
98.60690104166666
 30
0.0
  0
SPLINE
  5
B1
330
A
100
AcDbEntity
  8
LAYER_1
 62
     7
100
AcDbSpline
210
0.0
220
0.0
230
1.0
 70
     8
 71
     3
 72
     8
 73
     4
 74
     0
 42
0.0000000001
 43
0.0000000001
 40
0.0
 40
0.0
 40
0.0
 40
0.0
 40
1.0
 40
1.0
 40
1.0
 40
1.0
 10
42.55416395399305
 20
96.83095431857637
 30
0.0
 10
43.13638509114583
 20
96.88917643229166
 30
0.0
 10
44.50477701822916
 20
96.74344889322916
 30
0.0
 10
44.88339301215277
 20
96.88917643229166
 30
0.0
  0
LINE
  5
B0
330
A
100
AcDbEntity
  8
LAYER_1
 62
     7
100
AcDbLine
 10
42.58310275607639
 20
95.52078450520833
 30
0.0
 11
56.58810492621527
 21
95.49150119357638
 31
0.0
  0
SPLINE
  5
AF
330
A
100
AcDbEntity
  8
LAYER_1
 62
     7
100
AcDbSpline
210
0.0
220
0.0
230
1.0
 70
     8
 71
     3
 72
    11
 73
     7
 74
     0
 42
0.0000000001
 43
0.0000000001
 40
0.0
 40
0.0
 40
0.0
 40
0.0
 40
1.0
 40
1.0
 40
1.0
 40
2.0
 40
2.0
 40
2.0
 40
2.0
 10
49.28002387152777
 20
94.61816948784721
 30
0.0
 10
49.65829535590277
 20
94.53066406249999
 30
0.0
 10
51.78391927083333
 20
94.15204806857638
 30
0.0
 10
52.42436252170138
 20
94.06488715277777
 30
0.0
 10
53.06515028211805
 20
93.97738172743054
 30
0.0
 10
56.09304470486111
 20
93.36587727864583
 30
0.0
 10
56.55916612413194
 20
93.4240993923611
 30
0.0
  0
SPLINE
  5
AE
330
A
100
AcDbEntity
  8
LAYER_1
 62
     7
100
AcDbSpline
210
0.0
220
0.0
230
1.0
 70
     8
 71
     3
 72
     8
 73
     4
 74
     0
 42
0.0000000001
 43
0.0000000001
 40
0.0
 40
0.0
 40
0.0
 40
0.0
 40
1.0
 40
1.0
 40
1.0
 40
1.0
 10
51.75463595920139
 20
92.9001003689236
 30
0.0
 10
52.74475640190972
 20
92.69615071614582
 30
0.0
 10
56.00588378906249
 20
92.02676866319443
 30
0.0
 10
56.52988281249999
 20
92.20143500434027
 30
0.0
  0
SPLINE
  5
AD
330
A
100
AcDbEntity
  8
LAYER_1
 62
     7
100
AcDbSpline
210
0.0
220
0.0
230
1.0
 70
     8
 71
     3
 72
     8
 73
     4
 74
     0
 42
0.0000000001
 43
0.0000000001
 40
0.0
 40
0.0
 40
0.0
 40
0.0
 40
1.0
 40
1.0
 40
1.0
 40
1.0
 10
52.30791829427083
 20
91.53170844184027
 30
0.0
 10
52.65725097656249
 20
91.53170844184027
 30
0.0
 10
56.06410590277778
 20
90.86198187934026
 30
0.0
 10
56.61738823784722
 20
90.92020399305555
 30
0.0
  0
SPLINE
  5
AC
330
A
100
AcDbEntity
  8
LAYER_1
 62
     7
100
AcDbSpline
210
0.0
220
0.0
230
1.0
 70
     8
 71
     3
 72
     8
 73
     4
 74
     0
 42
0.0000000001
 43
0.0000000001
 40
0.0
 40
0.0
 40
0.0
 40
0.0
 40
1.0
 40
1.0
 40
1.0
 40
1.0
 10
49.97868923611111
 20
92.02676866319443
 30
0.0
 10
50.70663791232639
 20
91.82281901041665
 30
0.0
 10
50.9395263671875
 20
91.88104112413194
 30
0.0
 10
51.11419270833333
 20
91.82281901041665
 30
0.0
  0
SPLINE
  5
AB
330
A
100
AcDbEntity
  8
LAYER_1
 62
     7
100
AcDbSpline
210
0.0
220
0.0
230
1.0
 70
     8
 71
     3
 72
     8
 73
     4
 74
     0
 42
0.0000000001
 43
0.0000000001
 40
0.0
 40
0.0
 40
0.0
 40
0.0
 40
1.0
 40
1.0
 40
1.0
 40
1.0
 10
52.16253526475694
 20
90.68731553819444
 30
0.0
 10
52.9487060546875
 20
90.45442708333333
 30
0.0
 10
56.09304470486111
 20
89.87186143663193
 30
0.0
 10
56.55916612413194
 20
89.90114474826387
 30
0.0
  0
SPLINE
  5
AA
330
A
100
AcDbEntity
  8
LAYER_1
 62
     7
100
AcDbSpline
210
0.0
220
0.0
230
1.0
 70
     8
 71
     3
 72
     8
 73
     4
 74
     0
 42
0.0000000001
 43
0.0000000001
 40
0.0
 40
0.0
 40
0.0
 40
0.0
 40
1.0
 40
1.0
 40
1.0
 40
1.0
 10
46.92151150173611
 20
91.61886935763889
 30
0.0
 10
47.94057074652778
 20
91.53170844184027
 30
0.0
 10
48.46456976996527
 20
91.50276963975693
 30
0.0
 10
49.01785210503472
 20
91.32775878906249
 30
0.0
  0
LINE
  5
A9
330
A
100
AcDbEntity
  8
LAYER_1
 62
     7
100
AcDbLine
 10
42.64132486979166
 20
89.02781304253472
 30
0.0
 11
56.55916612413194
 21
89.08569064670138
 31
0.0
  0
SPLINE
  5
A8
330
A
100
AcDbEntity
  8
LAYER_1
 62
     7
100
AcDbSpline
210
0.0
220
0.0
230
1.0
 70
     8
 71
     3
 72
     8
 73
     4
 74
     0
 42
0.0000000001
 43
0.0000000001
 40
0.0
 40
0.0
 40
0.0
 40
0.0
 40
1.0
 40
1.0
 40
1.0
 40
1.0
 10
42.67060818142361
 20
87.22258300781249
 30
0.0
 10
43.28176812065972
 20
87.07685546875
 30
0.0
 10
44.65050455729166
 20
87.28046061197917
 30
0.0
 10
45.66956380208333
 20
87.36796603732638
 30
0.0
  0
SPLINE
  5
A7
330
A
100
AcDbEntity
  8
LAYER_1
 62
     7
100
AcDbSpline
210
0.0
220
0.0
230
1.0
 70
     8
 71
     3
 72
     8
 73
     4
 74
     0
 42
0.0000000001
 43
0.0000000001
 40
0.0
 40
0.0
 40
0.0
 40
0.0
 40
1.0
 40
1.0
 40
1.0
 40
1.0
 10
42.64132486979166
 20
86.02851291232638
 30
0.0
 10
43.33999023437499
 20
86.23246256510416
 30
0.0
 10
47.0672390407986
 20
86.49463433159721
 30
0.0
 10
47.96985405815972
 20
86.52357313368054
 30
0.0
  0
SPLINE
  5
A6
330
A
100
AcDbEntity
  8
LAYER_1
 62
     7
100
AcDbSpline
210
0.0
220
0.0
230
1.0
 70
     8
 71
     3
 72
    11
 73
     7
 74
     0
 42
0.0000000001
 43
0.0000000001
 40
0.0
 40
0.0
 40
0.0
 40
0.0
 40
1.0
 40
1.0
 40
1.0
 40
2.0
 40
2.0
 40
2.0
 40
2.0
 10
42.72883029513888
 20
84.74762641059027
 30
0.0
 10
43.68966742621527
 20
84.89300944010417
 30
0.0
 10
47.0672390407986
 20
85.12589789496526
 30
0.0
 10
47.96985405815972
 20
85.12589789496526
 30
0.0
 10
48.87212456597221
 20
85.12589789496526
 30
0.0
 10
51.8421413845486
 20
85.30090874565971
 30
0.0
 10
52.86120062934027
 20
85.53379720052082
 30
0.0
  0
SPLINE
  5
A5
330
A
100
AcDbEntity
  8
LAYER_1
 62
     7
100
AcDbSpline
210
0.0
220
0.0
230
1.0
 70
     8
 71
     3
 72
     8
 73
     4
 74
     0
 42
0.0000000001
 43
0.0000000001
 40
0.0
 40
0.0
 40
0.0
 40
0.0
 40
1.0
 40
1.0
 40
1.0
 40
1.0
 10
42.67060818142361
 20
83.52461751302083
 30
0.0
 10
43.39821234809028
 20
83.69928385416667
 30
0.0
 10
47.73662109375
 20
83.99039442274305
 30
0.0
 10
48.78496365017361
 20
83.96145562065972
 30
0.0
  0
LINE
  5
A4
330
A
100
AcDbEntity
  8
LAYER_1
 62
     7
100
AcDbLine
 10
42.67060818142361
 20
82.44733615451388
 30
0.0
 11
56.58810492621527
 21
82.50555826822917
 31
0.0
  0
LINE
  5
A3
330
A
100
AcDbEntity
  8
LAYER_1
 62
     7
100
AcDbLine
 10
42.69954698350694
 20
75.89614257812499
 30
0.0
 11
56.61738823784722
 21
75.92508138020833
 31
0.0
  0
SPLINE
  5
A2
330
A
100
AcDbEntity
  8
LAYER_1
 62
     7
100
AcDbSpline
210
0.0
220
0.0
230
1.0
 70
     8
 71
     3
 72
     8
 73
     4
 74
     0
 42
0.0000000001
 43
0.0000000001
 40
0.0
 40
0.0
 40
0.0
 40
0.0
 40
1.0
 40
1.0
 40
1.0
 40
1.0
 10
50.79414333767361
 20
81.28254937065971
 30
0.0
 10
51.81285807291666
 20
81.25361056857638
 30
0.0
 10
56.09304470486111
 20
80.84571126302083
 30
0.0
 10
56.50094401041666
 20
80.96215549045138
 30
0.0
  0
SPLINE
  5
A1
330
A
100
AcDbEntity
  8
LAYER_1
 62
     7
100
AcDbSpline
210
0.0
220
0.0
230
1.0
 70
     8
 71
     3
 72
     8
 73
     4
 74
     0
 42
0.0000000001
 43
0.0000000001
 40
0.0
 40
0.0
 40
0.0
 40
0.0
 40
1.0
 40
1.0
 40
1.0
 40
1.0
 10
51.55103081597222
 20
80.29242892795138
 30
0.0
 10
51.87142469618055
 20
80.20526801215277
 30
0.0
 10
56.03482259114583
 20
79.79771321614582
 30
0.0
 10
56.47166069878472
 20
79.8559353298611
 30
0.0
  0
SPLINE
  5
A0
330
A
100
AcDbEntity
  8
LAYER_1
 62
     7
100
AcDbSpline
210
0.0
220
0.0
230
1.0
 70
     8
 71
     3
 72
     8
 73
     4
 74
     0
 42
0.0000000001
 43
0.0000000001
 40
0.0
 40
0.0
 40
0.0
 40
0.0
 40
1.0
 40
1.0
 40
1.0
 40
1.0
 10
49.13429633246528
 20
80.29242892795138
 30
0.0
 10
49.51291232638889
 20
80.37993435329861
 30
0.0
 10
50.18263888888888
 20
80.40921766493055
 30
0.0
 10
50.41552734374999
 20
80.37993435329861
 30
0.0
  0
SPLINE
  5
9F
330
A
100
AcDbEntity
  8
LAYER_1
 62
     7
100
AcDbSpline
210
0.0
220
0.0
230
1.0
 70
     8
 71
     3
 72
     8
 73
     4
 74
     0
 42
0.0000000001
 43
0.0000000001
 40
0.0
 40
0.0
 40
0.0
 40
0.0
 40
1.0
 40
1.0
 40
1.0
 40
1.0
 10
49.97868923611111
 20
79.27336968315971
 30
0.0
 10
49.28002387152777
 20
79.44838053385416
 30
0.0
 10
47.94057074652778
 20
79.73949110243055
 30
0.0
 10
47.64946017795138
 20
79.68126898871527
 30
0.0
  0
SPLINE
  5
9E
330
A
100
AcDbEntity
  8
LAYER_1
 62
     7
100
AcDbSpline
210
0.0
220
0.0
230
1.0
 70
     8
 71
     3
 72
     8
 73
     4
 74
     0
 42
0.0000000001
 43
0.0000000001
 40
0.0
 40
0.0
 40
0.0
 40
0.0
 40
1.0
 40
1.0
 40
1.0
 40
1.0
 10
56.52988281249999
 20
78.77865397135416
 30
0.0
 10
55.59832899305555
 20
78.72043185763889
 30
0.0
 10
53.53092719184027
 20
78.77865397135416
 30
0.0
 10
52.86120062934027
 20
78.92403700086805
 30
0.0
  0
SPLINE
  5
9D
330
A
100
AcDbEntity
  8
LAYER_1
 62
     7
100
AcDbSpline
210
0.0
220
0.0
230
1.0
 70
     8
 71
     3
 72
     8
 73
     4
 74
     0
 42
0.0000000001
 43
0.0000000001
 40
0.0
 40
0.0
 40
0.0
 40
0.0
 40
1.0
 40
1.0
 40
1.0
 40
1.0
 10
51.37808702256944
 20
77.77957628038193
 30
0.0
 10
53.40345865885416
 20
77.45470377604165
 30
0.0
 10
55.12325032552083
 20
77.2080349392361
 30
0.0
 10
55.74371202256944
 20
77.29347330729166
 30
0.0
  0
SPLINE
  5
9C
330
A
100
AcDbEntity
  8
LAYER_1
 62
     7
100
AcDbSpline
210
0.0
220
0.0
230
1.0
 70
     8
 71
     3
 72
     8
 73
     4
 74
     0
 42
0.0000000001
 43
0.0000000001
 40
0.0
 40
0.0
 40
0.0
 40
0.0
 40
1.0
 40
1.0
 40
1.0
 40
1.0
 10
46.42748480902777
 20
78.56368001302083
 30
0.0
 10
47.23811577690972
 20
78.44654676649304
 30
0.0
 10
48.10076768663194
 20
78.31012098524305
 30
0.0
 10
48.96341959635416
 20
78.17093912760416
 30
0.0
  0
SPLINE
  5
9B
330
A
100
AcDbEntity
  8
LAYER_1
 62
     7
100
AcDbSpline
210
0.0
220
0.0
230
1.0
 70
     8
 71
     3
 72
     8
 73
     4
 74
     0
 42
0.0000000001
 43
0.0000000001
 40
0.0
 40
0.0
 40
0.0
 40
0.0
 40
1.0
 40
1.0
 40
1.0
 40
1.0
 10
43.45677897135416
 20
78.89509819878471
 30
0.0
 10
43.91601019965277
 20
78.87132703993055
 30
0.0
 10
44.45826822916666
 20
78.81861707899304
 30
0.0
 10
45.05633680555555
 20
78.74661458333333
 30
0.0
  0
SPLINE
  5
9A
330
A
100
AcDbEntity
  8
LAYER_1
 62
     7
100
AcDbSpline
210
0.0
220
0.0
230
1.0
 70
     8
 71
     3
 72
    11
 73
     7
 74
     0
 42
0.0000000001
 43
0.0000000001
 40
0.0
 40
0.0
 40
0.0
 40
0.0
 40
1.0
 40
1.0
 40
1.0
 40
2.0
 40
2.0
 40
2.0
 40
2.0
 10
42.75776909722222
 20
74.61491156684028
 30
0.0
 10
43.54393988715277
 20
74.81851671006943
 30
0.0
 10
45.0236083984375
 20
75.05726182725694
 30
0.0
 10
45.75672471788194
 20
74.90602213541666
 30
0.0
 10
47.73662109375
 20
74.49846733940971
 30
0.0
 10
50.44446614583333
 20
75.37179904513889
 30
0.0
 10
51.02703179253471
 20
75.19713270399305
 30
0.0
  0
SPLINE
  5
99
330
A
100
AcDbEntity
  8
LAYER_1
 62
     7
100
AcDbSpline
210
0.0
220
0.0
230
1.0
 70
     8
 71
     3
 72
    11
 73
     7
 74
     0
 42
0.0000000001
 43
0.0000000001
 40
0.0
 40
0.0
 40
0.0
 40
0.0
 40
1.0
 40
1.0
 40
1.0
 40
2.0
 40
2.0
 40
2.0
 40
2.0
 10
42.84527452256944
 20
73.68301323784722
 30
0.0
 10
43.16532389322916
 20
73.82874077690971
 30
0.0
 10
46.018896484375
 20
74.09091254340277
 30
0.0
 10
46.80506727430555
 20
74.11985134548611
 30
0.0
 10
47.59123806423611
 20
74.14913465711805
 30
0.0
 10
48.52279188368055
 20
74.35273980034721
 30
0.0
 10
49.13429633246528
 20
74.23629557291666
 30
0.0
  0
SPLINE
  5
98
330
A
100
AcDbEntity
  8
LAYER_1
 62
     7
100
AcDbSpline
210
0.0
220
0.0
230
1.0
 70
     8
 71
     3
 72
    11
 73
     7
 74
     0
 42
0.0000000001
 43
0.0000000001
 40
0.0
 40
0.0
 40
0.0
 40
0.0
 40
1.0
 40
1.0
 40
1.0
 40
2.0
 40
2.0
 40
2.0
 40
2.0
 10
42.8159912109375
 20
72.54750976562499
 30
0.0
 10
43.60216200086805
 20
72.66395399305554
 30
0.0
 10
47.27084418402777
 20
72.78039822048611
 30
0.0
 10
48.08629828559027
 20
72.95506456163194
 30
0.0
 10
48.90140787760416
 20
73.12973090277777
 30
0.0
 10
52.97764485677083
 20
73.33368055555555
 30
0.0
 10
53.35626085069444
 20
73.15901421440971
 30
0.0
  0
SPLINE
  5
97
330
A
100
AcDbEntity
  8
LAYER_1
 62
     7
100
AcDbSpline
210
0.0
220
0.0
230
1.0
 70
     8
 71
     3
 72
    11
 73
     7
 74
     0
 42
0.0000000001
 43
0.0000000001
 40
0.0
 40
0.0
 40
0.0
 40
0.0
 40
1.0
 40
1.0
 40
1.0
 40
2.0
 40
2.0
 40
2.0
 40
2.0
 10
43.07816297743055
 20
71.47022840711804
 30
0.0
 10
43.51500108506944
 20
71.32450086805555
 30
0.0
 10
47.47479383680555
 20
71.58667263454861
 30
0.0
 10
47.96985405815972
 20
71.70311686197915
 30
0.0
 10
48.46456976996527
 20
71.81956108940972
 30
0.0
 10
52.39542371961805
 20
72.16889377170138
 30
0.0
 10
53.00692816840277
 20
71.96528862847221
 30
0.0
  0
SPLINE
  5
96
330
A
100
AcDbEntity
  8
LAYER_1
 62
     7
100
AcDbSpline
210
0.0
220
0.0
230
1.0
 70
     8
 71
     3
 72
    11
 73
     7
 74
     0
 42
0.0000000001
 43
0.0000000001
 40
0.0
 40
0.0
 40
0.0
 40
0.0
 40
1.0
 40
1.0
 40
1.0
 40
2.0
 40
2.0
 40
2.0
 40
2.0
 10
43.31105143229166
 20
70.18899739583333
 30
0.0
 10
43.92255588107638
 20
70.27650282118054
 30
0.0
 10
46.86328938802083
 20
70.50939127604165
 30
0.0
 10
47.62017686631944
 20
70.65511881510416
 30
0.0
 10
48.37740885416666
 20
70.80050184461805
 30
0.0
 10
53.53092719184027
 20
71.03339029947917
 30
0.0
 10
53.90954318576389
 20
71.29556206597222
 30
0.0
  0
SPLINE
  5
95
330
A
100
AcDbEntity
  8
LAYER_1
 62
     7
100
AcDbSpline
210
0.0
220
0.0
230
1.0
 70
     8
 71
     3
 72
     8
 73
     4
 74
     0
 42
0.0000000001
 43
0.0000000001
 40
0.0
 40
0.0
 40
0.0
 40
0.0
 40
1.0
 40
1.0
 40
1.0
 40
1.0
 10
48.20274251302083
 20
69.66499837239583
 30
0.0
 10
49.92046712239583
 20
69.60677625868055
 30
0.0
 10
55.04504665798611
 20
70.48045247395832
 30
0.0
 10
55.39437934027777
 20
70.48045247395832
 30
0.0
  0
LINE
  5
94
330
A
100
AcDbEntity
  8
LAYER_1
 62
     7
100
AcDbLine
 10
70.054638671875
 20
75.30186360677082
 30
0.0
 11
74.66968858506944
 21
77.03164605034722
 31
0.0
  0
LINE
  5
93
330
A
100
AcDbEntity
  8
LAYER_1
 62
     7
100
AcDbLine
 10
57.52000325520833
 20
70.59655219184027
 30
0.0
 11
69.53787434895833
 21
75.10893825954861
 31
0.0
  0
LINE
  5
92
330
A
100
AcDbEntity
  8
LAYER_1
 62
     7
100
AcDbLine
 10
79.82320692274305
 20
85.76668565538193
 30
0.0
 11
57.49071994357639
 21
77.4684841579861
 31
0.0
  0
LINE
  5
91
330
A
100
AcDbEntity
  8
LAYER_1
 62
     7
100
AcDbLine
 10
57.52000325520833
 20
84.31078830295138
 30
0.0
 11
79.82320692274305
 21
92.63827311197916
 31
0.0
  0
LINE
  5
90
330
A
100
AcDbEntity
  8
LAYER_1
 62
     7
100
AcDbLine
 10
79.85214572482639
 20
99.88813205295138
 30
0.0
 11
57.49071994357639
 21
91.5606472439236
 31
0.0
  0
LINE
  5
8F
330
A
100
AcDbEntity
  8
LAYER_1
 62
     7
100
AcDbLine
 10
57.43249782986111
 20
98.37401258680555
 30
0.0
 11
79.85214572482639
 21
106.7014973958333
 31
0.0
  0
LINE
  5
8E
330
A
100
AcDbEntity
  8
LAYER_1
 62
     7
100
AcDbLine
 10
79.82320692274305
 20
113.7477511935764
 30
0.0
 11
57.37427571614583
 21
105.3913275824653
 31
0.0
  0
LINE
  5
8D
330
A
100
AcDbEntity
  8
LAYER_1
 62
     7
100
AcDbLine
 10
73.50490180121527
 20
118.4354926215278
 30
0.0
 11
79.85214572482639
 21
120.7940049913194
 31
0.0
  0
LINE
  5
8C
330
A
100
AcDbEntity
  8
LAYER_1
 62
     7
100
AcDbLine
 10
71.1463894314236
 20
124.637353515625
 30
0.0
 11
79.82320692274305
 21
127.8984809027778
 31
0.0
  0
LINE
  5
8B
330
A
100
AcDbEntity
  8
LAYER_1
 62
     7
100
AcDbLine
 10
68.84609917534722
 20
130.7809922960069
 30
0.0
 11
79.7939236111111
 21
134.799351671007
 31
0.0
  0
LINE
  5
8A
330
A
100
AcDbEntity
  8
LAYER_1
 62
     7
100
AcDbLine
 10
66.40042588975693
 20
137.1285807291667
 30
0.0
 11
79.73570149739582
 21
142.0784939236111
 31
0.0
  0
LINE
  5
89
330
A
100
AcDbEntity
  8
LAYER_1
 62
     7
100
AcDbLine
 10
16.7276611328125
 20
118.6101589626736
 30
0.0
 11
24.76369086371528
 21
121.58017578125
 31
0.0
  0
LINE
  5
88
330
A
100
AcDbEntity
  8
LAYER_1
 62
     7
100
AcDbLine
 10
79.73570149739582
 20
152.327308485243
 30
0.0
 11
79.73570149739582
 21
148.6586263020833
 31
0.0
  0
LINE
  5
87
330
A
100
AcDbEntity
  8
LAYER_1
 62
     7
100
AcDbLine
 10
79.91036783854166
 20
50.53541666666666
 30
0.0
 11
79.91036783854166
 21
46.86673448350694
 31
0.0
  0
LINE
  5
86
330
A
100
AcDbEntity
  8
LAYER_1
 62
     7
100
AcDbLine
 10
16.96054958767361
 20
23.92274305555555
 30
0.0
 11
16.96054958767361
 21
27.06708170572917
 31
0.0
  0
LINE
  5
85
330
A
100
AcDbEntity
  8
LAYER_1
 62
     7
100
AcDbLine
 10
16.66943901909722
 20
125.1324137369792
 30
0.0
 11
16.66943901909722
 21
128.2770968967014
 31
0.0
  0
LINE
  5
84
330
A
100
AcDbEntity
  8
LAYER_1
 62
     7
100
AcDbLine
 10
28.25770670572916
 20
136.0220160590278
 30
0.0
 11
32.10105523003472
 21
138.2348008897569
 31
0.0
  0
HATCH
  5
83
330
A
100
AcDbEntity
  8
LAYER_1
 62
     7
100
AcDbHatch
 10
0.0
 20
0.0
 30
0.0
210
0.0
220
0.0
230
1.0
  2
SOLID
 70
     1
 71
     0
 91
        1
 92
        3
 72
     0
 73
     1
 93
        3
 10
31.92638888888889
 20
134.9740180121528
 10
33.78984103732638
 20
135.5562391493056
 10
33.73161892361111
 20
132.8194552951389
 97
        0
 75
     0
 76
     1
 98
        1
 10
0.0
 20
0.0
  0
HATCH
  5
82
330
A
100
AcDbEntity
  8
LAYER_1
 62
     7
100
AcDbHatch
 10
0.0
 20
0.0
 30
0.0
210
0.0
220
0.0
230
1.0
  2
SOLID
 70
     1
 71
     0
 91
        1
 92
        3
 72
     0
 73
     1
 93
        3
 10
32.10105523003472
 20
144.0583902994792
 10
31.22772352430555
 20
141.2048177083333
 10
33.09117567274306
 20
141.1465955946181
 97
        0
 75
     0
 76
     1
 98
        1
 10
0.0
 20
0.0
  0
SPLINE
  5
81
330
A
100
AcDbEntity
  8
LAYER_1
 62
     7
100
AcDbSpline
210
0.0
220
0.0
230
1.0
 70
     8
 71
     3
 72
     8
 73
     4
 74
     0
 42
0.0000000001
 43
0.0000000001
 40
0.0
 40
0.0
 40
0.0
 40
0.0
 40
1.0
 40
1.0
 40
1.0
 40
1.0
 10
32.21749945746527
 20
141.7288167317708
 30
0.0
 10
32.21749945746527
 20
140.3897081163194
 30
0.0
 10
32.50895453559028
 20
135.8473497178819
 30
0.0
 10
33.09117567274306
 20
134.6243408203125
 30
0.0
  0
HATCH
  5
80
330
A
100
AcDbEntity
  8
LAYER_1
 62
     7
100
AcDbHatch
 10
0.0
 20
0.0
 30
0.0
210
0.0
220
0.0
230
1.0
  2
SOLID
 70
     1
 71
     0
 91
        1
 92
        3
 72
     0
 73
     1
 93
        3
 10
41.82621527777778
 20
136.1384602864583
 10
41.94265950520833
 20
139.3413655598958
 10
43.68966742621527
 20
138.7009223090278
 97
        0
 75
     0
 76
     1
 98
        1
 10
0.0
 20
0.0
  0
SPLINE
  5
7F
330
A
100
AcDbEntity
  8
LAYER_1
 62
     7
100
AcDbSpline
210
0.0
220
0.0
230
1.0
 70
     8
 71
     3
 72
     8
 73
     4
 74
     0
 42
0.0000000001
 43
0.0000000001
 40
0.0
 40
0.0
 40
0.0
 40
0.0
 40
1.0
 40
1.0
 40
1.0
 40
1.0
 10
48.98891330295138
 20
147.2612955729167
 30
0.0
 10
45.61134168836805
 20
145.6889539930556
 30
0.0
 10
43.04887966579861
 20
140.2150417751736
 30
0.0
 10
42.64132486979166
 20
138.5844780815972
 30
0.0
  0
LINE
  5
7E
330
A
100
AcDbEntity
  8
LAYER_1
 62
     7
100
AcDbLine
 10
45.31919759114583
 20
144.1166124131944
 30
0.0
 11
29.48071560329861
 21
144.1166124131944
 31
0.0
  0
LINE
  5
7D
330
A
100
AcDbEntity
  8
LAYER_1
 62
     7
100
AcDbLine
 10
62.14952256944444
 20
144.1166124131944
 30
0.0
 11
46.36719563802083
 21
144.1166124131944
 31
0.0
  0
HATCH
  5
7C
330
A
100
AcDbEntity
  8
LAYER_1
 62
     7
100
AcDbHatch
 10
0.0
 20
0.0
 30
0.0
210
0.0
220
0.0
230
1.0
  2
SOLID
 70
     1
 71
     0
 91
        1
 92
        1
 93
        1
 72
     4
 94
        3
 73
     0
 74
     0
 95
       17
 96
       13
 40
0.0
 40
0.0
 40
0.0
 40
0.0
 40
1.0
 40
1.0
 40
1.0
 40
2.0
 40
2.0
 40
2.0
 40
3.0
 40
3.0
 40
3.0
 40
4.0
 40
4.0
 40
4.0
 40
4.0
 10
32.36770562065972
 20
137.3549235026042
 10
32.83933919270833
 20
137.3549235026042
 10
33.22174479166667
 20
137.7373291015625
 10
33.22174479166667
 20
138.2089626736111
 10
33.22174479166667
 20
138.6805962456597
 10
32.83933919270833
 20
139.063001844618
 10
32.36770562065972
 20
139.063001844618
 10
31.89607204861111
 20
139.063001844618
 10
31.51366644965277
 20
138.6805962456597
 10
31.51366644965277
 20
138.2089626736111
 10
31.51366644965277
 20
137.7373291015625
 10
31.89607204861111
 20
137.3549235026042
 10
32.36770562065972
 20
137.3549235026042
 97
        0
 75
     0
 76
     1
 98
        1
 10
0.0
 20
0.0
  0
ELLIPSE
  5
7B
330
A
100
AcDbEntity
  8
LAYER_1
 62
     7
100
AcDbEllipse
 10
26.78975151909722
 20
121.9412217881944
 30
0.0
 11
0.0
 21
-0.6338975694444444
 31
0.0
210
0.0
220
0.0
230
1.0
 40
0.8951086956521739
 41
0.0
 42
6.283185307179586
  0
ELLIPSE
  5
7A
330
A
100
AcDbEntity
  8
LAYER_1
 62
     7
100
AcDbEllipse
 10
30.68236490885417
 20
119.7473849826389
 30
0.0
 11
0.0
 21
-0.6338975694444444
 31
0.0
210
0.0
220
0.0
230
1.0
 40
0.8945652173913044
 41
0.0
 42
6.283185307179586
  0
ELLIPSE
  5
79
330
A
100
AcDbEntity
  8
LAYER_1
 62
     7
100
AcDbEllipse
 10
29.64435763888889
 20
115.0293267144097
 30
0.0
 11
0.0
 21
-0.6338975694444444
 31
0.0
210
0.0
220
0.0
230
1.0
 40
0.8945652173913044
 41
0.0
 42
6.283185307179586
  0
ELLIPSE
  5
78
330
A
100
AcDbEntity
  8
LAYER_1
 62
     7
100
AcDbEllipse
 10
31.72037217881944
 20
109.1792100694444
 30
0.0
 11
0.0
 21
-0.6338975694444444
 31
0.0
210
0.0
220
0.0
230
1.0
 40
0.8945652173913044
 41
0.0
 42
6.283185307179586
  0
ELLIPSE
  5
77
330
A
100
AcDbEntity
  8
LAYER_1
 62
     7
100
AcDbEllipse
 10
35.40007866753472
 20
107.0087999131944
 30
0.0
 11
0.0
 21
-0.6338975694444444
 31
0.0
210
0.0
220
0.0
230
1.0
 40
0.8951086956521739
 41
0.0
 42
6.283185307179586
  0
ELLIPSE
  5
76
330
A
100
AcDbEntity
  8
LAYER_1
 62
     7
100
AcDbEllipse
 10
34.03203125
 20
102.9511664496528
 30
0.0
 11
0.0
 21
-0.6338975694444444
 31
0.0
210
0.0
220
0.0
230
1.0
 40
0.8945652173913044
 41
0.0
 42
6.283185307179586
  0
ELLIPSE
  5
75
330
A
100
AcDbEntity
  8
LAYER_1
 62
     7
100
AcDbEllipse
 10
68.74481336805555
 20
123.41572265625
 30
0.0
 11
0.0
 21
-0.6338975694444444
 31
0.0
210
0.0
220
0.0
230
1.0
 40
0.8945652173913044
 41
0.0
 42
6.283185307179586
  0
ELLIPSE
  5
74
330
A
100
AcDbEntity
  8
LAYER_1
 62
     7
100
AcDbEllipse
 10
67.54178602430555
 20
119.1694702148437
 30
0.0
 11
0.0
 21
-0.6337253146701388
 31
0.0
210
0.0
220
0.0
230
1.0
 40
0.8948084131240419
 41
0.0
 42
6.283185307179586
  0
ELLIPSE
  5
73
330
A
100
AcDbEntity
  8
LAYER_1
 62
     7
100
AcDbEllipse
 10
71.22183702256943
 20
117.5063503689236
 30
0.0
 11
0.0
 21
-0.6338975694444444
 31
0.0
210
0.0
220
0.0
230
1.0
 40
0.8945652173913044
 41
0.0
 42
6.283185307179586
  0
ELLIPSE
  5
72
330
A
100
AcDbEntity
  8
LAYER_1
 62
     7
100
AcDbEllipse
 10
66.58646104600693
 20
129.5727973090278
 30
0.0
 11
0.0
 21
-0.6338975694444444
 31
0.0
210
0.0
220
0.0
230
1.0
 40
0.8945652173913044
 41
0.0
 42
6.283185307179586
  0
ELLIPSE
  5
71
330
A
100
AcDbEntity
  8
LAYER_1
 62
     7
100
AcDbEllipse
 10
62.80030110677082
 20
131.8727430555555
 30
0.0
 11
0.0
 21
-0.6338975694444444
 31
0.0
210
0.0
220
0.0
230
1.0
 40
0.8945652173913044
 41
0.0
 42
6.283185307179586
  0
ELLIPSE
  5
70
330
A
100
AcDbEntity
  8
LAYER_1
 62
     7
100
AcDbEllipse
 10
64.00332845052083
 20
136.0836832682292
 30
0.0
 11
0.0
 21
-0.6338975694444444
 31
0.0
210
0.0
220
0.0
230
1.0
 40
0.8945652173913044
 41
0.0
 42
6.283185307179586
  0
HATCH
  5
6F
330
A
100
AcDbEntity
  8
LAYER_1
 62
     7
100
AcDbHatch
 10
0.0
 20
0.0
 30
0.0
210
0.0
220
0.0
230
1.0
  2
SOLID
 70
     1
 71
     0
 91
        1
 92
        1
 93
        1
 72
     4
 94
        3
 73
     0
 74
     0
 95
       56
 96
       52
 40
0.0
 40
0.0
 40
0.0
 40
0.0
 40
1.0
 40
1.0
 40
1.0
 40
2.0
 40
2.0
 40
2.0
 40
3.0
 40
3.0
 40
3.0
 40
4.0
 40
4.0
 40
4.0
 40
5.0
 40
5.0
 40
5.0
 40
6.0
 40
6.0
 40
6.0
 40
7.0
 40
7.0
 40
7.0
 40
8.0
 40
8.0
 40
8.0
 40
9.0
 40
9.0
 40
9.0
 40
10.0
 40
10.0
 40
10.0
 40
11.0
 40
11.0
 40
11.0
 40
12.0
 40
12.0
 40
12.0
 40
13.0
 40
13.0
 40
13.0
 40
14.0
 40
14.0
 40
14.0
 40
15.0
 40
15.0
 40
15.0
 40
16.0
 40
16.0
 40
16.0
 40
17.0
 40
17.0
 40
17.0
 40
17.0
 10
16.64256727430556
 20
168.568177625868
 10
16.67667371961806
 20
169.008460828993
 10
16.43965115017361
 20
169.3416015625
 10
15.9711181640625
 20
169.3416015625
 10
15.28795572916667
 20
169.3416015625
 10
15.2145751953125
 20
168.9126871744792
 10
15.2145751953125
 20
168.58505859375
 10
15.2145751953125
 20
168.2915364583333
 10
15.34445529513889
 20
168.1110134548611
 10
15.61523980034722
 20
168.0093831380208
 10
15.84123806423611
 20
167.9246337890625
 10
16.06137966579861
 20
167.8402289496528
 10
16.28703342013889
 20
167.7554796006944
 10
17.08870713975694
 20
167.4564453125
 10
17.23546820746528
 20
167.1739474826389
 10
17.23546820746528
 20
166.6151529947917
 10
17.23546820746528
 20
165.8138237847222
 10
16.73317328559028
 20
165.3452907986111
 10
15.92013075086805
 20
165.3452907986111
 10
15.50258517795139
 20
165.3452907986111
 10
15.00580240885417
 20
165.4638020833333
 10
14.76292317708333
 20
166.0167399088542
 10
14.67266167534722
 20
166.2258572048611
 10
14.67851833767361
 20
166.5645100911458
 10
14.67266167534722
 20
166.7901638454861
 10
14.67266167534722
 20
166.7901638454861
 10
15.14119466145833
 20
166.7901638454861
 10
15.14119466145833
 20
166.7901638454861
 10
15.11880154079861
 20
166.1635009765625
 10
15.23731282552083
 20
165.7686930338542
 10
15.94286838107639
 20
165.7686930338542
 10
16.41691351996528
 20
165.7686930338542
 10
16.75005425347222
 20
166.0112277560764
 10
16.75005425347222
 20
166.5080105251736
 10
16.75005425347222
 20
167.1515543619792
 10
16.49029405381944
 20
167.1570665147569
 10
16.06137966579861
 20
167.3207085503472
 10
15.82986924913194
 20
167.4109700520833
 10
15.45745442708333
 20
167.5294813368055
 10
15.23145616319444
 20
167.6483371310764
 10
14.83079155815972
 20
167.8512532552083
 10
14.72916124131944
 20
168.1899061414931
 10
14.72916124131944
 20
168.6077962239583
 10
14.72916124131944
 20
169.3074951171875
 10
15.22043185763889
 20
169.7650037977431
 10
15.90876193576389
 20
169.7650037977431
 10
16.68218587239583
 20
169.7650037977431
 10
17.15623101128472
 20
169.3639946831597
 10
17.11110026041667
 20
168.568177625868
 10
17.11110026041667
 20
168.568177625868
 10
16.64256727430556
 20
168.568177625868
 10
16.64256727430556
 20
168.568177625868
 97
        0
 75
     0
 76
     1
 98
        1
 10
0.0
 20
0.0
  0
HATCH
  5
6E
330
A
100
AcDbEntity
  8
LAYER_1
 62
     7
100
AcDbHatch
 10
0.0
 20
0.0
 30
0.0
210
0.0
220
0.0
230
1.0
  2
SOLID
 70
     1
 71
     0
 91
        2
 92
       16
 93
        1
 72
     4
 94
        3
 73
     0
 74
     0
 95
       20
 96
       16
 40
0.0
 40
0.0
 40
0.0
 40
0.0
 40
1.0
 40
1.0
 40
1.0
 40
2.0
 40
2.0
 40
2.0
 40
3.0
 40
3.0
 40
3.0
 40
4.0
 40
4.0
 40
4.0
 40
5.0
 40
5.0
 40
5.0
 40
5.0
 10
18.47673611111111
 20
167.6652180989583
 10
18.47673611111111
 20
167.6652180989583
 10
18.93390028211805
 20
167.6652180989583
 10
18.93390028211805
 20
167.6652180989583
 10
19.57744411892361
 20
167.6707302517361
 10
19.97225206163194
 20
167.7609917534722
 10
19.96673990885417
 20
168.4892849392361
 10
19.96673990885417
 20
169.1721028645833
 10
19.53231336805555
 20
169.2682210286458
 10
18.96215006510417
 20
169.2568522135417
 10
18.96215006510417
 20
169.2568522135417
 10
18.47673611111111
 20
169.2568522135417
 10
18.47673611111111
 20
169.2568522135417
 10
18.47673611111111
 20
169.2568522135417
 10
18.47673611111111
 20
167.6652180989583
 10
18.47673611111111
 20
167.6652180989583
 97
        0
 92
        1
 93
        1
 72
     4
 94
        3
 73
     0
 74
     0
 95
       32
 96
       28
 40
0.0
 40
0.0
 40
0.0
 40
0.0
 40
1.0
 40
1.0
 40
1.0
 40
2.0
 40
2.0
 40
2.0
 40
3.0
 40
3.0
 40
3.0
 40
4.0
 40
4.0
 40
4.0
 40
5.0
 40
5.0
 40
5.0
 40
6.0
 40
6.0
 40
6.0
 40
7.0
 40
7.0
 40
7.0
 40
8.0
 40
8.0
 40
8.0
 40
9.0
 40
9.0
 40
9.0
 40
9.0
 10
18.008203125
 20
165.4469211154514
 10
18.008203125
 20
165.4469211154514
 10
18.008203125
 20
169.6802544487847
 10
18.008203125
 20
169.6802544487847
 10
18.008203125
 20
169.6802544487847
 10
19.11993543836805
 20
169.6802544487847
 10
19.11993543836805
 20
169.6802544487847
 10
19.44756401909722
 20
169.6802544487847
 10
19.85959743923611
 20
169.6406358506944
 10
20.10798882378472
 20
169.40361328125
 10
20.36189236111111
 20
169.1665907118056
 10
20.45215386284722
 20
168.839306640625
 10
20.45215386284722
 20
168.5006537543403
 10
20.45215386284722
 20
168.0321207682292
 10
20.31124945746528
 20
167.5749565972222
 10
19.85374077690972
 20
167.3658393012153
 10
19.56021864149306
 20
167.2418158637153
 10
19.08066134982639
 20
167.2418158637153
 10
18.75888943142361
 20
167.2418158637153
 10
18.75888943142361
 20
167.2418158637153
 10
18.47673611111111
 20
167.2418158637153
 10
18.47673611111111
 20
167.2418158637153
 10
18.47673611111111
 20
167.2418158637153
 10
18.47673611111111
 20
165.4469211154514
 10
18.47673611111111
 20
165.4469211154514
 10
18.47673611111111
 20
165.4469211154514
 10
18.008203125
 20
165.4469211154514
 10
18.008203125
 20
165.4469211154514
 97
        0
 75
     0
 76
     1
 98
        1
 10
0.0
 20
0.0
  0
HATCH
  5
6D
330
A
100
AcDbEntity
  8
LAYER_1
 62
     7
100
AcDbHatch
 10
0.0
 20
0.0
 30
0.0
210
0.0
220
0.0
230
1.0
  2
SOLID
 70
     1
 71
     0
 91
        1
 92
        1
 93
        1
 72
     4
 94
        3
 73
     0
 74
     0
 95
       41
 96
       37
 40
0.0
 40
0.0
 40
0.0
 40
0.0
 40
1.0
 40
1.0
 40
1.0
 40
2.0
 40
2.0
 40
2.0
 40
3.0
 40
3.0
 40
3.0
 40
4.0
 40
4.0
 40
4.0
 40
5.0
 40
5.0
 40
5.0
 40
6.0
 40
6.0
 40
6.0
 40
7.0
 40
7.0
 40
7.0
 40
8.0
 40
8.0
 40
8.0
 40
9.0
 40
9.0
 40
9.0
 40
10.0
 40
10.0
 40
10.0
 40
11.0
 40
11.0
 40
11.0
 40
12.0
 40
12.0
 40
12.0
 40
12.0
 10
21.07812771267361
 20
165.4469211154514
 10
21.07812771267361
 20
165.4469211154514
 10
21.07812771267361
 20
169.6802544487847
 10
21.07812771267361
 20
169.6802544487847
 10
21.07812771267361
 20
169.6802544487847
 10
23.19479437934028
 20
169.6802544487847
 10
23.19479437934028
 20
169.6802544487847
 10
23.19479437934028
 20
169.6802544487847
 10
23.19479437934028
 20
169.2568522135417
 10
23.19479437934028
 20
169.2568522135417
 10
23.19479437934028
 20
169.2568522135417
 10
21.54666069878472
 20
169.2568522135417
 10
21.54666069878472
 20
169.2568522135417
 10
21.54666069878472
 20
169.2568522135417
 10
21.54666069878472
 20
167.8571099175347
 10
21.54666069878472
 20
167.8571099175347
 10
21.54666069878472
 20
167.8571099175347
 10
23.0931640625
 20
167.8571099175347
 10
23.0931640625
 20
167.8571099175347
 10
23.0931640625
 20
167.8571099175347
 10
23.0931640625
 20
167.4337076822916
 10
23.0931640625
 20
167.4337076822916
 10
23.0931640625
 20
167.4337076822916
 10
21.54666069878472
 20
167.4337076822916
 10
21.54666069878472
 20
167.4337076822916
 10
21.54666069878472
 20
167.4337076822916
 10
21.54666069878472
 20
165.8699788411458
 10
21.54666069878472
 20
165.8699788411458
 10
21.54666069878472
 20
165.8699788411458
 10
23.20616319444444
 20
165.8699788411458
 10
23.20616319444444
 20
165.8699788411458
 10
23.20616319444444
 20
165.8699788411458
 10
23.20616319444444
 20
165.4469211154514
 10
23.20616319444444
 20
165.4469211154514
 10
23.20616319444444
 20
165.4469211154514
 10
21.07812771267361
 20
165.4469211154514
 10
21.07812771267361
 20
165.4469211154514
 97
        0
 75
     0
 76
     1
 98
        1
 10
0.0
 20
0.0
  0
HATCH
  5
6C
330
A
100
AcDbEntity
  8
LAYER_1
 62
     7
100
AcDbHatch
 10
0.0
 20
0.0
 30
0.0
210
0.0
220
0.0
230
1.0
  2
SOLID
 70
     1
 71
     0
 91
        1
 92
        1
 93
        1
 72
     4
 94
        3
 73
     0
 74
     0
 95
       44
 96
       40
 40
0.0
 40
0.0
 40
0.0
 40
0.0
 40
1.0
 40
1.0
 40
1.0
 40
2.0
 40
2.0
 40
2.0
 40
3.0
 40
3.0
 40
3.0
 40
4.0
 40
4.0
 40
4.0
 40
5.0
 40
5.0
 40
5.0
 40
6.0
 40
6.0
 40
6.0
 40
7.0
 40
7.0
 40
7.0
 40
8.0
 40
8.0
 40
8.0
 40
9.0
 40
9.0
 40
9.0
 40
10.0
 40
10.0
 40
10.0
 40
11.0
 40
11.0
 40
11.0
 40
12.0
 40
12.0
 40
12.0
 40
13.0
 40
13.0
 40
13.0
 40
13.0
 10
25.85337456597222
 20
168.4100477430555
 10
25.84200575086805
 20
168.9126871744792
 10
25.67836371527778
 20
169.3416015625
 10
25.09131944444444
 20
169.3416015625
 10
24.27862141927083
 20
169.3416015625
 10
24.26725260416666
 20
168.1843939887153
 10
24.26725260416666
 20
167.6255995008681
 10
24.24485948350694
 20
167.0499240451389
 10
24.23349066840278
 20
165.7686930338542
 10
25.09131944444444
 20
165.7686930338542
 10
25.65011393229166
 20
165.7686930338542
 10
25.76862521701389
 20
166.2258572048611
 10
25.82512478298611
 20
166.6885335286458
 10
25.83649359809028
 20
166.7846516927083
 10
25.84200575086805
 20
166.8804253472222
 10
25.85337456597222
 20
166.9765435112847
 10
25.85337456597222
 20
166.9765435112847
 10
26.32190755208333
 20
166.9765435112847
 10
26.32190755208333
 20
166.9765435112847
 10
26.31053873697917
 20
166.8917941623264
 10
26.31053873697917
 20
166.8015326605903
 10
26.29951443142361
 20
166.7167833116319
 10
26.2712646484375
 20
166.3726182725694
 10
26.25403917100694
 20
166.1128580729167
 10
26.051123046875
 20
165.8193359375
 10
25.8309814453125
 20
165.5144449869792
 10
25.53745930989583
 20
165.3452907986111
 10
25.13093804253472
 20
165.3452907986111
 10
23.82696940104167
 20
165.3452907986111
 10
23.78183865017361
 20
166.6037841796875
 10
23.78183865017361
 20
167.6142306857639
 10
23.78183865017361
 20
168.568177625868
 10
23.92308756510417
 20
169.7650037977431
 10
25.12508138020833
 20
169.7650037977431
 10
25.92675509982639
 20
169.7650037977431
 10
26.34464518229166
 20
169.1665907118056
 10
26.32190755208333
 20
168.4100477430555
 10
26.32190755208333
 20
168.4100477430555
 10
25.85337456597222
 20
168.4100477430555
 10
25.85337456597222
 20
168.4100477430555
 97
        0
 75
     0
 76
     1
 98
        1
 10
0.0
 20
0.0
  0
HATCH
  5
6B
330
A
100
AcDbEntity
  8
LAYER_1
 62
     7
100
AcDbHatch
 10
0.0
 20
0.0
 30
0.0
210
0.0
220
0.0
230
1.0
  2
SOLID
 70
     1
 71
     0
 91
        1
 92
        1
 93
        1
 72
     4
 94
        3
 73
     0
 74
     0
 95
       17
 96
       13
 40
0.0
 40
0.0
 40
0.0
 40
0.0
 40
1.0
 40
1.0
 40
1.0
 40
2.0
 40
2.0
 40
2.0
 40
3.0
 40
3.0
 40
3.0
 40
4.0
 40
4.0
 40
4.0
 40
4.0
 10
27.17353515625
 20
165.4469211154514
 10
27.17353515625
 20
165.4469211154514
 10
27.17353515625
 20
169.6802544487847
 10
27.17353515625
 20
169.6802544487847
 10
27.17353515625
 20
169.6802544487847
 10
27.64206814236111
 20
169.6802544487847
 10
27.64206814236111
 20
169.6802544487847
 10
27.64206814236111
 20
169.6802544487847
 10
27.64206814236111
 20
165.4469211154514
 10
27.64206814236111
 20
165.4469211154514
 10
27.64206814236111
 20
165.4469211154514
 10
27.17353515625
 20
165.4469211154514
 10
27.17353515625
 20
165.4469211154514
 97
        0
 75
     0
 76
     1
 98
        1
 10
0.0
 20
0.0
  0
HATCH
  5
6A
330
A
100
AcDbEntity
  8
LAYER_1
 62
     7
100
AcDbHatch
 10
0.0
 20
0.0
 30
0.0
210
0.0
220
0.0
230
1.0
  2
SOLID
 70
     1
 71
     0
 91
        1
 92
        1
 93
        1
 72
     4
 94
        3
 73
     0
 74
     0
 95
       35
 96
       31
 40
0.0
 40
0.0
 40
0.0
 40
0.0
 40
1.0
 40
1.0
 40
1.0
 40
2.0
 40
2.0
 40
2.0
 40
3.0
 40
3.0
 40
3.0
 40
4.0
 40
4.0
 40
4.0
 40
5.0
 40
5.0
 40
5.0
 40
6.0
 40
6.0
 40
6.0
 40
7.0
 40
7.0
 40
7.0
 40
8.0
 40
8.0
 40
8.0
 40
9.0
 40
9.0
 40
9.0
 40
10.0
 40
10.0
 40
10.0
 40
10.0
 10
28.60635036892361
 20
165.4469211154514
 10
28.60635036892361
 20
165.4469211154514
 10
28.60635036892361
 20
169.6802544487847
 10
28.60635036892361
 20
169.6802544487847
 10
28.60635036892361
 20
169.6802544487847
 10
30.59313693576389
 20
169.6802544487847
 10
30.59313693576389
 20
169.6802544487847
 10
30.59313693576389
 20
169.6802544487847
 10
30.59313693576389
 20
169.2568522135417
 10
30.59313693576389
 20
169.2568522135417
 10
30.59313693576389
 20
169.2568522135417
 10
29.07488335503472
 20
169.2568522135417
 10
29.07488335503472
 20
169.2568522135417
 10
29.07488335503472
 20
169.2568522135417
 10
29.07488335503472
 20
167.8684787326389
 10
29.07488335503472
 20
167.8684787326389
 10
29.07488335503472
 20
167.8684787326389
 10
30.48599446614583
 20
167.8684787326389
 10
30.48599446614583
 20
167.8684787326389
 10
30.48599446614583
 20
167.8684787326389
 10
30.48599446614583
 20
167.4450764973958
 10
30.48599446614583
 20
167.4450764973958
 10
30.48599446614583
 20
167.4450764973958
 10
29.07488335503472
 20
167.4450764973958
 10
29.07488335503472
 20
167.4450764973958
 10
29.07488335503472
 20
167.4450764973958
 10
29.07488335503472
 20
165.4469211154514
 10
29.07488335503472
 20
165.4469211154514
 10
29.07488335503472
 20
165.4469211154514
 10
28.60635036892361
 20
165.4469211154514
 10
28.60635036892361
 20
165.4469211154514
 97
        0
 75
     0
 76
     1
 98
        1
 10
0.0
 20
0.0
  0
HATCH
  5
69
330
A
100
AcDbEntity
  8
LAYER_1
 62
     7
100
AcDbHatch
 10
0.0
 20
0.0
 30
0.0
210
0.0
220
0.0
230
1.0
  2
SOLID
 70
     1
 71
     0
 91
        1
 92
        1
 93
        1
 72
     4
 94
        3
 73
     0
 74
     0
 95
       32
 96
       28
 40
0.0
 40
0.0
 40
0.0
 40
0.0
 40
1.0
 40
1.0
 40
1.0
 40
2.0
 40
2.0
 40
2.0
 40
3.0
 40
3.0
 40
3.0
 40
4.0
 40
4.0
 40
4.0
 40
5.0
 40
5.0
 40
5.0
 40
6.0
 40
6.0
 40
6.0
 40
7.0
 40
7.0
 40
7.0
 40
8.0
 40
8.0
 40
8.0
 40
9.0
 40
9.0
 40
9.0
 40
9.0
 10
32.26331922743055
 20
167.5577311197916
 10
32.26331922743055
 20
167.5577311197916
 10
33.25654025607638
 20
169.6802544487847
 10
33.25654025607638
 20
169.6802544487847
 10
33.25654025607638
 20
169.6802544487847
 10
33.77606065538194
 20
169.6802544487847
 10
33.77606065538194
 20
169.6802544487847
 10
33.77606065538194
 20
169.6802544487847
 10
32.49448513454861
 20
167.0891981336806
 10
32.49448513454861
 20
167.0891981336806
 10
32.49448513454861
 20
167.0891981336806
 10
32.49448513454861
 20
165.4469211154514
 10
32.49448513454861
 20
165.4469211154514
 10
32.49448513454861
 20
165.4469211154514
 10
32.02629665798611
 20
165.4469211154514
 10
32.02629665798611
 20
165.4469211154514
 10
32.02629665798611
 20
165.4469211154514
 10
32.02629665798611
 20
167.0891981336806
 10
32.02629665798611
 20
167.0891981336806
 10
32.02629665798611
 20
167.0891981336806
 10
30.75608995225694
 20
169.6802544487847
 10
30.75608995225694
 20
169.6802544487847
 10
30.75608995225694
 20
169.6802544487847
 10
31.27526584201389
 20
169.6802544487847
 10
31.27526584201389
 20
169.6802544487847
 10
31.27526584201389
 20
169.6802544487847
 10
32.26331922743055
 20
167.5577311197916
 10
32.26331922743055
 20
167.5577311197916
 97
        0
 75
     0
 76
     1
 98
        1
 10
0.0
 20
0.0
  0
HATCH
  5
68
330
A
100
AcDbEntity
  8
LAYER_1
 62
     7
100
AcDbHatch
 10
0.0
 20
0.0
 30
0.0
210
0.0
220
0.0
230
1.0
  2
SOLID
 70
     1
 71
     0
 91
        1
 92
        1
 93
        1
 72
     4
 94
        3
 73
     0
 74
     0
 95
       23
 96
       19
 40
0.0
 40
0.0
 40
0.0
 40
0.0
 40
1.0
 40
1.0
 40
1.0
 40
2.0
 40
2.0
 40
2.0
 40
3.0
 40
3.0
 40
3.0
 40
4.0
 40
4.0
 40
4.0
 40
5.0
 40
5.0
 40
5.0
 40
6.0
 40
6.0
 40
6.0
 40
6.0
 10
35.71151529947916
 20
165.4469211154514
 10
35.71151529947916
 20
165.4469211154514
 10
35.71151529947916
 20
169.6802544487847
 10
35.71151529947916
 20
169.6802544487847
 10
35.71151529947916
 20
169.6802544487847
 10
36.18004828559027
 20
169.6802544487847
 10
36.18004828559027
 20
169.6802544487847
 10
36.18004828559027
 20
169.6802544487847
 10
36.18004828559027
 20
165.8699788411458
 10
36.18004828559027
 20
165.8699788411458
 10
36.18004828559027
 20
165.8699788411458
 10
37.90707465277777
 20
165.8699788411458
 10
37.90707465277777
 20
165.8699788411458
 10
37.90707465277777
 20
165.8699788411458
 10
37.90707465277777
 20
165.4469211154514
 10
37.90707465277777
 20
165.4469211154514
 10
37.90707465277777
 20
165.4469211154514
 10
35.71151529947916
 20
165.4469211154514
 10
35.71151529947916
 20
165.4469211154514
 97
        0
 75
     0
 76
     1
 98
        1
 10
0.0
 20
0.0
  0
HATCH
  5
67
330
A
100
AcDbEntity
  8
LAYER_1
 62
     7
100
AcDbHatch
 10
0.0
 20
0.0
 30
0.0
210
0.0
220
0.0
230
1.0
  2
SOLID
 70
     1
 71
     0
 91
        2
 92
       16
 93
        1
 72
     4
 94
        3
 73
     0
 74
     0
 95
       17
 96
       13
 40
0.0
 40
0.0
 40
0.0
 40
0.0
 40
1.0
 40
1.0
 40
1.0
 40
2.0
 40
2.0
 40
2.0
 40
3.0
 40
3.0
 40
3.0
 40
4.0
 40
4.0
 40
4.0
 40
4.0
 10
39.7808620876736
 20
169.3416015625
 10
39.05842556423611
 20
169.3416015625
 10
38.87790256076389
 20
168.58505859375
 10
38.88341471354166
 20
167.64248046875
 10
38.88927137586805
 20
166.4177490234375
 10
39.01329481336805
 20
165.7686930338542
 10
39.79223090277777
 20
165.7686930338542
 10
40.57116699218749
 20
165.7686930338542
 10
40.6955349392361
 20
166.4177490234375
 10
40.70104709201389
 20
167.64248046875
 10
40.70690375434027
 20
168.58505859375
 10
40.52603624131944
 20
169.3416015625
 10
39.7808620876736
 20
169.3416015625
 97
        0
 92
        1
 93
        1
 72
     4
 94
        3
 73
     0
 74
     0
 95
       17
 96
       13
 40
0.0
 40
0.0
 40
0.0
 40
0.0
 40
1.0
 40
1.0
 40
1.0
 40
2.0
 40
2.0
 40
2.0
 40
3.0
 40
3.0
 40
3.0
 40
4.0
 40
4.0
 40
4.0
 40
4.0
 10
39.80359971788194
 20
169.7650037977431
 10
41.03969997829861
 20
169.7650037977431
 10
41.19231770833333
 20
168.6246771918403
 10
41.18646104600694
 20
167.6538492838542
 10
41.18094889322916
 20
166.4797607421875
 10
41.02833116319444
 20
165.3452907986111
 10
39.79223090277777
 20
165.3452907986111
 10
38.5561306423611
 20
165.3452907986111
 10
38.40936957465277
 20
166.4797607421875
 10
38.39800075954861
 20
167.6538492838542
 10
38.39800075954861
 20
168.6246771918403
 10
38.54476182725694
 20
169.7650037977431
 10
39.80359971788194
 20
169.7650037977431
 97
        0
 75
     0
 76
     1
 98
        1
 10
0.0
 20
0.0
  0
HATCH
  5
66
330
A
100
AcDbEntity
  8
LAYER_1
 62
     7
100
AcDbHatch
 10
0.0
 20
0.0
 30
0.0
210
0.0
220
0.0
230
1.0
  2
SOLID
 70
     1
 71
     0
 91
        1
 92
        1
 93
        1
 72
     4
 94
        3
 73
     0
 74
     0
 95
       71
 96
       67
 40
0.0
 40
0.0
 40
0.0
 40
0.0
 40
1.0
 40
1.0
 40
1.0
 40
2.0
 40
2.0
 40
2.0
 40
3.0
 40
3.0
 40
3.0
 40
4.0
 40
4.0
 40
4.0
 40
5.0
 40
5.0
 40
5.0
 40
6.0
 40
6.0
 40
6.0
 40
7.0
 40
7.0
 40
7.0
 40
8.0
 40
8.0
 40
8.0
 40
9.0
 40
9.0
 40
9.0
 40
10.0
 40
10.0
 40
10.0
 40
11.0
 40
11.0
 40
11.0
 40
12.0
 40
12.0
 40
12.0
 40
13.0
 40
13.0
 40
13.0
 40
14.0
 40
14.0
 40
14.0
 40
15.0
 40
15.0
 40
15.0
 40
16.0
 40
16.0
 40
16.0
 40
17.0
 40
17.0
 40
17.0
 40
18.0
 40
18.0
 40
18.0
 40
19.0
 40
19.0
 40
19.0
 40
20.0
 40
20.0
 40
20.0
 40
21.0
 40
21.0
 40
21.0
 40
22.0
 40
22.0
 40
22.0
 40
22.0
 10
43.09332139756944
 20
165.4469211154514
 10
43.09332139756944
 20
165.4469211154514
 10
42.5121337890625
 20
165.4469211154514
 10
42.5121337890625
 20
165.4469211154514
 10
42.5121337890625
 20
165.4469211154514
 10
41.60882975260417
 20
169.6802544487847
 10
41.60882975260417
 20
169.6802544487847
 10
41.60882975260417
 20
169.6802544487847
 10
42.12835015190972
 20
169.6802544487847
 10
42.12835015190972
 20
169.6802544487847
 10
42.12835015190972
 20
169.6802544487847
 10
42.68128797743055
 20
166.7619140625
 10
42.68128797743055
 20
166.7619140625
 10
42.732275390625
 20
166.4742485894097
 10
42.77154947916667
 20
166.180726453993
 10
42.80565592447916
 20
165.7855740017361
 10
42.80565592447916
 20
165.7855740017361
 10
42.81668023003472
 20
165.7855740017361
 10
42.81668023003472
 20
165.7855740017361
 10
42.856298828125
 20
166.1128580729167
 10
42.89006076388888
 20
166.4232611762153
 10
42.95241699218749
 20
166.7281521267361
 10
42.95241699218749
 20
166.7281521267361
 10
43.57322319878472
 20
169.6802544487847
 10
43.57322319878472
 20
169.6802544487847
 10
43.57322319878472
 20
169.6802544487847
 10
44.15475531684027
 20
169.6802544487847
 10
44.15475531684027
 20
169.6802544487847
 10
44.15475531684027
 20
169.6802544487847
 10
44.7135498046875
 20
166.7619140625
 10
44.7135498046875
 20
166.7619140625
 10
44.76419270833333
 20
166.4797607421875
 10
44.79795464409722
 20
166.197607421875
 10
44.8375732421875
 20
165.7855740017361
 10
44.8375732421875
 20
165.7855740017361
 10
44.84894205729167
 20
165.7855740017361
 10
44.84894205729167
 20
165.7855740017361
 10
44.88856065538194
 20
166.1128580729167
 10
44.92232259114583
 20
166.4232611762153
 10
44.98433430989583
 20
166.7281521267361
 10
44.98433430989583
 20
166.7281521267361
 10
45.59962836371528
 20
169.6802544487847
 10
45.59962836371528
 20
169.6802544487847
 10
45.59962836371528
 20
169.6802544487847
 10
46.11880425347222
 20
169.6802544487847
 10
46.11880425347222
 20
169.6802544487847
 10
46.11880425347222
 20
169.6802544487847
 10
45.12558322482639
 20
165.4469211154514
 10
45.12558322482639
 20
165.4469211154514
 10
45.12558322482639
 20
165.4469211154514
 10
44.54405110677083
 20
165.4469211154514
 10
44.54405110677083
 20
165.4469211154514
 10
44.54405110677083
 20
165.4469211154514
 10
43.97974446614583
 20
168.3197862413194
 10
43.97974446614583
 20
168.3197862413194
 10
43.92324490017361
 20
168.5964274088541
 10
43.88948296440972
 20
168.8785807291667
 10
43.85537651909722
 20
169.3416015625
 10
43.85537651909722
 20
169.3416015625
 10
43.84435221354166
 20
169.3416015625
 10
43.84435221354166
 20
169.3416015625
 10
43.80473361545138
 20
168.9350802951389
 10
43.7709716796875
 20
168.6246771918403
 10
43.70861545138889
 20
168.3197862413194
 10
43.70861545138889
 20
168.3197862413194
 10
43.09332139756944
 20
165.4469211154514
 10
43.09332139756944
 20
165.4469211154514
 97
        0
 75
     0
 76
     1
 98
        1
 10
0.0
 20
0.0
  0
HATCH
  5
65
330
A
100
AcDbEntity
  8
LAYER_1
 62
     7
100
AcDbHatch
 10
0.0
 20
0.0
 30
0.0
210
0.0
220
0.0
230
1.0
  2
SOLID
 70
     1
 71
     0
 91
        1
 92
        1
 93
        1
 72
     4
 94
        3
 73
     0
 74
     0
 95
       56
 96
       52
 40
0.0
 40
0.0
 40
0.0
 40
0.0
 40
1.0
 40
1.0
 40
1.0
 40
2.0
 40
2.0
 40
2.0
 40
3.0
 40
3.0
 40
3.0
 40
4.0
 40
4.0
 40
4.0
 40
5.0
 40
5.0
 40
5.0
 40
6.0
 40
6.0
 40
6.0
 40
7.0
 40
7.0
 40
7.0
 40
8.0
 40
8.0
 40
8.0
 40
9.0
 40
9.0
 40
9.0
 40
10.0
 40
10.0
 40
10.0
 40
11.0
 40
11.0
 40
11.0
 40
12.0
 40
12.0
 40
12.0
 40
13.0
 40
13.0
 40
13.0
 40
14.0
 40
14.0
 40
14.0
 40
15.0
 40
15.0
 40
15.0
 40
16.0
 40
16.0
 40
16.0
 40
17.0
 40
17.0
 40
17.0
 40
17.0
 10
49.88257107204861
 20
168.568177625868
 10
49.9163330078125
 20
169.008460828993
 10
49.67931043836805
 20
169.3416015625
 10
49.21077745225694
 20
169.3416015625
 10
48.52761501736111
 20
169.3416015625
 10
48.45423448350694
 20
168.9126871744792
 10
48.45423448350694
 20
168.58505859375
 10
48.45423448350694
 20
168.2915364583333
 10
48.58411458333333
 20
168.1110134548611
 10
48.85524359809028
 20
168.0093831380208
 10
49.08089735243055
 20
167.9246337890625
 10
49.30103895399305
 20
167.8402289496528
 10
49.52669270833333
 20
167.7554796006944
 10
50.32836642795139
 20
167.4564453125
 10
50.47512749565972
 20
167.1739474826389
 10
50.47512749565972
 20
166.6151529947917
 10
50.47512749565972
 20
165.8138237847222
 10
49.97283257378471
 20
165.3452907986111
 10
49.15979003906249
 20
165.3452907986111
 10
48.74224446614583
 20
165.3452907986111
 10
48.2454616970486
 20
165.4638020833333
 10
48.00258246527778
 20
166.0167399088542
 10
47.91232096354166
 20
166.2258572048611
 10
47.91817762586805
 20
166.5645100911458
 10
47.91232096354166
 20
166.7901638454861
 10
47.91232096354166
 20
166.7901638454861
 10
48.38085394965277
 20
166.7901638454861
 10
48.38085394965277
 20
166.7901638454861
 10
48.35846082899305
 20
166.1635009765625
 10
48.47697211371527
 20
165.7686930338542
 10
49.18252766927083
 20
165.7686930338542
 10
49.65657280815972
 20
165.7686930338542
 10
49.98971354166666
 20
166.0112277560764
 10
49.98971354166666
 20
166.5080105251736
 10
49.98971354166666
 20
167.1515543619792
 10
49.72995334201389
 20
167.1570665147569
 10
49.30103895399305
 20
167.3207085503472
 10
49.06952853732638
 20
167.4109700520833
 10
48.69711371527777
 20
167.5294813368055
 10
48.47111545138888
 20
167.6483371310764
 10
48.07045084635416
 20
167.8512532552083
 10
47.96882052951388
 20
168.1899061414931
 10
47.96882052951388
 20
168.6077962239583
 10
47.96882052951388
 20
169.3074951171875
 10
48.46009114583333
 20
169.7650037977431
 10
49.14876573350694
 20
169.7650037977431
 10
49.92184516059027
 20
169.7650037977431
 10
50.39589029947916
 20
169.3639946831597
 10
50.35075954861111
 20
168.568177625868
 10
50.35075954861111
 20
168.568177625868
 10
49.88257107204861
 20
168.568177625868
 10
49.88257107204861
 20
168.568177625868
 97
        0
 75
     0
 76
     1
 98
        1
 10
0.0
 20
0.0
  0
HATCH
  5
64
330
A
100
AcDbEntity
  8
LAYER_1
 62
     7
100
AcDbHatch
 10
0.0
 20
0.0
 30
0.0
210
0.0
220
0.0
230
1.0
  2
SOLID
 70
     1
 71
     0
 91
        1
 92
        1
 93
        1
 72
     4
 94
        3
 73
     0
 74
     0
 95
       17
 96
       13
 40
0.0
 40
0.0
 40
0.0
 40
0.0
 40
1.0
 40
1.0
 40
1.0
 40
2.0
 40
2.0
 40
2.0
 40
3.0
 40
3.0
 40
3.0
 40
4.0
 40
4.0
 40
4.0
 40
4.0
 10
51.31538628472222
 20
165.4469211154514
 10
51.31538628472222
 20
165.4469211154514
 10
51.31538628472222
 20
169.6802544487847
 10
51.31538628472222
 20
169.6802544487847
 10
51.31538628472222
 20
169.6802544487847
 10
51.78391927083333
 20
169.6802544487847
 10
51.78391927083333
 20
169.6802544487847
 10
51.78391927083333
 20
169.6802544487847
 10
51.78391927083333
 20
165.4469211154514
 10
51.78391927083333
 20
165.4469211154514
 10
51.78391927083333
 20
165.4469211154514
 10
51.31538628472222
 20
165.4469211154514
 10
51.31538628472222
 20
165.4469211154514
 97
        0
 75
     0
 76
     1
 98
        1
 10
0.0
 20
0.0
  0
HATCH
  5
63
330
A
100
AcDbEntity
  8
LAYER_1
 62
     7
100
AcDbHatch
 10
0.0
 20
0.0
 30
0.0
210
0.0
220
0.0
230
1.0
  2
SOLID
 70
     1
 71
     0
 91
        2
 92
       16
 93
        1
 72
     4
 94
        3
 73
     0
 74
     0
 95
       20
 96
       16
 40
0.0
 40
0.0
 40
0.0
 40
0.0
 40
1.0
 40
1.0
 40
1.0
 40
2.0
 40
2.0
 40
2.0
 40
3.0
 40
3.0
 40
3.0
 40
4.0
 40
4.0
 40
4.0
 40
5.0
 40
5.0
 40
5.0
 40
5.0
 10
53.26186523437499
 20
165.8699788411458
 10
53.26186523437499
 20
165.8699788411458
 10
54.0125515407986
 20
165.8699788411458
 10
54.0125515407986
 20
165.8699788411458
 10
54.70122612847221
 20
165.8699788411458
 10
54.98337944878472
 20
166.383642578125
 10
54.93824869791666
 20
167.6483371310764
 10
54.90448676215277
 20
168.6133083767361
 10
54.76909450954861
 20
169.2568522135417
 10
54.0125515407986
 20
169.2568522135417
 10
54.0125515407986
 20
169.2568522135417
 10
53.26186523437499
 20
169.2568522135417
 10
53.26186523437499
 20
169.2568522135417
 10
53.26186523437499
 20
169.2568522135417
 10
53.26186523437499
 20
165.8699788411458
 10
53.26186523437499
 20
165.8699788411458
 97
        0
 92
        1
 93
        1
 72
     4
 94
        3
 73
     0
 74
     0
 95
       20
 96
       16
 40
0.0
 40
0.0
 40
0.0
 40
0.0
 40
1.0
 40
1.0
 40
1.0
 40
2.0
 40
2.0
 40
2.0
 40
3.0
 40
3.0
 40
3.0
 40
4.0
 40
4.0
 40
4.0
 40
5.0
 40
5.0
 40
5.0
 40
5.0
 10
52.79333224826389
 20
165.4469211154514
 10
52.79333224826389
 20
165.4469211154514
 10
52.79333224826389
 20
169.6802544487847
 10
52.79333224826389
 20
169.6802544487847
 10
52.79333224826389
 20
169.6802544487847
 10
53.95605197482639
 20
169.6802544487847
 10
53.95605197482639
 20
169.6802544487847
 10
55.27690158420138
 20
169.6802544487847
 10
55.45776909722222
 20
168.6077962239583
 10
55.42366265190972
 20
167.5635877821181
 10
55.38990071614583
 20
166.5304036458333
 10
55.18664008246527
 20
165.4469211154514
 10
54.04080132378472
 20
165.4469211154514
 10
54.04080132378472
 20
165.4469211154514
 10
52.79333224826389
 20
165.4469211154514
 10
52.79333224826389
 20
165.4469211154514
 97
        0
 75
     0
 76
     1
 98
        1
 10
0.0
 20
0.0
  0
HATCH
  5
62
330
A
100
AcDbEntity
  8
LAYER_1
 62
     7
100
AcDbHatch
 10
0.0
 20
0.0
 30
0.0
210
0.0
220
0.0
230
1.0
  2
SOLID
 70
     1
 71
     0
 91
        1
 92
        1
 93
        1
 72
     4
 94
        3
 73
     0
 74
     0
 95
       41
 96
       37
 40
0.0
 40
0.0
 40
0.0
 40
0.0
 40
1.0
 40
1.0
 40
1.0
 40
2.0
 40
2.0
 40
2.0
 40
3.0
 40
3.0
 40
3.0
 40
4.0
 40
4.0
 40
4.0
 40
5.0
 40
5.0
 40
5.0
 40
6.0
 40
6.0
 40
6.0
 40
7.0
 40
7.0
 40
7.0
 40
8.0
 40
8.0
 40
8.0
 40
9.0
 40
9.0
 40
9.0
 40
10.0
 40
10.0
 40
10.0
 40
11.0
 40
11.0
 40
11.0
 40
12.0
 40
12.0
 40
12.0
 40
12.0
 10
56.19605305989583
 20
165.4469211154514
 10
56.19605305989583
 20
165.4469211154514
 10
56.19605305989583
 20
169.6802544487847
 10
56.19605305989583
 20
169.6802544487847
 10
56.19605305989583
 20
169.6802544487847
 10
58.31271972656249
 20
169.6802544487847
 10
58.31271972656249
 20
169.6802544487847
 10
58.31271972656249
 20
169.6802544487847
 10
58.31271972656249
 20
169.2568522135417
 10
58.31271972656249
 20
169.2568522135417
 10
58.31271972656249
 20
169.2568522135417
 10
56.66458604600694
 20
169.2568522135417
 10
56.66458604600694
 20
169.2568522135417
 10
56.66458604600694
 20
169.2568522135417
 10
56.66458604600694
 20
167.8571099175347
 10
56.66458604600694
 20
167.8571099175347
 10
56.66458604600694
 20
167.8571099175347
 10
58.21108940972222
 20
167.8571099175347
 10
58.21108940972222
 20
167.8571099175347
 10
58.21108940972222
 20
167.8571099175347
 10
58.21108940972222
 20
167.4337076822916
 10
58.21108940972222
 20
167.4337076822916
 10
58.21108940972222
 20
167.4337076822916
 10
56.66458604600694
 20
167.4337076822916
 10
56.66458604600694
 20
167.4337076822916
 10
56.66458604600694
 20
167.4337076822916
 10
56.66458604600694
 20
165.8699788411458
 10
56.66458604600694
 20
165.8699788411458
 10
56.66458604600694
 20
165.8699788411458
 10
58.32408854166666
 20
165.8699788411458
 10
58.32408854166666
 20
165.8699788411458
 10
58.32408854166666
 20
165.8699788411458
 10
58.32408854166666
 20
165.4469211154514
 10
58.32408854166666
 20
165.4469211154514
 10
58.32408854166666
 20
165.4469211154514
 10
56.19605305989583
 20
165.4469211154514
 10
56.19605305989583
 20
165.4469211154514
 97
        0
 75
     0
 76
     1
 98
        1
 10
0.0
 20
0.0
  0
HATCH
  5
61
330
A
100
AcDbEntity
  8
LAYER_1
 62
     7
100
AcDbHatch
 10
0.0
 20
0.0
 30
0.0
210
0.0
220
0.0
230
1.0
  2
SOLID
 70
     1
 71
     0
 91
        1
 92
        1
 93
        1
 72
     4
 94
        3
 73
     0
 74
     0
 95
       32
 96
       28
 40
0.0
 40
0.0
 40
0.0
 40
0.0
 40
1.0
 40
1.0
 40
1.0
 40
2.0
 40
2.0
 40
2.0
 40
3.0
 40
3.0
 40
3.0
 40
4.0
 40
4.0
 40
4.0
 40
5.0
 40
5.0
 40
5.0
 40
6.0
 40
6.0
 40
6.0
 40
7.0
 40
7.0
 40
7.0
 40
8.0
 40
8.0
 40
8.0
 40
9.0
 40
9.0
 40
9.0
 40
9.0
 10
59.05238172743055
 20
165.4469211154514
 10
59.05238172743055
 20
165.4469211154514
 10
59.05238172743055
 20
166.0112277560764
 10
59.05238172743055
 20
166.0112277560764
 10
59.05238172743055
 20
166.0112277560764
 10
59.56604546440972
 20
166.0112277560764
 10
59.56604546440972
 20
166.0112277560764
 10
59.56604546440972
 20
165.9209662543403
 10
59.57155761718749
 20
165.5595757378472
 10
59.54881998697916
 20
165.3452907986111
 10
59.54330783420139
 20
165.1137803819444
 10
59.47543945312499
 20
164.8767578125
 10
59.27252332899305
 20
164.7355088975694
 10
59.21016710069444
 20
164.6848659939236
 10
59.1312744140625
 20
164.6511040581597
 10
59.05238172743055
 20
164.6228542751736
 10
59.05238172743055
 20
164.6228542751736
 10
59.05238172743055
 20
164.8767578125
 10
59.05238172743055
 20
164.8767578125
 10
59.09165581597222
 20
164.8822699652778
 10
59.14815538194444
 20
164.9105197482639
 10
59.18191731770833
 20
164.9501383463542
 10
59.30628526475694
 20
165.0855305989583
 10
59.32867838541666
 20
165.2719102647569
 10
59.32867838541666
 20
165.4469211154514
 10
59.32867838541666
 20
165.4469211154514
 10
59.05238172743055
 20
165.4469211154514
 10
59.05238172743055
 20
165.4469211154514
 97
        0
 75
     0
 76
     1
 98
        1
 10
0.0
 20
0.0
  0
HATCH
  5
60
330
A
100
AcDbEntity
  8
LAYER_1
 62
     7
100
AcDbHatch
 10
0.0
 20
0.0
 30
0.0
210
0.0
220
0.0
230
1.0
  2
SOLID
 70
     1
 71
     0
 91
        1
 92
        1
 93
        1
 72
     4
 94
        3
 73
     0
 74
     0
 95
       41
 96
       37
 40
0.0
 40
0.0
 40
0.0
 40
0.0
 40
1.0
 40
1.0
 40
1.0
 40
2.0
 40
2.0
 40
2.0
 40
3.0
 40
3.0
 40
3.0
 40
4.0
 40
4.0
 40
4.0
 40
5.0
 40
5.0
 40
5.0
 40
6.0
 40
6.0
 40
6.0
 40
7.0
 40
7.0
 40
7.0
 40
8.0
 40
8.0
 40
8.0
 40
9.0
 40
9.0
 40
9.0
 40
10.0
 40
10.0
 40
10.0
 40
11.0
 40
11.0
 40
11.0
 40
12.0
 40
12.0
 40
12.0
 40
12.0
 10
14.83079155815972
 20
160.1552544487847
 10
14.83079155815972
 20
160.1552544487847
 10
14.83079155815972
 20
164.388587782118
 10
14.83079155815972
 20
164.388587782118
 10
14.83079155815972
 20
164.388587782118
 10
15.29932454427083
 20
164.388587782118
 10
15.29932454427083
 20
164.388587782118
 10
15.29932454427083
 20
164.388587782118
 10
15.29932454427083
 20
162.6219428168403
 10
15.29932454427083
 20
162.6219428168403
 10
15.29932454427083
 20
162.6219428168403
 10
16.91920844184028
 20
162.6219428168403
 10
16.91920844184028
 20
162.6219428168403
 10
16.91920844184028
 20
162.6219428168403
 10
16.91920844184028
 20
164.388587782118
 10
16.91920844184028
 20
164.388587782118
 10
16.91920844184028
 20
164.388587782118
 10
17.38774142795139
 20
164.388587782118
 10
17.38774142795139
 20
164.388587782118
 10
17.38774142795139
 20
164.388587782118
 10
17.38774142795139
 20
160.1552544487847
 10
17.38774142795139
 20
160.1552544487847
 10
17.38774142795139
 20
160.1552544487847
 10
16.91920844184028
 20
160.1552544487847
 10
16.91920844184028
 20
160.1552544487847
 10
16.91920844184028
 20
160.1552544487847
 10
16.91920844184028
 20
162.1985405815972
 10
16.91920844184028
 20
162.1985405815972
 10
16.91920844184028
 20
162.1985405815972
 10
15.29932454427083
 20
162.1985405815972
 10
15.29932454427083
 20
162.1985405815972
 10
15.29932454427083
 20
162.1985405815972
 10
15.29932454427083
 20
160.1552544487847
 10
15.29932454427083
 20
160.1552544487847
 10
15.29932454427083
 20
160.1552544487847
 10
14.83079155815972
 20
160.1552544487847
 10
14.83079155815972
 20
160.1552544487847
 97
        0
 75
     0
 76
     1
 98
        1
 10
0.0
 20
0.0
  0
HATCH
  5
5F
330
A
100
AcDbEntity
  8
LAYER_1
 62
     7
100
AcDbHatch
 10
0.0
 20
0.0
 30
0.0
210
0.0
220
0.0
230
1.0
  2
SOLID
 70
     1
 71
     0
 91
        1
 92
        1
 93
        1
 72
     4
 94
        3
 73
     0
 74
     0
 95
       17
 96
       13
 40
0.0
 40
0.0
 40
0.0
 40
0.0
 40
1.0
 40
1.0
 40
1.0
 40
2.0
 40
2.0
 40
2.0
 40
3.0
 40
3.0
 40
3.0
 40
4.0
 40
4.0
 40
4.0
 40
4.0
 10
18.38578559027778
 20
160.1552544487847
 10
18.38578559027778
 20
160.1552544487847
 10
18.38578559027778
 20
164.388587782118
 10
18.38578559027778
 20
164.388587782118
 10
18.38578559027778
 20
164.388587782118
 10
18.85431857638889
 20
164.388587782118
 10
18.85431857638889
 20
164.388587782118
 10
18.85431857638889
 20
164.388587782118
 10
18.85431857638889
 20
160.1552544487847
 10
18.85431857638889
 20
160.1552544487847
 10
18.85431857638889
 20
160.1552544487847
 10
18.38578559027778
 20
160.1552544487847
 10
18.38578559027778
 20
160.1552544487847
 97
        0
 75
     0
 76
     1
 98
        1
 10
0.0
 20
0.0
  0
HATCH
  5
5E
330
A
100
AcDbEntity
  8
LAYER_1
 62
     7
100
AcDbHatch
 10
0.0
 20
0.0
 30
0.0
210
0.0
220
0.0
230
1.0
  2
SOLID
 70
     1
 71
     0
 91
        1
 92
        1
 93
        1
 72
     4
 94
        3
 73
     0
 74
     0
 95
       53
 96
       49
 40
0.0
 40
0.0
 40
0.0
 40
0.0
 40
1.0
 40
1.0
 40
1.0
 40
2.0
 40
2.0
 40
2.0
 40
3.0
 40
3.0
 40
3.0
 40
4.0
 40
4.0
 40
4.0
 40
5.0
 40
5.0
 40
5.0
 40
6.0
 40
6.0
 40
6.0
 40
7.0
 40
7.0
 40
7.0
 40
8.0
 40
8.0
 40
8.0
 40
9.0
 40
9.0
 40
9.0
 40
10.0
 40
10.0
 40
10.0
 40
11.0
 40
11.0
 40
11.0
 40
12.0
 40
12.0
 40
12.0
 40
13.0
 40
13.0
 40
13.0
 40
14.0
 40
14.0
 40
14.0
 40
15.0
 40
15.0
 40
15.0
 40
16.0
 40
16.0
 40
16.0
 40
16.0
 10
22.40380045572917
 20
160.1211480034722
 10
22.40380045572917
 20
160.1211480034722
 10
22.04275444878472
 20
160.1211480034722
 10
22.04275444878472
 20
160.1211480034722
 10
22.04275444878472
 20
160.1211480034722
 10
22.04275444878472
 20
160.7815728081597
 10
22.04275444878472
 20
160.7815728081597
 10
22.04275444878472
 20
160.7815728081597
 10
22.03138563368055
 20
160.7815728081597
 10
22.03138563368055
 20
160.7815728081597
 10
21.90701768663194
 20
160.302015516493
 10
21.52909071180556
 20
160.0536241319444
 10
21.06055772569444
 20
160.0536241319444
 10
19.80171983506944
 20
160.0536241319444
 10
19.70594618055555
 20
161.3066053602431
 10
19.70594618055555
 20
162.3001708984375
 10
19.70594618055555
 20
163.2878797743055
 10
19.88061252170139
 20
164.4733371310764
 10
21.1056884765625
 20
164.4733371310764
 10
21.91287434895833
 20
164.4733371310764
 10
22.37555067274305
 20
163.948304578993
 10
22.36418185763889
 20
163.1579996744792
 10
22.36418185763889
 20
163.1579996744792
 10
21.89013671875
 20
163.1579996744792
 10
21.89013671875
 20
163.1579996744792
 10
21.88462456597222
 20
163.6771755642361
 10
21.66448296440972
 20
164.0385660807291
 10
21.12808159722222
 20
164.0499348958333
 10
20.20238444010417
 20
164.0668158637153
 10
20.19136013454861
 20
163.0057264539931
 10
20.19136013454861
 20
162.2832899305556
 10
20.19136013454861
 20
161.63974609375
 10
20.15725368923611
 20
160.5163004557292
 10
20.99268934461805
 20
160.4770263671875
 10
21.86188693576389
 20
160.4374077690972
 10
21.94112413194444
 20
161.2332248263889
 10
21.93526746961805
 20
161.9050184461806
 10
21.93526746961805
 20
161.9050184461806
 10
20.99268934461805
 20
161.9050184461806
 10
20.99268934461805
 20
161.9050184461806
 10
20.99268934461805
 20
161.9050184461806
 10
20.99268934461805
 20
162.3284206814236
 10
20.99268934461805
 20
162.3284206814236
 10
20.99268934461805
 20
162.3284206814236
 10
22.40380045572917
 20
162.3284206814236
 10
22.40380045572917
 20
162.3284206814236
 10
22.40380045572917
 20
162.3284206814236
 10
22.40380045572917
 20
160.1211480034722
 10
22.40380045572917
 20
160.1211480034722
 97
        0
 75
     0
 76
     1
 98
        1
 10
0.0
 20
0.0
  0
HATCH
  5
5D
330
A
100
AcDbEntity
  8
LAYER_1
 62
     7
100
AcDbHatch
 10
0.0
 20
0.0
 30
0.0
210
0.0
220
0.0
230
1.0
  2
SOLID
 70
     1
 71
     0
 91
        1
 92
        1
 93
        1
 72
     4
 94
        3
 73
     0
 74
     0
 95
       41
 96
       37
 40
0.0
 40
0.0
 40
0.0
 40
0.0
 40
1.0
 40
1.0
 40
1.0
 40
2.0
 40
2.0
 40
2.0
 40
3.0
 40
3.0
 40
3.0
 40
4.0
 40
4.0
 40
4.0
 40
5.0
 40
5.0
 40
5.0
 40
6.0
 40
6.0
 40
6.0
 40
7.0
 40
7.0
 40
7.0
 40
8.0
 40
8.0
 40
8.0
 40
9.0
 40
9.0
 40
9.0
 40
10.0
 40
10.0
 40
10.0
 40
11.0
 40
11.0
 40
11.0
 40
12.0
 40
12.0
 40
12.0
 40
12.0
 10
23.2947021484375
 20
160.1552544487847
 10
23.2947021484375
 20
160.1552544487847
 10
23.2947021484375
 20
164.388587782118
 10
23.2947021484375
 20
164.388587782118
 10
23.2947021484375
 20
164.388587782118
 10
23.76323513454861
 20
164.388587782118
 10
23.76323513454861
 20
164.388587782118
 10
23.76323513454861
 20
164.388587782118
 10
23.76323513454861
 20
162.6219428168403
 10
23.76323513454861
 20
162.6219428168403
 10
23.76323513454861
 20
162.6219428168403
 10
25.38311903211805
 20
162.6219428168403
 10
25.38311903211805
 20
162.6219428168403
 10
25.38311903211805
 20
162.6219428168403
 10
25.38311903211805
 20
164.388587782118
 10
25.38311903211805
 20
164.388587782118
 10
25.38311903211805
 20
164.388587782118
 10
25.85165201822916
 20
164.388587782118
 10
25.85165201822916
 20
164.388587782118
 10
25.85165201822916
 20
164.388587782118
 10
25.85165201822916
 20
160.1552544487847
 10
25.85165201822916
 20
160.1552544487847
 10
25.85165201822916
 20
160.1552544487847
 10
25.38311903211805
 20
160.1552544487847
 10
25.38311903211805
 20
160.1552544487847
 10
25.38311903211805
 20
160.1552544487847
 10
25.38311903211805
 20
162.1985405815972
 10
25.38311903211805
 20
162.1985405815972
 10
25.38311903211805
 20
162.1985405815972
 10
23.76323513454861
 20
162.1985405815972
 10
23.76323513454861
 20
162.1985405815972
 10
23.76323513454861
 20
162.1985405815972
 10
23.76323513454861
 20
160.1552544487847
 10
23.76323513454861
 20
160.1552544487847
 10
23.76323513454861
 20
160.1552544487847
 10
23.2947021484375
 20
160.1552544487847
 10
23.2947021484375
 20
160.1552544487847
 97
        0
 75
     0
 76
     1
 98
        1
 10
0.0
 20
0.0
  0
HATCH
  5
5C
330
A
100
AcDbEntity
  8
LAYER_1
 62
     7
100
AcDbHatch
 10
0.0
 20
0.0
 30
0.0
210
0.0
220
0.0
230
1.0
  2
SOLID
 70
     1
 71
     0
 91
        1
 92
        1
 93
        1
 72
     4
 94
        3
 73
     0
 74
     0
 95
       56
 96
       52
 40
0.0
 40
0.0
 40
0.0
 40
0.0
 40
1.0
 40
1.0
 40
1.0
 40
2.0
 40
2.0
 40
2.0
 40
3.0
 40
3.0
 40
3.0
 40
4.0
 40
4.0
 40
4.0
 40
5.0
 40
5.0
 40
5.0
 40
6.0
 40
6.0
 40
6.0
 40
7.0
 40
7.0
 40
7.0
 40
8.0
 40
8.0
 40
8.0
 40
9.0
 40
9.0
 40
9.0
 40
10.0
 40
10.0
 40
10.0
 40
11.0
 40
11.0
 40
11.0
 40
12.0
 40
12.0
 40
12.0
 40
13.0
 40
13.0
 40
13.0
 40
14.0
 40
14.0
 40
14.0
 40
15.0
 40
15.0
 40
15.0
 40
16.0
 40
16.0
 40
16.0
 40
17.0
 40
17.0
 40
17.0
 40
17.0
 10
29.96544053819444
 20
163.2765109592014
 10
29.99954698350694
 20
163.7167941623264
 10
29.7625244140625
 20
164.0499348958333
 10
29.29399142795139
 20
164.0499348958333
 10
28.61082899305555
 20
164.0499348958333
 10
28.53744845920139
 20
163.6210205078125
 10
28.53744845920139
 20
163.2933919270833
 10
28.53744845920139
 20
162.9998697916666
 10
28.66732855902778
 20
162.8193467881944
 10
28.93811306423611
 20
162.7177164713542
 10
29.164111328125
 20
162.6329671223958
 10
29.3842529296875
 20
162.5485622829861
 10
29.60990668402777
 20
162.4638129340278
 10
30.41158040364583
 20
162.1647786458333
 10
30.55834147135417
 20
161.8822808159722
 10
30.55834147135417
 20
161.323486328125
 10
30.55834147135417
 20
160.5221571180555
 10
30.05570203993055
 20
160.0536241319444
 10
29.24300401475694
 20
160.0536241319444
 10
28.82545844184028
 20
160.0536241319444
 10
28.32867567274305
 20
160.1721354166667
 10
28.08579644097222
 20
160.7250732421875
 10
27.99553493923611
 20
160.9341905381944
 10
28.0013916015625
 20
161.2728434244792
 10
27.99553493923611
 20
161.4984971788194
 10
27.99553493923611
 20
161.4984971788194
 10
28.46406792534722
 20
161.4984971788194
 10
28.46406792534722
 20
161.4984971788194
 10
28.4416748046875
 20
160.8718343098958
 10
28.56018608940972
 20
160.4770263671875
 10
29.26574164496527
 20
160.4770263671875
 10
29.73978678385416
 20
160.4770263671875
 10
30.07292751736111
 20
160.7195610894097
 10
30.07292751736111
 20
161.2163438585069
 10
30.07292751736111
 20
161.8598876953125
 10
29.81316731770833
 20
161.8653998480903
 10
29.3842529296875
 20
162.0290418836806
 10
29.15274251302083
 20
162.1193033854167
 10
28.78032769097222
 20
162.2378146701389
 10
28.55432942708333
 20
162.3566704644097
 10
28.15366482204861
 20
162.5595865885417
 10
28.05203450520833
 20
162.8982394748264
 10
28.05203450520833
 20
163.3161295572917
 10
28.05203450520833
 20
164.0158284505208
 10
28.54330512152778
 20
164.4733371310764
 10
29.23163519965278
 20
164.4733371310764
 10
30.00505913628472
 20
164.4733371310764
 10
30.47910427517361
 20
164.072328016493
 10
30.43397352430555
 20
163.2765109592014
 10
30.43397352430555
 20
163.2765109592014
 10
29.96544053819444
 20
163.2765109592014
 10
29.96544053819444
 20
163.2765109592014
 97
        0
 75
     0
 76
     1
 98
        1
 10
0.0
 20
0.0
  0
HATCH
  5
5B
330
A
100
AcDbEntity
  8
LAYER_1
 62
     7
100
AcDbHatch
 10
0.0
 20
0.0
 30
0.0
210
0.0
220
0.0
230
1.0
  2
SOLID
 70
     1
 71
     0
 91
        1
 92
        1
 93
        1
 72
     4
 94
        3
 73
     0
 74
     0
 95
       17
 96
       13
 40
0.0
 40
0.0
 40
0.0
 40
0.0
 40
1.0
 40
1.0
 40
1.0
 40
2.0
 40
2.0
 40
2.0
 40
3.0
 40
3.0
 40
3.0
 40
4.0
 40
4.0
 40
4.0
 40
4.0
 10
31.39860026041666
 20
160.1552544487847
 10
31.39860026041666
 20
160.1552544487847
 10
31.39860026041666
 20
164.388587782118
 10
31.39860026041666
 20
164.388587782118
 10
31.39860026041666
 20
164.388587782118
 10
31.86713324652778
 20
164.388587782118
 10
31.86713324652778
 20
164.388587782118
 10
31.86713324652778
 20
164.388587782118
 10
31.86713324652778
 20
160.1552544487847
 10
31.86713324652778
 20
160.1552544487847
 10
31.86713324652778
 20
160.1552544487847
 10
31.39860026041666
 20
160.1552544487847
 10
31.39860026041666
 20
160.1552544487847
 97
        0
 75
     0
 76
     1
 98
        1
 10
0.0
 20
0.0
  0
HATCH
  5
5A
330
A
100
AcDbEntity
  8
LAYER_1
 62
     7
100
AcDbHatch
 10
0.0
 20
0.0
 30
0.0
210
0.0
220
0.0
230
1.0
  2
SOLID
 70
     1
 71
     0
 91
        2
 92
       16
 93
        1
 72
     4
 94
        3
 73
     0
 74
     0
 95
       20
 96
       16
 40
0.0
 40
0.0
 40
0.0
 40
0.0
 40
1.0
 40
1.0
 40
1.0
 40
2.0
 40
2.0
 40
2.0
 40
3.0
 40
3.0
 40
3.0
 40
4.0
 40
4.0
 40
4.0
 40
5.0
 40
5.0
 40
5.0
 40
5.0
 10
33.34507921006944
 20
160.5783121744792
 10
33.34507921006944
 20
160.5783121744792
 10
34.09576551649305
 20
160.5783121744792
 10
34.09576551649305
 20
160.5783121744792
 10
34.78444010416666
 20
160.5783121744792
 10
35.06659342447917
 20
161.0919759114583
 10
35.02146267361111
 20
162.3566704644097
 10
34.98770073784722
 20
163.3216417100694
 10
34.85230848524305
 20
163.965185546875
 10
34.09576551649305
 20
163.965185546875
 10
34.09576551649305
 20
163.965185546875
 10
33.34507921006944
 20
163.965185546875
 10
33.34507921006944
 20
163.965185546875
 10
33.34507921006944
 20
163.965185546875
 10
33.34507921006944
 20
160.5783121744792
 10
33.34507921006944
 20
160.5783121744792
 97
        0
 92
        1
 93
        1
 72
     4
 94
        3
 73
     0
 74
     0
 95
       20
 96
       16
 40
0.0
 40
0.0
 40
0.0
 40
0.0
 40
1.0
 40
1.0
 40
1.0
 40
2.0
 40
2.0
 40
2.0
 40
3.0
 40
3.0
 40
3.0
 40
4.0
 40
4.0
 40
4.0
 40
5.0
 40
5.0
 40
5.0
 40
5.0
 10
32.87654622395833
 20
160.1552544487847
 10
32.87654622395833
 20
160.1552544487847
 10
32.87654622395833
 20
164.388587782118
 10
32.87654622395833
 20
164.388587782118
 10
32.87654622395833
 20
164.388587782118
 10
34.03926595052083
 20
164.388587782118
 10
34.03926595052083
 20
164.388587782118
 10
35.36011555989583
 20
164.388587782118
 10
35.54098307291666
 20
163.3161295572917
 10
35.50687662760416
 20
162.2719211154514
 10
35.47311469184027
 20
161.2387369791667
 10
35.26985405815972
 20
160.1552544487847
 10
34.12401529947916
 20
160.1552544487847
 10
34.12401529947916
 20
160.1552544487847
 10
32.87654622395833
 20
160.1552544487847
 10
32.87654622395833
 20
160.1552544487847
 97
        0
 75
     0
 76
     1
 98
        1
 10
0.0
 20
0.0
  0
HATCH
  5
59
330
A
100
AcDbEntity
  8
LAYER_1
 62
     7
100
AcDbHatch
 10
0.0
 20
0.0
 30
0.0
210
0.0
220
0.0
230
1.0
  2
SOLID
 70
     1
 71
     0
 91
        1
 92
        1
 93
        1
 72
     4
 94
        3
 73
     0
 74
     0
 95
       41
 96
       37
 40
0.0
 40
0.0
 40
0.0
 40
0.0
 40
1.0
 40
1.0
 40
1.0
 40
2.0
 40
2.0
 40
2.0
 40
3.0
 40
3.0
 40
3.0
 40
4.0
 40
4.0
 40
4.0
 40
5.0
 40
5.0
 40
5.0
 40
6.0
 40
6.0
 40
6.0
 40
7.0
 40
7.0
 40
7.0
 40
8.0
 40
8.0
 40
8.0
 40
9.0
 40
9.0
 40
9.0
 40
10.0
 40
10.0
 40
10.0
 40
11.0
 40
11.0
 40
11.0
 40
12.0
 40
12.0
 40
12.0
 40
12.0
 10
36.27926703559027
 20
160.1552544487847
 10
36.27926703559027
 20
160.1552544487847
 10
36.27926703559027
 20
164.388587782118
 10
36.27926703559027
 20
164.388587782118
 10
36.27926703559027
 20
164.388587782118
 10
38.39593370225694
 20
164.388587782118
 10
38.39593370225694
 20
164.388587782118
 10
38.39593370225694
 20
164.388587782118
 10
38.39593370225694
 20
163.965185546875
 10
38.39593370225694
 20
163.965185546875
 10
38.39593370225694
 20
163.965185546875
 10
36.74780002170139
 20
163.965185546875
 10
36.74780002170139
 20
163.965185546875
 10
36.74780002170139
 20
163.965185546875
 10
36.74780002170139
 20
162.565443250868
 10
36.74780002170139
 20
162.565443250868
 10
36.74780002170139
 20
162.565443250868
 10
38.29430338541666
 20
162.565443250868
 10
38.29430338541666
 20
162.565443250868
 10
38.29430338541666
 20
162.565443250868
 10
38.29430338541666
 20
162.142041015625
 10
38.29430338541666
 20
162.142041015625
 10
38.29430338541666
 20
162.142041015625
 10
36.74780002170139
 20
162.142041015625
 10
36.74780002170139
 20
162.142041015625
 10
36.74780002170139
 20
162.142041015625
 10
36.74780002170139
 20
160.5783121744792
 10
36.74780002170139
 20
160.5783121744792
 10
36.74780002170139
 20
160.5783121744792
 10
38.40730251736111
 20
160.5783121744792
 10
38.40730251736111
 20
160.5783121744792
 10
38.40730251736111
 20
160.5783121744792
 10
38.40730251736111
 20
160.1552544487847
 10
38.40730251736111
 20
160.1552544487847
 10
38.40730251736111
 20
160.1552544487847
 10
36.27926703559027
 20
160.1552544487847
 10
36.27926703559027
 20
160.1552544487847
 97
        0
 75
     0
 76
     1
 98
        1
 10
0.0
 20
0.0
  0
HATCH
  5
58
330
A
100
AcDbEntity
  8
LAYER_1
 62
     7
100
AcDbHatch
 10
0.0
 20
0.0
 30
0.0
210
0.0
220
0.0
230
1.0
  2
SOLID
 70
     1
 71
     0
 91
        1
 92
        1
 93
        1
 72
     4
 94
        3
 73
     0
 74
     0
 95
       32
 96
       28
 40
0.0
 40
0.0
 40
0.0
 40
0.0
 40
1.0
 40
1.0
 40
1.0
 40
2.0
 40
2.0
 40
2.0
 40
3.0
 40
3.0
 40
3.0
 40
4.0
 40
4.0
 40
4.0
 40
5.0
 40
5.0
 40
5.0
 40
6.0
 40
6.0
 40
6.0
 40
7.0
 40
7.0
 40
7.0
 40
8.0
 40
8.0
 40
8.0
 40
9.0
 40
9.0
 40
9.0
 40
9.0
 10
39.13525119357639
 20
160.1552544487847
 10
39.13525119357639
 20
160.1552544487847
 10
39.13525119357639
 20
160.7195610894097
 10
39.13525119357639
 20
160.7195610894097
 10
39.13525119357639
 20
160.7195610894097
 10
39.64925944010416
 20
160.7195610894097
 10
39.64925944010416
 20
160.7195610894097
 10
39.64925944010416
 20
160.6292995876736
 10
39.65477159288194
 20
160.2679090711806
 10
39.63203396267361
 20
160.0536241319444
 10
39.62652180989583
 20
159.8221137152778
 10
39.55865342881944
 20
159.5850911458333
 10
39.35573730468749
 20
159.4438422309028
 10
39.29338107638888
 20
159.3931993272569
 10
39.21448838975694
 20
159.359437391493
 10
39.13525119357639
 20
159.3311876085069
 10
39.13525119357639
 20
159.3311876085069
 10
39.13525119357639
 20
159.5850911458333
 10
39.13525119357639
 20
159.5850911458333
 10
39.17486979166667
 20
159.5906032986111
 10
39.23136935763888
 20
159.6188530815972
 10
39.26513129340277
 20
159.6584716796875
 10
39.38949924045139
 20
159.7938639322917
 10
39.41189236111111
 20
159.9802435980903
 10
39.41189236111111
 20
160.1552544487847
 10
39.41189236111111
 20
160.1552544487847
 10
39.13525119357639
 20
160.1552544487847
 10
39.13525119357639
 20
160.1552544487847
 97
        0
 75
     0
 76
     1
 98
        1
 10
0.0
 20
0.0
  0
HATCH
  5
57
330
A
100
AcDbEntity
  8
LAYER_1
 62
     7
100
AcDbHatch
 10
0.0
 20
0.0
 30
0.0
210
0.0
220
0.0
230
1.0
  2
SOLID
 70
     1
 71
     0
 91
        2
 92
       16
 93
        1
 72
     4
 94
        3
 73
     0
 74
     0
 95
       17
 96
       13
 40
0.0
 40
0.0
 40
0.0
 40
0.0
 40
1.0
 40
1.0
 40
1.0
 40
2.0
 40
2.0
 40
2.0
 40
3.0
 40
3.0
 40
3.0
 40
4.0
 40
4.0
 40
4.0
 40
4.0
 10
43.22216796874999
 20
164.0499348958333
 10
42.49938693576389
 20
164.0499348958333
 10
42.31886393229166
 20
163.2933919270833
 10
42.32472059461805
 20
162.3508138020833
 10
42.33023274739583
 20
161.1260823567708
 10
42.45425618489583
 20
160.4770263671875
 10
43.23319227430555
 20
160.4770263671875
 10
44.01212836371528
 20
160.4770263671875
 10
44.13649631076388
 20
161.1260823567708
 10
44.14200846354166
 20
162.3508138020833
 10
44.14786512586805
 20
163.2933919270833
 10
43.96699761284722
 20
164.0499348958333
 10
43.22216796874999
 20
164.0499348958333
 97
        0
 92
        1
 93
        1
 72
     4
 94
        3
 73
     0
 74
     0
 95
       17
 96
       13
 40
0.0
 40
0.0
 40
0.0
 40
0.0
 40
1.0
 40
1.0
 40
1.0
 40
2.0
 40
2.0
 40
2.0
 40
3.0
 40
3.0
 40
3.0
 40
4.0
 40
4.0
 40
4.0
 40
4.0
 10
43.24456108940972
 20
164.4733371310764
 10
44.48066134982638
 20
164.4733371310764
 10
44.6332790798611
 20
163.3330105251736
 10
44.62742241753472
 20
162.3621826171875
 10
44.62191026475694
 20
161.1880940755208
 10
44.46929253472222
 20
160.0536241319444
 10
43.23319227430555
 20
160.0536241319444
 10
41.99709201388889
 20
160.0536241319444
 10
41.85033094618055
 20
161.1880940755208
 10
41.83896213107639
 20
162.3621826171875
 10
41.83896213107639
 20
163.3330105251736
 10
41.98572319878472
 20
164.4733371310764
 10
43.24456108940972
 20
164.4733371310764
 97
        0
 75
     0
 76
     1
 98
        1
 10
0.0
 20
0.0
  0
HATCH
  5
56
330
A
100
AcDbEntity
  8
LAYER_1
 62
     7
100
AcDbHatch
 10
0.0
 20
0.0
 30
0.0
210
0.0
220
0.0
230
1.0
  2
SOLID
 70
     1
 71
     0
 91
        2
 92
       16
 93
        1
 72
     4
 94
        3
 73
     0
 74
     0
 95
       20
 96
       16
 40
0.0
 40
0.0
 40
0.0
 40
0.0
 40
1.0
 40
1.0
 40
1.0
 40
2.0
 40
2.0
 40
2.0
 40
3.0
 40
3.0
 40
3.0
 40
4.0
 40
4.0
 40
4.0
 40
5.0
 40
5.0
 40
5.0
 40
5.0
 10
45.90796440972222
 20
162.4410753038194
 10
45.90796440972222
 20
162.4410753038194
 10
46.64728190104167
 20
162.4410753038194
 10
46.64728190104167
 20
162.4410753038194
 10
46.86742350260416
 20
162.4469319661458
 10
47.47686089409722
 20
162.4806939019097
 10
47.46583658854166
 20
163.2200113932292
 10
47.45446777343749
 20
163.948304578993
 10
46.88430447048611
 20
163.965185546875
 10
46.56838921440972
 20
163.965185546875
 10
46.56838921440972
 20
163.965185546875
 10
45.90796440972222
 20
163.965185546875
 10
45.90796440972222
 20
163.965185546875
 10
45.90796440972222
 20
163.965185546875
 10
45.90796440972222
 20
162.4410753038194
 10
45.90796440972222
 20
162.4410753038194
 97
        0
 92
        1
 93
        1
 72
     4
 94
        3
 73
     0
 74
     0
 95
       50
 96
       46
 40
0.0
 40
0.0
 40
0.0
 40
0.0
 40
1.0
 40
1.0
 40
1.0
 40
2.0
 40
2.0
 40
2.0
 40
3.0
 40
3.0
 40
3.0
 40
4.0
 40
4.0
 40
4.0
 40
5.0
 40
5.0
 40
5.0
 40
6.0
 40
6.0
 40
6.0
 40
7.0
 40
7.0
 40
7.0
 40
8.0
 40
8.0
 40
8.0
 40
9.0
 40
9.0
 40
9.0
 40
10.0
 40
10.0
 40
10.0
 40
11.0
 40
11.0
 40
11.0
 40
12.0
 40
12.0
 40
12.0
 40
13.0
 40
13.0
 40
13.0
 40
14.0
 40
14.0
 40
14.0
 40
15.0
 40
15.0
 40
15.0
 40
15.0
 10
45.90796440972222
 20
160.1552544487847
 10
45.90796440972222
 20
160.1552544487847
 10
45.4394314236111
 20
160.1552544487847
 10
45.4394314236111
 20
160.1552544487847
 10
45.4394314236111
 20
160.1552544487847
 10
45.4394314236111
 20
164.388587782118
 10
45.4394314236111
 20
164.388587782118
 10
45.4394314236111
 20
164.388587782118
 10
46.52877061631944
 20
164.388587782118
 10
46.52877061631944
 20
164.388587782118
 10
47.41484917534722
 20
164.388587782118
 10
47.97950032552083
 20
164.1570773654514
 10
47.95125054253472
 20
163.1807373046875
 10
47.93436957465277
 20
162.6839545355903
 10
47.62947862413194
 20
162.3284206814236
 10
47.13820800781249
 20
162.2605523003472
 10
47.13820800781249
 20
162.2605523003472
 10
47.13820800781249
 20
162.249183485243
 10
47.13820800781249
 20
162.249183485243
 10
47.68597819010417
 20
162.1985405815972
 10
47.82137044270833
 20
162.0235297309028
 10
47.88923882378472
 20
161.4588785807292
 10
47.90611979166666
 20
161.1429633246528
 10
47.93436957465277
 20
160.8325602213542
 10
47.97950032552083
 20
160.5163004557292
 10
47.99638129340277
 20
160.4374077690972
 10
48.03014322916666
 20
160.2510281032986
 10
48.14314236111111
 20
160.2510281032986
 10
48.14314236111111
 20
160.2510281032986
 10
48.14314236111111
 20
160.1552544487847
 10
48.14314236111111
 20
160.1552544487847
 10
48.14314236111111
 20
160.1552544487847
 10
47.59571668836805
 20
160.1552544487847
 10
47.59571668836805
 20
160.1552544487847
 10
47.49408637152777
 20
160.426038953993
 10
47.44895562065972
 20
160.9510715060764
 10
47.44895562065972
 20
161.2332248263889
 10
47.44895562065972
 20
161.6566270616319
 10
47.27945692274305
 20
162.0176730685764
 10
46.7261745876736
 20
162.0176730685764
 10
46.7261745876736
 20
162.0176730685764
 10
45.90796440972222
 20
162.0176730685764
 10
45.90796440972222
 20
162.0176730685764
 10
45.90796440972222
 20
162.0176730685764
 10
45.90796440972222
 20
160.1552544487847
 10
45.90796440972222
 20
160.1552544487847
 97
        0
 75
     0
 76
     1
 98
        1
 10
0.0
 20
0.0
  0
HATCH
  5
55
330
A
100
AcDbEntity
  8
LAYER_1
 62
     7
100
AcDbHatch
 10
0.0
 20
0.0
 30
0.0
210
0.0
220
0.0
230
1.0
  2
SOLID
 70
     1
 71
     0
 91
        1
 92
        1
 93
        1
 72
     4
 94
        3
 73
     0
 74
     0
 95
       44
 96
       40
 40
0.0
 40
0.0
 40
0.0
 40
0.0
 40
1.0
 40
1.0
 40
1.0
 40
2.0
 40
2.0
 40
2.0
 40
3.0
 40
3.0
 40
3.0
 40
4.0
 40
4.0
 40
4.0
 40
5.0
 40
5.0
 40
5.0
 40
6.0
 40
6.0
 40
6.0
 40
7.0
 40
7.0
 40
7.0
 40
8.0
 40
8.0
 40
8.0
 40
9.0
 40
9.0
 40
9.0
 40
10.0
 40
10.0
 40
10.0
 40
11.0
 40
11.0
 40
11.0
 40
12.0
 40
12.0
 40
12.0
 40
13.0
 40
13.0
 40
13.0
 40
13.0
 10
52.18355034722222
 20
163.1183810763889
 10
52.17218153211805
 20
163.6210205078125
 10
52.00853949652777
 20
164.0499348958333
 10
51.42149522569444
 20
164.0499348958333
 10
50.60879720052083
 20
164.0499348958333
 10
50.59742838541666
 20
162.8927273220486
 10
50.59742838541666
 20
162.3339328342014
 10
50.57503526475694
 20
161.7582573784722
 10
50.56366644965277
 20
160.4770263671875
 10
51.42149522569444
 20
160.4770263671875
 10
51.98028971354166
 20
160.4770263671875
 10
52.09880099826388
 20
160.9341905381944
 10
52.15530056423611
 20
161.3968668619792
 10
52.16666937934027
 20
161.4929850260417
 10
52.17218153211805
 20
161.5887586805555
 10
52.18355034722222
 20
161.684876844618
 10
52.18355034722222
 20
161.684876844618
 10
52.65208333333333
 20
161.684876844618
 10
52.65208333333333
 20
161.684876844618
 10
52.64071451822916
 20
161.6001274956597
 10
52.64071451822916
 20
161.5098659939236
 10
52.629345703125
 20
161.4251166449653
 10
52.60109592013888
 20
161.0809516059028
 10
52.58421495225694
 20
160.82119140625
 10
52.38095431857639
 20
160.5276692708333
 10
52.16115722656249
 20
160.2227783203125
 10
51.86763509114583
 20
160.0536241319444
 10
51.46111382378471
 20
160.0536241319444
 10
50.15714518229166
 20
160.0536241319444
 10
50.11201443142361
 20
161.3121175130208
 10
50.11201443142361
 20
162.3225640190972
 10
50.11201443142361
 20
163.2765109592014
 10
50.25326334635416
 20
164.4733371310764
 10
51.45560167100694
 20
164.4733371310764
 10
52.25693088107639
 20
164.4733371310764
 10
52.67447645399305
 20
163.8749240451389
 10
52.65208333333333
 20
163.1183810763889
 10
52.65208333333333
 20
163.1183810763889
 10
52.18355034722222
 20
163.1183810763889
 10
52.18355034722222
 20
163.1183810763889
 97
        0
 75
     0
 76
     1
 98
        1
 10
0.0
 20
0.0
  0
HATCH
  5
54
330
A
100
AcDbEntity
  8
LAYER_1
 62
     7
100
AcDbHatch
 10
0.0
 20
0.0
 30
0.0
210
0.0
220
0.0
230
1.0
  2
SOLID
 70
     1
 71
     0
 91
        1
 92
        1
 93
        1
 72
     4
 94
        3
 73
     0
 74
     0
 95
       41
 96
       37
 40
0.0
 40
0.0
 40
0.0
 40
0.0
 40
1.0
 40
1.0
 40
1.0
 40
2.0
 40
2.0
 40
2.0
 40
3.0
 40
3.0
 40
3.0
 40
4.0
 40
4.0
 40
4.0
 40
5.0
 40
5.0
 40
5.0
 40
6.0
 40
6.0
 40
6.0
 40
7.0
 40
7.0
 40
7.0
 40
8.0
 40
8.0
 40
8.0
 40
9.0
 40
9.0
 40
9.0
 40
10.0
 40
10.0
 40
10.0
 40
11.0
 40
11.0
 40
11.0
 40
12.0
 40
12.0
 40
12.0
 40
12.0
 10
53.36831868489583
 20
160.1552544487847
 10
53.36831868489583
 20
160.1552544487847
 10
53.36831868489583
 20
164.388587782118
 10
53.36831868489583
 20
164.388587782118
 10
53.36831868489583
 20
164.388587782118
 10
55.48498535156249
 20
164.388587782118
 10
55.48498535156249
 20
164.388587782118
 10
55.48498535156249
 20
164.388587782118
 10
55.48498535156249
 20
163.965185546875
 10
55.48498535156249
 20
163.965185546875
 10
55.48498535156249
 20
163.965185546875
 10
53.83685167100694
 20
163.965185546875
 10
53.83685167100694
 20
163.965185546875
 10
53.83685167100694
 20
163.965185546875
 10
53.83685167100694
 20
162.565443250868
 10
53.83685167100694
 20
162.565443250868
 10
53.83685167100694
 20
162.565443250868
 10
55.38335503472221
 20
162.565443250868
 10
55.38335503472221
 20
162.565443250868
 10
55.38335503472221
 20
162.565443250868
 10
55.38335503472221
 20
162.142041015625
 10
55.38335503472221
 20
162.142041015625
 10
55.38335503472221
 20
162.142041015625
 10
53.83685167100694
 20
162.142041015625
 10
53.83685167100694
 20
162.142041015625
 10
53.83685167100694
 20
162.142041015625
 10
53.83685167100694
 20
160.5783121744792
 10
53.83685167100694
 20
160.5783121744792
 10
53.83685167100694
 20
160.5783121744792
 10
55.49635416666666
 20
160.5783121744792
 10
55.49635416666666
 20
160.5783121744792
 10
55.49635416666666
 20
160.5783121744792
 10
55.49635416666666
 20
160.1552544487847
 10
55.49635416666666
 20
160.1552544487847
 10
55.49635416666666
 20
160.1552544487847
 10
53.36831868489583
 20
160.1552544487847
 10
53.36831868489583
 20
160.1552544487847
 97
        0
 75
     0
 76
     1
 98
        1
 10
0.0
 20
0.0
  0
HATCH
  5
53
330
A
100
AcDbEntity
  8
LAYER_1
 62
     7
100
AcDbHatch
 10
0.0
 20
0.0
 30
0.0
210
0.0
220
0.0
230
1.0
  2
SOLID
 70
     1
 71
     0
 91
        1
 92
        1
 93
        1
 72
     4
 94
        3
 73
     0
 74
     0
 95
       53
 96
       49
 40
0.0
 40
0.0
 40
0.0
 40
0.0
 40
1.0
 40
1.0
 40
1.0
 40
2.0
 40
2.0
 40
2.0
 40
3.0
 40
3.0
 40
3.0
 40
4.0
 40
4.0
 40
4.0
 40
5.0
 40
5.0
 40
5.0
 40
6.0
 40
6.0
 40
6.0
 40
7.0
 40
7.0
 40
7.0
 40
8.0
 40
8.0
 40
8.0
 40
9.0
 40
9.0
 40
9.0
 40
10.0
 40
10.0
 40
10.0
 40
11.0
 40
11.0
 40
11.0
 40
12.0
 40
12.0
 40
12.0
 40
13.0
 40
13.0
 40
13.0
 40
14.0
 40
14.0
 40
14.0
 40
15.0
 40
15.0
 40
15.0
 40
16.0
 40
16.0
 40
16.0
 40
16.0
 10
58.31857638888889
 20
164.388587782118
 10
58.31857638888889
 20
164.388587782118
 10
58.78710937499999
 20
164.388587782118
 10
58.78710937499999
 20
164.388587782118
 10
58.78710937499999
 20
164.388587782118
 10
58.78710937499999
 20
160.1552544487847
 10
58.78710937499999
 20
160.1552544487847
 10
58.78710937499999
 20
160.1552544487847
 10
58.01954210069444
 20
160.1552544487847
 10
58.01954210069444
 20
160.1552544487847
 10
58.01954210069444
 20
160.1552544487847
 10
56.8340847439236
 20
163.5417833116319
 10
56.8340847439236
 20
163.5417833116319
 10
56.76621636284722
 20
163.7336751302083
 10
56.71557345920139
 20
163.9255669487847
 10
56.67595486111111
 20
164.1798149956597
 10
56.67595486111111
 20
164.1798149956597
 10
56.66493055555555
 20
164.1798149956597
 10
56.66493055555555
 20
164.1798149956597
 10
56.67044270833333
 20
163.965185546875
 10
56.67595486111111
 20
163.7450439453125
 10
56.67595486111111
 20
163.5307590060764
 10
56.67595486111111
 20
163.5307590060764
 10
56.67595486111111
 20
160.1552544487847
 10
56.67595486111111
 20
160.1552544487847
 10
56.67595486111111
 20
160.1552544487847
 10
56.20742187499999
 20
160.1552544487847
 10
56.20742187499999
 20
160.1552544487847
 10
56.20742187499999
 20
160.1552544487847
 10
56.20742187499999
 20
164.388587782118
 10
56.20742187499999
 20
164.388587782118
 10
56.20742187499999
 20
164.388587782118
 10
56.96947699652777
 20
164.388587782118
 10
56.96947699652777
 20
164.388587782118
 10
56.96947699652777
 20
164.388587782118
 10
58.17181532118055
 20
160.9228217230903
 10
58.17181532118055
 20
160.9228217230903
 10
58.22245822482638
 20
160.7929416232639
 10
58.26207682291666
 20
160.6575493706597
 10
58.31857638888889
 20
160.4598008897569
 10
58.31857638888889
 20
160.4598008897569
 10
58.32994520399305
 20
160.4598008897569
 10
58.32994520399305
 20
160.4598008897569
 10
58.32408854166666
 20
160.6124186197916
 10
58.31857638888889
 20
160.7760606553819
 10
58.31857638888889
 20
160.9341905381944
 10
58.31857638888889
 20
160.9341905381944
 10
58.31857638888889
 20
164.388587782118
 10
58.31857638888889
 20
164.388587782118
 97
        0
 75
     0
 76
     1
 98
        1
 10
0.0
 20
0.0
  0
HATCH
  5
52
330
A
100
AcDbEntity
  8
LAYER_1
 62
     7
100
AcDbHatch
 10
0.0
 20
0.0
 30
0.0
210
0.0
220
0.0
230
1.0
  2
SOLID
 70
     1
 71
     0
 91
        1
 92
        1
 93
        1
 72
     4
 94
        3
 73
     0
 74
     0
 95
       29
 96
       25
 40
0.0
 40
0.0
 40
0.0
 40
0.0
 40
1.0
 40
1.0
 40
1.0
 40
2.0
 40
2.0
 40
2.0
 40
3.0
 40
3.0
 40
3.0
 40
4.0
 40
4.0
 40
4.0
 40
5.0
 40
5.0
 40
5.0
 40
6.0
 40
6.0
 40
6.0
 40
7.0
 40
7.0
 40
7.0
 40
8.0
 40
8.0
 40
8.0
 40
8.0
 10
59.30559624565971
 20
164.388587782118
 10
59.30559624565971
 20
164.388587782118
 10
61.96383192274305
 20
164.388587782118
 10
61.96383192274305
 20
164.388587782118
 10
61.96383192274305
 20
164.388587782118
 10
61.96383192274305
 20
163.965185546875
 10
61.96383192274305
 20
163.965185546875
 10
61.96383192274305
 20
163.965185546875
 10
60.86898057725694
 20
163.965185546875
 10
60.86898057725694
 20
163.965185546875
 10
60.86898057725694
 20
163.965185546875
 10
60.86898057725694
 20
160.1552544487847
 10
60.86898057725694
 20
160.1552544487847
 10
60.86898057725694
 20
160.1552544487847
 10
60.40044759114583
 20
160.1552544487847
 10
60.40044759114583
 20
160.1552544487847
 10
60.40044759114583
 20
160.1552544487847
 10
60.40044759114583
 20
163.965185546875
 10
60.40044759114583
 20
163.965185546875
 10
60.40044759114583
 20
163.965185546875
 10
59.30559624565971
 20
163.965185546875
 10
59.30559624565971
 20
163.965185546875
 10
59.30559624565971
 20
163.965185546875
 10
59.30559624565971
 20
164.388587782118
 10
59.30559624565971
 20
164.388587782118
 97
        0
 75
     0
 76
     1
 98
        1
 10
0.0
 20
0.0
  0
HATCH
  5
51
330
A
100
AcDbEntity
  8
LAYER_1
 62
     7
100
AcDbHatch
 10
0.0
 20
0.0
 30
0.0
210
0.0
220
0.0
230
1.0
  2
SOLID
 70
     1
 71
     0
 91
        1
 92
        1
 93
        1
 72
     4
 94
        3
 73
     0
 74
     0
 95
       41
 96
       37
 40
0.0
 40
0.0
 40
0.0
 40
0.0
 40
1.0
 40
1.0
 40
1.0
 40
2.0
 40
2.0
 40
2.0
 40
3.0
 40
3.0
 40
3.0
 40
4.0
 40
4.0
 40
4.0
 40
5.0
 40
5.0
 40
5.0
 40
6.0
 40
6.0
 40
6.0
 40
7.0
 40
7.0
 40
7.0
 40
8.0
 40
8.0
 40
8.0
 40
9.0
 40
9.0
 40
9.0
 40
10.0
 40
10.0
 40
10.0
 40
11.0
 40
11.0
 40
11.0
 40
12.0
 40
12.0
 40
12.0
 40
12.0
 10
62.46061469184027
 20
160.1552544487847
 10
62.46061469184027
 20
160.1552544487847
 10
62.46061469184027
 20
164.388587782118
 10
62.46061469184027
 20
164.388587782118
 10
62.46061469184027
 20
164.388587782118
 10
64.57728135850694
 20
164.388587782118
 10
64.57728135850694
 20
164.388587782118
 10
64.57728135850694
 20
164.388587782118
 10
64.57728135850694
 20
163.965185546875
 10
64.57728135850694
 20
163.965185546875
 10
64.57728135850694
 20
163.965185546875
 10
62.92914767795138
 20
163.965185546875
 10
62.92914767795138
 20
163.965185546875
 10
62.92914767795138
 20
163.965185546875
 10
62.92914767795138
 20
162.565443250868
 10
62.92914767795138
 20
162.565443250868
 10
62.92914767795138
 20
162.565443250868
 10
64.47565104166667
 20
162.565443250868
 10
64.47565104166667
 20
162.565443250868
 10
64.47565104166667
 20
162.565443250868
 10
64.47565104166667
 20
162.142041015625
 10
64.47565104166667
 20
162.142041015625
 10
64.47565104166667
 20
162.142041015625
 10
62.92914767795138
 20
162.142041015625
 10
62.92914767795138
 20
162.142041015625
 10
62.92914767795138
 20
162.142041015625
 10
62.92914767795138
 20
160.5783121744792
 10
62.92914767795138
 20
160.5783121744792
 10
62.92914767795138
 20
160.5783121744792
 10
64.5886501736111
 20
160.5783121744792
 10
64.5886501736111
 20
160.5783121744792
 10
64.5886501736111
 20
160.5783121744792
 10
64.5886501736111
 20
160.1552544487847
 10
64.5886501736111
 20
160.1552544487847
 10
64.5886501736111
 20
160.1552544487847
 10
62.46061469184027
 20
160.1552544487847
 10
62.46061469184027
 20
160.1552544487847
 97
        0
 75
     0
 76
     1
 98
        1
 10
0.0
 20
0.0
  0
HATCH
  5
50
330
A
100
AcDbEntity
  8
LAYER_1
 62
     7
100
AcDbHatch
 10
0.0
 20
0.0
 30
0.0
210
0.0
220
0.0
230
1.0
  2
SOLID
 70
     1
 71
     0
 91
        2
 92
       16
 93
        1
 72
     4
 94
        3
 73
     0
 74
     0
 95
       20
 96
       16
 40
0.0
 40
0.0
 40
0.0
 40
0.0
 40
1.0
 40
1.0
 40
1.0
 40
2.0
 40
2.0
 40
2.0
 40
3.0
 40
3.0
 40
3.0
 40
4.0
 40
4.0
 40
4.0
 40
5.0
 40
5.0
 40
5.0
 40
5.0
 10
65.81923828124999
 20
162.4410753038194
 10
65.81923828124999
 20
162.4410753038194
 10
66.55855577256943
 20
162.4410753038194
 10
66.55855577256943
 20
162.4410753038194
 10
66.77869737413194
 20
162.4469319661458
 10
67.388134765625
 20
162.4806939019097
 10
67.37711046006943
 20
163.2200113932292
 10
67.36574164496527
 20
163.948304578993
 10
66.79557834201388
 20
163.965185546875
 10
66.47966308593749
 20
163.965185546875
 10
66.47966308593749
 20
163.965185546875
 10
65.81923828124999
 20
163.965185546875
 10
65.81923828124999
 20
163.965185546875
 10
65.81923828124999
 20
163.965185546875
 10
65.81923828124999
 20
162.4410753038194
 10
65.81923828124999
 20
162.4410753038194
 97
        0
 92
        1
 93
        1
 72
     4
 94
        3
 73
     0
 74
     0
 95
       50
 96
       46
 40
0.0
 40
0.0
 40
0.0
 40
0.0
 40
1.0
 40
1.0
 40
1.0
 40
2.0
 40
2.0
 40
2.0
 40
3.0
 40
3.0
 40
3.0
 40
4.0
 40
4.0
 40
4.0
 40
5.0
 40
5.0
 40
5.0
 40
6.0
 40
6.0
 40
6.0
 40
7.0
 40
7.0
 40
7.0
 40
8.0
 40
8.0
 40
8.0
 40
9.0
 40
9.0
 40
9.0
 40
10.0
 40
10.0
 40
10.0
 40
11.0
 40
11.0
 40
11.0
 40
12.0
 40
12.0
 40
12.0
 40
13.0
 40
13.0
 40
13.0
 40
14.0
 40
14.0
 40
14.0
 40
15.0
 40
15.0
 40
15.0
 40
15.0
 10
65.81923828124999
 20
160.1552544487847
 10
65.81923828124999
 20
160.1552544487847
 10
65.35070529513888
 20
160.1552544487847
 10
65.35070529513888
 20
160.1552544487847
 10
65.35070529513888
 20
160.1552544487847
 10
65.35070529513888
 20
164.388587782118
 10
65.35070529513888
 20
164.388587782118
 10
65.35070529513888
 20
164.388587782118
 10
66.44004448784722
 20
164.388587782118
 10
66.44004448784722
 20
164.388587782118
 10
67.326123046875
 20
164.388587782118
 10
67.8907741970486
 20
164.1570773654514
 10
67.86252441406249
 20
163.1807373046875
 10
67.84564344618055
 20
162.6839545355903
 10
67.54075249565972
 20
162.3284206814236
 10
67.04948187934028
 20
162.2605523003472
 10
67.04948187934028
 20
162.2605523003472
 10
67.04948187934028
 20
162.249183485243
 10
67.04948187934028
 20
162.249183485243
 10
67.59725206163193
 20
162.1985405815972
 10
67.73264431423611
 20
162.0235297309028
 10
67.80051269531249
 20
161.4588785807292
 10
67.81739366319444
 20
161.1429633246528
 10
67.84564344618055
 20
160.8325602213542
 10
67.8907741970486
 20
160.5163004557292
 10
67.90765516493055
 20
160.4374077690972
 10
67.94141710069444
 20
160.2510281032986
 10
68.05441623263889
 20
160.2510281032986
 10
68.05441623263889
 20
160.2510281032986
 10
68.05441623263889
 20
160.1552544487847
 10
68.05441623263889
 20
160.1552544487847
 10
68.05441623263889
 20
160.1552544487847
 10
67.50699055989583
 20
160.1552544487847
 10
67.50699055989583
 20
160.1552544487847
 10
67.40536024305555
 20
160.426038953993
 10
67.3602294921875
 20
160.9510715060764
 10
67.3602294921875
 20
161.2332248263889
 10
67.3602294921875
 20
161.6566270616319
 10
67.19073079427083
 20
162.0176730685764
 10
66.63744845920138
 20
162.0176730685764
 10
66.63744845920138
 20
162.0176730685764
 10
65.81923828124999
 20
162.0176730685764
 10
65.81923828124999
 20
162.0176730685764
 10
65.81923828124999
 20
162.0176730685764
 10
65.81923828124999
 20
160.1552544487847
 10
65.81923828124999
 20
160.1552544487847
 97
        0
 75
     0
 76
     1
 98
        1
 10
0.0
 20
0.0
  0
HATCH
  5
4F
330
A
100
AcDbEntity
  8
LAYER_1
 62
     7
100
AcDbHatch
 10
0.0
 20
0.0
 30
0.0
210
0.0
220
0.0
230
1.0
  2
SOLID
 70
     1
 71
     0
 91
        1
 92
        1
 93
        1
 72
     4
 94
        3
 73
     0
 74
     0
 95
       35
 96
       31
 40
0.0
 40
0.0
 40
0.0
 40
0.0
 40
1.0
 40
1.0
 40
1.0
 40
2.0
 40
2.0
 40
2.0
 40
3.0
 40
3.0
 40
3.0
 40
4.0
 40
4.0
 40
4.0
 40
5.0
 40
5.0
 40
5.0
 40
6.0
 40
6.0
 40
6.0
 40
7.0
 40
7.0
 40
7.0
 40
8.0
 40
8.0
 40
8.0
 40
9.0
 40
9.0
 40
9.0
 40
10.0
 40
10.0
 40
10.0
 40
10.0
 10
14.80254177517361
 20
154.863587782118
 10
14.80254177517361
 20
154.863587782118
 10
14.80254177517361
 20
159.0969211154514
 10
14.80254177517361
 20
159.0969211154514
 10
14.80254177517361
 20
159.0969211154514
 10
16.78932834201389
 20
159.0969211154514
 10
16.78932834201389
 20
159.0969211154514
 10
16.78932834201389
 20
159.0969211154514
 10
16.78932834201389
 20
158.6735188802083
 10
16.78932834201389
 20
158.6735188802083
 10
16.78932834201389
 20
158.6735188802083
 10
15.27107476128472
 20
158.6735188802083
 10
15.27107476128472
 20
158.6735188802083
 10
15.27107476128472
 20
158.6735188802083
 10
15.27107476128472
 20
157.2851453993056
 10
15.27107476128472
 20
157.2851453993056
 10
15.27107476128472
 20
157.2851453993056
 10
16.68218587239583
 20
157.2851453993056
 10
16.68218587239583
 20
157.2851453993056
 10
16.68218587239583
 20
157.2851453993056
 10
16.68218587239583
 20
156.8617431640625
 10
16.68218587239583
 20
156.8617431640625
 10
16.68218587239583
 20
156.8617431640625
 10
15.27107476128472
 20
156.8617431640625
 10
15.27107476128472
 20
156.8617431640625
 10
15.27107476128472
 20
156.8617431640625
 10
15.27107476128472
 20
154.863587782118
 10
15.27107476128472
 20
154.863587782118
 10
15.27107476128472
 20
154.863587782118
 10
14.80254177517361
 20
154.863587782118
 10
14.80254177517361
 20
154.863587782118
 97
        0
 75
     0
 76
     1
 98
        1
 10
0.0
 20
0.0
  0
HATCH
  5
4E
330
A
100
AcDbEntity
  8
LAYER_1
 62
     7
100
AcDbHatch
 10
0.0
 20
0.0
 30
0.0
210
0.0
220
0.0
230
1.0
  2
SOLID
 70
     1
 71
     0
 91
        1
 92
        1
 93
        1
 72
     4
 94
        3
 73
     0
 74
     0
 95
       23
 96
       19
 40
0.0
 40
0.0
 40
0.0
 40
0.0
 40
1.0
 40
1.0
 40
1.0
 40
2.0
 40
2.0
 40
2.0
 40
3.0
 40
3.0
 40
3.0
 40
4.0
 40
4.0
 40
4.0
 40
5.0
 40
5.0
 40
5.0
 40
6.0
 40
6.0
 40
6.0
 40
6.0
 10
17.35880262586806
 20
154.863587782118
 10
17.35880262586806
 20
154.863587782118
 10
17.35880262586806
 20
159.0969211154514
 10
17.35880262586806
 20
159.0969211154514
 10
17.35880262586806
 20
159.0969211154514
 10
17.82733561197917
 20
159.0969211154514
 10
17.82733561197917
 20
159.0969211154514
 10
17.82733561197917
 20
159.0969211154514
 10
17.82733561197917
 20
155.2866455078125
 10
17.82733561197917
 20
155.2866455078125
 10
17.82733561197917
 20
155.2866455078125
 10
19.55436197916666
 20
155.2866455078125
 10
19.55436197916666
 20
155.2866455078125
 10
19.55436197916666
 20
155.2866455078125
 10
19.55436197916666
 20
154.863587782118
 10
19.55436197916666
 20
154.863587782118
 10
19.55436197916666
 20
154.863587782118
 10
17.35880262586806
 20
154.863587782118
 10
17.35880262586806
 20
154.863587782118
 97
        0
 75
     0
 76
     1
 98
        1
 10
0.0
 20
0.0
  0
HATCH
  5
4D
330
A
100
AcDbEntity
  8
LAYER_1
 62
     7
100
AcDbHatch
 10
0.0
 20
0.0
 30
0.0
210
0.0
220
0.0
230
1.0
  2
SOLID
 70
     1
 71
     0
 91
        1
 92
        1
 93
        1
 72
     4
 94
        3
 73
     0
 74
     0
 95
       35
 96
       31
 40
0.0
 40
0.0
 40
0.0
 40
0.0
 40
1.0
 40
1.0
 40
1.0
 40
2.0
 40
2.0
 40
2.0
 40
3.0
 40
3.0
 40
3.0
 40
4.0
 40
4.0
 40
4.0
 40
5.0
 40
5.0
 40
5.0
 40
6.0
 40
6.0
 40
6.0
 40
7.0
 40
7.0
 40
7.0
 40
8.0
 40
8.0
 40
8.0
 40
9.0
 40
9.0
 40
9.0
 40
10.0
 40
10.0
 40
10.0
 40
10.0
 10
20.16965603298611
 20
159.0969211154514
 10
20.16965603298611
 20
159.0969211154514
 10
20.63818901909722
 20
159.0969211154514
 10
20.63818901909722
 20
159.0969211154514
 10
20.63818901909722
 20
159.0969211154514
 10
20.63818901909722
 20
156.0545572916666
 10
20.63818901909722
 20
156.0545572916666
 10
20.63233235677083
 20
155.7214165581597
 10
20.68883192274305
 20
155.1853597005208
 10
21.43951822916667
 20
155.1853597005208
 10
22.19020453559028
 20
155.1853597005208
 10
22.2467041015625
 20
155.7214165581597
 10
22.24119194878472
 20
156.0545572916666
 10
22.24119194878472
 20
156.0545572916666
 10
22.24119194878472
 20
159.0969211154514
 10
22.24119194878472
 20
159.0969211154514
 10
22.24119194878472
 20
159.0969211154514
 10
22.70972493489583
 20
159.0969211154514
 10
22.70972493489583
 20
159.0969211154514
 10
22.70972493489583
 20
159.0969211154514
 10
22.70972493489583
 20
155.88505859375
 10
22.70972493489583
 20
155.88505859375
 10
22.70972493489583
 20
155.1288601345486
 10
22.20743001302083
 20
154.7619574652778
 10
21.43951822916667
 20
154.7619574652778
 10
20.67195095486111
 20
154.7619574652778
 10
20.16965603298611
 20
155.1288601345486
 10
20.16965603298611
 20
155.88505859375
 10
20.16965603298611
 20
155.88505859375
 10
20.16965603298611
 20
159.0969211154514
 10
20.16965603298611
 20
159.0969211154514
 97
        0
 75
     0
 76
     1
 98
        1
 10
0.0
 20
0.0
  0
HATCH
  5
4C
330
A
100
AcDbEntity
  8
LAYER_1
 62
     7
100
AcDbHatch
 10
0.0
 20
0.0
 30
0.0
210
0.0
220
0.0
230
1.0
  2
SOLID
 70
     1
 71
     0
 91
        1
 92
        1
 93
        1
 72
     4
 94
        3
 73
     0
 74
     0
 95
       56
 96
       52
 40
0.0
 40
0.0
 40
0.0
 40
0.0
 40
1.0
 40
1.0
 40
1.0
 40
2.0
 40
2.0
 40
2.0
 40
3.0
 40
3.0
 40
3.0
 40
4.0
 40
4.0
 40
4.0
 40
5.0
 40
5.0
 40
5.0
 40
6.0
 40
6.0
 40
6.0
 40
7.0
 40
7.0
 40
7.0
 40
8.0
 40
8.0
 40
8.0
 40
9.0
 40
9.0
 40
9.0
 40
10.0
 40
10.0
 40
10.0
 40
11.0
 40
11.0
 40
11.0
 40
12.0
 40
12.0
 40
12.0
 40
13.0
 40
13.0
 40
13.0
 40
14.0
 40
14.0
 40
14.0
 40
15.0
 40
15.0
 40
15.0
 40
16.0
 40
16.0
 40
16.0
 40
17.0
 40
17.0
 40
17.0
 40
17.0
 10
25.41791449652778
 20
157.9848442925347
 10
25.45202094184027
 20
158.4251274956597
 10
25.21499837239583
 20
158.7582682291667
 10
24.74646538628472
 20
158.7582682291667
 10
24.06330295138889
 20
158.7582682291667
 10
23.98992241753472
 20
158.3293538411458
 10
23.98992241753472
 20
158.0017252604167
 10
23.98992241753472
 20
157.708203125
 10
24.11980251736111
 20
157.5276801215278
 10
24.39058702256944
 20
157.4260498046875
 10
24.61658528645833
 20
157.3413004557291
 10
24.83672688802083
 20
157.2568956163194
 10
25.06238064236111
 20
157.1721462673611
 10
25.86405436197916
 20
156.8731119791667
 10
26.0108154296875
 20
156.5906141493055
 10
26.0108154296875
 20
156.0318196614583
 10
26.0108154296875
 20
155.2304904513889
 10
25.5085205078125
 20
154.7619574652778
 10
24.69547797309028
 20
154.7619574652778
 10
24.27793240017361
 20
154.7619574652778
 10
23.78114963107639
 20
154.88046875
 10
23.53827039930555
 20
155.4334065755208
 10
23.44800889756944
 20
155.6425238715278
 10
23.45386555989583
 20
155.9811767578125
 10
23.44800889756944
 20
156.2068305121528
 10
23.44800889756944
 20
156.2068305121528
 10
23.91654188368056
 20
156.2068305121528
 10
23.91654188368056
 20
156.2068305121528
 10
23.89414876302083
 20
155.5801676432292
 10
24.01266004774305
 20
155.1853597005208
 10
24.71821560329861
 20
155.1853597005208
 10
25.1922607421875
 20
155.1853597005208
 10
25.52540147569444
 20
155.427894422743
 10
25.52540147569444
 20
155.9246771918403
 10
25.52540147569444
 20
156.5682210286458
 10
25.26564127604166
 20
156.5737331814236
 10
24.83672688802083
 20
156.7373752170139
 10
24.60521647135417
 20
156.82763671875
 10
24.23280164930555
 20
156.9461480034722
 10
24.00680338541666
 20
157.065003797743
 10
23.60613878038194
 20
157.267919921875
 10
23.50450846354167
 20
157.6065728081597
 10
23.50450846354167
 20
158.024462890625
 10
23.50450846354167
 20
158.7241617838542
 10
23.99577907986111
 20
159.1816704644097
 10
24.68410915798611
 20
159.1816704644097
 10
25.45753309461805
 20
159.1816704644097
 10
25.93157823350694
 20
158.7806613498264
 10
25.88644748263889
 20
157.9848442925347
 10
25.88644748263889
 20
157.9848442925347
 10
25.41791449652778
 20
157.9848442925347
 10
25.41791449652778
 20
157.9848442925347
 97
        0
 75
     0
 76
     1
 98
        1
 10
0.0
 20
0.0
  0
HATCH
  5
4B
330
A
100
AcDbEntity
  8
LAYER_1
 62
     7
100
AcDbHatch
 10
0.0
 20
0.0
 30
0.0
210
0.0
220
0.0
230
1.0
  2
SOLID
 70
     1
 71
     0
 91
        1
 92
        1
 93
        1
 72
     4
 94
        3
 73
     0
 74
     0
 95
       41
 96
       37
 40
0.0
 40
0.0
 40
0.0
 40
0.0
 40
1.0
 40
1.0
 40
1.0
 40
2.0
 40
2.0
 40
2.0
 40
3.0
 40
3.0
 40
3.0
 40
4.0
 40
4.0
 40
4.0
 40
5.0
 40
5.0
 40
5.0
 40
6.0
 40
6.0
 40
6.0
 40
7.0
 40
7.0
 40
7.0
 40
8.0
 40
8.0
 40
8.0
 40
9.0
 40
9.0
 40
9.0
 40
10.0
 40
10.0
 40
10.0
 40
11.0
 40
11.0
 40
11.0
 40
12.0
 40
12.0
 40
12.0
 40
12.0
 10
26.74393174913194
 20
154.863587782118
 10
26.74393174913194
 20
154.863587782118
 10
26.74393174913194
 20
159.0969211154514
 10
26.74393174913194
 20
159.0969211154514
 10
26.74393174913194
 20
159.0969211154514
 10
27.21246473524305
 20
159.0969211154514
 10
27.21246473524305
 20
159.0969211154514
 10
27.21246473524305
 20
159.0969211154514
 10
27.21246473524305
 20
157.3302761501736
 10
27.21246473524305
 20
157.3302761501736
 10
27.21246473524305
 20
157.3302761501736
 10
28.8323486328125
 20
157.3302761501736
 10
28.8323486328125
 20
157.3302761501736
 10
28.8323486328125
 20
157.3302761501736
 10
28.8323486328125
 20
159.0969211154514
 10
28.8323486328125
 20
159.0969211154514
 10
28.8323486328125
 20
159.0969211154514
 10
29.30088161892361
 20
159.0969211154514
 10
29.30088161892361
 20
159.0969211154514
 10
29.30088161892361
 20
159.0969211154514
 10
29.30088161892361
 20
154.863587782118
 10
29.30088161892361
 20
154.863587782118
 10
29.30088161892361
 20
154.863587782118
 10
28.8323486328125
 20
154.863587782118
 10
28.8323486328125
 20
154.863587782118
 10
28.8323486328125
 20
154.863587782118
 10
28.8323486328125
 20
156.9068739149305
 10
28.8323486328125
 20
156.9068739149305
 10
28.8323486328125
 20
156.9068739149305
 10
27.21246473524305
 20
156.9068739149305
 10
27.21246473524305
 20
156.9068739149305
 10
27.21246473524305
 20
156.9068739149305
 10
27.21246473524305
 20
154.863587782118
 10
27.21246473524305
 20
154.863587782118
 10
27.21246473524305
 20
154.863587782118
 10
26.74393174913194
 20
154.863587782118
 10
26.74393174913194
 20
154.863587782118
 97
        0
 75
     0
 76
     1
 98
        1
 10
0.0
 20
0.0
  0
HATCH
  5
4A
330
A
100
AcDbEntity
  8
LAYER_1
 62
     7
100
AcDbHatch
 10
0.0
 20
0.0
 30
0.0
210
0.0
220
0.0
230
1.0
  2
SOLID
 70
     1
 71
     0
 91
        1
 92
        1
 93
        1
 72
     4
 94
        3
 73
     0
 74
     0
 95
       71
 96
       67
 40
0.0
 40
0.0
 40
0.0
 40
0.0
 40
1.0
 40
1.0
 40
1.0
 40
2.0
 40
2.0
 40
2.0
 40
3.0
 40
3.0
 40
3.0
 40
4.0
 40
4.0
 40
4.0
 40
5.0
 40
5.0
 40
5.0
 40
6.0
 40
6.0
 40
6.0
 40
7.0
 40
7.0
 40
7.0
 40
8.0
 40
8.0
 40
8.0
 40
9.0
 40
9.0
 40
9.0
 40
10.0
 40
10.0
 40
10.0
 40
11.0
 40
11.0
 40
11.0
 40
12.0
 40
12.0
 40
12.0
 40
13.0
 40
13.0
 40
13.0
 40
14.0
 40
14.0
 40
14.0
 40
15.0
 40
15.0
 40
15.0
 40
16.0
 40
16.0
 40
16.0
 40
17.0
 40
17.0
 40
17.0
 40
18.0
 40
18.0
 40
18.0
 40
19.0
 40
19.0
 40
19.0
 40
20.0
 40
20.0
 40
20.0
 40
21.0
 40
21.0
 40
21.0
 40
22.0
 40
22.0
 40
22.0
 40
22.0
 10
32.73736436631944
 20
154.863587782118
 10
32.73736436631944
 20
154.863587782118
 10
32.1561767578125
 20
154.863587782118
 10
32.1561767578125
 20
154.863587782118
 10
32.1561767578125
 20
154.863587782118
 10
31.25287272135416
 20
159.0969211154514
 10
31.25287272135416
 20
159.0969211154514
 10
31.25287272135416
 20
159.0969211154514
 10
31.77239312065972
 20
159.0969211154514
 10
31.77239312065972
 20
159.0969211154514
 10
31.77239312065972
 20
159.0969211154514
 10
32.32533094618055
 20
156.1785807291666
 10
32.32533094618055
 20
156.1785807291666
 10
32.376318359375
 20
155.8909152560764
 10
32.41559244791667
 20
155.5973931206597
 10
32.44969889322916
 20
155.2022406684028
 10
32.44969889322916
 20
155.2022406684028
 10
32.46072319878472
 20
155.2022406684028
 10
32.46072319878472
 20
155.2022406684028
 10
32.500341796875
 20
155.5295247395833
 10
32.53410373263888
 20
155.8399278428819
 10
32.59645996093749
 20
156.1448187934028
 10
32.59645996093749
 20
156.1448187934028
 10
33.21726616753472
 20
159.0969211154514
 10
33.21726616753472
 20
159.0969211154514
 10
33.21726616753472
 20
159.0969211154514
 10
33.79879828559027
 20
159.0969211154514
 10
33.79879828559027
 20
159.0969211154514
 10
33.79879828559027
 20
159.0969211154514
 10
34.3575927734375
 20
156.1785807291666
 10
34.3575927734375
 20
156.1785807291666
 10
34.40823567708333
 20
155.8964274088542
 10
34.44199761284722
 20
155.6142740885417
 10
34.4816162109375
 20
155.2022406684028
 10
34.4816162109375
 20
155.2022406684028
 10
34.49298502604167
 20
155.2022406684028
 10
34.49298502604167
 20
155.2022406684028
 10
34.53225911458333
 20
155.5295247395833
 10
34.56636555989583
 20
155.8399278428819
 10
34.62837727864583
 20
156.1448187934028
 10
34.62837727864583
 20
156.1448187934028
 10
35.24367133246528
 20
159.0969211154514
 10
35.24367133246528
 20
159.0969211154514
 10
35.24367133246528
 20
159.0969211154514
 10
35.76284722222222
 20
159.0969211154514
 10
35.76284722222222
 20
159.0969211154514
 10
35.76284722222222
 20
159.0969211154514
 10
34.76962619357639
 20
154.863587782118
 10
34.76962619357639
 20
154.863587782118
 10
34.76962619357639
 20
154.863587782118
 10
34.18809407552083
 20
154.863587782118
 10
34.18809407552083
 20
154.863587782118
 10
34.18809407552083
 20
154.863587782118
 10
33.62378743489583
 20
157.7364529079861
 10
33.62378743489583
 20
157.7364529079861
 10
33.56728786892361
 20
158.0130940755208
 10
33.53318142361111
 20
158.2952473958333
 10
33.49941948784722
 20
158.7582682291667
 10
33.49941948784722
 20
158.7582682291667
 10
33.48805067274305
 20
158.7582682291667
 10
33.48805067274305
 20
158.7582682291667
 10
33.44877658420138
 20
158.3517469618055
 10
33.41467013888889
 20
158.0413438585069
 10
33.35265842013889
 20
157.7364529079861
 10
33.35265842013889
 20
157.7364529079861
 10
32.73736436631944
 20
154.863587782118
 10
32.73736436631944
 20
154.863587782118
 97
        0
 75
     0
 76
     1
 98
        1
 10
0.0
 20
0.0
  0
HATCH
  5
49
330
A
100
AcDbEntity
  8
LAYER_1
 62
     7
100
AcDbHatch
 10
0.0
 20
0.0
 30
0.0
210
0.0
220
0.0
230
1.0
  2
SOLID
 70
     1
 71
     0
 91
        1
 92
        1
 93
        1
 72
     4
 94
        3
 73
     0
 74
     0
 95
       17
 96
       13
 40
0.0
 40
0.0
 40
0.0
 40
0.0
 40
1.0
 40
1.0
 40
1.0
 40
2.0
 40
2.0
 40
2.0
 40
3.0
 40
3.0
 40
3.0
 40
4.0
 40
4.0
 40
4.0
 40
4.0
 10
36.41052517361111
 20
154.863587782118
 10
36.41052517361111
 20
154.863587782118
 10
36.41052517361111
 20
159.0969211154514
 10
36.41052517361111
 20
159.0969211154514
 10
36.41052517361111
 20
159.0969211154514
 10
36.87905815972222
 20
159.0969211154514
 10
36.87905815972222
 20
159.0969211154514
 10
36.87905815972222
 20
159.0969211154514
 10
36.87905815972222
 20
154.863587782118
 10
36.87905815972222
 20
154.863587782118
 10
36.87905815972222
 20
154.863587782118
 10
36.41052517361111
 20
154.863587782118
 10
36.41052517361111
 20
154.863587782118
 97
        0
 75
     0
 76
     1
 98
        1
 10
0.0
 20
0.0
  0
HATCH
  5
48
330
A
100
AcDbEntity
  8
LAYER_1
 62
     7
100
AcDbHatch
 10
0.0
 20
0.0
 30
0.0
210
0.0
220
0.0
230
1.0
  2
SOLID
 70
     1
 71
     0
 91
        1
 92
        1
 93
        1
 72
     4
 94
        3
 73
     0
 74
     0
 95
       29
 96
       25
 40
0.0
 40
0.0
 40
0.0
 40
0.0
 40
1.0
 40
1.0
 40
1.0
 40
2.0
 40
2.0
 40
2.0
 40
3.0
 40
3.0
 40
3.0
 40
4.0
 40
4.0
 40
4.0
 40
5.0
 40
5.0
 40
5.0
 40
6.0
 40
6.0
 40
6.0
 40
7.0
 40
7.0
 40
7.0
 40
8.0
 40
8.0
 40
8.0
 40
8.0
 10
37.51019965277777
 20
159.0969211154514
 10
37.51019965277777
 20
159.0969211154514
 10
40.16877983940972
 20
159.0969211154514
 10
40.16877983940972
 20
159.0969211154514
 10
40.16877983940972
 20
159.0969211154514
 10
40.16877983940972
 20
158.6735188802083
 10
40.16877983940972
 20
158.6735188802083
 10
40.16877983940972
 20
158.6735188802083
 10
39.07392849392361
 20
158.6735188802083
 10
39.07392849392361
 20
158.6735188802083
 10
39.07392849392361
 20
158.6735188802083
 10
39.07392849392361
 20
154.863587782118
 10
39.07392849392361
 20
154.863587782118
 10
39.07392849392361
 20
154.863587782118
 10
38.6053955078125
 20
154.863587782118
 10
38.6053955078125
 20
154.863587782118
 10
38.6053955078125
 20
154.863587782118
 10
38.6053955078125
 20
158.6735188802083
 10
38.6053955078125
 20
158.6735188802083
 10
38.6053955078125
 20
158.6735188802083
 10
37.51019965277777
 20
158.6735188802083
 10
37.51019965277777
 20
158.6735188802083
 10
37.51019965277777
 20
158.6735188802083
 10
37.51019965277777
 20
159.0969211154514
 10
37.51019965277777
 20
159.0969211154514
 97
        0
 75
     0
 76
     1
 98
        1
 10
0.0
 20
0.0
  0
HATCH
  5
47
330
A
100
AcDbEntity
  8
LAYER_1
 62
     7
100
AcDbHatch
 10
0.0
 20
0.0
 30
0.0
210
0.0
220
0.0
230
1.0
  2
SOLID
 70
     1
 71
     0
 91
        1
 92
        1
 93
        1
 72
     4
 94
        3
 73
     0
 74
     0
 95
       41
 96
       37
 40
0.0
 40
0.0
 40
0.0
 40
0.0
 40
1.0
 40
1.0
 40
1.0
 40
2.0
 40
2.0
 40
2.0
 40
3.0
 40
3.0
 40
3.0
 40
4.0
 40
4.0
 40
4.0
 40
5.0
 40
5.0
 40
5.0
 40
6.0
 40
6.0
 40
6.0
 40
7.0
 40
7.0
 40
7.0
 40
8.0
 40
8.0
 40
8.0
 40
9.0
 40
9.0
 40
9.0
 40
10.0
 40
10.0
 40
10.0
 40
11.0
 40
11.0
 40
11.0
 40
12.0
 40
12.0
 40
12.0
 40
12.0
 10
40.69381239149305
 20
154.863587782118
 10
40.69381239149305
 20
154.863587782118
 10
40.69381239149305
 20
159.0969211154514
 10
40.69381239149305
 20
159.0969211154514
 10
40.69381239149305
 20
159.0969211154514
 10
41.16234537760416
 20
159.0969211154514
 10
41.16234537760416
 20
159.0969211154514
 10
41.16234537760416
 20
159.0969211154514
 10
41.16234537760416
 20
157.3302761501736
 10
41.16234537760416
 20
157.3302761501736
 10
41.16234537760416
 20
157.3302761501736
 10
42.78222927517361
 20
157.3302761501736
 10
42.78222927517361
 20
157.3302761501736
 10
42.78222927517361
 20
157.3302761501736
 10
42.78222927517361
 20
159.0969211154514
 10
42.78222927517361
 20
159.0969211154514
 10
42.78222927517361
 20
159.0969211154514
 10
43.25076226128472
 20
159.0969211154514
 10
43.25076226128472
 20
159.0969211154514
 10
43.25076226128472
 20
159.0969211154514
 10
43.25076226128472
 20
154.863587782118
 10
43.25076226128472
 20
154.863587782118
 10
43.25076226128472
 20
154.863587782118
 10
42.78222927517361
 20
154.863587782118
 10
42.78222927517361
 20
154.863587782118
 10
42.78222927517361
 20
154.863587782118
 10
42.78222927517361
 20
156.9068739149305
 10
42.78222927517361
 20
156.9068739149305
 10
42.78222927517361
 20
156.9068739149305
 10
41.16234537760416
 20
156.9068739149305
 10
41.16234537760416
 20
156.9068739149305
 10
41.16234537760416
 20
156.9068739149305
 10
41.16234537760416
 20
154.863587782118
 10
41.16234537760416
 20
154.863587782118
 10
41.16234537760416
 20
154.863587782118
 10
40.69381239149305
 20
154.863587782118
 10
40.69381239149305
 20
154.863587782118
 97
        0
 75
     0
 76
     1
 98
        1
 10
0.0
 20
0.0
  0
HATCH
  5
46
330
A
100
AcDbEntity
  8
LAYER_1
 62
     7
100
AcDbHatch
 10
0.0
 20
0.0
 30
0.0
210
0.0
220
0.0
230
1.0
  2
SOLID
 70
     1
 71
     0
 91
        1
 92
        1
 93
        1
 72
     4
 94
        3
 73
     0
 74
     0
 95
       41
 96
       37
 40
0.0
 40
0.0
 40
0.0
 40
0.0
 40
1.0
 40
1.0
 40
1.0
 40
2.0
 40
2.0
 40
2.0
 40
3.0
 40
3.0
 40
3.0
 40
4.0
 40
4.0
 40
4.0
 40
5.0
 40
5.0
 40
5.0
 40
6.0
 40
6.0
 40
6.0
 40
7.0
 40
7.0
 40
7.0
 40
8.0
 40
8.0
 40
8.0
 40
9.0
 40
9.0
 40
9.0
 40
10.0
 40
10.0
 40
10.0
 40
11.0
 40
11.0
 40
11.0
 40
12.0
 40
12.0
 40
12.0
 40
12.0
 10
45.55277506510416
 20
154.863587782118
 10
45.55277506510416
 20
154.863587782118
 10
45.55277506510416
 20
159.0969211154514
 10
45.55277506510416
 20
159.0969211154514
 10
45.55277506510416
 20
159.0969211154514
 10
46.02130805121527
 20
159.0969211154514
 10
46.02130805121527
 20
159.0969211154514
 10
46.02130805121527
 20
159.0969211154514
 10
46.02130805121527
 20
157.3302761501736
 10
46.02130805121527
 20
157.3302761501736
 10
46.02130805121527
 20
157.3302761501736
 10
47.64119194878472
 20
157.3302761501736
 10
47.64119194878472
 20
157.3302761501736
 10
47.64119194878472
 20
157.3302761501736
 10
47.64119194878472
 20
159.0969211154514
 10
47.64119194878472
 20
159.0969211154514
 10
47.64119194878472
 20
159.0969211154514
 10
48.10972493489583
 20
159.0969211154514
 10
48.10972493489583
 20
159.0969211154514
 10
48.10972493489583
 20
159.0969211154514
 10
48.10972493489583
 20
154.863587782118
 10
48.10972493489583
 20
154.863587782118
 10
48.10972493489583
 20
154.863587782118
 10
47.64119194878472
 20
154.863587782118
 10
47.64119194878472
 20
154.863587782118
 10
47.64119194878472
 20
154.863587782118
 10
47.64119194878472
 20
156.9068739149305
 10
47.64119194878472
 20
156.9068739149305
 10
47.64119194878472
 20
156.9068739149305
 10
46.02130805121527
 20
156.9068739149305
 10
46.02130805121527
 20
156.9068739149305
 10
46.02130805121527
 20
156.9068739149305
 10
46.02130805121527
 20
154.863587782118
 10
46.02130805121527
 20
154.863587782118
 10
46.02130805121527
 20
154.863587782118
 10
45.55277506510416
 20
154.863587782118
 10
45.55277506510416
 20
154.863587782118
 97
        0
 75
     0
 76
     1
 98
        1
 10
0.0
 20
0.0
  0
HATCH
  5
45
330
A
100
AcDbEntity
  8
LAYER_1
 62
     7
100
AcDbHatch
 10
0.0
 20
0.0
 30
0.0
210
0.0
220
0.0
230
1.0
  2
SOLID
 70
     1
 71
     0
 91
        1
 92
        1
 93
        1
 72
     4
 94
        3
 73
     0
 74
     0
 95
       41
 96
       37
 40
0.0
 40
0.0
 40
0.0
 40
0.0
 40
1.0
 40
1.0
 40
1.0
 40
2.0
 40
2.0
 40
2.0
 40
3.0
 40
3.0
 40
3.0
 40
4.0
 40
4.0
 40
4.0
 40
5.0
 40
5.0
 40
5.0
 40
6.0
 40
6.0
 40
6.0
 40
7.0
 40
7.0
 40
7.0
 40
8.0
 40
8.0
 40
8.0
 40
9.0
 40
9.0
 40
9.0
 40
10.0
 40
10.0
 40
10.0
 40
11.0
 40
11.0
 40
11.0
 40
12.0
 40
12.0
 40
12.0
 40
12.0
 10
48.97237684461805
 20
154.863587782118
 10
48.97237684461805
 20
154.863587782118
 10
48.97237684461805
 20
159.0969211154514
 10
48.97237684461805
 20
159.0969211154514
 10
48.97237684461805
 20
159.0969211154514
 10
51.08904351128471
 20
159.0969211154514
 10
51.08904351128471
 20
159.0969211154514
 10
51.08904351128471
 20
159.0969211154514
 10
51.08904351128471
 20
158.6735188802083
 10
51.08904351128471
 20
158.6735188802083
 10
51.08904351128471
 20
158.6735188802083
 10
49.44090983072916
 20
158.6735188802083
 10
49.44090983072916
 20
158.6735188802083
 10
49.44090983072916
 20
158.6735188802083
 10
49.44090983072916
 20
157.2737765842014
 10
49.44090983072916
 20
157.2737765842014
 10
49.44090983072916
 20
157.2737765842014
 10
50.98741319444444
 20
157.2737765842014
 10
50.98741319444444
 20
157.2737765842014
 10
50.98741319444444
 20
157.2737765842014
 10
50.98741319444444
 20
156.8503743489583
 10
50.98741319444444
 20
156.8503743489583
 10
50.98741319444444
 20
156.8503743489583
 10
49.44090983072916
 20
156.8503743489583
 10
49.44090983072916
 20
156.8503743489583
 10
49.44090983072916
 20
156.8503743489583
 10
49.44090983072916
 20
155.2866455078125
 10
49.44090983072916
 20
155.2866455078125
 10
49.44090983072916
 20
155.2866455078125
 10
51.10041232638888
 20
155.2866455078125
 10
51.10041232638888
 20
155.2866455078125
 10
51.10041232638888
 20
155.2866455078125
 10
51.10041232638888
 20
154.863587782118
 10
51.10041232638888
 20
154.863587782118
 10
51.10041232638888
 20
154.863587782118
 10
48.97237684461805
 20
154.863587782118
 10
48.97237684461805
 20
154.863587782118
 97
        0
 75
     0
 76
     1
 98
        1
 10
0.0
 20
0.0
  0
HATCH
  5
44
330
A
100
AcDbEntity
  8
LAYER_1
 62
     7
100
AcDbHatch
 10
0.0
 20
0.0
 30
0.0
210
0.0
220
0.0
230
1.0
  2
SOLID
 70
     1
 71
     0
 91
        2
 92
       16
 93
        1
 72
     4
 94
        3
 73
     0
 74
     0
 95
       17
 96
       13
 40
0.0
 40
0.0
 40
0.0
 40
0.0
 40
1.0
 40
1.0
 40
1.0
 40
2.0
 40
2.0
 40
2.0
 40
3.0
 40
3.0
 40
3.0
 40
4.0
 40
4.0
 40
4.0
 40
4.0
 10
52.95180664062499
 20
158.7582682291667
 10
52.95180664062499
 20
158.7582682291667
 10
52.94043782552083
 20
158.7582682291667
 10
52.94043782552083
 20
158.7582682291667
 10
52.94043782552083
 20
158.7582682291667
 10
52.38164333767361
 20
156.5058648003472
 10
52.38164333767361
 20
156.5058648003472
 10
52.38164333767361
 20
156.5058648003472
 10
53.49923231336805
 20
156.5058648003472
 10
53.49923231336805
 20
156.5058648003472
 10
53.49923231336805
 20
156.5058648003472
 10
52.95180664062499
 20
158.7582682291667
 10
52.95180664062499
 20
158.7582682291667
 97
        0
 92
        1
 93
        1
 72
     4
 94
        3
 73
     0
 74
     0
 95
       29
 96
       25
 40
0.0
 40
0.0
 40
0.0
 40
0.0
 40
1.0
 40
1.0
 40
1.0
 40
2.0
 40
2.0
 40
2.0
 40
3.0
 40
3.0
 40
3.0
 40
4.0
 40
4.0
 40
4.0
 40
5.0
 40
5.0
 40
5.0
 40
6.0
 40
6.0
 40
6.0
 40
7.0
 40
7.0
 40
7.0
 40
8.0
 40
8.0
 40
8.0
 40
8.0
 10
52.64691569010416
 20
159.0969211154514
 10
52.64691569010416
 20
159.0969211154514
 10
53.26772189670138
 20
159.0969211154514
 10
53.26772189670138
 20
159.0969211154514
 10
53.26772189670138
 20
159.0969211154514
 10
54.45869140625
 20
154.863587782118
 10
54.45869140625
 20
154.863587782118
 10
54.45869140625
 20
154.863587782118
 10
53.93951551649305
 20
154.863587782118
 10
53.93951551649305
 20
154.863587782118
 10
53.93951551649305
 20
154.863587782118
 10
53.60637478298611
 20
156.0828070746528
 10
53.60637478298611
 20
156.0828070746528
 10
53.60637478298611
 20
156.0828070746528
 10
52.26864420572916
 20
156.0828070746528
 10
52.26864420572916
 20
156.0828070746528
 10
52.26864420572916
 20
156.0828070746528
 10
51.95824110243055
 20
154.863587782118
 10
51.95824110243055
 20
154.863587782118
 10
51.95824110243055
 20
154.863587782118
 10
51.4390652126736
 20
154.863587782118
 10
51.4390652126736
 20
154.863587782118
 10
51.4390652126736
 20
154.863587782118
 10
52.64691569010416
 20
159.0969211154514
 10
52.64691569010416
 20
159.0969211154514
 97
        0
 75
     0
 76
     1
 98
        1
 10
0.0
 20
0.0
  0
HATCH
  5
43
330
A
100
AcDbEntity
  8
LAYER_1
 62
     7
100
AcDbHatch
 10
0.0
 20
0.0
 30
0.0
210
0.0
220
0.0
230
1.0
  2
SOLID
 70
     1
 71
     0
 91
        2
 92
       16
 93
        1
 72
     4
 94
        3
 73
     0
 74
     0
 95
       20
 96
       16
 40
0.0
 40
0.0
 40
0.0
 40
0.0
 40
1.0
 40
1.0
 40
1.0
 40
2.0
 40
2.0
 40
2.0
 40
3.0
 40
3.0
 40
3.0
 40
4.0
 40
4.0
 40
4.0
 40
5.0
 40
5.0
 40
5.0
 40
5.0
 10
55.44605577256944
 20
155.2866455078125
 10
55.44605577256944
 20
155.2866455078125
 10
56.19674207899305
 20
155.2866455078125
 10
56.19674207899305
 20
155.2866455078125
 10
56.88541666666666
 20
155.2866455078125
 10
57.16756998697916
 20
155.8003092447917
 10
57.12243923611111
 20
157.065003797743
 10
57.08867730034721
 20
158.0299750434028
 10
56.95328504774305
 20
158.6735188802083
 10
56.19674207899305
 20
158.6735188802083
 10
56.19674207899305
 20
158.6735188802083
 10
55.44605577256944
 20
158.6735188802083
 10
55.44605577256944
 20
158.6735188802083
 10
55.44605577256944
 20
158.6735188802083
 10
55.44605577256944
 20
155.2866455078125
 10
55.44605577256944
 20
155.2866455078125
 97
        0
 92
        1
 93
        1
 72
     4
 94
        3
 73
     0
 74
     0
 95
       20
 96
       16
 40
0.0
 40
0.0
 40
0.0
 40
0.0
 40
1.0
 40
1.0
 40
1.0
 40
2.0
 40
2.0
 40
2.0
 40
3.0
 40
3.0
 40
3.0
 40
4.0
 40
4.0
 40
4.0
 40
5.0
 40
5.0
 40
5.0
 40
5.0
 10
54.97752278645833
 20
154.863587782118
 10
54.97752278645833
 20
154.863587782118
 10
54.97752278645833
 20
159.0969211154514
 10
54.97752278645833
 20
159.0969211154514
 10
54.97752278645833
 20
159.0969211154514
 10
56.14024251302083
 20
159.0969211154514
 10
56.14024251302083
 20
159.0969211154514
 10
57.46109212239583
 20
159.0969211154514
 10
57.64195963541666
 20
158.024462890625
 10
57.60785319010416
 20
156.9802544487847
 10
57.57409125434027
 20
155.9470703125
 10
57.37083062065972
 20
154.863587782118
 10
56.22499186197916
 20
154.863587782118
 10
56.22499186197916
 20
154.863587782118
 10
54.97752278645833
 20
154.863587782118
 10
54.97752278645833
 20
154.863587782118
 97
        0
 75
     0
 76
     1
 98
        1
 10
0.0
 20
0.0
  0
HATCH
  5
42
330
A
100
AcDbEntity
  8
LAYER_1
 62
     7
100
AcDbHatch
 10
0.0
 20
0.0
 30
0.0
210
0.0
220
0.0
230
1.0
  2
SOLID
 70
     1
 71
     0
 91
        1
 92
        1
 93
        1
 72
     4
 94
        3
 73
     0
 74
     0
 95
       41
 96
       37
 40
0.0
 40
0.0
 40
0.0
 40
0.0
 40
1.0
 40
1.0
 40
1.0
 40
2.0
 40
2.0
 40
2.0
 40
3.0
 40
3.0
 40
3.0
 40
4.0
 40
4.0
 40
4.0
 40
5.0
 40
5.0
 40
5.0
 40
6.0
 40
6.0
 40
6.0
 40
7.0
 40
7.0
 40
7.0
 40
8.0
 40
8.0
 40
8.0
 40
9.0
 40
9.0
 40
9.0
 40
10.0
 40
10.0
 40
10.0
 40
11.0
 40
11.0
 40
11.0
 40
12.0
 40
12.0
 40
12.0
 40
12.0
 10
58.38024359809027
 20
154.863587782118
 10
58.38024359809027
 20
154.863587782118
 10
58.38024359809027
 20
159.0969211154514
 10
58.38024359809027
 20
159.0969211154514
 10
58.38024359809027
 20
159.0969211154514
 10
60.49691026475694
 20
159.0969211154514
 10
60.49691026475694
 20
159.0969211154514
 10
60.49691026475694
 20
159.0969211154514
 10
60.49691026475694
 20
158.6735188802083
 10
60.49691026475694
 20
158.6735188802083
 10
60.49691026475694
 20
158.6735188802083
 10
58.84877658420138
 20
158.6735188802083
 10
58.84877658420138
 20
158.6735188802083
 10
58.84877658420138
 20
158.6735188802083
 10
58.84877658420138
 20
157.2737765842014
 10
58.84877658420138
 20
157.2737765842014
 10
58.84877658420138
 20
157.2737765842014
 10
60.39527994791666
 20
157.2737765842014
 10
60.39527994791666
 20
157.2737765842014
 10
60.39527994791666
 20
157.2737765842014
 10
60.39527994791666
 20
156.8503743489583
 10
60.39527994791666
 20
156.8503743489583
 10
60.39527994791666
 20
156.8503743489583
 10
58.84877658420138
 20
156.8503743489583
 10
58.84877658420138
 20
156.8503743489583
 10
58.84877658420138
 20
156.8503743489583
 10
58.84877658420138
 20
155.2866455078125
 10
58.84877658420138
 20
155.2866455078125
 10
58.84877658420138
 20
155.2866455078125
 10
60.5082790798611
 20
155.2866455078125
 10
60.5082790798611
 20
155.2866455078125
 10
60.5082790798611
 20
155.2866455078125
 10
60.5082790798611
 20
154.863587782118
 10
60.5082790798611
 20
154.863587782118
 10
60.5082790798611
 20
154.863587782118
 10
58.38024359809027
 20
154.863587782118
 10
58.38024359809027
 20
154.863587782118
 97
        0
 75
     0
 76
     1
 98
        1
 10
0.0
 20
0.0
  0
HATCH
  5
41
330
A
100
AcDbEntity
  8
LAYER_1
 62
     7
100
AcDbHatch
 10
0.0
 20
0.0
 30
0.0
210
0.0
220
0.0
230
1.0
  2
SOLID
 70
     1
 71
     0
 91
        2
 92
       16
 93
        1
 72
     4
 94
        3
 73
     0
 74
     0
 95
       20
 96
       16
 40
0.0
 40
0.0
 40
0.0
 40
0.0
 40
1.0
 40
1.0
 40
1.0
 40
2.0
 40
2.0
 40
2.0
 40
3.0
 40
3.0
 40
3.0
 40
4.0
 40
4.0
 40
4.0
 40
5.0
 40
5.0
 40
5.0
 40
5.0
 10
61.73886718749999
 20
157.1494086371528
 10
61.73886718749999
 20
157.1494086371528
 10
62.47818467881944
 20
157.1494086371528
 10
62.47818467881944
 20
157.1494086371528
 10
62.69832628038194
 20
157.1552652994791
 10
63.30776367187499
 20
157.189027235243
 10
63.29673936631944
 20
157.9283447265625
 10
63.28537055121527
 20
158.6566379123264
 10
62.71520724826388
 20
158.6735188802083
 10
62.39929199218749
 20
158.6735188802083
 10
62.39929199218749
 20
158.6735188802083
 10
61.73886718749999
 20
158.6735188802083
 10
61.73886718749999
 20
158.6735188802083
 10
61.73886718749999
 20
158.6735188802083
 10
61.73886718749999
 20
157.1494086371528
 10
61.73886718749999
 20
157.1494086371528
 97
        0
 92
        1
 93
        1
 72
     4
 94
        3
 73
     0
 74
     0
 95
       50
 96
       46
 40
0.0
 40
0.0
 40
0.0
 40
0.0
 40
1.0
 40
1.0
 40
1.0
 40
2.0
 40
2.0
 40
2.0
 40
3.0
 40
3.0
 40
3.0
 40
4.0
 40
4.0
 40
4.0
 40
5.0
 40
5.0
 40
5.0
 40
6.0
 40
6.0
 40
6.0
 40
7.0
 40
7.0
 40
7.0
 40
8.0
 40
8.0
 40
8.0
 40
9.0
 40
9.0
 40
9.0
 40
10.0
 40
10.0
 40
10.0
 40
11.0
 40
11.0
 40
11.0
 40
12.0
 40
12.0
 40
12.0
 40
13.0
 40
13.0
 40
13.0
 40
14.0
 40
14.0
 40
14.0
 40
15.0
 40
15.0
 40
15.0
 40
15.0
 10
61.73886718749999
 20
154.863587782118
 10
61.73886718749999
 20
154.863587782118
 10
61.27033420138888
 20
154.863587782118
 10
61.27033420138888
 20
154.863587782118
 10
61.27033420138888
 20
154.863587782118
 10
61.27033420138888
 20
159.0969211154514
 10
61.27033420138888
 20
159.0969211154514
 10
61.27033420138888
 20
159.0969211154514
 10
62.35967339409721
 20
159.0969211154514
 10
62.35967339409721
 20
159.0969211154514
 10
63.24575195312499
 20
159.0969211154514
 10
63.8104031032986
 20
158.8654106987847
 10
63.7821533203125
 20
157.8890706380208
 10
63.76527235243055
 20
157.3922878689236
 10
63.46038140190971
 20
157.0367540147569
 10
62.96911078559027
 20
156.9688856336805
 10
62.96911078559027
 20
156.9688856336805
 10
62.96911078559027
 20
156.9575168185764
 10
62.96911078559027
 20
156.9575168185764
 10
63.51688096788194
 20
156.9068739149305
 10
63.65227322048611
 20
156.7318630642361
 10
63.7201416015625
 20
156.1672119140625
 10
63.73702256944444
 20
155.8512966579861
 10
63.76527235243055
 20
155.5408935546875
 10
63.8104031032986
 20
155.2246337890625
 10
63.82728407118055
 20
155.1457411024306
 10
63.86104600694444
 20
154.9593614366319
 10
63.97404513888888
 20
154.9593614366319
 10
63.97404513888888
 20
154.9593614366319
 10
63.97404513888888
 20
154.863587782118
 10
63.97404513888888
 20
154.863587782118
 10
63.97404513888888
 20
154.863587782118
 10
63.42661946614583
 20
154.863587782118
 10
63.42661946614583
 20
154.863587782118
 10
63.32498914930555
 20
155.1343722873264
 10
63.2798583984375
 20
155.6594048394097
 10
63.2798583984375
 20
155.9415581597222
 10
63.2798583984375
 20
156.3649603949653
 10
63.11035970052082
 20
156.7260064019097
 10
62.55707736545138
 20
156.7260064019097
 10
62.55707736545138
 20
156.7260064019097
 10
61.73886718749999
 20
156.7260064019097
 10
61.73886718749999
 20
156.7260064019097
 10
61.73886718749999
 20
156.7260064019097
 10
61.73886718749999
 20
154.863587782118
 10
61.73886718749999
 20
154.863587782118
 97
        0
 75
     0
 76
     1
 98
        1
 10
0.0
 20
0.0
  0
HATCH
  5
40
330
A
100
AcDbEntity
  8
LAYER_1
 62
     7
100
AcDbHatch
 10
0.0
 20
0.0
 30
0.0
210
0.0
220
0.0
230
1.0
  2
SOLID
 70
     1
 71
     0
 91
        1
 92
        1
 93
        1
 72
     4
 94
        3
 73
     0
 74
     0
 95
       23
 96
       19
 40
0.0
 40
0.0
 40
0.0
 40
0.0
 40
1.0
 40
1.0
 40
1.0
 40
2.0
 40
2.0
 40
2.0
 40
3.0
 40
3.0
 40
3.0
 40
4.0
 40
4.0
 40
4.0
 40
5.0
 40
5.0
 40
5.0
 40
6.0
 40
6.0
 40
6.0
 40
6.0
 10
15.98799913194444
 20
153.8052544487847
 10
15.73409559461805
 20
153.2802218967014
 10
15.28795572916667
 20
152.5464165581597
 10
15.28795572916667
 20
151.1070556640625
 10
15.28795572916667
 20
150.068359375
 10
15.48570421006944
 20
149.2611735026042
 10
16.01624891493055
 20
148.3582139756944
 10
16.01624891493055
 20
148.3582139756944
 10
15.68862033420139
 20
148.3582139756944
 10
15.68862033420139
 20
148.3582139756944
 10
15.18081325954861
 20
149.1881374782986
 10
14.81391059027778
 20
150.0514784071181
 10
14.81391059027778
 20
151.0395317925347
 10
14.81391059027778
 20
152.1512641059028
 10
15.11294487847222
 20
152.8681884765625
 10
15.68862033420139
 20
153.8052544487847
 10
15.68862033420139
 20
153.8052544487847
 10
15.98799913194444
 20
153.8052544487847
 10
15.98799913194444
 20
153.8052544487847
 97
        0
 75
     0
 76
     1
 98
        1
 10
0.0
 20
0.0
  0
HATCH
  5
3F
330
A
100
AcDbEntity
  8
LAYER_1
 62
     7
100
AcDbHatch
 10
0.0
 20
0.0
 30
0.0
210
0.0
220
0.0
230
1.0
  2
SOLID
 70
     1
 71
     0
 91
        1
 92
        1
 93
        1
 72
     4
 94
        3
 73
     0
 74
     0
 95
       23
 96
       19
 40
0.0
 40
0.0
 40
0.0
 40
0.0
 40
1.0
 40
1.0
 40
1.0
 40
2.0
 40
2.0
 40
2.0
 40
3.0
 40
3.0
 40
3.0
 40
4.0
 40
4.0
 40
4.0
 40
5.0
 40
5.0
 40
5.0
 40
6.0
 40
6.0
 40
6.0
 40
6.0
 10
16.73179524739583
 20
149.5719211154514
 10
16.73179524739583
 20
149.5719211154514
 10
16.73179524739583
 20
153.8052544487847
 10
16.73179524739583
 20
153.8052544487847
 10
16.73179524739583
 20
153.8052544487847
 10
17.19998372395833
 20
153.8052544487847
 10
17.19998372395833
 20
153.8052544487847
 10
17.19998372395833
 20
153.8052544487847
 10
17.19998372395833
 20
149.9949788411458
 10
17.19998372395833
 20
149.9949788411458
 10
17.19998372395833
 20
149.9949788411458
 10
18.92735460069444
 20
149.9949788411458
 10
18.92735460069444
 20
149.9949788411458
 10
18.92735460069444
 20
149.9949788411458
 10
18.92735460069444
 20
149.5719211154514
 10
18.92735460069444
 20
149.5719211154514
 10
18.92735460069444
 20
149.5719211154514
 10
16.73179524739583
 20
149.5719211154514
 10
16.73179524739583
 20
149.5719211154514
 97
        0
 75
     0
 76
     1
 98
        1
 10
0.0
 20
0.0
  0
HATCH
  5
3E
330
A
100
AcDbEntity
  8
LAYER_1
 62
     7
100
AcDbHatch
 10
0.0
 20
0.0
 30
0.0
210
0.0
220
0.0
230
1.0
  2
SOLID
 70
     1
 71
     0
 91
        2
 92
       16
 93
        1
 72
     4
 94
        3
 73
     0
 74
     0
 95
       17
 96
       13
 40
0.0
 40
0.0
 40
0.0
 40
0.0
 40
1.0
 40
1.0
 40
1.0
 40
2.0
 40
2.0
 40
2.0
 40
3.0
 40
3.0
 40
3.0
 40
4.0
 40
4.0
 40
4.0
 40
4.0
 10
20.80114203559027
 20
153.4666015625
 10
20.07870551215278
 20
153.4666015625
 10
19.89818250868055
 20
152.71005859375
 10
19.90369466145833
 20
151.76748046875
 10
19.90955132378472
 20
150.5427490234375
 10
20.03357476128472
 20
149.8936930338542
 10
20.81251085069444
 20
149.8936930338542
 10
21.59144694010417
 20
149.8936930338542
 10
21.71581488715277
 20
150.5427490234375
 10
21.72132703993055
 20
151.76748046875
 10
21.72683919270833
 20
152.71005859375
 10
21.54631618923611
 20
153.4666015625
 10
20.80114203559027
 20
153.4666015625
 97
        0
 92
        1
 93
        1
 72
     4
 94
        3
 73
     0
 74
     0
 95
       17
 96
       13
 40
0.0
 40
0.0
 40
0.0
 40
0.0
 40
1.0
 40
1.0
 40
1.0
 40
2.0
 40
2.0
 40
2.0
 40
3.0
 40
3.0
 40
3.0
 40
4.0
 40
4.0
 40
4.0
 40
4.0
 10
20.82387966579861
 20
153.8900037977431
 10
22.05997992621528
 20
153.8900037977431
 10
22.21259765625
 20
152.7496771918403
 10
22.20674099392361
 20
151.7788492838542
 10
22.20122884114583
 20
150.6047607421875
 10
22.04861111111111
 20
149.4702907986111
 10
20.81251085069444
 20
149.4702907986111
 10
19.57641059027777
 20
149.4702907986111
 10
19.42964952256944
 20
150.6047607421875
 10
19.41828070746528
 20
151.7788492838542
 10
19.41828070746528
 20
152.7496771918403
 10
19.56504177517361
 20
153.8900037977431
 10
20.82387966579861
 20
153.8900037977431
 97
        0
 75
     0
 76
     1
 98
        1
 10
0.0
 20
0.0
  0
HATCH
  5
3D
330
A
100
AcDbEntity
  8
LAYER_1
 62
     7
100
AcDbHatch
 10
0.0
 20
0.0
 30
0.0
210
0.0
220
0.0
230
1.0
  2
SOLID
 70
     1
 71
     0
 91
        1
 92
        1
 93
        1
 72
     4
 94
        3
 73
     0
 74
     0
 95
       71
 96
       67
 40
0.0
 40
0.0
 40
0.0
 40
0.0
 40
1.0
 40
1.0
 40
1.0
 40
2.0
 40
2.0
 40
2.0
 40
3.0
 40
3.0
 40
3.0
 40
4.0
 40
4.0
 40
4.0
 40
5.0
 40
5.0
 40
5.0
 40
6.0
 40
6.0
 40
6.0
 40
7.0
 40
7.0
 40
7.0
 40
8.0
 40
8.0
 40
8.0
 40
9.0
 40
9.0
 40
9.0
 40
10.0
 40
10.0
 40
10.0
 40
11.0
 40
11.0
 40
11.0
 40
12.0
 40
12.0
 40
12.0
 40
13.0
 40
13.0
 40
13.0
 40
14.0
 40
14.0
 40
14.0
 40
15.0
 40
15.0
 40
15.0
 40
16.0
 40
16.0
 40
16.0
 40
17.0
 40
17.0
 40
17.0
 40
18.0
 40
18.0
 40
18.0
 40
19.0
 40
19.0
 40
19.0
 40
20.0
 40
20.0
 40
20.0
 40
21.0
 40
21.0
 40
21.0
 40
22.0
 40
22.0
 40
22.0
 40
22.0
 10
24.11360134548611
 20
149.5719211154514
 10
24.11360134548611
 20
149.5719211154514
 10
23.53241373697917
 20
149.5719211154514
 10
23.53241373697917
 20
149.5719211154514
 10
23.53241373697917
 20
149.5719211154514
 10
22.62910970052083
 20
153.8052544487847
 10
22.62910970052083
 20
153.8052544487847
 10
22.62910970052083
 20
153.8052544487847
 10
23.14863009982639
 20
153.8052544487847
 10
23.14863009982639
 20
153.8052544487847
 10
23.14863009982639
 20
153.8052544487847
 10
23.70156792534722
 20
150.8869140625
 10
23.70156792534722
 20
150.8869140625
 10
23.75255533854167
 20
150.5992485894097
 10
23.79182942708333
 20
150.305726453993
 10
23.82593587239583
 20
149.9105740017361
 10
23.82593587239583
 20
149.9105740017361
 10
23.83696017795139
 20
149.9105740017361
 10
23.83696017795139
 20
149.9105740017361
 10
23.87657877604167
 20
150.2378580729167
 10
23.91034071180555
 20
150.5482611762153
 10
23.97269694010416
 20
150.8531521267361
 10
23.97269694010416
 20
150.8531521267361
 10
24.59350314670139
 20
153.8052544487847
 10
24.59350314670139
 20
153.8052544487847
 10
24.59350314670139
 20
153.8052544487847
 10
25.17503526475694
 20
153.8052544487847
 10
25.17503526475694
 20
153.8052544487847
 10
25.17503526475694
 20
153.8052544487847
 10
25.73382975260417
 20
150.8869140625
 10
25.73382975260417
 20
150.8869140625
 10
25.78447265625
 20
150.6047607421875
 10
25.81823459201389
 20
150.322607421875
 10
25.85785319010417
 20
149.9105740017361
 10
25.85785319010417
 20
149.9105740017361
 10
25.86922200520833
 20
149.9105740017361
 10
25.86922200520833
 20
149.9105740017361
 10
25.90884060329861
 20
150.2378580729167
 10
25.9426025390625
 20
150.5482611762153
 10
26.0046142578125
 20
150.8531521267361
 10
26.0046142578125
 20
150.8531521267361
 10
26.61990831163194
 20
153.8052544487847
 10
26.61990831163194
 20
153.8052544487847
 10
26.61990831163194
 20
153.8052544487847
 10
27.13908420138889
 20
153.8052544487847
 10
27.13908420138889
 20
153.8052544487847
 10
27.13908420138889
 20
153.8052544487847
 10
26.14586317274305
 20
149.5719211154514
 10
26.14586317274305
 20
149.5719211154514
 10
26.14586317274305
 20
149.5719211154514
 10
25.5643310546875
 20
149.5719211154514
 10
25.5643310546875
 20
149.5719211154514
 10
25.5643310546875
 20
149.5719211154514
 10
25.0000244140625
 20
152.4447862413194
 10
25.0000244140625
 20
152.4447862413194
 10
24.94352484809028
 20
152.7214274088541
 10
24.90976291232639
 20
153.0035807291667
 10
24.87565646701389
 20
153.4666015625
 10
24.87565646701389
 20
153.4666015625
 10
24.86428765190972
 20
153.4666015625
 10
24.86428765190972
 20
153.4666015625
 10
24.82501356336805
 20
153.0600802951389
 10
24.79090711805555
 20
152.7496771918403
 10
24.72889539930555
 20
152.4447862413194
 10
24.72889539930555
 20
152.4447862413194
 10
24.11360134548611
 20
149.5719211154514
 10
24.11360134548611
 20
149.5719211154514
 97
        0
 75
     0
 76
     1
 98
        1
 10
0.0
 20
0.0
  0
HATCH
  5
3C
330
A
100
AcDbEntity
  8
LAYER_1
 62
     7
100
AcDbHatch
 10
0.0
 20
0.0
 30
0.0
210
0.0
220
0.0
230
1.0
  2
SOLID
 70
     1
 71
     0
 91
        1
 92
        1
 93
        1
 72
     4
 94
        3
 73
     0
 74
     0
 95
       56
 96
       52
 40
0.0
 40
0.0
 40
0.0
 40
0.0
 40
1.0
 40
1.0
 40
1.0
 40
2.0
 40
2.0
 40
2.0
 40
3.0
 40
3.0
 40
3.0
 40
4.0
 40
4.0
 40
4.0
 40
5.0
 40
5.0
 40
5.0
 40
6.0
 40
6.0
 40
6.0
 40
7.0
 40
7.0
 40
7.0
 40
8.0
 40
8.0
 40
8.0
 40
9.0
 40
9.0
 40
9.0
 40
10.0
 40
10.0
 40
10.0
 40
11.0
 40
11.0
 40
11.0
 40
12.0
 40
12.0
 40
12.0
 40
13.0
 40
13.0
 40
13.0
 40
14.0
 40
14.0
 40
14.0
 40
15.0
 40
15.0
 40
15.0
 40
16.0
 40
16.0
 40
16.0
 40
17.0
 40
17.0
 40
17.0
 40
17.0
 10
30.90250651041666
 20
152.693177625868
 10
30.93661295572916
 20
153.133460828993
 10
30.69959038628472
 20
153.4666015625
 10
30.23105740017361
 20
153.4666015625
 10
29.54789496527777
 20
153.4666015625
 10
29.47451443142361
 20
153.0376871744792
 10
29.47451443142361
 20
152.71005859375
 10
29.47451443142361
 20
152.4165364583333
 10
29.60439453125
 20
152.2360134548611
 10
29.87517903645833
 20
152.1343831380208
 10
30.10117730034722
 20
152.0496337890625
 10
30.32131890190972
 20
151.9652289496528
 10
30.54697265625
 20
151.8804796006944
 10
31.34864637586805
 20
151.5814453125
 10
31.49540744357639
 20
151.2989474826389
 10
31.49540744357639
 20
150.7401529947917
 10
31.49540744357639
 20
149.9388237847222
 10
30.99311252170138
 20
149.4702907986111
 10
30.18006998697916
 20
149.4702907986111
 10
29.7625244140625
 20
149.4702907986111
 10
29.26574164496527
 20
149.5888020833333
 10
29.02286241319444
 20
150.1417399088542
 10
28.93260091145833
 20
150.3508572048611
 10
28.93845757378472
 20
150.6895100911458
 10
28.93260091145833
 20
150.9151638454861
 10
28.93260091145833
 20
150.9151638454861
 10
29.40113389756944
 20
150.9151638454861
 10
29.40113389756944
 20
150.9151638454861
 10
29.37874077690972
 20
150.2885009765625
 10
29.49725206163194
 20
149.8936930338542
 10
30.2028076171875
 20
149.8936930338542
 10
30.67685275607639
 20
149.8936930338542
 10
31.00999348958333
 20
150.1362277560764
 10
31.00999348958333
 20
150.6330105251736
 10
31.00999348958333
 20
151.2765543619792
 10
30.75023328993055
 20
151.2820665147569
 10
30.32131890190972
 20
151.4457085503472
 10
30.08980848524305
 20
151.5359700520833
 10
29.71739366319444
 20
151.6544813368055
 10
29.49139539930555
 20
151.7733371310764
 10
29.09073079427083
 20
151.9762532552083
 10
28.98910047743055
 20
152.3149061414931
 10
28.98910047743055
 20
152.7327962239583
 10
28.98910047743055
 20
153.4324951171875
 10
29.48037109375
 20
153.8900037977431
 10
30.168701171875
 20
153.8900037977431
 10
30.94212510850694
 20
153.8900037977431
 10
31.41617024739583
 20
153.4889946831597
 10
31.37103949652778
 20
152.693177625868
 10
31.37103949652778
 20
152.693177625868
 10
30.90250651041666
 20
152.693177625868
 10
30.90250651041666
 20
152.693177625868
 97
        0
 75
     0
 76
     1
 98
        1
 10
0.0
 20
0.0
  0
HATCH
  5
3B
330
A
100
AcDbEntity
  8
LAYER_1
 62
     7
100
AcDbHatch
 10
0.0
 20
0.0
 30
0.0
210
0.0
220
0.0
230
1.0
  2
SOLID
 70
     1
 71
     0
 91
        1
 92
        1
 93
        1
 72
     4
 94
        3
 73
     0
 74
     0
 95
       17
 96
       13
 40
0.0
 40
0.0
 40
0.0
 40
0.0
 40
1.0
 40
1.0
 40
1.0
 40
2.0
 40
2.0
 40
2.0
 40
3.0
 40
3.0
 40
3.0
 40
4.0
 40
4.0
 40
4.0
 40
4.0
 10
32.33566623263889
 20
149.5719211154514
 10
32.33566623263889
 20
149.5719211154514
 10
32.33566623263889
 20
153.8052544487847
 10
32.33566623263889
 20
153.8052544487847
 10
32.33566623263889
 20
153.8052544487847
 10
32.80419921875
 20
153.8052544487847
 10
32.80419921875
 20
153.8052544487847
 10
32.80419921875
 20
153.8052544487847
 10
32.80419921875
 20
149.5719211154514
 10
32.80419921875
 20
149.5719211154514
 10
32.80419921875
 20
149.5719211154514
 10
32.33566623263889
 20
149.5719211154514
 10
32.33566623263889
 20
149.5719211154514
 97
        0
 75
     0
 76
     1
 98
        1
 10
0.0
 20
0.0
  0
HATCH
  5
3A
330
A
100
AcDbEntity
  8
LAYER_1
 62
     7
100
AcDbHatch
 10
0.0
 20
0.0
 30
0.0
210
0.0
220
0.0
230
1.0
  2
SOLID
 70
     1
 71
     0
 91
        2
 92
       16
 93
        1
 72
     4
 94
        3
 73
     0
 74
     0
 95
       20
 96
       16
 40
0.0
 40
0.0
 40
0.0
 40
0.0
 40
1.0
 40
1.0
 40
1.0
 40
2.0
 40
2.0
 40
2.0
 40
3.0
 40
3.0
 40
3.0
 40
4.0
 40
4.0
 40
4.0
 40
5.0
 40
5.0
 40
5.0
 40
5.0
 10
34.28214518229166
 20
149.9949788411458
 10
34.28214518229166
 20
149.9949788411458
 10
35.03283148871527
 20
149.9949788411458
 10
35.03283148871527
 20
149.9949788411458
 10
35.72150607638888
 20
149.9949788411458
 10
36.00365939670139
 20
150.508642578125
 10
35.95852864583333
 20
151.7733371310764
 10
35.92476671006944
 20
152.7383083767361
 10
35.78937445746527
 20
153.3818522135417
 10
35.03283148871527
 20
153.3818522135417
 10
35.03283148871527
 20
153.3818522135417
 10
34.28214518229166
 20
153.3818522135417
 10
34.28214518229166
 20
153.3818522135417
 10
34.28214518229166
 20
153.3818522135417
 10
34.28214518229166
 20
149.9949788411458
 10
34.28214518229166
 20
149.9949788411458
 97
        0
 92
        1
 93
        1
 72
     4
 94
        3
 73
     0
 74
     0
 95
       20
 96
       16
 40
0.0
 40
0.0
 40
0.0
 40
0.0
 40
1.0
 40
1.0
 40
1.0
 40
2.0
 40
2.0
 40
2.0
 40
3.0
 40
3.0
 40
3.0
 40
4.0
 40
4.0
 40
4.0
 40
5.0
 40
5.0
 40
5.0
 40
5.0
 10
33.81361219618055
 20
149.5719211154514
 10
33.81361219618055
 20
149.5719211154514
 10
33.81361219618055
 20
153.8052544487847
 10
33.81361219618055
 20
153.8052544487847
 10
33.81361219618055
 20
153.8052544487847
 10
34.97633192274305
 20
153.8052544487847
 10
34.97633192274305
 20
153.8052544487847
 10
36.29718153211805
 20
153.8052544487847
 10
36.47804904513889
 20
152.7327962239583
 10
36.44394259982639
 20
151.6885877821181
 10
36.41018066406249
 20
150.6554036458333
 10
36.20692003038194
 20
149.5719211154514
 10
35.06108127170138
 20
149.5719211154514
 10
35.06108127170138
 20
149.5719211154514
 10
33.81361219618055
 20
149.5719211154514
 10
33.81361219618055
 20
149.5719211154514
 97
        0
 75
     0
 76
     1
 98
        1
 10
0.0
 20
0.0
  0
HATCH
  5
39
330
A
100
AcDbEntity
  8
LAYER_1
 62
     7
100
AcDbHatch
 10
0.0
 20
0.0
 30
0.0
210
0.0
220
0.0
230
1.0
  2
SOLID
 70
     1
 71
     0
 91
        1
 92
        1
 93
        1
 72
     4
 94
        3
 73
     0
 74
     0
 95
       41
 96
       37
 40
0.0
 40
0.0
 40
0.0
 40
0.0
 40
1.0
 40
1.0
 40
1.0
 40
2.0
 40
2.0
 40
2.0
 40
3.0
 40
3.0
 40
3.0
 40
4.0
 40
4.0
 40
4.0
 40
5.0
 40
5.0
 40
5.0
 40
6.0
 40
6.0
 40
6.0
 40
7.0
 40
7.0
 40
7.0
 40
8.0
 40
8.0
 40
8.0
 40
9.0
 40
9.0
 40
9.0
 40
10.0
 40
10.0
 40
10.0
 40
11.0
 40
11.0
 40
11.0
 40
12.0
 40
12.0
 40
12.0
 40
12.0
 10
37.21633300781249
 20
149.5719211154514
 10
37.21633300781249
 20
149.5719211154514
 10
37.21633300781249
 20
153.8052544487847
 10
37.21633300781249
 20
153.8052544487847
 10
37.21633300781249
 20
153.8052544487847
 10
39.33299967447916
 20
153.8052544487847
 10
39.33299967447916
 20
153.8052544487847
 10
39.33299967447916
 20
153.8052544487847
 10
39.33299967447916
 20
153.3818522135417
 10
39.33299967447916
 20
153.3818522135417
 10
39.33299967447916
 20
153.3818522135417
 10
37.68486599392361
 20
153.3818522135417
 10
37.68486599392361
 20
153.3818522135417
 10
37.68486599392361
 20
153.3818522135417
 10
37.68486599392361
 20
151.9821099175347
 10
37.68486599392361
 20
151.9821099175347
 10
37.68486599392361
 20
151.9821099175347
 10
39.23136935763888
 20
151.9821099175347
 10
39.23136935763888
 20
151.9821099175347
 10
39.23136935763888
 20
151.9821099175347
 10
39.23136935763888
 20
151.5587076822916
 10
39.23136935763888
 20
151.5587076822916
 10
39.23136935763888
 20
151.5587076822916
 10
37.68486599392361
 20
151.5587076822916
 10
37.68486599392361
 20
151.5587076822916
 10
37.68486599392361
 20
151.5587076822916
 10
37.68486599392361
 20
149.9949788411458
 10
37.68486599392361
 20
149.9949788411458
 10
37.68486599392361
 20
149.9949788411458
 10
39.34436848958333
 20
149.9949788411458
 10
39.34436848958333
 20
149.9949788411458
 10
39.34436848958333
 20
149.9949788411458
 10
39.34436848958333
 20
149.5719211154514
 10
39.34436848958333
 20
149.5719211154514
 10
39.34436848958333
 20
149.5719211154514
 10
37.21633300781249
 20
149.5719211154514
 10
37.21633300781249
 20
149.5719211154514
 97
        0
 75
     0
 76
     1
 98
        1
 10
0.0
 20
0.0
  0
HATCH
  5
38
330
A
100
AcDbEntity
  8
LAYER_1
 62
     7
100
AcDbHatch
 10
0.0
 20
0.0
 30
0.0
210
0.0
220
0.0
230
1.0
  2
SOLID
 70
     1
 71
     0
 91
        1
 92
        1
 93
        1
 72
     4
 94
        3
 73
     0
 74
     0
 95
       35
 96
       31
 40
0.0
 40
0.0
 40
0.0
 40
0.0
 40
1.0
 40
1.0
 40
1.0
 40
2.0
 40
2.0
 40
2.0
 40
3.0
 40
3.0
 40
3.0
 40
4.0
 40
4.0
 40
4.0
 40
5.0
 40
5.0
 40
5.0
 40
6.0
 40
6.0
 40
6.0
 40
7.0
 40
7.0
 40
7.0
 40
8.0
 40
8.0
 40
8.0
 40
9.0
 40
9.0
 40
9.0
 40
10.0
 40
10.0
 40
10.0
 40
10.0
 10
41.44966634114583
 20
149.5719211154514
 10
41.44966634114583
 20
149.5719211154514
 10
41.44966634114583
 20
153.8052544487847
 10
41.44966634114583
 20
153.8052544487847
 10
41.44966634114583
 20
153.8052544487847
 10
43.43645290798611
 20
153.8052544487847
 10
43.43645290798611
 20
153.8052544487847
 10
43.43645290798611
 20
153.8052544487847
 10
43.43645290798611
 20
153.3818522135417
 10
43.43645290798611
 20
153.3818522135417
 10
43.43645290798611
 20
153.3818522135417
 10
41.91819932725694
 20
153.3818522135417
 10
41.91819932725694
 20
153.3818522135417
 10
41.91819932725694
 20
153.3818522135417
 10
41.91819932725694
 20
151.9934787326389
 10
41.91819932725694
 20
151.9934787326389
 10
41.91819932725694
 20
151.9934787326389
 10
43.32931043836805
 20
151.9934787326389
 10
43.32931043836805
 20
151.9934787326389
 10
43.32931043836805
 20
151.9934787326389
 10
43.32931043836805
 20
151.5700764973958
 10
43.32931043836805
 20
151.5700764973958
 10
43.32931043836805
 20
151.5700764973958
 10
41.91819932725694
 20
151.5700764973958
 10
41.91819932725694
 20
151.5700764973958
 10
41.91819932725694
 20
151.5700764973958
 10
41.91819932725694
 20
149.5719211154514
 10
41.91819932725694
 20
149.5719211154514
 10
41.91819932725694
 20
149.5719211154514
 10
41.44966634114583
 20
149.5719211154514
 10
41.44966634114583
 20
149.5719211154514
 97
        0
 75
     0
 76
     1
 98
        1
 10
0.0
 20
0.0
  0
HATCH
  5
37
330
A
100
AcDbEntity
  8
LAYER_1
 62
     7
100
AcDbHatch
 10
0.0
 20
0.0
 30
0.0
210
0.0
220
0.0
230
1.0
  2
SOLID
 70
     1
 71
     0
 91
        1
 92
        1
 93
        1
 72
     4
 94
        3
 73
     0
 74
     0
 95
       23
 96
       19
 40
0.0
 40
0.0
 40
0.0
 40
0.0
 40
1.0
 40
1.0
 40
1.0
 40
2.0
 40
2.0
 40
2.0
 40
3.0
 40
3.0
 40
3.0
 40
4.0
 40
4.0
 40
4.0
 40
5.0
 40
5.0
 40
5.0
 40
6.0
 40
6.0
 40
6.0
 40
6.0
 10
44.00592719184027
 20
149.5719211154514
 10
44.00592719184027
 20
149.5719211154514
 10
44.00592719184027
 20
153.8052544487847
 10
44.00592719184027
 20
153.8052544487847
 10
44.00592719184027
 20
153.8052544487847
 10
44.47446017795139
 20
153.8052544487847
 10
44.47446017795139
 20
153.8052544487847
 10
44.47446017795139
 20
153.8052544487847
 10
44.47446017795139
 20
149.9949788411458
 10
44.47446017795139
 20
149.9949788411458
 10
44.47446017795139
 20
149.9949788411458
 10
46.20148654513888
 20
149.9949788411458
 10
46.20148654513888
 20
149.9949788411458
 10
46.20148654513888
 20
149.9949788411458
 10
46.20148654513888
 20
149.5719211154514
 10
46.20148654513888
 20
149.5719211154514
 10
46.20148654513888
 20
149.5719211154514
 10
44.00592719184027
 20
149.5719211154514
 10
44.00592719184027
 20
149.5719211154514
 97
        0
 75
     0
 76
     1
 98
        1
 10
0.0
 20
0.0
  0
HATCH
  5
36
330
A
100
AcDbEntity
  8
LAYER_1
 62
     7
100
AcDbHatch
 10
0.0
 20
0.0
 30
0.0
210
0.0
220
0.0
230
1.0
  2
SOLID
 70
     1
 71
     0
 91
        1
 92
        1
 93
        1
 72
     4
 94
        3
 73
     0
 74
     0
 95
       35
 96
       31
 40
0.0
 40
0.0
 40
0.0
 40
0.0
 40
1.0
 40
1.0
 40
1.0
 40
2.0
 40
2.0
 40
2.0
 40
3.0
 40
3.0
 40
3.0
 40
4.0
 40
4.0
 40
4.0
 40
5.0
 40
5.0
 40
5.0
 40
6.0
 40
6.0
 40
6.0
 40
7.0
 40
7.0
 40
7.0
 40
8.0
 40
8.0
 40
8.0
 40
9.0
 40
9.0
 40
9.0
 40
10.0
 40
10.0
 40
10.0
 40
10.0
 10
46.81678059895833
 20
153.8052544487847
 10
46.81678059895833
 20
153.8052544487847
 10
47.28531358506944
 20
153.8052544487847
 10
47.28531358506944
 20
153.8052544487847
 10
47.28531358506944
 20
153.8052544487847
 10
47.28531358506944
 20
150.762890625
 10
47.28531358506944
 20
150.762890625
 10
47.27945692274305
 20
150.429749891493
 10
47.33595648871528
 20
149.8936930338542
 10
48.08664279513889
 20
149.8936930338542
 10
48.8373291015625
 20
149.8936930338542
 10
48.89382866753472
 20
150.429749891493
 10
48.88831651475694
 20
150.762890625
 10
48.88831651475694
 20
150.762890625
 10
48.88831651475694
 20
153.8052544487847
 10
48.88831651475694
 20
153.8052544487847
 10
48.88831651475694
 20
153.8052544487847
 10
49.35684950086805
 20
153.8052544487847
 10
49.35684950086805
 20
153.8052544487847
 10
49.35684950086805
 20
153.8052544487847
 10
49.35684950086805
 20
150.5933919270833
 10
49.35684950086805
 20
150.5933919270833
 10
49.35684950086805
 20
149.8371934678819
 10
48.85455457899305
 20
149.4702907986111
 10
48.08664279513889
 20
149.4702907986111
 10
47.31907552083333
 20
149.4702907986111
 10
46.81678059895833
 20
149.8371934678819
 10
46.81678059895833
 20
150.5933919270833
 10
46.81678059895833
 20
150.5933919270833
 10
46.81678059895833
 20
153.8052544487847
 10
46.81678059895833
 20
153.8052544487847
 97
        0
 75
     0
 76
     1
 98
        1
 10
0.0
 20
0.0
  0
HATCH
  5
35
330
A
100
AcDbEntity
  8
LAYER_1
 62
     7
100
AcDbHatch
 10
0.0
 20
0.0
 30
0.0
210
0.0
220
0.0
230
1.0
  2
SOLID
 70
     1
 71
     0
 91
        1
 92
        1
 93
        1
 72
     4
 94
        3
 73
     0
 74
     0
 95
       56
 96
       52
 40
0.0
 40
0.0
 40
0.0
 40
0.0
 40
1.0
 40
1.0
 40
1.0
 40
2.0
 40
2.0
 40
2.0
 40
3.0
 40
3.0
 40
3.0
 40
4.0
 40
4.0
 40
4.0
 40
5.0
 40
5.0
 40
5.0
 40
6.0
 40
6.0
 40
6.0
 40
7.0
 40
7.0
 40
7.0
 40
8.0
 40
8.0
 40
8.0
 40
9.0
 40
9.0
 40
9.0
 40
10.0
 40
10.0
 40
10.0
 40
11.0
 40
11.0
 40
11.0
 40
12.0
 40
12.0
 40
12.0
 40
13.0
 40
13.0
 40
13.0
 40
14.0
 40
14.0
 40
14.0
 40
15.0
 40
15.0
 40
15.0
 40
16.0
 40
16.0
 40
16.0
 40
17.0
 40
17.0
 40
17.0
 40
17.0
 10
52.0650390625
 20
152.693177625868
 10
52.09914550781249
 20
153.133460828993
 10
51.86212293836805
 20
153.4666015625
 10
51.39358995225694
 20
153.4666015625
 10
50.7104275173611
 20
153.4666015625
 10
50.63704698350694
 20
153.0376871744792
 10
50.63704698350694
 20
152.71005859375
 10
50.63704698350694
 20
152.4165364583333
 10
50.76692708333333
 20
152.2360134548611
 10
51.03805609809027
 20
152.1343831380208
 10
51.26370985243055
 20
152.0496337890625
 10
51.48385145399305
 20
151.9652289496528
 10
51.70950520833333
 20
151.8804796006944
 10
52.51117892795138
 20
151.5814453125
 10
52.65793999565972
 20
151.2989474826389
 10
52.65793999565972
 20
150.7401529947917
 10
52.65793999565972
 20
149.9388237847222
 10
52.15564507378472
 20
149.4702907986111
 10
51.3426025390625
 20
149.4702907986111
 10
50.92505696614583
 20
149.4702907986111
 10
50.42827419704861
 20
149.5888020833333
 10
50.18573947482638
 20
150.1417399088542
 10
50.09513346354166
 20
150.3508572048611
 10
50.10099012586805
 20
150.6895100911458
 10
50.09513346354166
 20
150.9151638454861
 10
50.09513346354166
 20
150.9151638454861
 10
50.56366644965277
 20
150.9151638454861
 10
50.56366644965277
 20
150.9151638454861
 10
50.54127332899305
 20
150.2885009765625
 10
50.65978461371527
 20
149.8936930338542
 10
51.36534016927083
 20
149.8936930338542
 10
51.83938530815972
 20
149.8936930338542
 10
52.17252604166666
 20
150.1362277560764
 10
52.17252604166666
 20
150.6330105251736
 10
52.17252604166666
 20
151.2765543619792
 10
51.91276584201388
 20
151.2820665147569
 10
51.48385145399305
 20
151.4457085503472
 10
51.25234103732638
 20
151.5359700520833
 10
50.87992621527777
 20
151.6544813368055
 10
50.65392795138889
 20
151.7733371310764
 10
50.25326334635416
 20
151.9762532552083
 10
50.15163302951388
 20
152.3149061414931
 10
50.15163302951388
 20
152.7327962239583
 10
50.15163302951388
 20
153.4324951171875
 10
50.64290364583333
 20
153.8900037977431
 10
51.33157823350694
 20
153.8900037977431
 10
52.10465766059027
 20
153.8900037977431
 10
52.57870279947916
 20
153.4889946831597
 10
52.53357204861111
 20
152.693177625868
 10
52.53357204861111
 20
152.693177625868
 10
52.0650390625
 20
152.693177625868
 10
52.0650390625
 20
152.693177625868
 97
        0
 75
     0
 76
     1
 98
        1
 10
0.0
 20
0.0
  0
HATCH
  5
34
330
A
100
AcDbEntity
  8
LAYER_1
 62
     7
100
AcDbHatch
 10
0.0
 20
0.0
 30
0.0
210
0.0
220
0.0
230
1.0
  2
SOLID
 70
     1
 71
     0
 91
        1
 92
        1
 93
        1
 72
     4
 94
        3
 73
     0
 74
     0
 95
       41
 96
       37
 40
0.0
 40
0.0
 40
0.0
 40
0.0
 40
1.0
 40
1.0
 40
1.0
 40
2.0
 40
2.0
 40
2.0
 40
3.0
 40
3.0
 40
3.0
 40
4.0
 40
4.0
 40
4.0
 40
5.0
 40
5.0
 40
5.0
 40
6.0
 40
6.0
 40
6.0
 40
7.0
 40
7.0
 40
7.0
 40
8.0
 40
8.0
 40
8.0
 40
9.0
 40
9.0
 40
9.0
 40
10.0
 40
10.0
 40
10.0
 40
11.0
 40
11.0
 40
11.0
 40
12.0
 40
12.0
 40
12.0
 40
12.0
 10
53.39105631510416
 20
149.5719211154514
 10
53.39105631510416
 20
149.5719211154514
 10
53.39105631510416
 20
153.8052544487847
 10
53.39105631510416
 20
153.8052544487847
 10
53.39105631510416
 20
153.8052544487847
 10
53.85958930121527
 20
153.8052544487847
 10
53.85958930121527
 20
153.8052544487847
 10
53.85958930121527
 20
153.8052544487847
 10
53.85958930121527
 20
152.0386094835069
 10
53.85958930121527
 20
152.0386094835069
 10
53.85958930121527
 20
152.0386094835069
 10
55.47947319878472
 20
152.0386094835069
 10
55.47947319878472
 20
152.0386094835069
 10
55.47947319878472
 20
152.0386094835069
 10
55.47947319878472
 20
153.8052544487847
 10
55.47947319878472
 20
153.8052544487847
 10
55.47947319878472
 20
153.8052544487847
 10
55.94800618489583
 20
153.8052544487847
 10
55.94800618489583
 20
153.8052544487847
 10
55.94800618489583
 20
153.8052544487847
 10
55.94800618489583
 20
149.5719211154514
 10
55.94800618489583
 20
149.5719211154514
 10
55.94800618489583
 20
149.5719211154514
 10
55.47947319878472
 20
149.5719211154514
 10
55.47947319878472
 20
149.5719211154514
 10
55.47947319878472
 20
149.5719211154514
 10
55.47947319878472
 20
151.6152072482639
 10
55.47947319878472
 20
151.6152072482639
 10
55.47947319878472
 20
151.6152072482639
 10
53.85958930121527
 20
151.6152072482639
 10
53.85958930121527
 20
151.6152072482639
 10
53.85958930121527
 20
151.6152072482639
 10
53.85958930121527
 20
149.5719211154514
 10
53.85958930121527
 20
149.5719211154514
 10
53.85958930121527
 20
149.5719211154514
 10
53.39105631510416
 20
149.5719211154514
 10
53.39105631510416
 20
149.5719211154514
 97
        0
 75
     0
 76
     1
 98
        1
 10
0.0
 20
0.0
  0
HATCH
  5
33
330
A
100
AcDbEntity
  8
LAYER_1
 62
     7
100
AcDbHatch
 10
0.0
 20
0.0
 30
0.0
210
0.0
220
0.0
230
1.0
  2
SOLID
 70
     1
 71
     0
 91
        1
 92
        1
 93
        1
 72
     4
 94
        3
 73
     0
 74
     0
 95
       56
 96
       52
 40
0.0
 40
0.0
 40
0.0
 40
0.0
 40
1.0
 40
1.0
 40
1.0
 40
2.0
 40
2.0
 40
2.0
 40
3.0
 40
3.0
 40
3.0
 40
4.0
 40
4.0
 40
4.0
 40
5.0
 40
5.0
 40
5.0
 40
6.0
 40
6.0
 40
6.0
 40
7.0
 40
7.0
 40
7.0
 40
8.0
 40
8.0
 40
8.0
 40
9.0
 40
9.0
 40
9.0
 40
10.0
 40
10.0
 40
10.0
 40
11.0
 40
11.0
 40
11.0
 40
12.0
 40
12.0
 40
12.0
 40
13.0
 40
13.0
 40
13.0
 40
14.0
 40
14.0
 40
14.0
 40
15.0
 40
15.0
 40
15.0
 40
16.0
 40
16.0
 40
16.0
 40
17.0
 40
17.0
 40
17.0
 40
17.0
 10
60.06179470486111
 20
152.693177625868
 10
60.0959011501736
 20
153.133460828993
 10
59.85887858072916
 20
153.4666015625
 10
59.39034559461805
 20
153.4666015625
 10
58.70718315972222
 20
153.4666015625
 10
58.63380262586805
 20
153.0376871744792
 10
58.63380262586805
 20
152.71005859375
 10
58.63380262586805
 20
152.4165364583333
 10
58.76368272569444
 20
152.2360134548611
 10
59.03481174045138
 20
152.1343831380208
 10
59.26046549479166
 20
152.0496337890625
 10
59.48060709635416
 20
151.9652289496528
 10
59.70626085069444
 20
151.8804796006944
 10
60.50793457031249
 20
151.5814453125
 10
60.65469563802083
 20
151.2989474826389
 10
60.65469563802083
 20
150.7401529947917
 10
60.65469563802083
 20
149.9388237847222
 10
60.15240071614583
 20
149.4702907986111
 10
59.33935818142361
 20
149.4702907986111
 10
58.92181260850694
 20
149.4702907986111
 10
58.42502983940972
 20
149.5888020833333
 10
58.18249511718749
 20
150.1417399088542
 10
58.09188910590277
 20
150.3508572048611
 10
58.09774576822916
 20
150.6895100911458
 10
58.09188910590277
 20
150.9151638454861
 10
58.09188910590277
 20
150.9151638454861
 10
58.56042209201388
 20
150.9151638454861
 10
58.56042209201388
 20
150.9151638454861
 10
58.53802897135416
 20
150.2885009765625
 10
58.65654025607638
 20
149.8936930338542
 10
59.36209581163194
 20
149.8936930338542
 10
59.83614095052083
 20
149.8936930338542
 10
60.16928168402777
 20
150.1362277560764
 10
60.16928168402777
 20
150.6330105251736
 10
60.16928168402777
 20
151.2765543619792
 10
59.90952148437499
 20
151.2820665147569
 10
59.48060709635416
 20
151.4457085503472
 10
59.2490966796875
 20
151.5359700520833
 10
58.87668185763889
 20
151.6544813368055
 10
58.65068359375
 20
151.7733371310764
 10
58.25001898871528
 20
151.9762532552083
 10
58.148388671875
 20
152.3149061414931
 10
58.148388671875
 20
152.7327962239583
 10
58.148388671875
 20
153.4324951171875
 10
58.63965928819444
 20
153.8900037977431
 10
59.32833387586805
 20
153.8900037977431
 10
60.10141330295139
 20
153.8900037977431
 10
60.57545844184028
 20
153.4889946831597
 10
60.53032769097221
 20
152.693177625868
 10
60.53032769097221
 20
152.693177625868
 10
60.06179470486111
 20
152.693177625868
 10
60.06179470486111
 20
152.693177625868
 97
        0
 75
     0
 76
     1
 98
        1
 10
0.0
 20
0.0
  0
HATCH
  5
32
330
A
100
AcDbEntity
  8
LAYER_1
 62
     7
100
AcDbHatch
 10
0.0
 20
0.0
 30
0.0
210
0.0
220
0.0
230
1.0
  2
SOLID
 70
     1
 71
     0
 91
        1
 92
        1
 93
        1
 72
     4
 94
        3
 73
     0
 74
     0
 95
       41
 96
       37
 40
0.0
 40
0.0
 40
0.0
 40
0.0
 40
1.0
 40
1.0
 40
1.0
 40
2.0
 40
2.0
 40
2.0
 40
3.0
 40
3.0
 40
3.0
 40
4.0
 40
4.0
 40
4.0
 40
5.0
 40
5.0
 40
5.0
 40
6.0
 40
6.0
 40
6.0
 40
7.0
 40
7.0
 40
7.0
 40
8.0
 40
8.0
 40
8.0
 40
9.0
 40
9.0
 40
9.0
 40
10.0
 40
10.0
 40
10.0
 40
11.0
 40
11.0
 40
11.0
 40
12.0
 40
12.0
 40
12.0
 40
12.0
 10
61.38781195746527
 20
149.5719211154514
 10
61.38781195746527
 20
149.5719211154514
 10
61.38781195746527
 20
153.8052544487847
 10
61.38781195746527
 20
153.8052544487847
 10
61.38781195746527
 20
153.8052544487847
 10
61.85634494357638
 20
153.8052544487847
 10
61.85634494357638
 20
153.8052544487847
 10
61.85634494357638
 20
153.8052544487847
 10
61.85634494357638
 20
152.0386094835069
 10
61.85634494357638
 20
152.0386094835069
 10
61.85634494357638
 20
152.0386094835069
 10
63.47622884114583
 20
152.0386094835069
 10
63.47622884114583
 20
152.0386094835069
 10
63.47622884114583
 20
152.0386094835069
 10
63.47622884114583
 20
153.8052544487847
 10
63.47622884114583
 20
153.8052544487847
 10
63.47622884114583
 20
153.8052544487847
 10
63.94476182725694
 20
153.8052544487847
 10
63.94476182725694
 20
153.8052544487847
 10
63.94476182725694
 20
153.8052544487847
 10
63.94476182725694
 20
149.5719211154514
 10
63.94476182725694
 20
149.5719211154514
 10
63.94476182725694
 20
149.5719211154514
 10
63.47622884114583
 20
149.5719211154514
 10
63.47622884114583
 20
149.5719211154514
 10
63.47622884114583
 20
149.5719211154514
 10
63.47622884114583
 20
151.6152072482639
 10
63.47622884114583
 20
151.6152072482639
 10
63.47622884114583
 20
151.6152072482639
 10
61.85634494357638
 20
151.6152072482639
 10
61.85634494357638
 20
151.6152072482639
 10
61.85634494357638
 20
151.6152072482639
 10
61.85634494357638
 20
149.5719211154514
 10
61.85634494357638
 20
149.5719211154514
 10
61.85634494357638
 20
149.5719211154514
 10
61.38781195746527
 20
149.5719211154514
 10
61.38781195746527
 20
149.5719211154514
 97
        0
 75
     0
 76
     1
 98
        1
 10
0.0
 20
0.0
  0
HATCH
  5
31
330
A
100
AcDbEntity
  8
LAYER_1
 62
     7
100
AcDbHatch
 10
0.0
 20
0.0
 30
0.0
210
0.0
220
0.0
230
1.0
  2
SOLID
 70
     1
 71
     0
 91
        2
 92
       16
 93
        1
 72
     4
 94
        3
 73
     0
 74
     0
 95
       17
 96
       13
 40
0.0
 40
0.0
 40
0.0
 40
0.0
 40
1.0
 40
1.0
 40
1.0
 40
2.0
 40
2.0
 40
2.0
 40
3.0
 40
3.0
 40
3.0
 40
4.0
 40
4.0
 40
4.0
 40
4.0
 10
66.10587022569443
 20
153.4666015625
 10
65.38308919270833
 20
153.4666015625
 10
65.20256618923611
 20
152.71005859375
 10
65.20842285156249
 20
151.76748046875
 10
65.21393500434027
 20
150.5427490234375
 10
65.33795844184027
 20
149.8936930338542
 10
66.11689453125
 20
149.8936930338542
 10
66.89583062065972
 20
149.8936930338542
 10
67.02019856770833
 20
150.5427490234375
 10
67.0257107204861
 20
151.76748046875
 10
67.0315673828125
 20
152.71005859375
 10
66.85069986979165
 20
153.4666015625
 10
66.10587022569443
 20
153.4666015625
 97
        0
 92
        1
 93
        1
 72
     4
 94
        3
 73
     0
 74
     0
 95
       17
 96
       13
 40
0.0
 40
0.0
 40
0.0
 40
0.0
 40
1.0
 40
1.0
 40
1.0
 40
2.0
 40
2.0
 40
2.0
 40
3.0
 40
3.0
 40
3.0
 40
4.0
 40
4.0
 40
4.0
 40
4.0
 10
66.12826334635416
 20
153.8900037977431
 10
67.36436360677082
 20
153.8900037977431
 10
67.51698133680554
 20
152.7496771918403
 10
67.51112467447916
 20
151.7788492838542
 10
67.50561252170138
 20
150.6047607421875
 10
67.35299479166666
 20
149.4702907986111
 10
66.11689453125
 20
149.4702907986111
 10
64.88079427083333
 20
149.4702907986111
 10
64.73403320312499
 20
150.6047607421875
 10
64.72300889756944
 20
151.7788492838542
 10
64.72300889756944
 20
152.7496771918403
 10
64.86942545572916
 20
153.8900037977431
 10
66.12826334635416
 20
153.8900037977431
 97
        0
 75
     0
 76
     1
 98
        1
 10
0.0
 20
0.0
  0
HATCH
  5
30
330
A
100
AcDbEntity
  8
LAYER_1
 62
     7
100
AcDbHatch
 10
0.0
 20
0.0
 30
0.0
210
0.0
220
0.0
230
1.0
  2
SOLID
 70
     1
 71
     0
 91
        1
 92
        1
 93
        1
 72
     4
 94
        3
 73
     0
 74
     0
 95
       71
 96
       67
 40
0.0
 40
0.0
 40
0.0
 40
0.0
 40
1.0
 40
1.0
 40
1.0
 40
2.0
 40
2.0
 40
2.0
 40
3.0
 40
3.0
 40
3.0
 40
4.0
 40
4.0
 40
4.0
 40
5.0
 40
5.0
 40
5.0
 40
6.0
 40
6.0
 40
6.0
 40
7.0
 40
7.0
 40
7.0
 40
8.0
 40
8.0
 40
8.0
 40
9.0
 40
9.0
 40
9.0
 40
10.0
 40
10.0
 40
10.0
 40
11.0
 40
11.0
 40
11.0
 40
12.0
 40
12.0
 40
12.0
 40
13.0
 40
13.0
 40
13.0
 40
14.0
 40
14.0
 40
14.0
 40
15.0
 40
15.0
 40
15.0
 40
16.0
 40
16.0
 40
16.0
 40
17.0
 40
17.0
 40
17.0
 40
18.0
 40
18.0
 40
18.0
 40
19.0
 40
19.0
 40
19.0
 40
20.0
 40
20.0
 40
20.0
 40
21.0
 40
21.0
 40
21.0
 40
22.0
 40
22.0
 40
22.0
 40
22.0
 10
69.41798502604166
 20
149.5719211154514
 10
69.41798502604166
 20
149.5719211154514
 10
68.83679741753471
 20
149.5719211154514
 10
68.83679741753471
 20
149.5719211154514
 10
68.83679741753471
 20
149.5719211154514
 10
67.93349338107639
 20
153.8052544487847
 10
67.93349338107639
 20
153.8052544487847
 10
67.93349338107639
 20
153.8052544487847
 10
68.45301378038194
 20
153.8052544487847
 10
68.45301378038194
 20
153.8052544487847
 10
68.45301378038194
 20
153.8052544487847
 10
69.00595160590277
 20
150.8869140625
 10
69.00595160590277
 20
150.8869140625
 10
69.05693901909721
 20
150.5992485894097
 10
69.09621310763889
 20
150.305726453993
 10
69.13031955295138
 20
149.9105740017361
 10
69.13031955295138
 20
149.9105740017361
 10
69.14168836805555
 20
149.9105740017361
 10
69.14168836805555
 20
149.9105740017361
 10
69.18096245659721
 20
150.2378580729167
 10
69.21506890190972
 20
150.5482611762153
 10
69.27708062065972
 20
150.8531521267361
 10
69.27708062065972
 20
150.8531521267361
 10
69.89788682725694
 20
153.8052544487847
 10
69.89788682725694
 20
153.8052544487847
 10
69.89788682725694
 20
153.8052544487847
 10
70.47941894531249
 20
153.8052544487847
 10
70.47941894531249
 20
153.8052544487847
 10
70.47941894531249
 20
153.8052544487847
 10
71.03821343315971
 20
150.8869140625
 10
71.03821343315971
 20
150.8869140625
 10
71.08885633680555
 20
150.6047607421875
 10
71.12261827256944
 20
150.322607421875
 10
71.16223687065971
 20
149.9105740017361
 10
71.16223687065971
 20
149.9105740017361
 10
71.17360568576389
 20
149.9105740017361
 10
71.17360568576389
 20
149.9105740017361
 10
71.21287977430555
 20
150.2378580729167
 10
71.24698621961805
 20
150.5482611762153
 10
71.30899793836805
 20
150.8531521267361
 10
71.30899793836805
 20
150.8531521267361
 10
71.92429199218749
 20
153.8052544487847
 10
71.92429199218749
 20
153.8052544487847
 10
71.92429199218749
 20
153.8052544487847
 10
72.44346788194444
 20
153.8052544487847
 10
72.44346788194444
 20
153.8052544487847
 10
72.44346788194444
 20
153.8052544487847
 10
71.45024685329861
 20
149.5719211154514
 10
71.45024685329861
 20
149.5719211154514
 10
71.45024685329861
 20
149.5719211154514
 10
70.86871473524305
 20
149.5719211154514
 10
70.86871473524305
 20
149.5719211154514
 10
70.86871473524305
 20
149.5719211154514
 10
70.30440809461805
 20
152.4447862413194
 10
70.30440809461805
 20
152.4447862413194
 10
70.24790852864582
 20
152.7214274088541
 10
70.21414659288193
 20
153.0035807291667
 10
70.18004014756944
 20
153.4666015625
 10
70.18004014756944
 20
153.4666015625
 10
70.16867133246527
 20
153.4666015625
 10
70.16867133246527
 20
153.4666015625
 10
70.12939724392361
 20
153.0600802951389
 10
70.0952907986111
 20
152.7496771918403
 10
70.0332790798611
 20
152.4447862413194
 10
70.0332790798611
 20
152.4447862413194
 10
69.41798502604166
 20
149.5719211154514
 10
69.41798502604166
 20
149.5719211154514
 97
        0
 75
     0
 76
     1
 98
        1
 10
0.0
 20
0.0
  0
HATCH
  5
2F
330
A
100
AcDbEntity
  8
LAYER_1
 62
     7
100
AcDbHatch
 10
0.0
 20
0.0
 30
0.0
210
0.0
220
0.0
230
1.0
  2
SOLID
 70
     1
 71
     0
 91
        1
 92
        1
 93
        1
 72
     4
 94
        3
 73
     0
 74
     0
 95
       53
 96
       49
 40
0.0
 40
0.0
 40
0.0
 40
0.0
 40
1.0
 40
1.0
 40
1.0
 40
2.0
 40
2.0
 40
2.0
 40
3.0
 40
3.0
 40
3.0
 40
4.0
 40
4.0
 40
4.0
 40
5.0
 40
5.0
 40
5.0
 40
6.0
 40
6.0
 40
6.0
 40
7.0
 40
7.0
 40
7.0
 40
8.0
 40
8.0
 40
8.0
 40
9.0
 40
9.0
 40
9.0
 40
10.0
 40
10.0
 40
10.0
 40
11.0
 40
11.0
 40
11.0
 40
12.0
 40
12.0
 40
12.0
 40
13.0
 40
13.0
 40
13.0
 40
14.0
 40
14.0
 40
14.0
 40
15.0
 40
15.0
 40
15.0
 40
16.0
 40
16.0
 40
16.0
 40
16.0
 10
75.08378906249999
 20
153.8052544487847
 10
75.08378906249999
 20
153.8052544487847
 10
75.5523220486111
 20
153.8052544487847
 10
75.5523220486111
 20
153.8052544487847
 10
75.5523220486111
 20
153.8052544487847
 10
75.5523220486111
 20
149.5719211154514
 10
75.5523220486111
 20
149.5719211154514
 10
75.5523220486111
 20
149.5719211154514
 10
74.78475477430555
 20
149.5719211154514
 10
74.78475477430555
 20
149.5719211154514
 10
74.78475477430555
 20
149.5719211154514
 10
73.59929741753471
 20
152.9584499782986
 10
73.59929741753471
 20
152.9584499782986
 10
73.53142903645832
 20
153.150341796875
 10
73.4807861328125
 20
153.3422336154514
 10
73.44116753472221
 20
153.5964816623264
 10
73.44116753472221
 20
153.5964816623264
 10
73.42979871961805
 20
153.5964816623264
 10
73.42979871961805
 20
153.5964816623264
 10
73.43565538194444
 20
153.3818522135417
 10
73.44116753472221
 20
153.1617106119792
 10
73.44116753472221
 20
152.947425672743
 10
73.44116753472221
 20
152.947425672743
 10
73.44116753472221
 20
149.5719211154514
 10
73.44116753472221
 20
149.5719211154514
 10
73.44116753472221
 20
149.5719211154514
 10
72.97263454861111
 20
149.5719211154514
 10
72.97263454861111
 20
149.5719211154514
 10
72.97263454861111
 20
149.5719211154514
 10
72.97263454861111
 20
153.8052544487847
 10
72.97263454861111
 20
153.8052544487847
 10
72.97263454861111
 20
153.8052544487847
 10
73.73468967013888
 20
153.8052544487847
 10
73.73468967013888
 20
153.8052544487847
 10
73.73468967013888
 20
153.8052544487847
 10
74.93702799479166
 20
150.3394883897569
 10
74.93702799479166
 20
150.3394883897569
 10
74.9876708984375
 20
150.2096082899305
 10
75.02728949652777
 20
150.0742160373264
 10
75.08378906249999
 20
149.8764675564236
 10
75.08378906249999
 20
149.8764675564236
 10
75.09515787760417
 20
149.8764675564236
 10
75.09515787760417
 20
149.8764675564236
 10
75.08930121527777
 20
150.0290852864583
 10
75.08378906249999
 20
150.1927273220486
 10
75.08378906249999
 20
150.3508572048611
 10
75.08378906249999
 20
150.3508572048611
 10
75.08378906249999
 20
153.8052544487847
 10
75.08378906249999
 20
153.8052544487847
 97
        0
 75
     0
 76
     1
 98
        1
 10
0.0
 20
0.0
  0
HATCH
  5
2E
330
A
100
AcDbEntity
  8
LAYER_1
 62
     7
100
AcDbHatch
 10
0.0
 20
0.0
 30
0.0
210
0.0
220
0.0
230
1.0
  2
SOLID
 70
     1
 71
     0
 91
        1
 92
        1
 93
        1
 72
     4
 94
        3
 73
     0
 74
     0
 95
       23
 96
       19
 40
0.0
 40
0.0
 40
0.0
 40
0.0
 40
1.0
 40
1.0
 40
1.0
 40
2.0
 40
2.0
 40
2.0
 40
3.0
 40
3.0
 40
3.0
 40
4.0
 40
4.0
 40
4.0
 40
5.0
 40
5.0
 40
5.0
 40
6.0
 40
6.0
 40
6.0
 40
6.0
 10
76.26270073784721
 20
148.3582139756944
 10
76.51660427517361
 20
148.8832465277778
 10
76.96239963107638
 20
149.6170518663194
 10
76.96239963107638
 20
151.0564127604167
 10
76.96239963107638
 20
152.0951090494792
 10
76.76499565972222
 20
152.9019504123264
 10
76.2344509548611
 20
153.8052544487847
 10
76.2344509548611
 20
153.8052544487847
 10
76.56173502604166
 20
153.8052544487847
 10
76.56173502604166
 20
153.8052544487847
 10
77.06988661024305
 20
152.9753309461806
 10
77.43644476996528
 20
152.1119900173611
 10
77.43644476996528
 20
151.1239366319444
 10
77.43644476996528
 20
150.0122043185764
 10
77.13741048177083
 20
149.2952799479166
 10
76.56173502604166
 20
148.3582139756944
 10
76.56173502604166
 20
148.3582139756944
 10
76.26270073784721
 20
148.3582139756944
 10
76.26270073784721
 20
148.3582139756944
 97
        0
 75
     0
 76
     1
 98
        1
 10
0.0
 20
0.0
  0
HATCH
  5
2D
330
A
100
AcDbEntity
  8
LAYER_1
 62
     7
100
AcDbHatch
 10
0.0
 20
0.0
 30
0.0
210
0.0
220
0.0
230
1.0
  2
SOLID
 70
     1
 71
     0
 91
        1
 92
        1
 93
        1
 72
     4
 94
        3
 73
     0
 74
     0
 95
       56
 96
       52
 40
0.0
 40
0.0
 40
0.0
 40
0.0
 40
1.0
 40
1.0
 40
1.0
 40
2.0
 40
2.0
 40
2.0
 40
3.0
 40
3.0
 40
3.0
 40
4.0
 40
4.0
 40
4.0
 40
5.0
 40
5.0
 40
5.0
 40
6.0
 40
6.0
 40
6.0
 40
7.0
 40
7.0
 40
7.0
 40
8.0
 40
8.0
 40
8.0
 40
9.0
 40
9.0
 40
9.0
 40
10.0
 40
10.0
 40
10.0
 40
11.0
 40
11.0
 40
11.0
 40
12.0
 40
12.0
 40
12.0
 40
13.0
 40
13.0
 40
13.0
 40
14.0
 40
14.0
 40
14.0
 40
15.0
 40
15.0
 40
15.0
 40
16.0
 40
16.0
 40
16.0
 40
17.0
 40
17.0
 40
17.0
 40
17.0
 10
11.70367838541667
 20
140.2284776475694
 10
11.73778483072917
 20
140.6687608506944
 10
11.50076226128472
 20
141.0015570746528
 10
11.03222927517361
 20
141.0015570746528
 10
10.34906684027778
 20
141.0015570746528
 10
10.27568630642361
 20
140.5726426866319
 10
10.27568630642361
 20
140.2453586154514
 10
10.27568630642361
 20
139.9518364800347
 10
10.40556640625
 20
139.7713134765625
 10
10.67635091145833
 20
139.6696831597222
 10
10.90234917534722
 20
139.5849338107639
 10
11.12249077690972
 20
139.5001844618055
 10
11.34814453125
 20
139.4157796223958
 10
12.14981825086806
 20
139.1164008246528
 10
12.29657931857639
 20
138.8342475043403
 10
12.29657931857639
 20
138.275453016493
 10
12.29657931857639
 20
137.473779296875
 10
11.79428439670139
 20
137.0052463107639
 10
10.98124186197917
 20
137.0052463107639
 10
10.5636962890625
 20
137.0052463107639
 10
10.06691351996528
 20
137.1237575954861
 10
9.824034288194444
 20
137.6770399305555
 10
9.733772786458333
 20
137.8858127170139
 10
9.739629448784722
 20
138.2244656032986
 10
9.733772786458333
 20
138.4504638671875
 10
9.733772786458333
 20
138.4504638671875
 10
10.20230577256944
 20
138.4504638671875
 10
10.20230577256944
 20
138.4504638671875
 10
10.17991265190972
 20
137.8238009982639
 10
10.29842393663194
 20
137.4286485460069
 10
11.0039794921875
 20
137.4286485460069
 10
11.47802463107639
 20
137.4286485460069
 10
11.81116536458333
 20
137.6715277777778
 10
11.81116536458333
 20
138.1679660373264
 10
11.81116536458333
 20
138.8115098741319
 10
11.55140516493056
 20
138.8173665364583
 10
11.12249077690972
 20
138.9810085720486
 10
10.89098036024305
 20
139.0712700737847
 10
10.51856553819444
 20
139.1897813585069
 10
10.29256727430555
 20
139.3082926432292
 10
9.891902669270833
 20
139.5115532769097
 10
9.790272352430554
 20
139.8502061631944
 10
9.790272352430554
 20
140.2680962456597
 10
9.790272352430554
 20
140.9677951388889
 10
10.28154296875
 20
141.4249593098958
 10
10.969873046875
 20
141.4249593098958
 10
11.74329698350694
 20
141.4249593098958
 10
12.21734212239583
 20
141.0242947048611
 10
12.17221137152778
 20
140.2284776475694
 10
12.17221137152778
 20
140.2284776475694
 10
11.70367838541667
 20
140.2284776475694
 10
11.70367838541667
 20
140.2284776475694
 97
        0
 75
     0
 76
     1
 98
        1
 10
0.0
 20
0.0
  0
HATCH
  5
2C
330
A
100
AcDbEntity
  8
LAYER_1
 62
     7
100
AcDbHatch
 10
0.0
 20
0.0
 30
0.0
210
0.0
220
0.0
230
1.0
  2
SOLID
 70
     1
 71
     0
 91
        2
 92
       16
 93
        1
 72
     4
 94
        3
 73
     0
 74
     0
 95
       20
 96
       16
 40
0.0
 40
0.0
 40
0.0
 40
0.0
 40
1.0
 40
1.0
 40
1.0
 40
2.0
 40
2.0
 40
2.0
 40
3.0
 40
3.0
 40
3.0
 40
4.0
 40
4.0
 40
4.0
 40
5.0
 40
5.0
 40
5.0
 40
5.0
 10
13.53784722222222
 20
139.3251736111111
 10
13.53784722222222
 20
139.3251736111111
 10
13.99501139322917
 20
139.3251736111111
 10
13.99501139322917
 20
139.3251736111111
 10
14.63855523003472
 20
139.3310302734375
 10
15.03336317274306
 20
139.4212917751736
 10
15.02785101996528
 20
140.1492404513889
 10
15.02785101996528
 20
140.8324028862847
 10
14.59342447916667
 20
140.9281765407986
 10
14.02326117621528
 20
140.917152235243
 10
14.02326117621528
 20
140.917152235243
 10
13.53784722222222
 20
140.917152235243
 10
13.53784722222222
 20
140.917152235243
 10
13.53784722222222
 20
140.917152235243
 10
13.53784722222222
 20
139.3251736111111
 10
13.53784722222222
 20
139.3251736111111
 97
        0
 92
        1
 93
        1
 72
     4
 94
        3
 73
     0
 74
     0
 95
       32
 96
       28
 40
0.0
 40
0.0
 40
0.0
 40
0.0
 40
1.0
 40
1.0
 40
1.0
 40
2.0
 40
2.0
 40
2.0
 40
3.0
 40
3.0
 40
3.0
 40
4.0
 40
4.0
 40
4.0
 40
5.0
 40
5.0
 40
5.0
 40
6.0
 40
6.0
 40
6.0
 40
7.0
 40
7.0
 40
7.0
 40
8.0
 40
8.0
 40
8.0
 40
9.0
 40
9.0
 40
9.0
 40
9.0
 10
13.06931423611111
 20
137.1068766276042
 10
13.06931423611111
 20
137.1068766276042
 10
13.06931423611111
 20
141.3402099609375
 10
13.06931423611111
 20
141.3402099609375
 10
13.06931423611111
 20
141.3402099609375
 10
14.18104654947917
 20
141.3402099609375
 10
14.18104654947917
 20
141.3402099609375
 10
14.50867513020833
 20
141.3402099609375
 10
14.92070855034722
 20
141.3009358723958
 10
15.16909993489583
 20
141.0639133029514
 10
15.42300347222222
 20
140.8268907335069
 10
15.51326497395833
 20
140.4992621527778
 10
15.51326497395833
 20
140.1606092664931
 10
15.51326497395833
 20
139.6920762803819
 10
15.37236056857639
 20
139.234912109375
 10
14.91485188802083
 20
139.0261393229167
 10
14.62132975260417
 20
138.901771375868
 10
14.1417724609375
 20
138.901771375868
 10
13.82000054253472
 20
138.901771375868
 10
13.82000054253472
 20
138.901771375868
 10
13.53784722222222
 20
138.901771375868
 10
13.53784722222222
 20
138.901771375868
 10
13.53784722222222
 20
138.901771375868
 10
13.53784722222222
 20
137.1068766276042
 10
13.53784722222222
 20
137.1068766276042
 10
13.53784722222222
 20
137.1068766276042
 10
13.06931423611111
 20
137.1068766276042
 10
13.06931423611111
 20
137.1068766276042
 97
        0
 75
     0
 76
     1
 98
        1
 10
0.0
 20
0.0
  0
HATCH
  5
2B
330
A
100
AcDbEntity
  8
LAYER_1
 62
     7
100
AcDbHatch
 10
0.0
 20
0.0
 30
0.0
210
0.0
220
0.0
230
1.0
  2
SOLID
 70
     1
 71
     0
 91
        1
 92
        1
 93
        1
 72
     4
 94
        3
 73
     0
 74
     0
 95
       41
 96
       37
 40
0.0
 40
0.0
 40
0.0
 40
0.0
 40
1.0
 40
1.0
 40
1.0
 40
2.0
 40
2.0
 40
2.0
 40
3.0
 40
3.0
 40
3.0
 40
4.0
 40
4.0
 40
4.0
 40
5.0
 40
5.0
 40
5.0
 40
6.0
 40
6.0
 40
6.0
 40
7.0
 40
7.0
 40
7.0
 40
8.0
 40
8.0
 40
8.0
 40
9.0
 40
9.0
 40
9.0
 40
10.0
 40
10.0
 40
10.0
 40
11.0
 40
11.0
 40
11.0
 40
12.0
 40
12.0
 40
12.0
 40
12.0
 10
16.13923882378472
 20
137.1068766276042
 10
16.13923882378472
 20
137.1068766276042
 10
16.13923882378472
 20
141.3402099609375
 10
16.13923882378472
 20
141.3402099609375
 10
16.13923882378472
 20
141.3402099609375
 10
18.25590549045139
 20
141.3402099609375
 10
18.25590549045139
 20
141.3402099609375
 10
18.25590549045139
 20
141.3402099609375
 10
18.25590549045139
 20
140.917152235243
 10
18.25590549045139
 20
140.917152235243
 10
18.25590549045139
 20
140.917152235243
 10
16.60777180989583
 20
140.917152235243
 10
16.60777180989583
 20
140.917152235243
 10
16.60777180989583
 20
140.917152235243
 10
16.60777180989583
 20
139.5170654296875
 10
16.60777180989583
 20
139.5170654296875
 10
16.60777180989583
 20
139.5170654296875
 10
18.15427517361111
 20
139.5170654296875
 10
18.15427517361111
 20
139.5170654296875
 10
18.15427517361111
 20
139.5170654296875
 10
18.15427517361111
 20
139.0936631944445
 10
18.15427517361111
 20
139.0936631944445
 10
18.15427517361111
 20
139.0936631944445
 10
16.60777180989583
 20
139.0936631944445
 10
16.60777180989583
 20
139.0936631944445
 10
16.60777180989583
 20
139.0936631944445
 10
16.60777180989583
 20
137.5302788628472
 10
16.60777180989583
 20
137.5302788628472
 10
16.60777180989583
 20
137.5302788628472
 10
18.26727430555555
 20
137.5302788628472
 10
18.26727430555555
 20
137.5302788628472
 10
18.26727430555555
 20
137.5302788628472
 10
18.26727430555555
 20
137.1068766276042
 10
18.26727430555555
 20
137.1068766276042
 10
18.26727430555555
 20
137.1068766276042
 10
16.13923882378472
 20
137.1068766276042
 10
16.13923882378472
 20
137.1068766276042
 97
        0
 75
     0
 76
     1
 98
        1
 10
0.0
 20
0.0
  0
HATCH
  5
2A
330
A
100
AcDbEntity
  8
LAYER_1
 62
     7
100
AcDbHatch
 10
0.0
 20
0.0
 30
0.0
210
0.0
220
0.0
230
1.0
  2
SOLID
 70
     1
 71
     0
 91
        1
 92
        1
 93
        1
 72
     4
 94
        3
 73
     0
 74
     0
 95
       44
 96
       40
 40
0.0
 40
0.0
 40
0.0
 40
0.0
 40
1.0
 40
1.0
 40
1.0
 40
2.0
 40
2.0
 40
2.0
 40
3.0
 40
3.0
 40
3.0
 40
4.0
 40
4.0
 40
4.0
 40
5.0
 40
5.0
 40
5.0
 40
6.0
 40
6.0
 40
6.0
 40
7.0
 40
7.0
 40
7.0
 40
8.0
 40
8.0
 40
8.0
 40
9.0
 40
9.0
 40
9.0
 40
10.0
 40
10.0
 40
10.0
 40
11.0
 40
11.0
 40
11.0
 40
12.0
 40
12.0
 40
12.0
 40
13.0
 40
13.0
 40
13.0
 40
13.0
 10
20.91448567708333
 20
140.070347764757
 10
20.90311686197916
 20
140.5726426866319
 10
20.73947482638889
 20
141.0015570746528
 10
20.15243055555555
 20
141.0015570746528
 10
19.33973253038194
 20
141.0015570746528
 10
19.32836371527777
 20
139.8446940104167
 10
19.32836371527777
 20
139.2858995225694
 10
19.30597059461805
 20
138.7098795572917
 10
19.29460177951389
 20
137.4286485460069
 10
20.15243055555555
 20
137.4286485460069
 10
20.71122504340278
 20
137.4286485460069
 10
20.829736328125
 20
137.8858127170139
 10
20.88623589409722
 20
138.3488335503472
 10
20.89760470920139
 20
138.4446072048611
 10
20.90311686197916
 20
138.5407253689236
 10
20.91448567708333
 20
138.6364990234375
 10
20.91448567708333
 20
138.6364990234375
 10
21.38301866319444
 20
138.6364990234375
 10
21.38301866319444
 20
138.6364990234375
 10
21.37164984809028
 20
138.5520941840278
 10
21.37164984809028
 20
138.461488172743
 10
21.36062554253472
 20
138.3770833333333
 10
21.33237575954861
 20
138.0325737847222
 10
21.31515028211805
 20
137.7731580946181
 10
21.11223415798611
 20
137.4796359592014
 10
20.89209255642361
 20
137.1747450086805
 10
20.59857042100694
 20
137.0052463107639
 10
20.19204915364583
 20
137.0052463107639
 10
18.88808051215278
 20
137.0052463107639
 10
18.84294976128472
 20
138.2640842013889
 10
18.84294976128472
 20
139.2745307074653
 10
18.84294976128472
 20
140.2284776475694
 10
18.98419867621528
 20
141.4249593098958
 10
20.18619249131944
 20
141.4249593098958
 10
20.9878662109375
 20
141.4249593098958
 10
21.40575629340277
 20
140.8268907335069
 10
21.38301866319444
 20
140.070347764757
 10
21.38301866319444
 20
140.070347764757
 10
20.91448567708333
 20
140.070347764757
 10
20.91448567708333
 20
140.070347764757
 97
        0
 75
     0
 76
     1
 98
        1
 10
0.0
 20
0.0
  0
HATCH
  5
29
330
A
100
AcDbEntity
  8
LAYER_1
 62
     7
100
AcDbHatch
 10
0.0
 20
0.0
 30
0.0
210
0.0
220
0.0
230
1.0
  2
SOLID
 70
     1
 71
     0
 91
        1
 92
        1
 93
        1
 72
     4
 94
        3
 73
     0
 74
     0
 95
       17
 96
       13
 40
0.0
 40
0.0
 40
0.0
 40
0.0
 40
1.0
 40
1.0
 40
1.0
 40
2.0
 40
2.0
 40
2.0
 40
3.0
 40
3.0
 40
3.0
 40
4.0
 40
4.0
 40
4.0
 40
4.0
 10
22.23464626736111
 20
137.1068766276042
 10
22.23464626736111
 20
137.1068766276042
 10
22.23464626736111
 20
141.3402099609375
 10
22.23464626736111
 20
141.3402099609375
 10
22.23464626736111
 20
141.3402099609375
 10
22.70317925347222
 20
141.3402099609375
 10
22.70317925347222
 20
141.3402099609375
 10
22.70317925347222
 20
141.3402099609375
 10
22.70317925347222
 20
137.1068766276042
 10
22.70317925347222
 20
137.1068766276042
 10
22.70317925347222
 20
137.1068766276042
 10
22.23464626736111
 20
137.1068766276042
 10
22.23464626736111
 20
137.1068766276042
 97
        0
 75
     0
 76
     1
 98
        1
 10
0.0
 20
0.0
  0
HATCH
  5
28
330
A
100
AcDbEntity
  8
LAYER_1
 62
     7
100
AcDbHatch
 10
0.0
 20
0.0
 30
0.0
210
0.0
220
0.0
230
1.0
  2
SOLID
 70
     1
 71
     0
 91
        1
 92
        1
 93
        1
 72
     4
 94
        3
 73
     0
 74
     0
 95
       35
 96
       31
 40
0.0
 40
0.0
 40
0.0
 40
0.0
 40
1.0
 40
1.0
 40
1.0
 40
2.0
 40
2.0
 40
2.0
 40
3.0
 40
3.0
 40
3.0
 40
4.0
 40
4.0
 40
4.0
 40
5.0
 40
5.0
 40
5.0
 40
6.0
 40
6.0
 40
6.0
 40
7.0
 40
7.0
 40
7.0
 40
8.0
 40
8.0
 40
8.0
 40
9.0
 40
9.0
 40
9.0
 40
10.0
 40
10.0
 40
10.0
 40
10.0
 10
23.66746148003472
 20
137.1068766276042
 10
23.66746148003472
 20
137.1068766276042
 10
23.66746148003472
 20
141.3402099609375
 10
23.66746148003472
 20
141.3402099609375
 10
23.66746148003472
 20
141.3402099609375
 10
25.654248046875
 20
141.3402099609375
 10
25.654248046875
 20
141.3402099609375
 10
25.654248046875
 20
141.3402099609375
 10
25.654248046875
 20
140.917152235243
 10
25.654248046875
 20
140.917152235243
 10
25.654248046875
 20
140.917152235243
 10
24.13599446614583
 20
140.917152235243
 10
24.13599446614583
 20
140.917152235243
 10
24.13599446614583
 20
140.917152235243
 10
24.13599446614583
 20
139.5284342447916
 10
24.13599446614583
 20
139.5284342447916
 10
24.13599446614583
 20
139.5284342447916
 10
25.54710557725694
 20
139.5284342447916
 10
25.54710557725694
 20
139.5284342447916
 10
25.54710557725694
 20
139.5284342447916
 10
25.54710557725694
 20
139.1050320095486
 10
25.54710557725694
 20
139.1050320095486
 10
25.54710557725694
 20
139.1050320095486
 10
24.13599446614583
 20
139.1050320095486
 10
24.13599446614583
 20
139.1050320095486
 10
24.13599446614583
 20
139.1050320095486
 10
24.13599446614583
 20
137.1068766276042
 10
24.13599446614583
 20
137.1068766276042
 10
24.13599446614583
 20
137.1068766276042
 10
23.66746148003472
 20
137.1068766276042
 10
23.66746148003472
 20
137.1068766276042
 97
        0
 75
     0
 76
     1
 98
        1
 10
0.0
 20
0.0
  0
HATCH
  5
27
330
A
100
AcDbEntity
  8
LAYER_1
 62
     7
100
AcDbHatch
 10
0.0
 20
0.0
 30
0.0
210
0.0
220
0.0
230
1.0
  2
SOLID
 70
     1
 71
     0
 91
        1
 92
        1
 93
        1
 72
     4
 94
        3
 73
     0
 74
     0
 95
       32
 96
       28
 40
0.0
 40
0.0
 40
0.0
 40
0.0
 40
1.0
 40
1.0
 40
1.0
 40
2.0
 40
2.0
 40
2.0
 40
3.0
 40
3.0
 40
3.0
 40
4.0
 40
4.0
 40
4.0
 40
5.0
 40
5.0
 40
5.0
 40
6.0
 40
6.0
 40
6.0
 40
7.0
 40
7.0
 40
7.0
 40
8.0
 40
8.0
 40
8.0
 40
9.0
 40
9.0
 40
9.0
 40
9.0
 10
27.32443033854166
 20
139.218031141493
 10
27.32443033854166
 20
139.218031141493
 10
28.3176513671875
 20
141.3402099609375
 10
28.3176513671875
 20
141.3402099609375
 10
28.3176513671875
 20
141.3402099609375
 10
28.83717176649305
 20
141.3402099609375
 10
28.83717176649305
 20
141.3402099609375
 10
28.83717176649305
 20
141.3402099609375
 10
27.55559624565972
 20
138.7494981553819
 10
27.55559624565972
 20
138.7494981553819
 10
27.55559624565972
 20
138.7494981553819
 10
27.55559624565972
 20
137.1068766276042
 10
27.55559624565972
 20
137.1068766276042
 10
27.55559624565972
 20
137.1068766276042
 10
27.08740776909722
 20
137.1068766276042
 10
27.08740776909722
 20
137.1068766276042
 10
27.08740776909722
 20
137.1068766276042
 10
27.08740776909722
 20
138.7494981553819
 10
27.08740776909722
 20
138.7494981553819
 10
27.08740776909722
 20
138.7494981553819
 10
25.81720106336805
 20
141.3402099609375
 10
25.81720106336805
 20
141.3402099609375
 10
25.81720106336805
 20
141.3402099609375
 10
26.336376953125
 20
141.3402099609375
 10
26.336376953125
 20
141.3402099609375
 10
26.336376953125
 20
141.3402099609375
 10
27.32443033854166
 20
139.218031141493
 10
27.32443033854166
 20
139.218031141493
 97
        0
 75
     0
 76
     1
 98
        1
 10
0.0
 20
0.0
  0
HATCH
  5
26
330
A
100
AcDbEntity
  8
LAYER_1
 62
     7
100
AcDbHatch
 10
0.0
 20
0.0
 30
0.0
210
0.0
220
0.0
230
1.0
  2
SOLID
 70
     1
 71
     0
 91
        2
 92
       16
 93
        1
 72
     4
 94
        3
 73
     0
 74
     0
 95
       17
 96
       13
 40
0.0
 40
0.0
 40
0.0
 40
0.0
 40
1.0
 40
1.0
 40
1.0
 40
2.0
 40
2.0
 40
2.0
 40
3.0
 40
3.0
 40
3.0
 40
4.0
 40
4.0
 40
4.0
 40
4.0
 10
11.02086046006944
 20
135.7098904079861
 10
11.02086046006944
 20
135.7098904079861
 10
11.00949164496528
 20
135.7098904079861
 10
11.00949164496528
 20
135.7098904079861
 10
11.00949164496528
 20
135.7098904079861
 10
10.45069715711806
 20
133.4578314887153
 10
10.45069715711806
 20
133.4578314887153
 10
10.45069715711806
 20
133.4578314887153
 10
11.5682861328125
 20
133.4578314887153
 10
11.5682861328125
 20
133.4578314887153
 10
11.5682861328125
 20
133.4578314887153
 10
11.02086046006944
 20
135.7098904079861
 10
11.02086046006944
 20
135.7098904079861
 97
        0
 92
        1
 93
        1
 72
     4
 94
        3
 73
     0
 74
     0
 95
       29
 96
       25
 40
0.0
 40
0.0
 40
0.0
 40
0.0
 40
1.0
 40
1.0
 40
1.0
 40
2.0
 40
2.0
 40
2.0
 40
3.0
 40
3.0
 40
3.0
 40
4.0
 40
4.0
 40
4.0
 40
5.0
 40
5.0
 40
5.0
 40
6.0
 40
6.0
 40
6.0
 40
7.0
 40
7.0
 40
7.0
 40
8.0
 40
8.0
 40
8.0
 40
8.0
 10
10.71596950954861
 20
136.0485432942708
 10
10.71596950954861
 20
136.0485432942708
 10
11.33677571614583
 20
136.0485432942708
 10
11.33677571614583
 20
136.0485432942708
 10
11.33677571614583
 20
136.0485432942708
 10
12.52774522569444
 20
131.8152099609375
 10
12.52774522569444
 20
131.8152099609375
 10
12.52774522569444
 20
131.8152099609375
 10
12.0085693359375
 20
131.8152099609375
 10
12.0085693359375
 20
131.8152099609375
 10
12.0085693359375
 20
131.8152099609375
 10
11.67542860243056
 20
133.0344292534722
 10
11.67542860243056
 20
133.0344292534722
 10
11.67542860243056
 20
133.0344292534722
 10
10.33769802517361
 20
133.0344292534722
 10
10.33769802517361
 20
133.0344292534722
 10
10.33769802517361
 20
133.0344292534722
 10
10.027294921875
 20
131.8152099609375
 10
10.027294921875
 20
131.8152099609375
 10
10.027294921875
 20
131.8152099609375
 10
9.508119032118055
 20
131.8152099609375
 10
9.508119032118055
 20
131.8152099609375
 10
9.508119032118055
 20
131.8152099609375
 10
10.71596950954861
 20
136.0485432942708
 10
10.71596950954861
 20
136.0485432942708
 97
        0
 75
     0
 76
     1
 98
        1
 10
0.0
 20
0.0
  0
HATCH
  5
25
330
A
100
AcDbEntity
  8
LAYER_1
 62
     7
100
AcDbHatch
 10
0.0
 20
0.0
 30
0.0
210
0.0
220
0.0
230
1.0
  2
SOLID
 70
     1
 71
     0
 91
        1
 92
        1
 93
        1
 72
     4
 94
        3
 73
     0
 74
     0
 95
       53
 96
       49
 40
0.0
 40
0.0
 40
0.0
 40
0.0
 40
1.0
 40
1.0
 40
1.0
 40
2.0
 40
2.0
 40
2.0
 40
3.0
 40
3.0
 40
3.0
 40
4.0
 40
4.0
 40
4.0
 40
5.0
 40
5.0
 40
5.0
 40
6.0
 40
6.0
 40
6.0
 40
7.0
 40
7.0
 40
7.0
 40
8.0
 40
8.0
 40
8.0
 40
9.0
 40
9.0
 40
9.0
 40
10.0
 40
10.0
 40
10.0
 40
11.0
 40
11.0
 40
11.0
 40
12.0
 40
12.0
 40
12.0
 40
13.0
 40
13.0
 40
13.0
 40
14.0
 40
14.0
 40
14.0
 40
15.0
 40
15.0
 40
15.0
 40
16.0
 40
16.0
 40
16.0
 40
16.0
 10
15.12948133680555
 20
136.0485432942708
 10
15.12948133680555
 20
136.0485432942708
 10
15.59801432291667
 20
136.0485432942708
 10
15.59801432291667
 20
136.0485432942708
 10
15.59801432291667
 20
136.0485432942708
 10
15.59801432291667
 20
131.8152099609375
 10
15.59801432291667
 20
131.8152099609375
 10
15.59801432291667
 20
131.8152099609375
 10
14.83044704861111
 20
131.8152099609375
 10
14.83044704861111
 20
131.8152099609375
 10
14.83044704861111
 20
131.8152099609375
 10
13.64498969184028
 20
135.2020833333333
 10
13.64498969184028
 20
135.2020833333333
 10
13.57712131076389
 20
135.3939751519097
 10
13.52647840711805
 20
135.5858669704861
 10
13.48685980902778
 20
135.8397705078125
 10
13.48685980902778
 20
135.8397705078125
 10
13.47549099392361
 20
135.8397705078125
 10
13.47549099392361
 20
135.8397705078125
 10
13.48134765625
 20
135.6254855685764
 10
13.48685980902778
 20
135.4053439670139
 10
13.48685980902778
 20
135.1907145182292
 10
13.48685980902778
 20
135.1907145182292
 10
13.48685980902778
 20
131.8152099609375
 10
13.48685980902778
 20
131.8152099609375
 10
13.48685980902778
 20
131.8152099609375
 10
13.01832682291667
 20
131.8152099609375
 10
13.01832682291667
 20
131.8152099609375
 10
13.01832682291667
 20
131.8152099609375
 10
13.01832682291667
 20
136.0485432942708
 10
13.01832682291667
 20
136.0485432942708
 10
13.01832682291667
 20
136.0485432942708
 10
13.78038194444444
 20
136.0485432942708
 10
13.78038194444444
 20
136.0485432942708
 10
13.78038194444444
 20
136.0485432942708
 10
14.98272026909722
 20
132.582777235243
 10
14.98272026909722
 20
132.582777235243
 10
15.03336317274306
 20
132.4532416449653
 10
15.07298177083333
 20
132.3175048828125
 10
15.12948133680555
 20
132.1201009114583
 10
15.12948133680555
 20
132.1201009114583
 10
15.14085015190972
 20
132.1201009114583
 10
15.14085015190972
 20
132.1201009114583
 10
15.13499348958333
 20
132.2723741319445
 10
15.12948133680555
 20
132.4360161675347
 10
15.12948133680555
 20
132.5941460503472
 10
15.12948133680555
 20
132.5941460503472
 10
15.12948133680555
 20
136.0485432942708
 10
15.12948133680555
 20
136.0485432942708
 97
        0
 75
     0
 76
     1
 98
        1
 10
0.0
 20
0.0
  0
HATCH
  5
24
330
A
100
AcDbEntity
  8
LAYER_1
 62
     7
100
AcDbHatch
 10
0.0
 20
0.0
 30
0.0
210
0.0
220
0.0
230
1.0
  2
SOLID
 70
     1
 71
     0
 91
        1
 92
        1
 93
        1
 72
     4
 94
        3
 73
     0
 74
     0
 95
       53
 96
       49
 40
0.0
 40
0.0
 40
0.0
 40
0.0
 40
1.0
 40
1.0
 40
1.0
 40
2.0
 40
2.0
 40
2.0
 40
3.0
 40
3.0
 40
3.0
 40
4.0
 40
4.0
 40
4.0
 40
5.0
 40
5.0
 40
5.0
 40
6.0
 40
6.0
 40
6.0
 40
7.0
 40
7.0
 40
7.0
 40
8.0
 40
8.0
 40
8.0
 40
9.0
 40
9.0
 40
9.0
 40
10.0
 40
10.0
 40
10.0
 40
11.0
 40
11.0
 40
11.0
 40
12.0
 40
12.0
 40
12.0
 40
13.0
 40
13.0
 40
13.0
 40
14.0
 40
14.0
 40
14.0
 40
15.0
 40
15.0
 40
15.0
 40
16.0
 40
16.0
 40
16.0
 40
16.0
 10
19.0344970703125
 20
131.7814480251736
 10
19.0344970703125
 20
131.7814480251736
 10
18.67345106336805
 20
131.7814480251736
 10
18.67345106336805
 20
131.7814480251736
 10
18.67345106336805
 20
131.7814480251736
 10
18.67345106336805
 20
132.4418728298611
 10
18.67345106336805
 20
132.4418728298611
 10
18.67345106336805
 20
132.4418728298611
 10
18.66208224826389
 20
132.4418728298611
 10
18.66208224826389
 20
132.4418728298611
 10
18.53771430121528
 20
131.9619710286458
 10
18.15978732638889
 20
131.7135796440972
 10
17.69125434027778
 20
131.7135796440972
 10
16.43241644965278
 20
131.7135796440972
 10
16.33664279513889
 20
132.9669053819444
 10
16.33664279513889
 20
133.9601264105903
 10
16.33664279513889
 20
134.9481797960069
 10
16.51130913628472
 20
136.1332926432291
 10
17.73638509114583
 20
136.1332926432291
 10
18.54357096354167
 20
136.1332926432291
 10
19.00624728732639
 20
135.6082600911458
 10
18.99487847222222
 20
134.8182996961805
 10
18.99487847222222
 20
134.8182996961805
 10
18.52083333333333
 20
134.8182996961805
 10
18.52083333333333
 20
134.8182996961805
 10
18.51532118055555
 20
135.3374755859375
 10
18.29517957899305
 20
135.6988661024305
 10
17.75877821180556
 20
135.7098904079861
 10
16.8330810546875
 20
135.7271158854167
 10
16.82205674913194
 20
134.6656819661458
 10
16.82205674913194
 20
133.9432454427083
 10
16.82205674913194
 20
133.2997016059028
 10
16.78795030381944
 20
132.1766004774306
 10
17.62338595920139
 20
132.1369818793403
 10
18.49258355034722
 20
132.09736328125
 10
18.57182074652778
 20
132.8935248480903
 10
18.56596408420139
 20
133.5649739583333
 10
18.56596408420139
 20
133.5649739583333
 10
17.62338595920139
 20
133.5649739583333
 10
17.62338595920139
 20
133.5649739583333
 10
17.62338595920139
 20
133.5649739583333
 10
17.62338595920139
 20
133.9883761935764
 10
17.62338595920139
 20
133.9883761935764
 10
17.62338595920139
 20
133.9883761935764
 10
19.0344970703125
 20
133.9883761935764
 10
19.0344970703125
 20
133.9883761935764
 10
19.0344970703125
 20
133.9883761935764
 10
19.0344970703125
 20
131.7814480251736
 10
19.0344970703125
 20
131.7814480251736
 97
        0
 75
     0
 76
     1
 98
        1
 10
0.0
 20
0.0
  0
HATCH
  5
23
330
A
100
AcDbEntity
  8
LAYER_1
 62
     7
100
AcDbHatch
 10
0.0
 20
0.0
 30
0.0
210
0.0
220
0.0
230
1.0
  2
SOLID
 70
     1
 71
     0
 91
        1
 92
        1
 93
        1
 72
     4
 94
        3
 73
     0
 74
     0
 95
       23
 96
       19
 40
0.0
 40
0.0
 40
0.0
 40
0.0
 40
1.0
 40
1.0
 40
1.0
 40
2.0
 40
2.0
 40
2.0
 40
3.0
 40
3.0
 40
3.0
 40
4.0
 40
4.0
 40
4.0
 40
5.0
 40
5.0
 40
5.0
 40
6.0
 40
6.0
 40
6.0
 40
6.0
 10
19.94813639322917
 20
131.8152099609375
 10
19.94813639322917
 20
131.8152099609375
 10
19.94813639322917
 20
136.0485432942708
 10
19.94813639322917
 20
136.0485432942708
 10
19.94813639322917
 20
136.0485432942708
 10
20.41666937934028
 20
136.0485432942708
 10
20.41666937934028
 20
136.0485432942708
 10
20.41666937934028
 20
136.0485432942708
 10
20.41666937934028
 20
132.2386121961806
 10
20.41666937934028
 20
132.2386121961806
 10
20.41666937934028
 20
132.2386121961806
 10
22.14369574652778
 20
132.2386121961806
 10
22.14369574652778
 20
132.2386121961806
 10
22.14369574652778
 20
132.2386121961806
 10
22.14369574652778
 20
131.8152099609375
 10
22.14369574652778
 20
131.8152099609375
 10
22.14369574652778
 20
131.8152099609375
 10
19.94813639322917
 20
131.8152099609375
 10
19.94813639322917
 20
131.8152099609375
 97
        0
 75
     0
 76
     1
 98
        1
 10
0.0
 20
0.0
  0
HATCH
  5
22
330
A
100
AcDbEntity
  8
LAYER_1
 62
     7
100
AcDbHatch
 10
0.0
 20
0.0
 30
0.0
210
0.0
220
0.0
230
1.0
  2
SOLID
 70
     1
 71
     0
 91
        1
 92
        1
 93
        1
 72
     4
 94
        3
 73
     0
 74
     0
 95
       41
 96
       37
 40
0.0
 40
0.0
 40
0.0
 40
0.0
 40
1.0
 40
1.0
 40
1.0
 40
2.0
 40
2.0
 40
2.0
 40
3.0
 40
3.0
 40
3.0
 40
4.0
 40
4.0
 40
4.0
 40
5.0
 40
5.0
 40
5.0
 40
6.0
 40
6.0
 40
6.0
 40
7.0
 40
7.0
 40
7.0
 40
8.0
 40
8.0
 40
8.0
 40
9.0
 40
9.0
 40
9.0
 40
10.0
 40
10.0
 40
10.0
 40
11.0
 40
11.0
 40
11.0
 40
12.0
 40
12.0
 40
12.0
 40
12.0
 10
22.71937120225694
 20
131.8152099609375
 10
22.71937120225694
 20
131.8152099609375
 10
22.71937120225694
 20
136.0485432942708
 10
22.71937120225694
 20
136.0485432942708
 10
22.71937120225694
 20
136.0485432942708
 10
24.83603786892361
 20
136.0485432942708
 10
24.83603786892361
 20
136.0485432942708
 10
24.83603786892361
 20
136.0485432942708
 10
24.83603786892361
 20
135.6254855685764
 10
24.83603786892361
 20
135.6254855685764
 10
24.83603786892361
 20
135.6254855685764
 10
23.18790418836806
 20
135.6254855685764
 10
23.18790418836806
 20
135.6254855685764
 10
23.18790418836806
 20
135.6254855685764
 10
23.18790418836806
 20
134.2253987630208
 10
23.18790418836806
 20
134.2253987630208
 10
23.18790418836806
 20
134.2253987630208
 10
24.73440755208333
 20
134.2253987630208
 10
24.73440755208333
 20
134.2253987630208
 10
24.73440755208333
 20
134.2253987630208
 10
24.73440755208333
 20
133.8019965277778
 10
24.73440755208333
 20
133.8019965277778
 10
24.73440755208333
 20
133.8019965277778
 10
23.18790418836806
 20
133.8019965277778
 10
23.18790418836806
 20
133.8019965277778
 10
23.18790418836806
 20
133.8019965277778
 10
23.18790418836806
 20
132.2386121961806
 10
23.18790418836806
 20
132.2386121961806
 10
23.18790418836806
 20
132.2386121961806
 10
24.84740668402777
 20
132.2386121961806
 10
24.84740668402777
 20
132.2386121961806
 10
24.84740668402777
 20
132.2386121961806
 10
24.84740668402777
 20
131.8152099609375
 10
24.84740668402777
 20
131.8152099609375
 10
24.84740668402777
 20
131.8152099609375
 10
22.71937120225694
 20
131.8152099609375
 10
22.71937120225694
 20
131.8152099609375
 97
        0
 75
     0
 76
     1
 98
        1
 10
0.0
 20
0.0
  0
ENDSEC
  0
SECTION
  2
OBJECTS
  0
DICTIONARY
  5
19
330
0
100
AcDbDictionary
281
     1
  3
ACAD_COLOR
350
17C
  3
ACAD_GROUP
350
1A
  3
ACAD_LAYOUT
350
149
  3
ACAD_MATERIAL
350
17E
  3
ACAD_MLINESTYLE
350
1B
  3
ACAD_PLOTSETTINGS
350
14A
  3
ACAD_PLOTSTYLENAME
350
147
  3
ACDBHEADERROUNDTRIPXREC
350
17B
  0
DICTIONARY
  5
17C
102
{ACAD_REACTORS
330
19
102
}
330
19
100
AcDbDictionary
281
     1
  0
DICTIONARY
  5
1A
102
{ACAD_REACTORS
330
19
102
}
330
19
100
AcDbDictionary
281
     1
  0
DICTIONARY
  5
149
102
{ACAD_REACTORS
330
19
102
}
330
19
100
AcDbDictionary
281
     1
  3
Layout1
350
14C
  3
Model
350
14B
  0
DICTIONARY
  5
17E
102
{ACAD_REACTORS
330
19
102
}
330
19
100
AcDbDictionary
281
     1
  0
DICTIONARY
  5
1B
102
{ACAD_REACTORS
330
19
102
}
330
19
100
AcDbDictionary
281
     1
  3
STANDARD
350
1C
  0
DICTIONARY
  5
14A
102
{ACAD_REACTORS
330
19
102
}
330
19
100
AcDbDictionary
281
     1
  0
ACDBDICTIONARYWDFLT
  5
147
102
{ACAD_REACTORS
330
19
102
}
330
19
100
AcDbDictionary
281
     1
  3
Normal
350
148
100
AcDbDictionaryWithDefault
340
148
  0
DICTIONARY
  5
17B
102
{ACAD_REACTORS
330
19
102
}
330
19
100
AcDbDictionary
281
     1
  3
COLORDICT
350
17D
  3
MATERIALDICT
350
17F
  0
LAYOUT
  5
14C
102
{ACAD_REACTORS
330
149
102
}
102
{ACAD_XDICTIONARY
360
180
102
}
330
149
100
AcDbPlotSettings
  1

  2
Support Center HP LaserJet 4
  4

  6

 40
0.0
 41
0.0
 42
0.0
 43
0.0
 44
0.0
 45
0.0
 46
0.0
 47
0.0
 48
0.0
 49
0.0
140
0.0
141
0.0
142
1.0
143
1.0
 70
   688
 72
     0
 73
     0
 74
     5
  7

 75
    16
147
1.0
148
0.0
149
0.0
100
AcDbLayout
  1
Layout1
 70
     0
 71
     1
 10
0.0
 20
0.0
 11
12.0
 21
9.0
 12
0.0
 22
0.0
 32
0.0
 14
1.000000000000000E+20
 24
1.000000000000000E+20
 34
1.000000000000000E+20
 15
-1.000000000000000E+20
 25
-1.000000000000000E+20
 35
-1.000000000000000E+20
146
0.0
 13
0.0
 23
0.0
 33
0.0
 16
1.0
 26
0.0
 36
0.0
 17
0.0
 27
1.0
 37
0.0
 76
     0
330
B
  0
LAYOUT
  5
14B
102
{ACAD_REACTORS
330
149
102
}
102
{ACAD_XDICTIONARY
360
182
102
}
330
149
100
AcDbPlotSettings
  1

  2
Support Center HP LaserJet 4
  4

  6

 40
0.0
 41
0.0
 42
0.0
 43
0.0
 44
0.0
 45
0.0
 46
0.0
 47
0.0
 48
0.0
 49
0.0
140
0.0
141
0.0
142
1.0
143
1.0
 70
  1712
 72
     0
 73
     0
 74
     0
  7

 75
     0
147
1.0
148
0.0
149
0.0
100
AcDbLayout
  1
Model
 70
     1
 71
     0
 10
0.0
 20
0.0
 11
12.0
 21
9.0
 12
0.0
 22
0.0
 32
0.0
 14
0.0
 24
0.0
 34
0.0
 15
0.0
 25
0.0
 35
0.0
146
0.0
 13
0.0
 23
0.0
 33
0.0
 16
1.0
 26
0.0
 36
0.0
 17
0.0
 27
1.0
 37
0.0
 76
     0
330
A
  0
MLINESTYLE
  5
1C
102
{ACAD_REACTORS
330
1B
102
}
330
1B
100
AcDbMlineStyle
  2
STANDARD
 70
     0
  3

 62
     0
 51
90.0000000000002
 52
90.0000000000002
 71
     2
 49
0.5
 62
   256
  6
BYLAYER
 49
-0.5
 62
   256
  6
BYLAYER
  0
ACDBPLACEHOLDER
  5
148
102
{ACAD_REACTORS
330
147
102
}
330
147
  0
XRECORD
  5
17D
102
{ACAD_REACTORS
330
17B
102
}
330
17B
100
AcDbXrecord
340
17C
  0
XRECORD
  5
17F
102
{ACAD_REACTORS
330
17B
102
}
330
17B
100
AcDbXrecord
340
17E
  0
DICTIONARY
  5
180
330
14C
100
AcDbDictionary
280
     1
281
     1
  3
ACAD_XREC_ROUNDTRIP
360
181
  0
DICTIONARY
  5
182
330
14B
100
AcDbDictionary
280
     1
281
     1
  3
ACAD_XREC_ROUNDTRIP
360
183
  0
XRECORD
  5
181
102
{ACAD_REACTORS
330
180
102
}
330
180
100
AcDbXrecord
102
SHADEPLOT
 70
     0
102
SHADEPLOTRESLEVEL
 70
     0
102
SHADEPLOTCUSTOMDPI
 70
     0
  0
XRECORD
  5
183
102
{ACAD_REACTORS
330
182
102
}
330
182
100
AcDbXrecord
102
SHADEPLOT
 70
     0
102
SHADEPLOTRESLEVEL
 70
     0
102
SHADEPLOTCUSTOMDPI
 70
     0
  0
ENDSEC
  0
EOF
