  0
SECTION
  2
HEADER
  9
$ACADVER
  1
AC1015
  9
$ACADMAINTVER
 70
     6
  9
$DWGCODEPAGE
  3
ASCII
  9
$INSBASE
 10
0.0
 20
0.0
 30
0.0
  9
$EXTMIN
 10
0.540838
 20
0.4292989999999998
 30
0.0
  9
$EXTMAX
 10
7.14870680952381
 20
9.257793
 30
0.0
  9
$LIMMIN
 10
0.0
 20
0.0
  9
$LIMMAX
 10
12.0
 20
9.0
  9
$ORTHOMODE
 70
     0
  9
$REGENMODE
 70
     0
  9
$FILLMODE
 70
     1
  9
$QTEXTMODE
 70
     0
  9
$MIRRTEXT
 70
     1
  9
$LTSCALE
 40
0.25
  9
$ATTMODE
 70
     1
  9
$TEXTSIZE
 40
0.25
  9
$TRACEWID
 40
0.05
  9
$TEXTSTYLE
  7
STANDARD
  9
$CLAYER
  8
0
  9
$CELTYPE
  6
ByLayer
  9
$CECOLOR
 62
   256
  9
$CELTSCALE
 40
1.0
  9
$DISPSILH
 70
     0
  9
$DIMSCALE
 40
1.0
  9
$DIMASZ
 40
0.125
  9
$DIMEXO
 40
0.0625
  9
$DIMDLI
 40
0.38
  9
$DIMRND
 40
0.0
  9
$DIMDLE
 40
0.0
  9
$DIMEXE
 40
0.03125
  9
$DIMTP
 40
0.0
  9
$DIMTM
 40
0.0
  9
$DIMTXT
 40
0.1
  9
$DIMCEN
 40
0.09
  9
$DIMTSZ
 40
0.0
  9
$DIMTOL
 70
     0
  9
$DIMLIM
 70
     0
  9
$DIMTIH
 70
     0
  9
$DIMTOH
 70
     0
  9
$DIMSE1
 70
     0
  9
$DIMSE2
 70
     0
  9
$DIMTAD
 70
     0
  9
$DIMZIN
 70
     0
  9
$DIMBLK
  1

  9
$DIMASO
 70
     1
  9
$DIMSHO
 70
     1
  9
$DIMPOST
  1

  9
$DIMAPOST
  1

  9
$DIMALT
 70
     0
  9
$DIMALTD
 70
     2
  9
$DIMALTF
 40
25.4
  9
$DIMLFAC
 40
1.0
  9
$DIMTOFL
 70
     0
  9
$DIMTVP
 40
0.0
  9
$DIMTIX
 70
     0
  9
$DIMSOXD
 70
     0
  9
$DIMSAH
 70
     0
  9
$DIMBLK1
  1

  9
$DIMBLK2
  1

  9
$DIMSTYLE
  2
Standard
  9
$DIMCLRD
 70
     0
  9
$DIMCLRE
 70
     0
  9
$DIMCLRT
 70
     0
  9
$DIMTFAC
 40
1.0
  9
$DIMGAP
 40
0.09
  9
$DIMJUST
 70
     0
  9
$DIMSD1
 70
     0
  9
$DIMSD2
 70
     0
  9
$DIMTOLJ
 70
     1
  9
$DIMTZIN
 70
     0
  9
$DIMALTZ
 70
     0
  9
$DIMALTTZ
 70
     0
  9
$DIMUPT
 70
     0
  9
$DIMDEC
 70
     4
  9
$DIMTDEC
 70
     4
  9
$DIMALTU
 70
     2
  9
$DIMALTTD
 70
     2
  9
$DIMTXSTY
  7
STANDARD
  9
$DIMAUNIT
 70
     0
  9
$DIMADEC
 70
     0
  9
$DIMALTRND
 40
0.0
  9
$DIMAZIN
 70
     0
  9
$DIMDSEP
 70
    46
  9
$DIMATFIT
 70
     3
  9
$DIMFRAC
 70
     0
  9
$DIMLDRBLK
  1

  9
$DIMLUNIT
 70
     2
  9
$DIMLWD
 70
    -2
  9
$DIMLWE
 70
    -2
  9
$DIMTMOVE
 70
     0
  9
$LUNITS
 70
     4
  9
$LUPREC
 70
     4
  9
$SKETCHINC
 40
0.1
  9
$FILLETRAD
 40
0.0
  9
$AUNITS
 70
     0
  9
$AUPREC
 70
     3
  9
$MENU
  1
acad
  9
$ELEVATION
 40
0.0
  9
$PELEVATION
 40
0.0
  9
$THICKNESS
 40
0.0
  9
$LIMCHECK
 70
     0
  9
$CHAMFERA
 40
0.0
  9
$CHAMFERB
 40
0.0
  9
$CHAMFERC
 40
1.0
  9
$CHAMFERD
 40
0.0
  9
$SKPOLY
 70
     0
  9
$TDCREATE
 40
2453955.561659572
  9
$TDUCREATE
 40
2453955.894992905
  9
$TDUPDATE
 40
2453955.60332625
  9
$TDUUPDATE
 40
2453955.894992917
  9
$TDINDWG
 40
0.0000000116
  9
$TDUSRTIMER
 40
0.0000000116
  9
$USRTIMER
 70
     1
  9
$ANGBASE
 50
0.0
  9
$ANGDIR
 70
     0
  9
$PDMODE
 70
     0
  9
$PDSIZE
 40
0.0
  9
$PLINEWID
 40
0.0
  9
$SPLFRAME
 70
     0
  9
$SPLINETYPE
 70
     6
  9
$SPLINESEGS
 70
     8
  9
$HANDSEED
  5
1E46
  9
$SURFTAB1
 70
     6
  9
$SURFTAB2
 70
     6
  9
$SURFTYPE
 70
     6
  9
$SURFU
 70
     6
  9
$SURFV
 70
     6
  9
$UCSBASE
  2

  9
$UCSNAME
  2

  9
$UCSORG
 10
0.0
 20
0.0
 30
0.0
  9
$UCSXDIR
 10
1.0
 20
0.0
 30
0.0
  9
$UCSYDIR
 10
0.0
 20
1.0
 30
0.0
  9
$UCSORTHOREF
  2

  9
$UCSORTHOVIEW
 70
     0
  9
$UCSORGTOP
 10
0.0
 20
0.0
 30
0.0
  9
$UCSORGBOTTOM
 10
0.0
 20
0.0
 30
0.0
  9
$UCSORGLEFT
 10
0.0
 20
0.0
 30
0.0
  9
$UCSORGRIGHT
 10
0.0
 20
0.0
 30
0.0
  9
$UCSORGFRONT
 10
0.0
 20
0.0
 30
0.0
  9
$UCSORGBACK
 10
0.0
 20
0.0
 30
0.0
  9
$PUCSBASE
  2

  9
$PUCSNAME
  2

  9
$PUCSORG
 10
0.0
 20
0.0
 30
0.0
  9
$PUCSXDIR
 10
1.0
 20
0.0
 30
0.0
  9
$PUCSYDIR
 10
0.0
 20
1.0
 30
0.0
  9
$PUCSORTHOREF
  2

  9
$PUCSORTHOVIEW
 70
     0
  9
$PUCSORGTOP
 10
0.0
 20
0.0
 30
0.0
  9
$PUCSORGBOTTOM
 10
0.0
 20
0.0
 30
0.0
  9
$PUCSORGLEFT
 10
0.0
 20
0.0
 30
0.0
  9
$PUCSORGRIGHT
 10
0.0
 20
0.0
 30
0.0
  9
$PUCSORGFRONT
 10
0.0
 20
0.0
 30
0.0
  9
$PUCSORGBACK
 10
0.0
 20
0.0
 30
0.0
  9
$USERI1
 70
     0
  9
$USERI2
 70
     0
  9
$USERI3
 70
     0
  9
$USERI4
 70
     0
  9
$USERI5
 70
     0
  9
$USERR1
 40
0.0
  9
$USERR2
 40
0.0
  9
$USERR3
 40
0.0
  9
$USERR4
 40
0.0
  9
$USERR5
 40
0.0
  9
$WORLDVIEW
 70
     1
  9
$SHADEDGE
 70
     3
  9
$SHADEDIF
 70
    70
  9
$TILEMODE
 70
     1
  9
$MAXACTVP
 70
    16
  9
$PINSBASE
 10
0.0
 20
0.0
 30
0.0
  9
$PLIMCHECK
 70
     0
  9
$PEXTMIN
 10
1.000000000000000E+20
 20
1.000000000000000E+20
 30
1.000000000000000E+20
  9
$PEXTMAX
 10
-1.000000000000000E+20
 20
-1.000000000000000E+20
 30
-1.000000000000000E+20
  9
$PLIMMIN
 10
0.0
 20
0.0
  9
$PLIMMAX
 10
12.0
 20
9.0
  9
$UNITMODE
 70
     0
  9
$VISRETAIN
 70
     0
  9
$PLINEGEN
 70
     0
  9
$PSLTSCALE
 70
     1
  9
$TREEDEPTH
 70
  3020
  9
$CMLSTYLE
  2
Standard
  9
$CMLJUST
 70
     0
  9
$CMLSCALE
 40
1.0
  9
$PROXYGRAPHICS
 70
     1
  9
$MEASUREMENT
 70
     0
  9
$CELWEIGHT
370
    -1
  9
$ENDCAPS
280
     0
  9
$JOINSTYLE
280
     0
  9
$LWDISPLAY
290
     0
  9
$INSUNITS
 70
     1
  9
$HYPERLINKBASE
  1

  9
$STYLESHEET
  1

  9
$XEDIT
290
     1
  9
$CEPSNTYPE
380
     0
  9
$PSTYLEMODE
290
     0
  9
$FINGERPRINTGUID
  2
{FAEB1C30-E019-11D5-929B-00C0DF256EC4}
  9
$VERSIONGUID
  2
{FAEB1C32-E019-11D5-929B-00C0DF256EC4}
  9
$EXTNAMES
290
     1
  9
$PSVPSCALE
 40
0.0
  9
$OLESTARTUP
290
     0
  0
ENDSEC
  0
SECTION
  2
CLASSES
  0
CLASS
  1
ACDBDICTIONARYWDFLT
  2
AcDbDictionaryWithDefault
  3
AutoCAD 2000
 90
        0
280
     0
281
     0
  0
CLASS
  1
ACDBPLACEHOLDER
  2
AcDbPlaceHolder
  3
ObjectDBX Classes
 90
        0
280
     0
281
     0
  0
CLASS
  1
LAYOUT
  2
AcDbLayout
  3
ObjectDBX Classes
 90
        0
280
     0
281
     0
  0
ENDSEC
  0
SECTION
  2
TABLES
  0
TABLE
  2
VPORT
  5
1DB8
330
0
100
AcDbSymbolTable
 70
     2
  0
VPORT
  5
1DCE
330
1DB8
100
AcDbSymbolTableRecord
100
AcDbViewportTableRecord
  2
*ACTIVE
 70
     0
 10
0.0
 20
0.0
 11
1.0
 21
1.0
 12
6.422173594430992
 22
4.6288965
 13
0.0
 23
0.0
 14
1.0
 24
1.0
 15
0.0
 25
0.0
 16
0.0
 26
0.0
 36
1.0
 17
0.0
 27
0.0
 37
0.0
 40
9.257793
 41
0.7207678883071553
 42
50.0
 43
0.0
 44
0.0
 50
0.0
 51
0.0
 71
     0
 72
  2000
 73
     1
 74
     0
 75
     0
 76
     0
 77
     0
 78
     0
281
     0
 65
     1
110
0.0
120
0.0
130
0.0
111
1.0
121
0.0
131
0.0
112
0.0
122
1.0
132
0.0
 79
     0
146
0.0
  0
ENDTAB
  0
TABLE
  2
LTYPE
  5
1DB5
330
0
100
AcDbSymbolTable
 70
     1
  0
LTYPE
  5
1DC0
330
1DB5
100
AcDbSymbolTableRecord
100
AcDbLinetypeTableRecord
  2
ByBlock
 70
     0
  3

 72
    65
 73
     0
 40
0.0
  0
LTYPE
  5
1DC1
330
1DB5
100
AcDbSymbolTableRecord
100
AcDbLinetypeTableRecord
  2
ByLayer
 70
     0
  3

 72
    65
 73
     0
 40
0.0
  0
LTYPE
  5
1DCB
330
1DB5
100
AcDbSymbolTableRecord
100
AcDbLinetypeTableRecord
  2
CONTINUOUS
 70
     0
  3
Solid line
 72
    65
 73
     0
 40
0.0
  0
ENDTAB
  0
TABLE
  2
LAYER
  5
1DB2
330
0
100
AcDbSymbolTable
 70
     1
  0
LAYER
  5
1DCC
330
1DB2
100
AcDbSymbolTableRecord
100
AcDbLayerTableRecord
  2
0
 70
     0
 62
     7
  6
CONTINUOUS
370
    -3
390
1DBF
  0
ENDTAB
  0
TABLE
  2
STYLE
  5
1DB3
330
0
100
AcDbSymbolTable
 70
     1
  0
STYLE
  5
1DD1
330
1DB3
100
AcDbSymbolTableRecord
100
AcDbTextStyleTableRecord
  2
STANDARD
 70
     0
 40
0.0
 41
1.0
 50
0.0
 71
     0
 42
0.25
  3
ROMANS.SHX
  4

  0
ENDTAB
  0
TABLE
  2
VIEW
  5
1DB6
330
0
100
AcDbSymbolTable
 70
     1
  0
VIEW
  5
1DD0
330
1DB6
100
AcDbSymbolTableRecord
100
AcDbViewTableRecord
  2
1
 70
     0
 40
9.538729
 10
5.612819
 20
-0.063582
 41
12.360225
 11
0.0
 21
0.0
 31
1.0
 12
0.0
 22
0.0
 32
0.0
 42
50.0
 43
0.0
 44
0.0
 50
0.0
 71
     0
281
     0
 72
     0
  0
ENDTAB
  0
TABLE
  2
UCS
  5
1DB7
330
0
100
AcDbSymbolTable
 70
     0
  0
ENDTAB
  0
TABLE
  2
APPID
  5
1DB9
330
0
100
AcDbSymbolTable
 70
     1
  0
APPID
  5
1DCF
330
1DB9
100
AcDbSymbolTableRecord
100
AcDbRegAppTableRecord
  2
ACAD
 70
     0
  0
ENDTAB
  0
TABLE
  2
DIMSTYLE
  5
1DBA
330
0
100
AcDbSymbolTable
 70
     1
100
AcDbDimStyleTable
  0
DIMSTYLE
105
1DD2
330
1DBA
100
AcDbSymbolTableRecord
100
AcDbDimStyleTableRecord
  2
Standard
 70
     0
  3

  4

340
1DD1
  0
ENDTAB
  0
TABLE
  2
BLOCK_RECORD
  5
1DB1
330
0
100
AcDbSymbolTable
 70
     0
  0
BLOCK_RECORD
  5
1DC8
330
1DB1
100
AcDbSymbolTableRecord
100
AcDbBlockTableRecord
  2
*Model_Space
340
1DC9
  0
BLOCK_RECORD
  5
1DC6
330
1DB1
100
AcDbSymbolTableRecord
100
AcDbBlockTableRecord
  2
*Paper_Space
340
1DC7
  0
ENDTAB
  0
ENDSEC
  0
SECTION
  2
BLOCKS
  0
BLOCK
  5
1E3B
330
1DC8
100
AcDbEntity
  8
0
100
AcDbBlockBegin
  2
*Model_Space
 70
     0
 10
0.0
 20
0.0
 30
0.0
  3
*Model_Space
  1

  4

  0
ENDBLK
  5
1E3C
330
1DC8
100
AcDbEntity
  8
0
100
AcDbBlockEnd
  0
BLOCK
  5
1E39
330
1DC6
100
AcDbEntity
 67
     1
  8
0
100
AcDbBlockBegin
  2
*Paper_Space
 70
     0
 10
0.0
 20
0.0
 30
0.0
  3
*Paper_Space
  1

  4

  0
ENDBLK
  5
1E3A
330
1DC6
100
AcDbEntity
 67
     1
  8
0
100
AcDbBlockEnd
  0
ENDSEC
  0
SECTION
  2
ENTITIES
  0
LINE
  5
1048
330
1DC8
100
AcDbEntity
  8
0
100
AcDbLine
 10
4.147141
 20
6.854558
 30
0.0
 11
4.330385
 21
6.384158
 31
0.0
  0
LINE
  5
1049
330
1DC8
100
AcDbEntity
  8
0
100
AcDbLine
 10
3.360879
 20
6.232078
 30
0.0
 11
4.330385
 21
6.384158
 31
0.0
  0
LINE
  5
104A
330
1DC8
100
AcDbEntity
  8
0
100
AcDbLine
 10
3.360879
 20
6.232078
 30
0.0
 11
3.360879
 21
4.863566000000001
 31
0.0
  0
LINE
  5
104B
330
1DC8
100
AcDbEntity
  8
0
100
AcDbLine
 10
4.330385
 20
6.384158
 30
0.0
 11
4.330385
 21
5.063057
 31
0.0
  0
LINE
  5
104C
330
1DC8
100
AcDbEntity
  8
0
100
AcDbLine
 10
1.131871
 20
4.404913
 30
0.0
 11
6.461684
 21
5.501606
 31
0.0
  0
LINE
  5
104D
330
1DC8
100
AcDbEntity
  8
0
100
AcDbLine
 10
3.862405
 20
6.310749
 30
0.0
 11
3.862405
 21
4.966762999999999
 31
0.0
  0
LINE
  5
104E
330
1DC8
100
AcDbEntity
  8
0
100
AcDbLine
 10
2.560985
 20
7.091376
 30
0.0
 11
2.560985
 21
6.996827000000001
 31
0.0
  0
ARC
  5
104F
330
1DC8
100
AcDbEntity
  8
0
100
AcDbCircle
 10
2.532179
 20
6.893125
 30
0.0
 40
0.200333
100
AcDbArc
 50
53.895149
 51
81.73258800000001
  0
LINE
  5
1050
330
1DC8
100
AcDbEntity
  8
0
100
AcDbLine
 10
2.560985
 20
7.091376
 30
0.0
 11
2.627266
 21
7.125526
 31
0.0
  0
LINE
  5
1051
330
1DC8
100
AcDbEntity
  8
0
100
AcDbLine
 10
2.893624
 20
7.341023
 30
0.0
 11
2.698183
 21
7.218103
 31
0.0
  0
LINE
  5
1052
330
1DC8
100
AcDbEntity
  8
0
100
AcDbLine
 10
2.841063
 20
7.346646000000001
 30
0.0
 11
2.695361
 21
7.254478
 31
0.0
  0
LINE
  5
1053
330
1DC8
100
AcDbEntity
  8
0
100
AcDbLine
 10
2.898749
 20
7.340475
 30
0.0
 11
2.841063
 21
7.346646000000001
 31
0.0
  0
LINE
  5
1054
330
1DC8
100
AcDbEntity
  8
0
100
AcDbLine
 10
2.695361
 20
7.254478
 30
0.0
 11
2.495307
 21
7.127928
 31
0.0
  0
LINE
  5
1055
330
1DC8
100
AcDbEntity
  8
0
100
AcDbLine
 10
2.495307
 20
7.127928
 30
0.0
 11
2.444994
 21
7.058862
 31
0.0
  0
LINE
  5
1056
330
1DC8
100
AcDbEntity
  8
0
100
AcDbLine
 10
2.627266
 20
7.1735
 30
0.0
 11
2.393804
 21
7.026666000000001
 31
0.0
  0
LINE
  5
1057
330
1DC8
100
AcDbEntity
  8
0
100
AcDbLine
 10
2.565827
 20
6.337437
 30
0.0
 11
2.393804
 21
7.026666000000001
 31
0.0
  0
LINE
  5
1058
330
1DC8
100
AcDbEntity
  8
0
100
AcDbLine
 10
2.393804
 20
7.026666000000001
 30
0.0
 11
2.386045
 21
6.979086
 31
0.0
  0
LINE
  5
1059
330
1DC8
100
AcDbEntity
  8
0
100
AcDbLine
 10
2.558417
 20
6.291996
 30
0.0
 11
2.386045
 21
6.979086
 31
0.0
  0
LWPOLYLINE
  5
105A
330
1DC8
100
AcDbEntity
  8
0
100
AcDbPolyline
 90
        7
 70
     0
 43
0.0
 10
2.560985
 20
7.021719999999999
 42
0.063004
 10
2.533998
 20
7.004049
 42
0.21705
 10
2.525103
 20
6.985044
 42
0.21705
 10
2.533606
 20
6.96586
 42
0.092781
 10
2.574136
 20
6.941503999999999
 42
0.049455
 10
2.624375
 20
6.928288
 42
0.037051
 10
2.693394
 20
6.922453
 42
0.037051
  0
LWPOLYLINE
  5
1063
330
1DC8
100
AcDbEntity
  8
0
100
AcDbPolyline
 90
        6
 70
     0
 43
0.0
 10
2.530091
 20
6.969697
 42
0.158409
 10
2.525103
 20
6.954869
 42
0.21705
 10
2.533606
 20
6.935685
 42
0.092781
 10
2.574136
 20
6.91133
 42
0.049455
 10
2.624375
 20
6.898114
 42
0.037051
 10
2.693394
 20
6.892278
 42
0.037051
  0
LINE
  5
106B
330
1DC8
100
AcDbEntity
  8
0
100
AcDbLine
 10
2.627297
 20
6.589639999999999
 30
0.0
 11
2.537455
 21
6.932401
 31
0.0
  0
ARC
  5
106C
330
1DC8
100
AcDbEntity
  8
0
100
AcDbCircle
 10
2.433573
 20
6.748092
 30
0.0
 40
0.250272
100
AcDbArc
 50
320.719346
 51
36.378161
  0
ARC
  5
106D
330
1DC8
100
AcDbEntity
  8
0
100
AcDbCircle
 10
2.49898
 20
6.748092
 30
0.0
 40
0.250272
100
AcDbArc
 50
359.596447
 51
36.378161
  0
ARC
  5
106E
330
1DC8
100
AcDbEntity
  8
0
100
AcDbCircle
 10
2.805791
 20
6.756303
 30
0.0
 40
0.057418
100
AcDbArc
 50
190.003351
 51
336.642464
  0
ARC
  5
106F
330
1DC8
100
AcDbEntity
  8
0
100
AcDbCircle
 10
2.608654
 20
6.748092
 30
0.0
 40
0.250272
100
AcDbArc
 50
356.666401
 51
36.378161
  0
LWPOLYLINE
  5
1070
330
1DC8
100
AcDbEntity
  8
0
100
AcDbPolyline
 90
        6
 70
     0
 43
0.0
 10
2.693394
 20
6.892278
 42
0.037051
 10
2.762519
 20
6.896694
 42
0.049455
 10
2.813019
 20
6.908875
 42
0.092781
 10
2.854041
 20
6.932392
 42
0.21705
 10
2.862936
 20
6.951397999999999
 42
0.16368
 10
2.857948
 20
6.966745
 42
0.092781
  0
LWPOLYLINE
  5
1078
330
1DC8
100
AcDbEntity
  8
0
100
AcDbPolyline
 90
        7
 70
     0
 43
0.0
 10
2.693394
 20
6.922453
 42
0.037051
 10
2.762519
 20
6.926867999999999
 42
0.049455
 10
2.813019
 20
6.93905
 42
0.092781
 10
2.854041
 20
6.962567
 42
0.21705
 10
2.862936
 20
6.981572
 42
0.21705
 10
2.854433
 20
7.000756
 42
0.05688
 10
2.830587
 20
7.017511
 42
0.00625
  0
LINE
  5
1081
330
1DC8
100
AcDbEntity
  8
0
100
AcDbLine
 10
2.650228
 20
6.951378
 30
0.0
 11
2.773163
 21
6.958166
 31
0.0
  0
LINE
  5
1082
330
1DC8
100
AcDbEntity
  8
0
100
AcDbLine
 10
2.560985
 20
6.996827000000001
 30
0.0
 11
2.650228
 21
6.951378
 31
0.0
  0
LINE
  5
1083
330
1DC8
100
AcDbEntity
  8
0
100
AcDbLine
 10
2.650228
 20
6.951378
 30
0.0
 11
2.650228
 21
7.054982000000001
 31
0.0
  0
ARC
  5
1084
330
1DC8
100
AcDbEntity
  8
0
100
AcDbCircle
 10
2.792041
 20
4.442921
 30
0.0
 40
2.615908
100
AcDbArc
 50
90.41349699999999
 51
93.10763700000001
  0
LINE
  5
1085
330
1DC8
100
AcDbEntity
  8
0
100
AcDbLine
 10
2.773163
 20
7.058761
 30
0.0
 11
2.773163
 21
6.958166
 31
0.0
  0
LINE
  5
1086
330
1DC8
100
AcDbEntity
  8
0
100
AcDbLine
 10
2.773163
 20
6.958166
 30
0.0
 11
2.830587
 21
7.012381
 31
0.0
  0
LINE
  5
1087
330
1DC8
100
AcDbEntity
  8
0
100
AcDbLine
 10
2.830587
 20
7.102904
 30
0.0
 11
2.830587
 21
7.012381
 31
0.0
  0
ARC
  5
1088
330
1DC8
100
AcDbEntity
  8
0
100
AcDbCircle
 10
2.848362
 20
7.02036
 30
0.0
 40
0.084437
100
AcDbArc
 50
102.152139
 51
152.94857
  0
LINE
  5
1089
330
1DC8
100
AcDbEntity
  8
0
100
AcDbLine
 10
2.830587
 20
7.102904
 30
0.0
 11
2.772508
 21
7.127111
 31
0.0
  0
LWPOLYLINE
  5
108A
330
1DC8
100
AcDbEntity
  8
0
100
AcDbPolyline
 90
        5
 70
     0
 43
0.0
 10
2.701468
 20
7.086761999999999
 42
0.042358
 10
2.730911
 20
7.090832000000001
 42
0.055588
 10
2.752342
 20
7.098248
 42
0.098361
 10
2.768968
 20
7.110633
 42
0.185703
 10
2.772508
 20
7.119836
 42
0.19937
  0
LWPOLYLINE
  5
1091
330
1DC8
100
AcDbEntity
  8
0
100
AcDbPolyline
 90
        5
 70
     0
 43
0.0
 10
2.701468
 20
7.104725
 42
0.042358
 10
2.730911
 20
7.108796000000001
 42
0.055588
 10
2.752342
 20
7.116211
 42
0.098361
 10
2.768968
 20
7.128596000000001
 42
0.185703
 10
2.772508
 20
7.1378
 42
0.19937
  0
LWPOLYLINE
  5
1098
330
1DC8
100
AcDbEntity
  8
0
100
AcDbPolyline
 90
        5
 70
     0
 43
0.0
 10
2.701468
 20
7.123218
 42
0.042358
 10
2.730911
 20
7.127288
 42
0.055588
 10
2.752342
 20
7.134703999999999
 42
0.098361
 10
2.768968
 20
7.147089
 42
0.185703
 10
2.772508
 20
7.156292
 42
0.19937
  0
LWPOLYLINE
  5
109F
330
1DC8
100
AcDbEntity
  8
0
100
AcDbPolyline
 90
        5
 70
     0
 43
0.0
 10
2.701468
 20
7.142767
 42
0.042358
 10
2.730911
 20
7.146837
 42
0.055588
 10
2.752342
 20
7.154252000000001
 42
0.098361
 10
2.768968
 20
7.166638000000001
 42
0.185703
 10
2.772508
 20
7.175841
 42
0.19937
  0
LWPOLYLINE
  5
10A6
330
1DC8
100
AcDbEntity
  8
0
100
AcDbPolyline
 90
       16
 70
     1
 43
0.0
 10
2.701468
 20
7.158175999999999
 42
0.042358
 10
2.730911
 20
7.162246000000001
 42
0.055588
 10
2.752342
 20
7.169662
 42
0.098361
 10
2.768968
 20
7.182047
 42
0.19937
 10
2.772489
 20
7.191973
 42
0.19937
 10
2.767942
 20
7.201474
 42
0.098361
 10
2.750106
 20
7.212041
 42
0.055588
 10
2.728013
 20
7.217160000000001
 42
0.042358
 10
2.698306
 20
7.218108999999999
 42
0.042358
 10
2.668863
 20
7.214039
 42
0.055588
 10
2.647431
 20
7.206623
 42
0.098361
 10
2.630806
 20
7.194238
 42
0.19937
 10
2.627285
 20
7.184311999999999
 42
0.19937
 10
2.631831
 20
7.174811
 42
0.098361
 10
2.649668
 20
7.164244
 42
0.055588
 10
2.67176
 20
7.159125
 42
0.042358
  0
LWPOLYLINE
  5
10B8
330
1DC8
100
AcDbEntity
  8
0
100
AcDbPolyline
 90
        6
 70
     0
 43
0.0
 10
2.627266
 20
7.169625999999999
 42
0.01318
 10
2.627285
 20
7.168903
 42
0.19937
 10
2.631831
 20
7.159402
 42
0.098361
 10
2.649668
 20
7.148835000000001
 42
0.055588
 10
2.67176
 20
7.143716
 42
0.042358
 10
2.701468
 20
7.142767
 42
0.042358
  0
LWPOLYLINE
  5
10C0
330
1DC8
100
AcDbEntity
  8
0
100
AcDbPolyline
 90
        6
 70
     0
 43
0.0
 10
2.627266
 20
7.150077000000001
 42
0.01318
 10
2.627285
 20
7.149354
 42
0.19937
 10
2.631831
 20
7.139853
 42
0.098361
 10
2.649668
 20
7.129286000000001
 42
0.055588
 10
2.67176
 20
7.124167
 42
0.042358
 10
2.701468
 20
7.123218
 42
0.042358
  0
LWPOLYLINE
  5
10C8
330
1DC8
100
AcDbEntity
  8
0
100
AcDbPolyline
 90
        6
 70
     0
 43
0.0
 10
2.627266
 20
7.131585
 42
0.01318
 10
2.627285
 20
7.130861
 42
0.19937
 10
2.631831
 20
7.121360000000001
 42
0.098361
 10
2.649668
 20
7.110794
 42
0.055588
 10
2.67176
 20
7.105675
 42
0.042358
 10
2.701468
 20
7.104725
 42
0.042358
  0
LWPOLYLINE
  5
10D0
330
1DC8
100
AcDbEntity
  8
0
100
AcDbPolyline
 90
        6
 70
     0
 43
0.0
 10
2.627266
 20
7.113621000000001
 42
0.01318
 10
2.627285
 20
7.112898
 42
0.19937
 10
2.631831
 20
7.103397
 42
0.098361
 10
2.649668
 20
7.09283
 42
0.055588
 10
2.67176
 20
7.087711
 42
0.042358
 10
2.701468
 20
7.086761999999999
 42
0.042358
  0
LINE
  5
10D8
330
1DC8
100
AcDbEntity
  8
0
100
AcDbLine
 10
2.627266
 20
7.185035000000001
 30
0.0
 11
2.627266
 21
7.113621000000001
 31
0.0
  0
LINE
  5
10D9
330
1DC8
100
AcDbEntity
  8
0
100
AcDbLine
 10
2.772508
 20
7.19125
 30
0.0
 11
2.772508
 21
7.119836
 31
0.0
  0
LWPOLYLINE
  5
10DA
330
1DC8
100
AcDbEntity
  8
0
100
AcDbPolyline
 90
        7
 70
     0
 43
0.0
 10
2.884524
 20
7.041073
 42
0.054081
 10
2.878394
 20
7.064396
 42
0.06792
 10
2.869161
 20
7.08127
 42
0.105403
 10
2.855789
 20
7.093103
 42
0.167376
 10
2.844547
 20
7.095181
 42
0.167376
 10
2.834409
 20
7.089894999999999
 42
0.035173
 10
2.830587
 20
7.085247
 42
0.06792
  0
LINE
  5
10EC
330
1DC8
100
AcDbEntity
  8
0
100
AcDbLine
 10
2.918299
 20
7.38603
 30
0.0
 11
2.801921
 21
7.114852000000001
 31
0.0
  0
LWPOLYLINE
  5
10ED
330
1DC8
100
AcDbEntity
  8
0
100
AcDbPolyline
 90
        5
 70
     0
 43
0.0
 10
2.862594
 20
6.977681
 42
0.161354
 10
2.872325
 20
6.9829
 42
0.105403
 10
2.881635
 20
6.998138000000001
 42
0.06792
 10
2.88551
 20
7.016978
 42
0.054081
 10
2.884524
 20
7.041073
 42
0.054081
  0
LWPOLYLINE
  5
1106
330
1DC8
100
AcDbEntity
  8
0
100
AcDbPolyline
 90
       16
 70
     1
 43
0.0
 10
3.019355
 20
7.061925
 42
0.054081
 10
3.013226
 20
7.085249
 42
0.06792
 10
3.003993
 20
7.102122000000001
 42
0.105403
 10
2.990621
 20
7.113956
 42
0.167376
 10
2.979378
 20
7.116033
 42
0.167376
 10
2.969241
 20
7.110747999999999
 42
0.105403
 10
2.959931
 20
7.095511
 42
0.06792
 10
2.956057
 20
7.076671000000001
 42
0.054081
 10
2.957042
 20
7.052575
 42
0.054081
 10
2.963172
 20
7.029252000000001
 42
0.06792
 10
2.972405
 20
7.012378999999999
 42
0.105403
 10
2.985777
 20
7.000545
 42
0.167376
 10
2.997019
 20
6.998467
 42
0.167376
 10
3.007157
 20
7.003753
 42
0.105403
 10
3.016467
 20
7.01899
 42
0.06792
 10
3.020341
 20
7.037830000000001
 42
0.054081
  0
LWPOLYLINE
  5
1133
330
1DC8
100
AcDbEntity
  8
0
100
AcDbPolyline
 90
       16
 70
     1
 43
0.0
 10
3.010774
 20
6.796386999999999
 42
0.054081
 10
3.004644
 20
6.819711
 42
0.06792
 10
2.995411
 20
6.836583999999999
 42
0.105403
 10
2.982039
 20
6.848418
 42
0.167376
 10
2.970797
 20
6.850495
 42
0.167376
 10
2.960659
 20
6.845210000000001
 42
0.105403
 10
2.951349
 20
6.829972
 42
0.06792
 10
2.947475
 20
6.811132000000001
 42
0.054081
 10
2.948461
 20
6.787037
 42
0.054081
 10
2.95459
 20
6.763714
 42
0.06792
 10
2.963823
 20
6.746841000000001
 42
0.105403
 10
2.977195
 20
6.735007
 42
0.167376
 10
2.988438
 20
6.732929
 42
0.167376
 10
2.998575
 20
6.738214999999999
 42
0.105403
 10
3.007885
 20
6.753452
 42
0.06792
 10
3.01176
 20
6.772292
 42
0.054081
  0
ARC
  5
1145
330
1DC8
100
AcDbEntity
  8
0
100
AcDbCircle
 10
2.675031
 20
6.769736
 30
0.0
 40
0.250272
100
AcDbArc
 50
320.719346
 51
42.523339
  0
LINE
  5
1146
330
1DC8
100
AcDbEntity
  8
0
100
AcDbLine
 10
2.627297
 20
6.589639999999999
 30
0.0
 11
2.868755
 21
6.611284
 31
0.0
  0
LWPOLYLINE
  5
1147
330
1DC8
100
AcDbEntity
  8
0
100
AcDbPolyline
 90
       16
 70
     1
 43
0.0
 10
3.134425
 20
6.759925999999999
 42
0.054081
 10
3.128296
 20
6.78325
 42
0.06792
 10
3.119063
 20
6.800122999999999
 42
0.105403
 10
3.105691
 20
6.811957000000001
 42
0.167376
 10
3.094448
 20
6.814034
 42
0.167376
 10
3.084311
 20
6.808749000000001
 42
0.105403
 10
3.075001
 20
6.793512
 42
0.06792
 10
3.071127
 20
6.774672
 42
0.054081
 10
3.072112
 20
6.750576
 42
0.054081
 10
3.078242
 20
6.727253
 42
0.06792
 10
3.087475
 20
6.710380000000001
 42
0.105403
 10
3.100847
 20
6.698546
 42
0.167376
 10
3.112089
 20
6.696467999999999
 42
0.167376
 10
3.122227
 20
6.701753999999999
 42
0.105403
 10
3.131537
 20
6.716991
 42
0.06792
 10
3.135411
 20
6.735831
 42
0.054081
  0
LINE
  5
1162
330
1DC8
100
AcDbEntity
  8
0
100
AcDbLine
 10
3.188388
 20
6.776088000000001
 30
0.0
 11
3.164928
 21
6.84933
 31
0.0
  0
LINE
  5
1163
330
1DC8
100
AcDbEntity
  8
0
100
AcDbLine
 10
3.148462
 20
6.900738000000001
 30
0.0
 11
3.043144
 21
7.229539999999999
 31
0.0
  0
LINE
  5
1164
330
1DC8
100
AcDbEntity
  8
0
100
AcDbLine
 10
3.009805
 20
7.333622999999999
 30
0.0
 11
2.983772
 21
7.414897
 31
0.0
  0
LINE
  5
1165
330
1DC8
100
AcDbEntity
  8
0
100
AcDbLine
 10
2.998525
 20
7.445910000000001
 30
0.0
 11
3.867826
 21
7.548047
 31
0.0
  0
ARC
  5
1166
330
1DC8
100
AcDbEntity
  8
0
100
AcDbCircle
 10
3.010194
 20
7.346593
 30
0.0
 40
0.1
100
AcDbArc
 50
96.70115800000001
 51
156.772999
  0
LINE
  5
1167
330
1DC8
100
AcDbEntity
  8
0
100
AcDbLine
 10
3.04437
 20
7.404578999999999
 30
0.0
 11
3.240324
 21
6.807691
 31
0.0
  0
LINE
  5
1168
330
1DC8
100
AcDbEntity
  8
0
100
AcDbLine
 10
3.161105
 20
6.684506
 30
0.0
 11
2.55478
 21
6.381698
 31
0.0
  0
ARC
  5
1169
330
1DC8
100
AcDbEntity
  8
0
100
AcDbCircle
 10
3.269413
 20
6.68423
 30
0.0
 40
0.1
100
AcDbArc
 50
96.70115800000001
 51
157.264869
  0
LINE
  5
1173
330
1DC8
100
AcDbEntity
  8
0
100
AcDbLine
 10
3.200454
 20
6.654380000000001
 30
0.0
 11
2.565827
 21
6.337437
 31
0.0
  0
LINE
  5
1174
330
1DC8
100
AcDbEntity
  8
0
100
AcDbLine
 10
3.02187
 20
6.384624
 30
0.0
 11
2.565827
 21
6.337437
 31
0.0
  0
LINE
  5
1175
330
1DC8
100
AcDbEntity
  8
0
100
AcDbLine
 10
2.987903
 20
6.336435
 30
0.0
 11
2.558417
 21
6.291996
 31
0.0
  0
LINE
  5
1176
330
1DC8
100
AcDbEntity
  8
0
100
AcDbLine
 10
2.565827
 20
6.337437
 30
0.0
 11
2.558417
 21
6.291996
 31
0.0
  0
LINE
  5
1177
330
1DC8
100
AcDbEntity
  8
0
100
AcDbLine
 10
3.214624
 20
6.664949000000001
 30
0.0
 11
2.987903
 21
6.336435
 31
0.0
  0
LINE
  5
1178
330
1DC8
100
AcDbEntity
  8
0
100
AcDbLine
 10
3.360879
 20
6.232078
 30
0.0
 11
3.22049
 21
6.672573
 31
0.0
  0
ARC
  5
1179
330
1DC8
100
AcDbEntity
  8
0
100
AcDbCircle
 10
3.275422
 20
6.672581
 30
0.0
 40
0.05
100
AcDbArc
 50
96.70115800000001
 51
157.264869
  0
LINE
  5
117A
330
1DC8
100
AcDbEntity
  8
0
100
AcDbLine
 10
3.177183
 20
6.722877
 30
0.0
 11
3.161105
 21
6.684506
 31
0.0
  0
LINE
  5
117B
330
1DC8
100
AcDbEntity
  8
0
100
AcDbLine
 10
3.269587
 20
6.722239
 30
0.0
 11
4.147141
 21
6.854558
 31
0.0
  0
ARC
  5
117C
330
1DC8
100
AcDbEntity
  8
0
100
AcDbCircle
 10
3.178115
 20
6.699112
 30
0.0
 40
0.05
100
AcDbArc
 50
296.538275
 51
337.264869
  0
LINE
  5
117D
330
1DC8
100
AcDbEntity
  8
0
100
AcDbLine
 10
3.229307
 20
6.691903999999999
 30
0.0
 11
3.22423
 21
6.679788
 31
0.0
  0
LINE
  5
117E
330
1DC8
100
AcDbEntity
  8
0
100
AcDbLine
 10
3.257744
 20
6.783547
 30
0.0
 11
4.119572
 21
6.904828999999999
 31
0.0
  0
ARC
  5
1180
330
1DC8
100
AcDbEntity
  8
0
100
AcDbCircle
 10
4.248354
 20
7.19844
 30
0.0
 40
0.084437
100
AcDbArc
 50
102.152139
 51
152.94857
  0
ARC
  5
1181
330
1DC8
100
AcDbEntity
  8
0
100
AcDbCircle
 10
4.192034
 20
4.621002
 30
0.0
 40
2.615908
100
AcDbArc
 50
90.41349699999999
 51
92.638823
  0
LINE
  5
1182
330
1DC8
100
AcDbEntity
  8
0
100
AcDbLine
 10
4.173155
 20
7.236841
 30
0.0
 11
4.173155
 21
7.136246000000001
 31
0.0
  0
LINE
  5
1183
330
1DC8
100
AcDbEntity
  8
0
100
AcDbLine
 10
4.230580000000001
 20
7.280985
 30
0.0
 11
4.230580000000001
 21
7.190461
 31
0.0
  0
LINE
  5
1184
330
1DC8
100
AcDbEntity
  8
0
100
AcDbLine
 10
4.230580000000001
 20
7.280985
 30
0.0
 11
4.1725
 21
7.305192
 31
0.0
  0
LWPOLYLINE
  5
119D
330
1DC8
100
AcDbEntity
  8
0
100
AcDbPolyline
 90
        6
 70
     0
 43
0.0
 10
4.027258
 20
7.347707000000001
 42
0.01318
 10
4.027277
 20
7.346983
 42
0.19937
 10
4.031823
 20
7.337482000000001
 42
0.098361
 10
4.04966
 20
7.326915
 42
0.055588
 10
4.071753
 20
7.321796000000001
 42
0.042358
 10
4.101459999999999
 20
7.320847000000001
 42
0.042358
  0
LWPOLYLINE
  5
11A5
330
1DC8
100
AcDbEntity
  8
0
100
AcDbPolyline
 90
       16
 70
     1
 43
0.0
 10
4.101459999999999
 20
7.336256
 42
0.042358
 10
4.130903
 20
7.340327
 42
0.055588
 10
4.152334
 20
7.347742
 42
0.098361
 10
4.16896
 20
7.360127
 42
0.19937
 10
4.172480999999999
 20
7.370054
 42
0.19937
 10
4.167935
 20
7.379555
 42
0.098361
 10
4.150098000000001
 20
7.390122
 42
0.055588
 10
4.128005
 20
7.395239999999999
 42
0.042358
 10
4.098298000000001
 20
7.39619
 42
0.042358
 10
4.068855
 20
7.392119
 42
0.055588
 10
4.047424
 20
7.384703999999999
 42
0.098361
 10
4.030798
 20
7.372319
 42
0.19937
 10
4.027277
 20
7.362392
 42
0.19937
 10
4.031823
 20
7.352891000000001
 42
0.098361
 10
4.04966
 20
7.342324000000001
 42
0.055588
 10
4.071753
 20
7.337206
 42
0.042358
  0
LINE
  5
11B7
330
1DC8
100
AcDbEntity
  8
0
100
AcDbLine
 10
4.027258
 20
7.363116000000001
 30
0.0
 11
4.027258
 21
7.346581
 31
0.0
  0
LWPOLYLINE
  5
11B9
330
1DC8
100
AcDbEntity
  8
0
100
AcDbPolyline
 90
        5
 70
     0
 43
0.0
 10
4.101459999999999
 20
7.320847000000001
 42
0.042358
 10
4.130903
 20
7.324917999999999
 42
0.055588
 10
4.152334
 20
7.332333
 42
0.098361
 10
4.16896
 20
7.344717999999999
 42
0.185703
 10
4.1725
 20
7.353921000000001
 42
0.19937
  0
LINE
  5
11C0
330
1DC8
100
AcDbEntity
  8
0
100
AcDbLine
 10
4.1725
 20
7.369330000000001
 30
0.0
 11
4.1725
 21
7.297916000000001
 31
0.0
  0
LWPOLYLINE
  5
11C1
330
1DC8
100
AcDbEntity
  8
0
100
AcDbPolyline
 90
        5
 70
     0
 43
0.0
 10
4.101459999999999
 20
7.301297999999999
 42
0.042358
 10
4.130903
 20
7.305369000000001
 42
0.055588
 10
4.152334
 20
7.312784
 42
0.098361
 10
4.16896
 20
7.325169
 42
0.185703
 10
4.1725
 20
7.334372
 42
0.19937
  0
LWPOLYLINE
  5
11C8
330
1DC8
100
AcDbEntity
  8
0
100
AcDbPolyline
 90
        5
 70
     0
 43
0.0
 10
4.101459999999999
 20
7.282806
 42
0.042358
 10
4.130903
 20
7.286876
 42
0.055588
 10
4.152334
 20
7.294292
 42
0.098361
 10
4.16896
 20
7.306677000000001
 42
0.185703
 10
4.1725
 20
7.31588
 42
0.19937
  0
LWPOLYLINE
  5
11CF
330
1DC8
100
AcDbEntity
  8
0
100
AcDbPolyline
 90
        5
 70
     0
 43
0.0
 10
4.101459999999999
 20
7.264842
 42
0.042358
 10
4.130903
 20
7.268913
 42
0.055588
 10
4.152334
 20
7.276328
 42
0.098361
 10
4.16896
 20
7.288713
 42
0.185703
 10
4.1725
 20
7.297916000000001
 42
0.19937
  0
LINE
  5
11E1
330
1DC8
100
AcDbEntity
  8
0
100
AcDbLine
 10
4.111539
 20
7.132844
 30
0.0
 11
4.173155
 21
7.136246000000001
 31
0.0
  0
LINE
  5
11E2
330
1DC8
100
AcDbEntity
  8
0
100
AcDbLine
 10
4.173155
 20
7.136246000000001
 30
0.0
 11
4.230580000000001
 21
7.190461
 31
0.0
  0
ARC
  5
11EB
330
1DC8
100
AcDbEntity
  8
0
100
AcDbCircle
 10
4.008646
 20
6.926172
 30
0.0
 40
0.250272
100
AcDbArc
 50
356.666401
 51
36.378161
  0
ARC
  5
11EC
330
1DC8
100
AcDbEntity
  8
0
100
AcDbCircle
 10
4.205783
 20
6.934383
 30
0.0
 40
0.057418
100
AcDbArc
 50
273.123059
 51
336.642464
  0
ARC
  5
11ED
330
1DC8
100
AcDbEntity
  8
0
100
AcDbCircle
 10
4.075023000000001
 20
6.947816
 30
0.0
 40
0.250272
100
AcDbArc
 50
323.28862
 51
42.523339
  0
LINE
  5
11EE
330
1DC8
100
AcDbEntity
  8
0
100
AcDbLine
 10
4.473957
 20
6.671392999999999
 30
0.0
 11
4.323276
 21
6.979537
 31
0.0
  0
LINE
  5
11EF
330
1DC8
100
AcDbEntity
  8
0
100
AcDbLine
 10
4.473957
 20
6.671392999999999
 30
0.0
 11
4.20757
 21
6.841748
 31
0.0
  0
LINE
  5
11F0
330
1DC8
100
AcDbEntity
  8
0
100
AcDbLine
 10
4.430416
 20
6.66523
 30
0.0
 11
4.197497
 21
6.813624000000001
 31
0.0
  0
LINE
  5
11F3
330
1DC8
100
AcDbEntity
  8
0
100
AcDbLine
 10
4.231843000000001
 20
6.637122
 30
0.0
 11
4.473957
 21
6.671392999999999
 31
0.0
  0
LINE
  5
11F4
330
1DC8
100
AcDbEntity
  8
0
100
AcDbLine
 10
4.466547
 20
6.625952000000001
 30
0.0
 11
4.248793
 21
6.593609
 31
0.0
  0
LINE
  5
11F5
330
1DC8
100
AcDbEntity
  8
0
100
AcDbLine
 10
4.473957
 20
6.671392999999999
 30
0.0
 11
4.466547
 21
6.625952000000001
 31
0.0
  0
LINE
  5
11F7
330
1DC8
100
AcDbEntity
  8
0
100
AcDbLine
 10
3.889079
 20
7.550544
 30
0.0
 11
3.178534
 21
9.257793
 31
0.0
  0
LINE
  5
11F9
330
1DC8
100
AcDbEntity
  8
0
100
AcDbLine
 10
2.9626
 20
7.434539999999999
 30
0.0
 11
2.394445
 21
9.229016
 31
0.0
  0
LINE
  5
11FA
330
1DC8
100
AcDbEntity
  8
0
100
AcDbLine
 10
2.394445
 20
9.229016
 30
0.0
 11
3.178534
 21
9.257793
 31
0.0
  0
LINE
  5
11FB
330
1DC8
100
AcDbEntity
  8
0
100
AcDbLine
 10
2.394445
 20
9.229016
 30
0.0
 11
2.289182
 21
9.089912
 31
0.0
  0
LINE
  5
11FC
330
1DC8
100
AcDbEntity
  8
0
100
AcDbLine
 10
2.049951
 20
8.773771
 30
0.0
 11
2.450251
 21
7.579764999999999
 31
0.0
  0
LINE
  5
11FE
330
1DC8
100
AcDbEntity
  8
0
100
AcDbLine
 10
3.973002
 20
7.484175
 30
0.0
 11
4.202996
 21
6.900906
 31
0.0
  0
ARC
  5
11FF
330
1DC8
100
AcDbEntity
  8
0
100
AcDbCircle
 10
3.879495
 20
7.44873
 30
0.0
 40
0.1
100
AcDbArc
 50
20.759695
 51
96.70115800000001
  0
LINE
  5
1200
330
1DC8
100
AcDbEntity
  8
0
100
AcDbLine
 10
4.191042
 20
6.802915
 30
0.0
 11
4.176636
 21
6.778841000000001
 31
0.0
  0
ARC
  5
1202
330
1DC8
100
AcDbEntity
  8
0
100
AcDbCircle
 10
4.102805
 20
6.863403999999999
 30
0.0
 40
0.10698
100
AcDbArc
 50
325.568615
 51
20.521227
  0
ARC
  5
1203
330
1DC8
100
AcDbEntity
  8
0
100
AcDbCircle
 10
4.137146
 20
6.833791000000001
 30
0.0
 40
0.073179
100
AcDbArc
 50
11.803157
 51
103.895502
  0
LWPOLYLINE
  5
1204
330
1DC8
100
AcDbEntity
  8
0
100
AcDbPolyline
 90
        6
 70
     0
 43
0.0
 10
4.135597
 20
7.071831
 42
0.014465
 10
4.162511
 20
7.074774000000001
 42
0.049455
 10
4.213011
 20
7.086955000000001
 42
0.092781
 10
4.254033
 20
7.110473
 42
0.21705
 10
4.262928
 20
7.129478
 42
0.16368
 10
4.257940000000001
 20
7.144825999999999
 42
0.092781
  0
LWPOLYLINE
  5
120C
330
1DC8
100
AcDbEntity
  8
0
100
AcDbPolyline
 90
        7
 70
     0
 43
0.0
 10
4.124008
 20
7.101221000000001
 42
0.020672
 10
4.162511
 20
7.104949
 42
0.049455
 10
4.213011
 20
7.11713
 42
0.092781
 10
4.254033
 20
7.140647
 42
0.21705
 10
4.262928
 20
7.159653
 42
0.21705
 10
4.254425
 20
7.178837
 42
0.05688
 10
4.230580000000001
 20
7.195592
 42
0.00625
  0
LWPOLYLINE
  5
1215
330
1DC8
100
AcDbEntity
  8
0
100
AcDbPolyline
 90
        3
 70
     0
 43
0.0
 10
4.058111
 20
7.268337
 42
0.033949
 10
4.071753
 20
7.265792
 42
0.042358
 10
4.101459999999999
 20
7.264842
 42
0.042358
  0
LWPOLYLINE
  5
121A
330
1DC8
100
AcDbEntity
  8
0
100
AcDbPolyline
 90
        3
 70
     0
 43
0.0
 10
4.05007
 20
7.288730999999999
 42
0.054524
 10
4.071753
 20
7.283755
 42
0.042358
 10
4.101459999999999
 20
7.282806
 42
0.042358
  0
LWPOLYLINE
  5
121F
330
1DC8
100
AcDbEntity
  8
0
100
AcDbPolyline
 90
        4
 70
     0
 43
0.0
 10
4.041208999999999
 20
7.311202000000001
 42
0.043694
 10
4.04966
 20
7.307366
 42
0.055588
 10
4.071753
 20
7.302248
 42
0.042358
 10
4.101459999999999
 20
7.301297999999999
 42
0.042358
  0
LINE
  5
1225
330
1DC8
100
AcDbEntity
  8
0
100
AcDbLine
 10
3.162632
 20
6.589614
 30
0.0
 11
3.162632
 21
5.388127
 31
0.0
  0
LINE
  5
1226
330
1DC8
100
AcDbEntity
  8
0
100
AcDbLine
 10
3.127521
 20
6.53874
 30
0.0
 11
3.127521
 21
5.405191
 31
0.0
  0
LINE
  5
1227
330
1DC8
100
AcDbEntity
  8
0
100
AcDbLine
 10
3.127521
 20
5.405191
 30
0.0
 11
3.162632
 21
5.388127
 31
0.0
  0
LINE
  5
1228
330
1DC8
100
AcDbEntity
  8
0
100
AcDbLine
 10
3.162632
 20
5.454893
 30
0.0
 11
3.360879
 21
4.863566000000001
 31
0.0
  0
LINE
  5
1229
330
1DC8
100
AcDbEntity
  8
0
100
AcDbLine
 10
3.127521
 20
5.405191
 30
0.0
 11
2.786312
 21
5.873765000000001
 31
0.0
  0
LINE
  5
122A
330
1DC8
100
AcDbEntity
  8
0
100
AcDbLine
 10
2.183171
 20
6.702042999999999
 30
0.0
 11
2.198927
 21
7.81831
 31
0.0
  0
LINE
  5
122B
330
1DC8
100
AcDbEntity
  8
0
100
AcDbLine
 10
2.198927
 20
7.81831
 30
0.0
 11
2.681916
 21
7.245972999999999
 31
0.0
  0
LINE
  5
122C
330
1DC8
100
AcDbEntity
  8
0
100
AcDbLine
 10
2.238568
 20
7.830608
 30
0.0
 11
2.709036
 21
7.273108000000001
 31
0.0
  0
LINE
  5
122D
330
1DC8
100
AcDbEntity
  8
0
100
AcDbLine
 10
2.198927
 20
7.81831
 30
0.0
 11
2.238568
 21
7.830608
 31
0.0
  0
LINE
  5
122F
330
1DC8
100
AcDbEntity
  8
0
100
AcDbLine
 10
3.360879
 20
4.863566000000001
 30
0.0
 11
2.786312
 21
5.693572000000001
 31
0.0
  0
LINE
  5
1230
330
1DC8
100
AcDbEntity
  8
0
100
AcDbLine
 10
1.484629
 20
7.573954
 30
0.0
 11
1.482393
 21
7.891449000000001
 31
0.0
  0
LINE
  5
1231
330
1DC8
100
AcDbEntity
  8
0
100
AcDbLine
 10
1.478344
 20
8.466158
 30
0.0
 11
2.196383
 21
7.638122
 31
0.0
  0
LINE
  5
1232
330
1DC8
100
AcDbEntity
  8
0
100
AcDbLine
 10
1.478344
 20
8.466158
 30
0.0
 11
2.130945
 21
8.532187
 31
0.0
  0
LINE
  5
1233
330
1DC8
100
AcDbEntity
  8
0
100
AcDbLine
 10
1.863676
 20
8.505144999999999
 30
0.0
 11
2.290513
 21
8.056231
 31
0.0
  0
LINE
  5
1234
330
1DC8
100
AcDbEntity
  8
0
100
AcDbLine
 10
2.78649
 20
9.243405000000001
 30
0.0
 11
3.433175
 21
7.496978
 31
0.0
  0
LINE
  5
1235
330
1DC8
100
AcDbEntity
  8
0
100
AcDbLine
 10
2.425797
 20
6.214364
 30
0.0
 11
0.568789
 21
5.902814
 31
0.0
  0
LINE
  5
1236
330
1DC8
100
AcDbEntity
  8
0
100
AcDbLine
 10
0.568789
 20
5.902814
 30
0.0
 11
0.714538
 21
5.684828
 31
0.0
  0
LINE
  5
1237
330
1DC8
100
AcDbEntity
  8
0
100
AcDbLine
 10
0.714538
 20
5.684828
 30
0.0
 11
0.710612
 21
5.361301
 31
0.0
  0
LINE
  5
1238
330
1DC8
100
AcDbEntity
  8
0
100
AcDbLine
 10
0.710612
 20
5.361301
 30
0.0
 11
0.9296760000000001
 21
5.251848000000001
 31
0.0
  0
LINE
  5
1239
330
1DC8
100
AcDbEntity
  8
0
100
AcDbLine
 10
0.9296760000000001
 20
5.251848000000001
 30
0.0
 11
0.937737
 21
5.172476000000001
 31
0.0
  0
LINE
  5
123A
330
1DC8
100
AcDbEntity
  8
0
100
AcDbLine
 10
0.937737
 20
5.172476000000001
 30
0.0
 11
1.11462
 21
5.000717
 31
0.0
  0
LINE
  5
123B
330
1DC8
100
AcDbEntity
  8
0
100
AcDbLine
 10
1.11462
 20
5.000717
 30
0.0
 11
1.131871
 21
4.404913
 31
0.0
  0
LINE
  5
123C
330
1DC8
100
AcDbEntity
  8
0
100
AcDbLine
 10
4.288844
 20
6.490796
 30
0.0
 11
5.122042
 21
6.647626
 31
0.0
  0
LINE
  5
123D
330
1DC8
100
AcDbEntity
  8
0
100
AcDbLine
 10
5.122042
 20
6.647626
 30
0.0
 11
5.264752
 21
6.514037
 31
0.0
  0
LINE
  5
123E
330
1DC8
100
AcDbEntity
  8
0
100
AcDbLine
 10
5.264752
 20
6.514037
 30
0.0
 11
5.472761
 21
6.415632
 31
0.0
  0
LINE
  5
123F
330
1DC8
100
AcDbEntity
  8
0
100
AcDbLine
 10
5.472761
 20
6.415632
 30
0.0
 11
5.386362
 21
6.38848
 31
0.0
  0
LINE
  5
1240
330
1DC8
100
AcDbEntity
  8
0
100
AcDbLine
 10
5.386362
 20
6.38848
 30
0.0
 11
5.402468
 21
6.282987
 31
0.0
  0
LINE
  5
1241
330
1DC8
100
AcDbEntity
  8
0
100
AcDbLine
 10
5.402468
 20
6.282987
 30
0.0
 11
5.310067
 21
6.159378
 31
0.0
  0
LINE
  5
1242
330
1DC8
100
AcDbEntity
  8
0
100
AcDbLine
 10
5.310067
 20
6.159378
 30
0.0
 11
5.339223000000001
 21
6.095083
 31
0.0
  0
LINE
  5
1243
330
1DC8
100
AcDbEntity
  8
0
100
AcDbLine
 10
5.339223000000001
 20
6.095083
 30
0.0
 11
5.441696
 21
6.131283
 31
0.0
  0
LINE
  5
1244
330
1DC8
100
AcDbEntity
  8
0
100
AcDbLine
 10
5.441696
 20
6.131283
 30
0.0
 11
5.641639
 21
6.128326
 31
0.0
  0
LINE
  5
1245
330
1DC8
100
AcDbEntity
  8
0
100
AcDbLine
 10
5.641639
 20
6.128326
 30
0.0
 11
5.754216
 21
5.967601
 31
0.0
  0
LINE
  5
1246
330
1DC8
100
AcDbEntity
  8
0
100
AcDbLine
 10
5.754216
 20
5.967601
 30
0.0
 11
5.757251
 21
5.896265000000001
 31
0.0
  0
LINE
  5
1247
330
1DC8
100
AcDbEntity
  8
0
100
AcDbLine
 10
5.757251
 20
5.896265000000001
 30
0.0
 11
5.844666999999999
 21
5.881219000000001
 31
0.0
  0
LINE
  5
1248
330
1DC8
100
AcDbEntity
  8
0
100
AcDbLine
 10
5.844666999999999
 20
5.881219000000001
 30
0.0
 11
5.928074
 21
5.835025
 31
0.0
  0
LINE
  5
1249
330
1DC8
100
AcDbEntity
  8
0
100
AcDbLine
 10
5.928074
 20
5.835025
 30
0.0
 11
6.063722
 21
5.801908
 31
0.0
  0
LINE
  5
124A
330
1DC8
100
AcDbEntity
  8
0
100
AcDbLine
 10
6.063722
 20
5.801908
 30
0.0
 11
6.106947
 21
5.729579
 31
0.0
  0
LINE
  5
124B
330
1DC8
100
AcDbEntity
  8
0
100
AcDbLine
 10
6.106947
 20
5.729579
 30
0.0
 11
6.177299
 21
5.658263
 31
0.0
  0
LINE
  5
124C
330
1DC8
100
AcDbEntity
  8
0
100
AcDbLine
 10
6.177299
 20
5.658263
 30
0.0
 11
6.2607
 21
5.62915
 31
0.0
  0
LINE
  5
124D
330
1DC8
100
AcDbEntity
  8
0
100
AcDbLine
 10
6.2607
 20
5.62915
 30
0.0
 11
6.34109
 21
5.590993
 31
0.0
  0
LINE
  5
124E
330
1DC8
100
AcDbEntity
  8
0
100
AcDbLine
 10
6.34109
 20
5.590993
 30
0.0
 11
6.461684
 21
5.501606
 31
0.0
  0
LINE
  5
1252
330
1DC8
100
AcDbEntity
  8
0
100
AcDbLine
 10
2.632981
 20
5.915071
 30
0.0
 11
1.484629
 21
7.573954
 31
0.0
  0
LINE
  5
1253
330
1DC8
100
AcDbEntity
  8
0
100
AcDbLine
 10
2.632981
 20
6.084331
 30
0.0
 11
2.183171
 21
6.702042999999999
 31
0.0
  0
LINE
  5
1264
330
1DC8
100
AcDbEntity
  8
0
100
AcDbLine
 10
2.287406
 20
7.599302000000001
 30
0.0
 11
2.407011
 21
7.457669
 31
0.0
  0
LINE
  5
1265
330
1DC8
100
AcDbEntity
  8
0
100
AcDbLine
 10
2.407011
 20
7.457669
 30
0.0
 11
2.396979
 21
7.404414999999999
 31
0.0
  0
LINE
  5
1266
330
1DC8
100
AcDbEntity
  8
0
100
AcDbLine
 10
2.396979
 20
7.404414999999999
 30
0.0
 11
2.396979
 21
7.404414999999999
 31
0.0
  0
LINE
  5
1267
330
1DC8
100
AcDbEntity
  8
0
100
AcDbLine
 10
2.396979
 20
7.404414999999999
 30
0.0
 11
2.27034
 21
7.551069999999999
 31
0.0
  0
LINE
  5
1268
330
1DC8
100
AcDbEntity
  8
0
100
AcDbLine
 10
2.27034
 20
7.551069999999999
 30
0.0
 11
2.318511
 21
7.562469
 31
0.0
  0
LINE
  5
1269
330
1DC8
100
AcDbEntity
  8
0
100
AcDbLine
 10
2.578127
 20
7.180317999999999
 30
0.0
 11
2.471358
 21
7.303963
 31
0.0
  0
LINE
  5
126A
330
1DC8
100
AcDbEntity
  8
0
100
AcDbLine
 10
2.488425
 20
7.352195
 30
0.0
 11
2.608029
 21
7.210561
 31
0.0
  0
LINE
  5
126B
330
1DC8
100
AcDbEntity
  8
0
100
AcDbLine
 10
2.471358
 20
7.303963
 30
0.0
 11
2.519529
 21
7.315362
 31
0.0
  0
LINE
  5
126C
330
1DC8
100
AcDbEntity
  8
0
100
AcDbLine
 10
2.608029
 20
7.210561
 30
0.0
 11
2.605606
 21
7.197701
 31
0.0
  0
LINE
  5
126D
330
1DC8
100
AcDbEntity
  8
0
100
AcDbLine
 10
2.408075
 20
7.250692999999999
 30
0.0
 11
2.281436
 21
7.397349
 31
0.0
  0
LINE
  5
126E
330
1DC8
100
AcDbEntity
  8
0
100
AcDbLine
 10
2.298503
 20
7.445581
 30
0.0
 11
2.418107
 21
7.303947
 31
0.0
  0
LINE
  5
126F
330
1DC8
100
AcDbEntity
  8
0
100
AcDbLine
 10
2.281436
 20
7.397349
 30
0.0
 11
2.329607
 21
7.408747999999999
 31
0.0
  0
LINE
  5
1270
330
1DC8
100
AcDbEntity
  8
0
100
AcDbLine
 10
2.418107
 20
7.303947
 30
0.0
 11
2.408075
 21
7.250692999999999
 31
0.0
  0
LINE
  5
1271
330
1DC8
100
AcDbEntity
  8
0
100
AcDbLine
 10
2.387012
 20
7.124091
 30
0.0
 11
2.260373
 21
7.270746000000001
 31
0.0
  0
LINE
  5
1272
330
1DC8
100
AcDbEntity
  8
0
100
AcDbLine
 10
2.277439
 20
7.318978
 30
0.0
 11
2.397044
 21
7.177345
 31
0.0
  0
LINE
  5
1273
330
1DC8
100
AcDbEntity
  8
0
100
AcDbLine
 10
2.260373
 20
7.270746000000001
 30
0.0
 11
2.308544
 21
7.282145
 31
0.0
  0
LINE
  5
1274
330
1DC8
100
AcDbEntity
  8
0
100
AcDbLine
 10
2.397044
 20
7.177345
 30
0.0
 11
2.387012
 21
7.124091
 31
0.0
  0
LINE
  5
1275
330
1DC8
100
AcDbEntity
  8
0
100
AcDbLine
 10
2.387426
 20
6.987555
 30
0.0
 11
2.276493
 21
7.116021000000001
 31
0.0
  0
LINE
  5
1276
330
1DC8
100
AcDbEntity
  8
0
100
AcDbLine
 10
2.29356
 20
7.164253
 30
0.0
 11
2.404216
 21
7.033214999999999
 31
0.0
  0
LINE
  5
1277
330
1DC8
100
AcDbEntity
  8
0
100
AcDbLine
 10
2.276493
 20
7.116021000000001
 30
0.0
 11
2.324664
 21
7.12742
 31
0.0
  0
LINE
  5
1279
330
1DC8
100
AcDbEntity
  8
0
100
AcDbLine
 10
2.40518
 20
6.833727000000001
 30
0.0
 11
2.278541
 21
6.980382000000001
 31
0.0
  0
LINE
  5
127A
330
1DC8
100
AcDbEntity
  8
0
100
AcDbLine
 10
2.295608
 20
7.028614
 30
0.0
 11
2.415212
 21
6.886981
 31
0.0
  0
LINE
  5
127B
330
1DC8
100
AcDbEntity
  8
0
100
AcDbLine
 10
2.278541
 20
6.980382000000001
 30
0.0
 11
2.326712
 21
6.991781
 31
0.0
  0
LINE
  5
127C
330
1DC8
100
AcDbEntity
  8
0
100
AcDbLine
 10
2.415212
 20
6.886981
 30
0.0
 11
2.40518
 21
6.833727000000001
 31
0.0
  0
LINE
  5
127D
330
1DC8
100
AcDbEntity
  8
0
100
AcDbLine
 10
2.401191
 20
6.731242999999999
 30
0.0
 11
2.274552
 21
6.877897999999999
 31
0.0
  0
LINE
  5
127E
330
1DC8
100
AcDbEntity
  8
0
100
AcDbLine
 10
2.291619
 20
6.926130000000001
 30
0.0
 11
2.411223
 21
6.784497
 31
0.0
  0
LINE
  5
127F
330
1DC8
100
AcDbEntity
  8
0
100
AcDbLine
 10
2.274552
 20
6.877897999999999
 30
0.0
 11
2.322723
 21
6.889297
 31
0.0
  0
LINE
  5
1280
330
1DC8
100
AcDbEntity
  8
0
100
AcDbLine
 10
2.411223
 20
6.784497
 30
0.0
 11
2.401191
 21
6.731242999999999
 31
0.0
  0
LINE
  5
1281
330
1DC8
100
AcDbEntity
  8
0
100
AcDbLine
 10
2.404243
 20
6.598617999999999
 30
0.0
 11
2.277604
 21
6.745274
 31
0.0
  0
LINE
  5
1282
330
1DC8
100
AcDbEntity
  8
0
100
AcDbLine
 10
2.294671
 20
6.793506
 30
0.0
 11
2.414275
 21
6.651872
 31
0.0
  0
LINE
  5
1283
330
1DC8
100
AcDbEntity
  8
0
100
AcDbLine
 10
2.277604
 20
6.745274
 30
0.0
 11
2.325775
 21
6.756672
 31
0.0
  0
LINE
  5
1284
330
1DC8
100
AcDbEntity
  8
0
100
AcDbLine
 10
2.414275
 20
6.651872
 30
0.0
 11
2.404243
 21
6.598617999999999
 31
0.0
  0
LINE
  5
1285
330
1DC8
100
AcDbEntity
  8
0
100
AcDbLine
 10
2.395232
 20
6.48709
 30
0.0
 11
2.268593
 21
6.633744999999999
 31
0.0
  0
LINE
  5
1286
330
1DC8
100
AcDbEntity
  8
0
100
AcDbLine
 10
2.28566
 20
6.681977000000001
 30
0.0
 11
2.405264
 21
6.540344
 31
0.0
  0
LINE
  5
1287
330
1DC8
100
AcDbEntity
  8
0
100
AcDbLine
 10
2.268593
 20
6.633744999999999
 30
0.0
 11
2.316765
 21
6.645144
 31
0.0
  0
LINE
  5
1288
330
1DC8
100
AcDbEntity
  8
0
100
AcDbLine
 10
2.405264
 20
6.540344
 30
0.0
 11
2.395232
 21
6.48709
 31
0.0
  0
LINE
  5
1289
330
1DC8
100
AcDbEntity
  8
0
100
AcDbLine
 10
2.561082
 20
6.25002
 30
0.0
 11
2.434443
 21
6.396675
 31
0.0
  0
LINE
  5
128A
330
1DC8
100
AcDbEntity
  8
0
100
AcDbLine
 10
2.45151
 20
6.444907
 30
0.0
 11
2.549026
 21
6.32943
 31
0.0
  0
LINE
  5
128B
330
1DC8
100
AcDbEntity
  8
0
100
AcDbLine
 10
2.434443
 20
6.396675
 30
0.0
 11
2.482614
 21
6.408074
 31
0.0
  0
LINE
  5
128C
330
1DC8
100
AcDbEntity
  8
0
100
AcDbLine
 10
2.5692
 20
6.293112000000001
 30
0.0
 11
2.561082
 21
6.25002
 31
0.0
  0
LINE
  5
128D
330
1DC8
100
AcDbEntity
  8
0
100
AcDbLine
 10
3.030473
 20
5.625208
 30
0.0
 11
2.903834
 21
5.771863
 31
0.0
  0
LINE
  5
128E
330
1DC8
100
AcDbEntity
  8
0
100
AcDbLine
 10
2.920901
 20
5.820096
 30
0.0
 11
3.040505
 21
5.678462000000001
 31
0.0
  0
LINE
  5
128F
330
1DC8
100
AcDbEntity
  8
0
100
AcDbLine
 10
2.903834
 20
5.771863
 30
0.0
 11
2.952006
 21
5.783262000000001
 31
0.0
  0
LINE
  5
1290
330
1DC8
100
AcDbEntity
  8
0
100
AcDbLine
 10
3.040505
 20
5.678462000000001
 30
0.0
 11
3.030473
 21
5.625208
 31
0.0
  0
LINE
  5
1291
330
1DC8
100
AcDbEntity
  8
0
100
AcDbLine
 10
3.034449
 20
5.775919999999999
 30
0.0
 11
2.90781
 21
5.922575
 31
0.0
  0
LINE
  5
1292
330
1DC8
100
AcDbEntity
  8
0
100
AcDbLine
 10
2.924877
 20
5.970807
 30
0.0
 11
3.044481
 21
5.829174
 31
0.0
  0
LINE
  5
1293
330
1DC8
100
AcDbEntity
  8
0
100
AcDbLine
 10
2.90781
 20
5.922575
 30
0.0
 11
2.955981
 21
5.933974
 31
0.0
  0
LINE
  5
1294
330
1DC8
100
AcDbEntity
  8
0
100
AcDbLine
 10
3.044481
 20
5.829174
 30
0.0
 11
3.034449
 21
5.775919999999999
 31
0.0
  0
LINE
  5
1295
330
1DC8
100
AcDbEntity
  8
0
100
AcDbLine
 10
3.033402
 20
5.921606
 30
0.0
 11
2.906764
 21
6.068262
 31
0.0
  0
LINE
  5
1296
330
1DC8
100
AcDbEntity
  8
0
100
AcDbLine
 10
2.92383
 20
6.116494
 30
0.0
 11
3.043435
 21
5.97486
 31
0.0
  0
LINE
  5
1297
330
1DC8
100
AcDbEntity
  8
0
100
AcDbLine
 10
2.906764
 20
6.068262
 30
0.0
 11
2.954935
 21
6.079661
 31
0.0
  0
LINE
  5
1298
330
1DC8
100
AcDbEntity
  8
0
100
AcDbLine
 10
3.043435
 20
5.97486
 30
0.0
 11
3.033402
 21
5.921606
 31
0.0
  0
LINE
  5
1299
330
1DC8
100
AcDbEntity
  8
0
100
AcDbLine
 10
3.027336
 20
6.055235
 30
0.0
 11
2.900697
 21
6.201890000000001
 31
0.0
  0
LINE
  5
129A
330
1DC8
100
AcDbEntity
  8
0
100
AcDbLine
 10
2.917763
 20
6.250122
 30
0.0
 11
3.037368
 21
6.108489
 31
0.0
  0
LINE
  5
129B
330
1DC8
100
AcDbEntity
  8
0
100
AcDbLine
 10
2.900697
 20
6.201890000000001
 30
0.0
 11
2.948868
 21
6.213289
 31
0.0
  0
LINE
  5
129C
330
1DC8
100
AcDbEntity
  8
0
100
AcDbLine
 10
3.037368
 20
6.108489
 30
0.0
 11
3.027336
 21
6.055235
 31
0.0
  0
LINE
  5
129D
330
1DC8
100
AcDbEntity
  8
0
100
AcDbLine
 10
3.027299
 20
6.181831
 30
0.0
 11
2.90066
 21
6.328487
 31
0.0
  0
LINE
  5
129E
330
1DC8
100
AcDbEntity
  8
0
100
AcDbLine
 10
2.954651
 20
6.332995
 30
0.0
 11
3.037331
 21
6.235085
 31
0.0
  0
LINE
  5
12A0
330
1DC8
100
AcDbEntity
  8
0
100
AcDbLine
 10
3.037331
 20
6.235085
 30
0.0
 11
3.027299
 21
6.181831
 31
0.0
  0
LINE
  5
12A1
330
1DC8
100
AcDbEntity
  8
0
100
AcDbLine
 10
2.843517
 20
5.888396
 30
0.0
 11
2.786312
 21
5.954642
 31
0.0
  0
LINE
  5
12A2
330
1DC8
100
AcDbEntity
  8
0
100
AcDbLine
 10
2.786312
 20
6.02127
 30
0.0
 11
2.853549
 21
5.94165
 31
0.0
  0
LINE
  5
12A4
330
1DC8
100
AcDbEntity
  8
0
100
AcDbLine
 10
2.853549
 20
5.94165
 30
0.0
 11
2.843517
 21
5.888396
 31
0.0
  0
LINE
  5
12A5
330
1DC8
100
AcDbEntity
  8
0
100
AcDbLine
 10
2.85553
 20
6.041119
 30
0.0
 11
2.786312
 21
6.121277
 31
0.0
  0
LINE
  5
12A6
330
1DC8
100
AcDbEntity
  8
0
100
AcDbLine
 10
2.786312
 20
6.188219
 30
0.0
 11
2.865562
 21
6.094373
 31
0.0
  0
LINE
  5
12A8
330
1DC8
100
AcDbEntity
  8
0
100
AcDbLine
 10
2.865562
 20
6.094373
 30
0.0
 11
2.85553
 21
6.041119
 31
0.0
  0
LINE
  5
12A9
330
1DC8
100
AcDbEntity
  8
0
100
AcDbLine
 10
2.848461
 20
6.1647
 30
0.0
 11
2.786312
 21
6.236671
 31
0.0
  0
LINE
  5
12AA
330
1DC8
100
AcDbEntity
  8
0
100
AcDbLine
 10
2.786312
 20
6.303429
 30
0.0
 11
2.858493
 21
6.217954
 31
0.0
  0
LINE
  5
12AC
330
1DC8
100
AcDbEntity
  8
0
100
AcDbLine
 10
2.858493
 20
6.217954
 30
0.0
 11
2.848461
 21
6.1647
 31
0.0
  0
LINE
  5
12AD
330
1DC8
100
AcDbEntity
  8
0
100
AcDbLine
 10
3.029265
 20
6.333547
 30
0.0
 11
3.005168
 21
6.361453
 31
0.0
  0
LINE
  5
12AE
330
1DC8
100
AcDbEntity
  8
0
100
AcDbLine
 10
3.030143
 20
6.397641
 30
0.0
 11
3.039297
 21
6.386801
 31
0.0
  0
LINE
  5
12B0
330
1DC8
100
AcDbEntity
  8
0
100
AcDbLine
 10
3.039297
 20
6.386801
 30
0.0
 11
3.029265
 21
6.333547
 31
0.0
  0
LINE
  5
12B1
330
1DC8
100
AcDbEntity
  8
0
100
AcDbLine
 10
3.360879
 20
5.056625
 30
0.0
 11
3.438514
 21
4.879541000000001
 31
0.0
  0
LINE
  5
12B2
330
1DC8
100
AcDbEntity
  8
0
100
AcDbLine
 10
3.360879
 20
5.359047
 30
0.0
 11
3.381244
 21
5.216381
 31
0.0
  0
LINE
  5
12B3
330
1DC8
100
AcDbEntity
  8
0
100
AcDbLine
 10
3.381244
 20
5.216381
 30
0.0
 11
3.449581
 21
5.16315
 31
0.0
  0
LINE
  5
12B4
330
1DC8
100
AcDbEntity
  8
0
100
AcDbLine
 10
3.449581
 20
5.16315
 30
0.0
 11
3.426481
 21
5.133001
 31
0.0
  0
LINE
  5
12B5
330
1DC8
100
AcDbEntity
  8
0
100
AcDbLine
 10
3.426481
 20
5.133001
 30
0.0
 11
3.493514
 21
4.890858000000001
 31
0.0
  0
LINE
  5
12B6
330
1DC8
100
AcDbEntity
  8
0
100
AcDbLine
 10
3.360879
 20
5.55698
 30
0.0
 11
3.398281
 21
5.368101
 31
0.0
  0
LINE
  5
12B7
330
1DC8
100
AcDbEntity
  8
0
100
AcDbLine
 10
3.398281
 20
5.368101
 30
0.0
 11
3.487719
 21
5.310857
 31
0.0
  0
LINE
  5
12B8
330
1DC8
100
AcDbEntity
  8
0
100
AcDbLine
 10
3.487719
 20
5.310857
 30
0.0
 11
3.494788
 21
5.185267
 31
0.0
  0
LINE
  5
12B9
330
1DC8
100
AcDbEntity
  8
0
100
AcDbLine
 10
3.494788
 20
5.185267
 30
0.0
 11
3.593675
 21
4.911468
 31
0.0
  0
LINE
  5
12BA
330
1DC8
100
AcDbEntity
  8
0
100
AcDbLine
 10
3.360879
 20
5.844335
 30
0.0
 11
3.41931
 21
5.613263
 31
0.0
  0
LINE
  5
12BB
330
1DC8
100
AcDbEntity
  8
0
100
AcDbLine
 10
3.41931
 20
5.613263
 30
0.0
 11
3.462542
 21
5.512802
 31
0.0
  0
LINE
  5
12BC
330
1DC8
100
AcDbEntity
  8
0
100
AcDbLine
 10
3.462542
 20
5.512802
 30
0.0
 11
3.446483
 21
5.454522
 31
0.0
  0
LINE
  5
12BD
330
1DC8
100
AcDbEntity
  8
0
100
AcDbLine
 10
3.446483
 20
5.454522
 30
0.0
 11
3.556021
 21
5.379199
 31
0.0
  0
LINE
  5
12BE
330
1DC8
100
AcDbEntity
  8
0
100
AcDbLine
 10
3.556021
 20
5.379199
 30
0.0
 11
3.662593
 21
4.925649
 31
0.0
  0
LINE
  5
12BF
330
1DC8
100
AcDbEntity
  8
0
100
AcDbLine
 10
3.392926
 20
6.237105000000001
 30
0.0
 11
3.461416
 21
5.9368
 31
0.0
  0
LINE
  5
12C0
330
1DC8
100
AcDbEntity
  8
0
100
AcDbLine
 10
3.461416
 20
5.9368
 30
0.0
 11
3.422266000000001
 21
5.816221
 31
0.0
  0
LINE
  5
12C1
330
1DC8
100
AcDbEntity
  8
0
100
AcDbLine
 10
3.422266000000001
 20
5.816221
 30
0.0
 11
3.535856
 21
5.623344
 31
0.0
  0
LINE
  5
12C2
330
1DC8
100
AcDbEntity
  8
0
100
AcDbLine
 10
3.535856
 20
5.623344
 30
0.0
 11
3.619317
 21
5.389264
 31
0.0
  0
LINE
  5
12C3
330
1DC8
100
AcDbEntity
  8
0
100
AcDbLine
 10
3.619317
 20
5.389264
 30
0.0
 11
3.722346
 21
4.937944
 31
0.0
  0
LINE
  5
12C4
330
1DC8
100
AcDbEntity
  8
0
100
AcDbLine
 10
3.574143
 20
6.265532
 30
0.0
 11
3.70055
 21
5.911751000000001
 31
0.0
  0
LINE
  5
12C5
330
1DC8
100
AcDbEntity
  8
0
100
AcDbLine
 10
3.70055
 20
5.911751000000001
 30
0.0
 11
3.657378
 21
5.801216999999999
 31
0.0
  0
LINE
  5
12C6
330
1DC8
100
AcDbEntity
  8
0
100
AcDbLine
 10
3.657378
 20
5.801216999999999
 30
0.0
 11
3.695579
 21
5.729892
 31
0.0
  0
LINE
  5
12C7
330
1DC8
100
AcDbEntity
  8
0
100
AcDbLine
 10
3.695579
 20
5.729892
 30
0.0
 11
3.749908
 21
5.4737
 31
0.0
  0
LINE
  5
12C8
330
1DC8
100
AcDbEntity
  8
0
100
AcDbLine
 10
3.749908
 20
5.4737
 30
0.0
 11
3.775072
 21
5.314958
 31
0.0
  0
LINE
  5
12C9
330
1DC8
100
AcDbEntity
  8
0
100
AcDbLine
 10
3.775072
 20
5.314958
 30
0.0
 11
3.862405
 21
5.153213
 31
0.0
  0
LINE
  5
12CA
330
1DC8
100
AcDbEntity
  8
0
100
AcDbLine
 10
3.765559
 20
6.295557
 30
0.0
 11
3.862405
 21
5.994184
 31
0.0
  0
LINE
  5
12CB
330
1DC8
100
AcDbEntity
  8
0
100
AcDbLine
 10
3.936296
 20
6.322340000000001
 30
0.0
 11
3.915542
 21
5.988172000000001
 31
0.0
  0
LINE
  5
12CC
330
1DC8
100
AcDbEntity
  8
0
100
AcDbLine
 10
3.915542
 20
5.988172000000001
 30
0.0
 11
3.964802
 21
5.889722
 31
0.0
  0
LINE
  5
12CD
330
1DC8
100
AcDbEntity
  8
0
100
AcDbLine
 10
3.964802
 20
5.889722
 30
0.0
 11
3.921622
 21
5.808326
 31
0.0
  0
LINE
  5
12CE
330
1DC8
100
AcDbEntity
  8
0
100
AcDbLine
 10
3.921622
 20
5.808326
 30
0.0
 11
3.898612
 21
5.4647
 31
0.0
  0
LINE
  5
12CF
330
1DC8
100
AcDbEntity
  8
0
100
AcDbLine
 10
3.898612
 20
5.4647
 30
0.0
 11
3.862405
 21
5.289944
 31
0.0
  0
LINE
  5
12D0
330
1DC8
100
AcDbEntity
  8
0
100
AcDbLine
 10
4.026669999999999
 20
6.336516000000001
 30
0.0
 11
3.958753
 21
5.964071
 31
0.0
  0
LINE
  5
12D1
330
1DC8
100
AcDbEntity
  8
0
100
AcDbLine
 10
3.958753
 20
5.964071
 30
0.0
 11
4.034167
 21
5.760130999999999
 31
0.0
  0
LINE
  5
12D2
330
1DC8
100
AcDbEntity
  8
0
100
AcDbLine
 10
4.034167
 20
5.760130999999999
 30
0.0
 11
4.003042
 21
5.681753
 31
0.0
  0
LINE
  5
12D3
330
1DC8
100
AcDbEntity
  8
0
100
AcDbLine
 10
4.003042
 20
5.681753
 30
0.0
 11
4.012155
 21
5.438609
 31
0.0
  0
LINE
  5
12D4
330
1DC8
100
AcDbEntity
  8
0
100
AcDbLine
 10
4.012155
 20
5.438609
 30
0.0
 11
3.965947
 21
5.402425
 31
0.0
  0
LINE
  5
12D5
330
1DC8
100
AcDbEntity
  8
0
100
AcDbLine
 10
3.965947
 20
5.402425
 30
0.0
 11
3.914707
 21
4.977525
 31
0.0
  0
LINE
  5
12D6
330
1DC8
100
AcDbEntity
  8
0
100
AcDbLine
 10
4.12315
 20
6.35165
 30
0.0
 11
4.086358000000001
 21
5.952051
 31
0.0
  0
LINE
  5
12D7
330
1DC8
100
AcDbEntity
  8
0
100
AcDbLine
 10
4.086358000000001
 20
5.952051
 30
0.0
 11
4.143698000000001
 21
5.707916
 31
0.0
  0
LINE
  5
12D8
330
1DC8
100
AcDbEntity
  8
0
100
AcDbLine
 10
4.143698000000001
 20
5.707916
 30
0.0
 11
4.061439
 21
5.255761
 31
0.0
  0
LINE
  5
12D9
330
1DC8
100
AcDbEntity
  8
0
100
AcDbLine
 10
4.061439
 20
5.255761
 30
0.0
 11
4.041352
 21
5.228628
 31
0.0
  0
LINE
  5
12DA
330
1DC8
100
AcDbEntity
  8
0
100
AcDbLine
 10
4.041352
 20
5.228628
 30
0.0
 11
4.01776
 21
4.99873
 31
0.0
  0
LINE
  5
12DB
330
1DC8
100
AcDbEntity
  8
0
100
AcDbLine
 10
4.234731
 20
6.369153
 30
0.0
 11
4.180834
 21
5.845576
 31
0.0
  0
LINE
  5
12DC
330
1DC8
100
AcDbEntity
  8
0
100
AcDbLine
 10
4.180834
 20
5.845576
 30
0.0
 11
4.21202
 21
5.706931
 31
0.0
  0
LINE
  5
12DD
330
1DC8
100
AcDbEntity
  8
0
100
AcDbLine
 10
4.21202
 20
5.706931
 30
0.0
 11
4.226126
 21
5.570291
 31
0.0
  0
LINE
  5
12DE
330
1DC8
100
AcDbEntity
  8
0
100
AcDbLine
 10
4.226126
 20
5.570291
 30
0.0
 11
4.213128
 21
5.346231
 31
0.0
  0
LINE
  5
12DF
330
1DC8
100
AcDbEntity
  8
0
100
AcDbLine
 10
4.213128
 20
5.346231
 30
0.0
 11
4.175998
 21
5.190486
 31
0.0
  0
LINE
  5
12E0
330
1DC8
100
AcDbEntity
  8
0
100
AcDbLine
 10
4.175998
 20
5.190486
 30
0.0
 11
4.124769000000001
 21
5.147268
 31
0.0
  0
LINE
  5
12E1
330
1DC8
100
AcDbEntity
  8
0
100
AcDbLine
 10
4.124769000000001
 20
5.147268
 30
0.0
 11
4.104822
 21
5.016644
 31
0.0
  0
LINE
  5
12E2
330
1DC8
100
AcDbEntity
  8
0
100
AcDbLine
 10
4.330385
 20
6.153072
 30
0.0
 11
4.263251
 21
5.744121
 31
0.0
  0
LINE
  5
12E3
330
1DC8
100
AcDbEntity
  8
0
100
AcDbLine
 10
4.263251
 20
5.744121
 30
0.0
 11
4.315658
 21
5.183493
 31
0.0
  0
LINE
  5
12E4
330
1DC8
100
AcDbEntity
  8
0
100
AcDbLine
 10
4.315658
 20
5.183493
 30
0.0
 11
4.247623
 21
5.046028
 31
0.0
  0
LINE
  5
12E5
330
1DC8
100
AcDbEntity
  8
0
100
AcDbLine
 10
0.568789
 20
5.902814
 30
0.0
 11
0.578897
 21
5.692826999999999
 31
0.0
  0
LINE
  5
12E6
330
1DC8
100
AcDbEntity
  8
0
100
AcDbLine
 10
0.578897
 20
5.692826999999999
 30
0.0
 11
0.624124
 21
5.641598
 31
0.0
  0
LINE
  5
12E7
330
1DC8
100
AcDbEntity
  8
0
100
AcDbLine
 10
0.624124
 20
5.641598
 30
0.0
 11
0.545766
 21
5.602391000000001
 31
0.0
  0
LINE
  5
12E8
330
1DC8
100
AcDbEntity
  8
0
100
AcDbLine
 10
0.545766
 20
5.602391000000001
 30
0.0
 11
0.540838
 21
5.270826000000001
 31
0.0
  0
LINE
  5
12E9
330
1DC8
100
AcDbEntity
  8
0
100
AcDbLine
 10
0.540838
 20
5.270826000000001
 30
0.0
 11
0.666481
 21
5.091015000000001
 31
0.0
  0
LINE
  5
12EA
330
1DC8
100
AcDbEntity
  8
0
100
AcDbLine
 10
0.666481
 20
5.091015000000001
 30
0.0
 11
0.6534479999999999
 21
4.993551
 31
0.0
  0
LINE
  5
12EB
330
1DC8
100
AcDbEntity
  8
0
100
AcDbLine
 10
0.6534479999999999
 20
4.993551
 30
0.0
 11
0.603248
 21
4.863926
 31
0.0
  0
LINE
  5
12EC
330
1DC8
100
AcDbEntity
  8
0
100
AcDbLine
 10
0.603248
 20
4.863926
 30
0.0
 11
0.6233800000000001
 21
4.733316
 31
0.0
  0
LINE
  5
12ED
330
1DC8
100
AcDbEntity
  8
0
100
AcDbLine
 10
0.6233800000000001
 20
4.733316
 30
0.0
 11
0.612358
 21
4.628819999999999
 31
0.0
  0
LINE
  5
12EE
330
1DC8
100
AcDbEntity
  8
0
100
AcDbLine
 10
0.612358
 20
4.628819999999999
 30
0.0
 11
0.633491
 21
4.514286
 31
0.0
  0
LINE
  5
12EF
330
1DC8
100
AcDbEntity
  8
0
100
AcDbLine
 10
0.633491
 20
4.514286
 30
0.0
 11
0.713899
 21
4.411826000000001
 31
0.0
  0
LINE
  5
12F0
330
1DC8
100
AcDbEntity
  8
0
100
AcDbLine
 10
0.713899
 20
4.411826000000001
 30
0.0
 11
0.749074
 21
4.379685
 31
0.0
  0
LINE
  5
12F1
330
1DC8
100
AcDbEntity
  8
0
100
AcDbLine
 10
0.749074
 20
4.379685
 30
0.0
 11
0.7259800000000001
 21
4.328437
 31
0.0
  0
LINE
  5
12F2
330
1DC8
100
AcDbEntity
  8
0
100
AcDbLine
 10
0.7259800000000001
 20
4.328437
 30
0.0
 11
0.730049
 21
4.153614
 31
0.0
  0
LINE
  5
12F3
330
1DC8
100
AcDbEntity
  8
0
100
AcDbLine
 10
0.730049
 20
4.153614
 30
0.0
 11
0.685941
 21
3.803953
 31
0.0
  0
LINE
  5
12F4
330
1DC8
100
AcDbEntity
  8
0
100
AcDbLine
 10
0.685941
 20
3.803953
 30
0.0
 11
0.9070549999999999
 21
3.553837
 31
0.0
  0
LINE
  5
12F5
330
1DC8
100
AcDbEntity
  8
0
100
AcDbLine
 10
0.9070549999999999
 20
3.553837
 30
0.0
 11
0.929241
 21
3.267493
 31
0.0
  0
LINE
  5
12F6
330
1DC8
100
AcDbEntity
  8
0
100
AcDbLine
 10
0.929241
 20
3.267493
 30
0.0
 11
0.9825
 21
3.24038
 31
0.0
  0
LINE
  5
12F7
330
1DC8
100
AcDbEntity
  8
0
100
AcDbLine
 10
0.9825
 20
3.24038
 30
0.0
 11
1.049859
 21
3.095718
 31
0.0
  0
LINE
  5
12F8
330
1DC8
100
AcDbEntity
  8
0
100
AcDbLine
 10
1.049859
 20
3.095718
 30
0.0
 11
1.094092
 21
3.010328
 31
0.0
  0
LINE
  5
12F9
330
1DC8
100
AcDbEntity
  8
0
100
AcDbLine
 10
1.094092
 20
3.010328
 30
0.0
 11
1.177502
 21
2.950068
 31
0.0
  0
LINE
  5
12FA
330
1DC8
100
AcDbEntity
  8
0
100
AcDbLine
 10
1.177502
 20
2.950068
 30
0.0
 11
1.157436
 21
2.849588
 31
0.0
  0
LINE
  5
12FB
330
1DC8
100
AcDbEntity
  8
0
100
AcDbLine
 10
1.157436
 20
2.849588
 30
0.0
 11
1.180577
 21
2.738069
 31
0.0
  0
LINE
  5
12FC
330
1DC8
100
AcDbEntity
  8
0
100
AcDbLine
 10
1.180577
 20
2.738069
 30
0.0
 11
1.211743
 21
2.670761
 31
0.0
  0
LINE
  5
12FD
330
1DC8
100
AcDbEntity
  8
0
100
AcDbLine
 10
1.211743
 20
2.670761
 30
0.0
 11
1.365485
 21
2.61052
 31
0.0
  0
LINE
  5
12FE
330
1DC8
100
AcDbEntity
  8
0
100
AcDbLine
 10
1.365485
 20
2.61052
 30
0.0
 11
1.444872
 21
2.566335
 31
0.0
  0
LINE
  5
12FF
330
1DC8
100
AcDbEntity
  8
0
100
AcDbLine
 10
1.444872
 20
2.566335
 30
0.0
 11
1.491149
 21
2.363391
 31
0.0
  0
LINE
  5
1300
330
1DC8
100
AcDbEntity
  8
0
100
AcDbLine
 10
1.491149
 20
2.363391
 30
0.0
 11
1.611724
 21
2.340317
 31
0.0
  0
LINE
  5
1301
330
1DC8
100
AcDbEntity
  8
0
100
AcDbLine
 10
1.611724
 20
2.340317
 30
0.0
 11
1.770503
 21
2.231851
 31
0.0
  0
LINE
  5
1302
330
1DC8
100
AcDbEntity
  8
0
100
AcDbLine
 10
1.770503
 20
2.231851
 30
0.0
 11
1.836835
 21
2.165557
 31
0.0
  0
LINE
  5
1303
330
1DC8
100
AcDbEntity
  8
0
100
AcDbLine
 10
1.836835
 20
2.165557
 30
0.0
 11
1.941241
 21
2.019376
 31
0.0
  0
LINE
  5
1305
330
1DC8
100
AcDbEntity
  8
0
100
AcDbLine
 10
1.941241
 20
2.019376
 30
0.0
 11
1.886048
 21
2.230879
 31
0.0
  0
LINE
  5
1306
330
1DC8
100
AcDbEntity
  8
0
100
AcDbLine
 10
1.886048
 20
2.230879
 30
0.0
 11
1.860902
 21
2.327327
 31
0.0
  0
LINE
  5
1307
330
1DC8
100
AcDbEntity
  8
0
100
AcDbLine
 10
1.860902
 20
2.327327
 30
0.0
 11
1.765416
 21
2.452892
 31
0.0
  0
LINE
  5
1308
330
1DC8
100
AcDbEntity
  8
0
100
AcDbLine
 10
1.765416
 20
2.452892
 30
0.0
 11
1.667928
 21
2.551328
 31
0.0
  0
LINE
  5
1309
330
1DC8
100
AcDbEntity
  8
0
100
AcDbLine
 10
1.667928
 20
2.551328
 30
0.0
 11
1.576467
 21
2.656799
 31
0.0
  0
LINE
  5
130A
330
1DC8
100
AcDbEntity
  8
0
100
AcDbLine
 10
1.576467
 20
2.656799
 30
0.0
 11
1.53024
 21
2.686928
 31
0.0
  0
LINE
  5
130B
330
1DC8
100
AcDbEntity
  8
0
100
AcDbLine
 10
1.53024
 20
2.686928
 30
0.0
 11
1.608515
 21
3.018513
 31
0.0
  0
LINE
  5
130C
330
1DC8
100
AcDbEntity
  8
0
100
AcDbLine
 10
1.608515
 20
3.018513
 30
0.0
 11
1.527078
 21
3.201352
 31
0.0
  0
LINE
  5
130D
330
1DC8
100
AcDbEntity
  8
0
100
AcDbLine
 10
1.527078
 20
3.201352
 30
0.0
 11
1.521037
 21
3.246563
 31
0.0
  0
LINE
  5
130E
330
1DC8
100
AcDbEntity
  8
0
100
AcDbLine
 10
1.521037
 20
3.246563
 30
0.0
 11
1.473805
 21
3.279706
 31
0.0
  0
LINE
  5
130F
330
1DC8
100
AcDbEntity
  8
0
100
AcDbLine
 10
1.473805
 20
3.279706
 30
0.0
 11
1.42156
 21
3.276677
 31
0.0
  0
LINE
  5
1310
330
1DC8
100
AcDbEntity
  8
0
100
AcDbLine
 10
1.42156
 20
3.276677
 30
0.0
 11
1.363244
 21
3.418328
 31
0.0
  0
LINE
  5
1311
330
1DC8
100
AcDbEntity
  8
0
100
AcDbLine
 10
1.363244
 20
3.418328
 30
0.0
 11
1.383297
 21
3.563016
 31
0.0
  0
LINE
  5
1312
330
1DC8
100
AcDbEntity
  8
0
100
AcDbLine
 10
1.383297
 20
3.563016
 30
0.0
 11
1.410385
 21
3.702682
 31
0.0
  0
LINE
  5
1313
330
1DC8
100
AcDbEntity
  8
0
100
AcDbLine
 10
1.410385
 20
3.702682
 30
0.0
 11
1.261607
 21
3.971909
 31
0.0
  0
LINE
  5
1314
330
1DC8
100
AcDbEntity
  8
0
100
AcDbLine
 10
1.261607
 20
3.971909
 30
0.0
 11
1.310823
 21
4.026179
 31
0.0
  0
LINE
  5
1315
330
1DC8
100
AcDbEntity
  8
0
100
AcDbLine
 10
1.310823
 20
4.026179
 30
0.0
 11
1.271616
 21
4.103532
 31
0.0
  0
LINE
  5
1316
330
1DC8
100
AcDbEntity
  8
0
100
AcDbLine
 10
1.271616
 20
4.103532
 30
0.0
 11
1.291673
 21
4.236163
 31
0.0
  0
LINE
  5
1317
330
1DC8
100
AcDbEntity
  8
0
100
AcDbLine
 10
1.291673
 20
4.236163
 30
0.0
 11
1.131871
 21
4.404913
 31
0.0
  0
LINE
  5
1318
330
1DC8
100
AcDbEntity
  8
0
100
AcDbLine
 10
1.387889
 20
1.870739
 30
0.0
 11
6.661258
 21
3.287224
 31
0.0
  0
LINE
  5
1319
330
1DC8
100
AcDbEntity
  8
0
100
AcDbLine
 10
6.661258
 20
3.287224
 30
0.0
 11
6.664298
 21
3.198808
 31
0.0
  0
LINE
  5
131A
330
1DC8
100
AcDbEntity
  8
0
100
AcDbLine
 10
6.664298
 20
3.198808
 30
0.0
 11
6.613097
 21
3.05612
 31
0.0
  0
LINE
  5
131B
330
1DC8
100
AcDbEntity
  8
0
100
AcDbLine
 10
6.613097
 20
3.05612
 30
0.0
 11
6.618149000000001
 21
2.956653
 31
0.0
  0
LINE
  5
131C
330
1DC8
100
AcDbEntity
  8
0
100
AcDbLine
 10
6.618149000000001
 20
2.956653
 30
0.0
 11
6.649331
 21
2.836094
 31
0.0
  0
LINE
  5
131D
330
1DC8
100
AcDbEntity
  8
0
100
AcDbLine
 10
6.649331
 20
2.836094
 30
0.0
 11
6.644333000000001
 21
2.744661
 31
0.0
  0
LINE
  5
131E
330
1DC8
100
AcDbEntity
  8
0
100
AcDbLine
 10
6.644333000000001
 20
2.744661
 30
0.0
 11
6.453436
 21
2.735564
 31
0.0
  0
LINE
  5
131F
330
1DC8
100
AcDbEntity
  8
0
100
AcDbLine
 10
6.453436
 20
2.735564
 30
0.0
 11
6.163131
 21
2.512429
 31
0.0
  0
LINE
  5
1320
330
1DC8
100
AcDbEntity
  8
0
100
AcDbLine
 10
6.163131
 20
2.512429
 30
0.0
 11
6.049580000000001
 21
2.567657
 31
0.0
  0
LINE
  5
1321
330
1DC8
100
AcDbEntity
  8
0
100
AcDbLine
 10
6.049580000000001
 20
2.567657
 30
0.0
 11
5.910981
 21
2.377722
 31
0.0
  0
LINE
  5
1322
330
1DC8
100
AcDbEntity
  8
0
100
AcDbLine
 10
5.910981
 20
2.377722
 30
0.0
 11
5.798473
 21
2.298315
 31
0.0
  0
LINE
  5
1323
330
1DC8
100
AcDbEntity
  8
0
100
AcDbLine
 10
5.798473
 20
2.298315
 30
0.0
 11
5.705066
 21
2.181739
 31
0.0
  0
LINE
  5
1324
330
1DC8
100
AcDbEntity
  8
0
100
AcDbLine
 10
5.705066
 20
2.181739
 30
0.0
 11
5.648823999999999
 21
2.100339
 31
0.0
  0
LINE
  5
1325
330
1DC8
100
AcDbEntity
  8
0
100
AcDbLine
 10
5.648823999999999
 20
2.100339
 30
0.0
 11
5.500133
 21
2.066135
 31
0.0
  0
LINE
  5
1326
330
1DC8
100
AcDbEntity
  8
0
100
AcDbLine
 10
5.500133
 20
2.066135
 30
0.0
 11
5.388605999999999
 21
2.071127
 31
0.0
  0
LINE
  5
1327
330
1DC8
100
AcDbEntity
  8
0
100
AcDbLine
 10
5.388605999999999
 20
2.071127
 30
0.0
 11
5.288133999999999
 21
2.064065
 31
0.0
  0
LINE
  5
1328
330
1DC8
100
AcDbEntity
  8
0
100
AcDbLine
 10
5.288133999999999
 20
2.064065
 30
0.0
 11
5.142440000000001
 21
2.091151
 31
0.0
  0
LINE
  5
1329
330
1DC8
100
AcDbEntity
  8
0
100
AcDbLine
 10
5.142440000000001
 20
2.091151
 30
0.0
 11
5.04799
 21
2.106195
 31
0.0
  0
LINE
  5
132A
330
1DC8
100
AcDbEntity
  8
0
100
AcDbLine
 10
5.04799
 20
2.106195
 30
0.0
 11
4.949532
 21
2.085067
 31
0.0
  0
LINE
  5
132B
330
1DC8
100
AcDbEntity
  8
0
100
AcDbLine
 10
4.949532
 20
2.085067
 30
0.0
 11
4.882256
 21
1.939361
 31
0.0
  0
LINE
  5
132C
330
1DC8
100
AcDbEntity
  8
0
100
AcDbLine
 10
4.882256
 20
1.939361
 30
0.0
 11
4.77877
 21
1.934308
 31
0.0
  0
LINE
  5
132D
330
1DC8
100
AcDbEntity
  8
0
100
AcDbLine
 10
4.77877
 20
1.934308
 30
0.0
 11
4.641131
 21
1.899103
 31
0.0
  0
LINE
  5
132E
330
1DC8
100
AcDbEntity
  8
0
100
AcDbLine
 10
4.641131
 20
1.899103
 30
0.0
 11
4.56377
 21
1.888028
 31
0.0
  0
LINE
  5
132F
330
1DC8
100
AcDbEntity
  8
0
100
AcDbLine
 10
4.56377
 20
1.888028
 30
0.0
 11
4.536639
 21
1.898068
 31
0.0
  0
LINE
  5
1330
330
1DC8
100
AcDbEntity
  8
0
100
AcDbLine
 10
4.536639
 20
1.898068
 30
0.0
 11
4.500464
 21
1.912124
 31
0.0
  0
LINE
  5
1331
330
1DC8
100
AcDbEntity
  8
0
100
AcDbLine
 10
4.500464
 20
1.912124
 30
0.0
 11
4.464297
 21
1.901061
 31
0.0
  0
LINE
  5
1332
330
1DC8
100
AcDbEntity
  8
0
100
AcDbLine
 10
4.464297
 20
1.901061
 30
0.0
 11
4.431145
 21
1.884976
 31
0.0
  0
LINE
  5
1333
330
1DC8
100
AcDbEntity
  8
0
100
AcDbLine
 10
4.431145
 20
1.884976
 30
0.0
 11
4.396995
 21
1.845781
 31
0.0
  0
LINE
  5
1334
330
1DC8
100
AcDbEntity
  8
0
100
AcDbLine
 10
4.396995
 20
1.845781
 30
0.0
 11
4.368874
 21
1.805584
 31
0.0
  0
LINE
  5
1335
330
1DC8
100
AcDbEntity
  8
0
100
AcDbLine
 10
4.368874
 20
1.805584
 30
0.0
 11
4.252332
 21
1.780432
 31
0.0
  0
LINE
  5
1336
330
1DC8
100
AcDbEntity
  8
0
100
AcDbLine
 10
4.252332
 20
1.780432
 30
0.0
 11
4.11369
 21
1.739198
 31
0.0
  0
LINE
  5
1337
330
1DC8
100
AcDbEntity
  8
0
100
AcDbLine
 10
4.11369
 20
1.739198
 30
0.0
 11
3.951927
 21
1.741161
 31
0.0
  0
LINE
  5
1338
330
1DC8
100
AcDbEntity
  8
0
100
AcDbLine
 10
3.951927
 20
1.741161
 30
0.0
 11
3.83639
 21
1.712995
 31
0.0
  0
LINE
  5
1339
330
1DC8
100
AcDbEntity
  8
0
100
AcDbLine
 10
3.83639
 20
1.712995
 30
0.0
 11
3.684698000000001
 21
1.633578
 31
0.0
  0
LINE
  5
133A
330
1DC8
100
AcDbEntity
  8
0
100
AcDbLine
 10
3.684698000000001
 20
1.633578
 30
0.0
 11
3.50484
 21
1.669696
 31
0.0
  0
LINE
  5
133B
330
1DC8
100
AcDbEntity
  8
0
100
AcDbLine
 10
3.50484
 20
1.669696
 30
0.0
 11
3.451596
 21
1.645567
 31
0.0
  0
LINE
  5
133C
330
1DC8
100
AcDbEntity
  8
0
100
AcDbLine
 10
3.451596
 20
1.645567
 30
0.0
 11
3.239628
 21
1.53599
 31
0.0
  0
LINE
  5
133D
330
1DC8
100
AcDbEntity
  8
0
100
AcDbLine
 10
3.239628
 20
1.53599
 30
0.0
 11
3.180351
 21
1.525926
 31
0.0
  0
LINE
  5
133E
330
1DC8
100
AcDbEntity
  8
0
100
AcDbLine
 10
3.180351
 20
1.525926
 30
0.0
 11
2.963325
 21
1.53792
 31
0.0
  0
LINE
  5
133F
330
1DC8
100
AcDbEntity
  8
0
100
AcDbLine
 10
2.963325
 20
1.53792
 30
0.0
 11
2.847766
 21
1.587119
 31
0.0
  0
LINE
  5
1340
330
1DC8
100
AcDbEntity
  8
0
100
AcDbLine
 10
2.847766
 20
1.587119
 30
0.0
 11
2.696072
 21
1.510716
 31
0.0
  0
LINE
  5
1341
330
1DC8
100
AcDbEntity
  8
0
100
AcDbLine
 10
2.696072
 20
1.510716
 30
0.0
 11
2.475047
 21
1.452378
 31
0.0
  0
LINE
  5
1342
330
1DC8
100
AcDbEntity
  8
0
100
AcDbLine
 10
2.475047
 20
1.452378
 30
0.0
 11
2.309272
 21
1.429221
 31
0.0
  0
LINE
  5
1343
330
1DC8
100
AcDbEntity
  8
0
100
AcDbLine
 10
2.309272
 20
1.429221
 30
0.0
 11
2.149544
 21
1.341763
 31
0.0
  0
LINE
  5
1344
330
1DC8
100
AcDbEntity
  8
0
100
AcDbLine
 10
2.149544
 20
1.341763
 30
0.0
 11
1.94862
 21
1.261327
 31
0.0
  0
LINE
  5
1345
330
1DC8
100
AcDbEntity
  8
0
100
AcDbLine
 10
1.94862
 20
1.261327
 30
0.0
 11
1.777827
 21
1.218074
 31
0.0
  0
LINE
  5
1346
330
1DC8
100
AcDbEntity
  8
0
100
AcDbLine
 10
1.777827
 20
1.218074
 30
0.0
 11
1.696448
 21
1.203984
 31
0.0
  0
LINE
  5
1347
330
1DC8
100
AcDbEntity
  8
0
100
AcDbLine
 10
1.696448
 20
1.203984
 30
0.0
 11
1.662258
 21
1.302439
 31
0.0
  0
LINE
  5
1348
330
1DC8
100
AcDbEntity
  8
0
100
AcDbLine
 10
1.662258
 20
1.302439
 30
0.0
 11
1.650169
 21
1.414966
 31
0.0
  0
LINE
  5
1349
330
1DC8
100
AcDbEntity
  8
0
100
AcDbLine
 10
1.650169
 20
1.414966
 30
0.0
 11
1.648131
 21
1.514434
 31
0.0
  0
LINE
  5
134A
330
1DC8
100
AcDbEntity
  8
0
100
AcDbLine
 10
1.648131
 20
1.514434
 30
0.0
 11
1.59183
 21
1.64001
 31
0.0
  0
LINE
  5
134B
330
1DC8
100
AcDbEntity
  8
0
100
AcDbLine
 10
1.59183
 20
1.64001
 30
0.0
 11
1.450133
 21
1.741448
 31
0.0
  0
LINE
  5
134C
330
1DC8
100
AcDbEntity
  8
0
100
AcDbLine
 10
1.450133
 20
1.741448
 30
0.0
 11
1.384791
 21
1.860993
 31
0.0
  0
LINE
  5
134D
330
1DC8
100
AcDbEntity
  8
0
100
AcDbLine
 10
1.384791
 20
1.860993
 30
0.0
 11
1.391817
 21
1.883099
 31
0.0
  0
LINE
  5
134E
330
1DC8
100
AcDbEntity
  8
0
100
AcDbLine
 10
1.391817
 20
1.883099
 30
0.0
 11
1.334518
 21
1.985565
 31
0.0
  0
LINE
  5
134F
330
1DC8
100
AcDbEntity
  8
0
100
AcDbLine
 10
1.334518
 20
1.985565
 30
0.0
 11
1.304349
 21
2.078997
 31
0.0
  0
LINE
  5
1350
330
1DC8
100
AcDbEntity
  8
0
100
AcDbLine
 10
1.304349
 20
2.078997
 30
0.0
 11
1.297289
 21
2.171431
 31
0.0
  0
LINE
  5
1351
330
1DC8
100
AcDbEntity
  8
0
100
AcDbLine
 10
1.297289
 20
2.171431
 30
0.0
 11
1.276171
 21
2.237738
 31
0.0
  0
LINE
  5
1352
330
1DC8
100
AcDbEntity
  8
0
100
AcDbLine
 10
1.276171
 20
2.237738
 30
0.0
 11
1.287188
 21
2.361323
 31
0.0
  0
LINE
  5
1353
330
1DC8
100
AcDbEntity
  8
0
100
AcDbLine
 10
1.287188
 20
2.361323
 30
0.0
 11
1.24698
 21
2.42461
 31
0.0
  0
LINE
  5
1354
330
1DC8
100
AcDbEntity
  8
0
100
AcDbLine
 10
1.24698
 20
2.42461
 30
0.0
 11
1.08115
 21
2.592354
 31
0.0
  0
LINE
  5
1355
330
1DC8
100
AcDbEntity
  8
0
100
AcDbLine
 10
1.08115
 20
2.592354
 30
0.0
 11
1.048962
 21
2.720951
 31
0.0
  0
LINE
  5
1356
330
1DC8
100
AcDbEntity
  8
0
100
AcDbLine
 10
1.048962
 20
2.720951
 30
0.0
 11
1.035868
 21
2.831468
 31
0.0
  0
LINE
  5
1357
330
1DC8
100
AcDbEntity
  8
0
100
AcDbLine
 10
1.035868
 20
2.831468
 30
0.0
 11
0.913258
 21
2.943963
 31
0.0
  0
LINE
  5
1358
330
1DC8
100
AcDbEntity
  8
0
100
AcDbLine
 10
0.913258
 20
2.943963
 30
0.0
 11
0.8499370000000001
 21
3.022315
 31
0.0
  0
LINE
  5
1359
330
1DC8
100
AcDbEntity
  8
0
100
AcDbLine
 10
0.8499370000000001
 20
3.022315
 30
0.0
 11
0.8207690000000001
 21
3.130818
 31
0.0
  0
LINE
  5
135A
330
1DC8
100
AcDbEntity
  8
0
100
AcDbLine
 10
0.8207690000000001
 20
3.130818
 30
0.0
 11
0.761456
 21
3.24735
 31
0.0
  0
LINE
  5
135B
330
1DC8
100
AcDbEntity
  8
0
100
AcDbLine
 10
0.761456
 20
3.24735
 30
0.0
 11
0.744344
 21
3.357866000000001
 31
0.0
  0
LINE
  5
135C
330
1DC8
100
AcDbEntity
  8
0
100
AcDbLine
 10
0.744344
 20
3.357866000000001
 30
0.0
 11
0.684016
 21
3.510569
 31
0.0
  0
LINE
  5
135D
330
1DC8
100
AcDbEntity
  8
0
100
AcDbLine
 10
0.684016
 20
3.510569
 30
0.0
 11
0.6317390000000001
 21
3.618061
 31
0.0
  0
LINE
  5
135E
330
1DC8
100
AcDbEntity
  8
0
100
AcDbLine
 10
0.6317390000000001
 20
3.618061
 30
0.0
 11
0.5885130000000001
 21
3.694408
 31
0.0
  0
LINE
  5
135F
330
1DC8
100
AcDbEntity
  8
0
100
AcDbLine
 10
0.5885130000000001
 20
3.694408
 30
0.0
 11
0.560448
 21
3.459292
 31
0.0
  0
LINE
  5
1360
330
1DC8
100
AcDbEntity
  8
0
100
AcDbLine
 10
0.560448
 20
3.459292
 30
0.0
 11
0.5926399999999999
 21
3.316628
 31
0.0
  0
LINE
  5
1361
330
1DC8
100
AcDbEntity
  8
0
100
AcDbLine
 10
0.5926399999999999
 20
3.316628
 30
0.0
 11
0.623816
 21
3.216164
 31
0.0
  0
LINE
  5
1362
330
1DC8
100
AcDbEntity
  8
0
100
AcDbLine
 10
0.623816
 20
3.216164
 30
0.0
 11
0.727336
 21
3.102658
 31
0.0
  0
LINE
  5
1363
330
1DC8
100
AcDbEntity
  8
0
100
AcDbLine
 10
0.727336
 20
3.102658
 30
0.0
 11
0.706274
 21
2.975051
 31
0.0
  0
LINE
  5
1364
330
1DC8
100
AcDbEntity
  8
0
100
AcDbLine
 10
0.706274
 20
2.975051
 30
0.0
 11
0.739453
 21
2.895686
 31
0.0
  0
LINE
  5
1365
330
1DC8
100
AcDbEntity
  8
0
100
AcDbLine
 10
0.739453
 20
2.895686
 30
0.0
 11
0.903286
 21
2.683734
 31
0.0
  0
LINE
  5
1366
330
1DC8
100
AcDbEntity
  8
0
100
AcDbLine
 10
0.903286
 20
2.683734
 30
0.0
 11
0.8581209999999999
 21
2.51593
 31
0.0
  0
LINE
  5
1367
330
1DC8
100
AcDbEntity
  8
0
100
AcDbLine
 10
0.8581209999999999
 20
2.51593
 30
0.0
 11
0.963674
 21
2.322046
 31
0.0
  0
LINE
  5
1368
330
1DC8
100
AcDbEntity
  8
0
100
AcDbLine
 10
0.963674
 20
2.322046
 30
0.0
 11
1.022997
 21
2.169343
 31
0.0
  0
LINE
  5
1369
330
1DC8
100
AcDbEntity
  8
0
100
AcDbLine
 10
1.022997
 20
2.169343
 30
0.0
 11
1.07428
 21
2.024675
 31
0.0
  0
LINE
  5
136A
330
1DC8
100
AcDbEntity
  8
0
100
AcDbLine
 10
1.07428
 20
2.024675
 30
0.0
 11
1.073334
 21
1.819709
 31
0.0
  0
LINE
  5
136B
330
1DC8
100
AcDbEntity
  8
0
100
AcDbLine
 10
1.073334
 20
1.819709
 30
0.0
 11
1.060293
 21
1.747364
 31
0.0
  0
LINE
  5
136C
330
1DC8
100
AcDbEntity
  8
0
100
AcDbLine
 10
1.060293
 20
1.747364
 30
0.0
 11
1.402955
 21
1.586705
 31
0.0
  0
LINE
  5
136D
330
1DC8
100
AcDbEntity
  8
0
100
AcDbLine
 10
1.402955
 20
1.586705
 30
0.0
 11
1.460264
 21
1.451082
 31
0.0
  0
LINE
  5
136E
330
1DC8
100
AcDbEntity
  8
0
100
AcDbLine
 10
1.460264
 20
1.451082
 30
0.0
 11
1.657757
 21
1.344335
 31
0.0
  0
LINE
  5
136F
330
1DC8
100
AcDbEntity
  8
0
100
AcDbLine
 10
0.5885130000000001
 20
3.694408
 30
0.0
 11
0.7831560000000001
 21
3.693986
 31
0.0
  0
LINE
  5
1370
330
1DC8
100
AcDbEntity
  8
0
100
AcDbLine
 10
4.351576000000001
 20
1.801851
 30
0.0
 11
4.351576000000001
 21
2.666818
 31
0.0
  0
LINE
  5
1371
330
1DC8
100
AcDbEntity
  8
0
100
AcDbLine
 10
4.56377
 20
1.888028
 30
0.0
 11
4.56377
 21
2.723815
 31
0.0
  0
LINE
  5
137E
330
1DC8
100
AcDbEntity
  8
0
100
AcDbLine
 10
6.461684
 20
5.501606
 30
0.0
 11
6.385416
 21
5.183083
 31
0.0
  0
LINE
  5
137F
330
1DC8
100
AcDbEntity
  8
0
100
AcDbLine
 10
6.385416
 20
5.183083
 30
0.0
 11
6.448735
 21
5.11076
 31
0.0
  0
LINE
  5
1380
330
1DC8
100
AcDbEntity
  8
0
100
AcDbLine
 10
6.448735
 20
5.11076
 30
0.0
 11
6.454781
 21
5.048468
 31
0.0
  0
LINE
  5
1381
330
1DC8
100
AcDbEntity
  8
0
100
AcDbLine
 10
6.454781
 20
5.048468
 30
0.0
 11
6.398541000000001
 21
4.960035
 31
0.0
  0
LINE
  5
1382
330
1DC8
100
AcDbEntity
  8
0
100
AcDbLine
 10
6.398541000000001
 20
4.960035
 30
0.0
 11
6.420797
 21
4.43155
 31
0.0
  0
LINE
  5
1383
330
1DC8
100
AcDbEntity
  8
0
100
AcDbLine
 10
6.420797
 20
4.43155
 30
0.0
 11
6.293256
 21
4.221523
 31
0.0
  0
LINE
  5
1384
330
1DC8
100
AcDbEntity
  8
0
100
AcDbLine
 10
6.293256
 20
4.221523
 30
0.0
 11
6.325464
 21
4.024604
 31
0.0
  0
LINE
  5
1385
330
1DC8
100
AcDbEntity
  8
0
100
AcDbLine
 10
6.325464
 20
4.024604
 30
0.0
 11
6.502314
 21
3.96839
 31
0.0
  0
LINE
  5
1386
330
1DC8
100
AcDbEntity
  8
0
100
AcDbLine
 10
6.502314
 20
3.96839
 30
0.0
 11
6.38381
 21
3.77846
 31
0.0
  0
LINE
  5
1387
330
1DC8
100
AcDbEntity
  8
0
100
AcDbLine
 10
6.38381
 20
3.77846
 30
0.0
 11
6.430059
 21
3.666948000000001
 31
0.0
  0
LINE
  5
1388
330
1DC8
100
AcDbEntity
  8
0
100
AcDbLine
 10
6.430059
 20
3.666948000000001
 30
0.0
 11
6.389898000000001
 21
3.569477
 31
0.0
  0
LINE
  5
1389
330
1DC8
100
AcDbEntity
  8
0
100
AcDbLine
 10
6.389898000000001
 20
3.569477
 30
0.0
 11
6.30251
 21
3.484049
 31
0.0
  0
LINE
  5
138A
330
1DC8
100
AcDbEntity
  8
0
100
AcDbLine
 10
6.30251
 20
3.484049
 30
0.0
 11
6.238125
 21
3.173566
 31
0.0
  0
LINE
  5
138B
330
1DC8
100
AcDbEntity
  8
0
100
AcDbLine
 10
6.661258
 20
3.287224
 30
0.0
 11
6.333132
 21
3.513984
 31
0.0
  0
LINE
  5
138C
330
1DC8
100
AcDbEntity
  8
0
100
AcDbLine
 10
6.502314
 20
3.96839
 30
0.0
 11
6.317154
 21
4.260877
 31
0.0
  0
LINE
  5
138D
330
1DC8
100
AcDbEntity
  8
0
100
AcDbLine
 10
5.472761
 20
6.415632
 30
0.0
 11
5.462882
 21
6.13097
 31
0.0
  0
LINE
  5
195F
330
1DC8
100
AcDbEntity
  8
0
100
AcDbLine
 10
1.480454
 20
8.166666000000001
 30
0.0
 11
1.607081
 21
8.011049
 31
0.0
  0
LINE
  5
1960
330
1DC8
100
AcDbEntity
  8
0
100
AcDbLine
 10
1.607081
 20
8.011049
 30
0.0
 11
1.391053
 21
8.045147999999999
 31
0.0
  0
LINE
  5
1961
330
1DC8
100
AcDbEntity
  8
0
100
AcDbLine
 10
1.391053
 20
8.045147999999999
 30
0.0
 11
1.482393
 21
7.891449000000001
 31
0.0
  0
LINE
  5
1962
330
1DC8
100
AcDbEntity
  8
0
100
AcDbLine
 10
2.289182
 20
9.089912
 30
0.0
 11
2.276991
 21
8.879334
 31
0.0
  0
LINE
  5
1963
330
1DC8
100
AcDbEntity
  8
0
100
AcDbLine
 10
2.276991
 20
8.879334
 30
0.0
 11
2.163408
 21
9.049102
 31
0.0
  0
LINE
  5
1964
330
1DC8
100
AcDbEntity
  8
0
100
AcDbLine
 10
2.163408
 20
9.049102
 30
0.0
 11
2.154524
 21
8.911963
 31
0.0
  0
LINE
  5
1965
330
1DC8
100
AcDbEntity
  8
0
100
AcDbLine
 10
2.154524
 20
8.911963
 30
0.0
 11
2.049951
 21
8.773771
 31
0.0
  0
LINE
  5
1966
330
1DC8
100
AcDbEntity
  8
0
100
AcDbLine
 10
1.480454
 20
8.166666000000001
 30
0.0
 11
1.478344
 21
8.466158
 31
0.0
  0
LINE
  5
1967
330
1DC8
100
AcDbEntity
  8
0
100
AcDbLine
 10
1.391053
 20
8.045147999999999
 30
0.0
 11
1.565012
 21
8.062749
 31
0.0
  0
LINE
  5
1968
330
1DC8
100
AcDbEntity
  8
0
100
AcDbLine
 10
2.163408
 20
9.049102
 30
0.0
 11
2.287082
 21
9.053641000000001
 31
0.0
  0
LINE
  5
1969
330
1DC8
100
AcDbEntity
  8
0
100
AcDbLine
 10
2.221897
 20
9.051247999999999
 30
0.0
 11
2.282424
 21
8.973171000000001
 31
0.0
  0
LINE
  5
196A
330
1DC8
100
AcDbEntity
  8
0
100
AcDbLine
 10
1.478586
 20
8.054005
 30
0.0
 11
1.584628
 21
8.038642999999999
 31
0.0
  0
LINE
  5
196C
330
1DC8
100
AcDbEntity
  8
0
100
AcDbLine
 10
2.627266
 20
6.299119999999999
 30
0.0
 11
2.627266
 21
5.619749
 31
0.0
  0
LINE
  5
196D
330
1DC8
100
AcDbEntity
  8
0
100
AcDbLine
 10
2.772508
 20
6.898275999999999
 30
0.0
 11
2.772508
 21
6.709516000000001
 31
0.0
  0
LWPOLYLINE
  5
196E
330
1DC8
100
AcDbEntity
  8
0
100
AcDbPolyline
 90
        6
 70
     0
 43
0.0
 10
2.627266
 20
5.619749
 42
0.01318
 10
2.627285
 20
5.619025
 42
0.19937
 10
2.631831
 20
5.609524
 42
0.098361
 10
2.649668
 20
5.598957
 42
0.055588
 10
2.67176
 20
5.593838
 42
0.042358
 10
2.701468
 20
5.592889
 42
0.042358
  0
LWPOLYLINE
  5
1976
330
1DC8
100
AcDbEntity
  8
0
100
AcDbPolyline
 90
        5
 70
     0
 43
0.0
 10
2.701468
 20
5.592889
 42
0.042358
 10
2.730911
 20
5.59696
 42
0.055588
 10
2.752342
 20
5.604375
 42
0.098361
 10
2.768968
 20
5.61676
 42
0.19581
 10
2.772508
 20
5.626562
  0
LWPOLYLINE
  5
197D
330
1DC8
100
AcDbEntity
  8
0
100
AcDbPolyline
 90
        5
 70
     0
 43
0.0
 10
2.701468
 20
5.619892
 42
0.042358
 10
2.730911
 20
5.623962000000001
 42
0.055588
 10
2.752342
 20
5.631378
 42
0.098361
 10
2.768968
 20
5.643763
 42
0.19581
 10
2.772508
 20
5.653565
  0
LWPOLYLINE
  5
1984
330
1DC8
100
AcDbEntity
  8
0
100
AcDbPolyline
 90
        6
 70
     0
 43
0.0
 10
2.627266
 20
5.646751
 42
0.01318
 10
2.627285
 20
5.646028
 42
0.19937
 10
2.631831
 20
5.636527
 42
0.098361
 10
2.649668
 20
5.62596
 42
0.055588
 10
2.67176
 20
5.620841
 42
0.042358
 10
2.701468
 20
5.619892
 42
0.042358
  0
LWPOLYLINE
  5
198C
330
1DC8
100
AcDbEntity
  8
0
100
AcDbPolyline
 90
        5
 70
     0
 43
0.0
 10
2.701468
 20
5.646895
 42
0.042358
 10
2.730911
 20
5.650965
 42
0.055588
 10
2.752342
 20
5.658380999999999
 42
0.098361
 10
2.768968
 20
5.670766
 42
0.19581
 10
2.772508
 20
5.680568
  0
LWPOLYLINE
  5
1993
330
1DC8
100
AcDbEntity
  8
0
100
AcDbPolyline
 90
        6
 70
     0
 43
0.0
 10
2.627266
 20
5.673754
 42
0.01318
 10
2.627285
 20
5.673031
 42
0.19937
 10
2.631831
 20
5.663530000000001
 42
0.098361
 10
2.649668
 20
5.652963
 42
0.055588
 10
2.67176
 20
5.647844
 42
0.042358
 10
2.701468
 20
5.646895
 42
0.042358
  0
LWPOLYLINE
  5
199B
330
1DC8
100
AcDbEntity
  8
0
100
AcDbPolyline
 90
        5
 70
     0
 43
0.0
 10
2.701468
 20
5.673898
 42
0.042358
 10
2.730911
 20
5.677968
 42
0.055588
 10
2.752342
 20
5.685384
 42
0.098361
 10
2.768968
 20
5.697769
 42
0.19581
 10
2.772508
 20
5.707571
  0
LWPOLYLINE
  5
19A2
330
1DC8
100
AcDbEntity
  8
0
100
AcDbPolyline
 90
        6
 70
     0
 43
0.0
 10
2.627266
 20
5.700757
 42
0.01318
 10
2.627285
 20
5.700034
 42
0.19937
 10
2.631831
 20
5.690533
 42
0.098361
 10
2.649668
 20
5.679966
 42
0.055588
 10
2.67176
 20
5.674847
 42
0.042358
 10
2.701468
 20
5.673898
 42
0.042358
  0
LWPOLYLINE
  5
19AA
330
1DC8
100
AcDbEntity
  8
0
100
AcDbPolyline
 90
        5
 70
     0
 43
0.0
 10
2.701468
 20
5.700901
 42
0.042358
 10
2.730911
 20
5.704971
 42
0.055588
 10
2.752342
 20
5.712387000000001
 42
0.098361
 10
2.768968
 20
5.724772
 42
0.19581
 10
2.772508
 20
5.734573999999999
  0
LWPOLYLINE
  5
19B1
330
1DC8
100
AcDbEntity
  8
0
100
AcDbPolyline
 90
        6
 70
     0
 43
0.0
 10
2.627266
 20
5.72776
 42
0.01318
 10
2.627285
 20
5.727037
 42
0.19937
 10
2.631831
 20
5.717536
 42
0.098361
 10
2.649668
 20
5.706969
 42
0.055588
 10
2.67176
 20
5.70185
 42
0.042358
 10
2.701468
 20
5.700901
 42
0.042358
  0
LWPOLYLINE
  5
19B9
330
1DC8
100
AcDbEntity
  8
0
100
AcDbPolyline
 90
        5
 70
     0
 43
0.0
 10
2.701468
 20
5.727904
 42
0.042358
 10
2.730911
 20
5.731974
 42
0.055588
 10
2.752342
 20
5.73939
 42
0.098361
 10
2.768968
 20
5.751775
 42
0.19581
 10
2.772508
 20
5.761576
  0
LWPOLYLINE
  5
19C0
330
1DC8
100
AcDbEntity
  8
0
100
AcDbPolyline
 90
        6
 70
     0
 43
0.0
 10
2.627266
 20
5.754763
 42
0.01318
 10
2.627285
 20
5.75404
 42
0.19937
 10
2.631831
 20
5.744539
 42
0.098361
 10
2.649668
 20
5.733972000000001
 42
0.055588
 10
2.67176
 20
5.728853
 42
0.042358
 10
2.701468
 20
5.727904
 42
0.042358
  0
LWPOLYLINE
  5
19C8
330
1DC8
100
AcDbEntity
  8
0
100
AcDbPolyline
 90
        5
 70
     0
 43
0.0
 10
2.701468
 20
5.754907
 42
0.042358
 10
2.730911
 20
5.758977
 42
0.055588
 10
2.752342
 20
5.766392
 42
0.098361
 10
2.768968
 20
5.778778
 42
0.19581
 10
2.772508
 20
5.788579
  0
LWPOLYLINE
  5
19CF
330
1DC8
100
AcDbEntity
  8
0
100
AcDbPolyline
 90
        6
 70
     0
 43
0.0
 10
2.627266
 20
5.781766
 42
0.01318
 10
2.627285
 20
5.781043
 42
0.19937
 10
2.631831
 20
5.771542
 42
0.098361
 10
2.649668
 20
5.760975
 42
0.055588
 10
2.67176
 20
5.755856
 42
0.042358
 10
2.701468
 20
5.754907
 42
0.042358
  0
LWPOLYLINE
  5
19D7
330
1DC8
100
AcDbEntity
  8
0
100
AcDbPolyline
 90
        5
 70
     0
 43
0.0
 10
2.701468
 20
5.781909
 42
0.042358
 10
2.730911
 20
5.78598
 42
0.055588
 10
2.752342
 20
5.793394999999999
 42
0.098361
 10
2.768968
 20
5.805781
 42
0.19581
 10
2.772508
 20
5.815582
  0
LWPOLYLINE
  5
19DE
330
1DC8
100
AcDbEntity
  8
0
100
AcDbPolyline
 90
        6
 70
     0
 43
0.0
 10
2.627266
 20
5.808769
 42
0.01318
 10
2.627285
 20
5.808045
 42
0.19937
 10
2.631831
 20
5.798544000000001
 42
0.098361
 10
2.649668
 20
5.787978
 42
0.055588
 10
2.67176
 20
5.782858999999999
 42
0.042358
 10
2.701468
 20
5.781909
 42
0.042358
  0
LWPOLYLINE
  5
19E6
330
1DC8
100
AcDbEntity
  8
0
100
AcDbPolyline
 90
        5
 70
     0
 43
0.0
 10
2.701468
 20
5.808912
 42
0.042358
 10
2.730911
 20
5.812983
 42
0.055588
 10
2.752342
 20
5.820398
 42
0.098361
 10
2.768968
 20
5.832783
 42
0.19581
 10
2.772508
 20
5.842585
  0
LWPOLYLINE
  5
19ED
330
1DC8
100
AcDbEntity
  8
0
100
AcDbPolyline
 90
        6
 70
     0
 43
0.0
 10
2.627266
 20
5.835772
 42
0.01318
 10
2.627285
 20
5.835048000000001
 42
0.19937
 10
2.631831
 20
5.825547
 42
0.098361
 10
2.649668
 20
5.814981
 42
0.055588
 10
2.67176
 20
5.809862
 42
0.042358
 10
2.701468
 20
5.808912
 42
0.042358
  0
LWPOLYLINE
  5
19F5
330
1DC8
100
AcDbEntity
  8
0
100
AcDbPolyline
 90
        5
 70
     0
 43
0.0
 10
2.701468
 20
5.835915
 42
0.042358
 10
2.730911
 20
5.839986
 42
0.055588
 10
2.752342
 20
5.847401000000001
 42
0.098361
 10
2.768968
 20
5.859786
 42
0.19581
 10
2.772508
 20
5.869587999999999
  0
LWPOLYLINE
  5
19FC
330
1DC8
100
AcDbEntity
  8
0
100
AcDbPolyline
 90
        6
 70
     0
 43
0.0
 10
2.627266
 20
5.862775
 42
0.01318
 10
2.627285
 20
5.862051
 42
0.19937
 10
2.631831
 20
5.85255
 42
0.098361
 10
2.649668
 20
5.841984
 42
0.055588
 10
2.67176
 20
5.836865
 42
0.042358
 10
2.701468
 20
5.835915
 42
0.042358
  0
LWPOLYLINE
  5
1A04
330
1DC8
100
AcDbEntity
  8
0
100
AcDbPolyline
 90
        5
 70
     0
 43
0.0
 10
2.701468
 20
6.051939
 42
0.042358
 10
2.730911
 20
6.056009
 42
0.055588
 10
2.752342
 20
6.063425
 42
0.098361
 10
2.768968
 20
6.07581
 42
0.19581
 10
2.772508
 20
6.085612
  0
LWPOLYLINE
  5
1A0B
330
1DC8
100
AcDbEntity
  8
0
100
AcDbPolyline
 90
        5
 70
     0
 43
0.0
 10
2.701468
 20
6.024936
 42
0.042358
 10
2.730911
 20
6.029006
 42
0.055588
 10
2.752342
 20
6.036422
 42
0.098361
 10
2.768968
 20
6.048807
 42
0.19581
 10
2.772508
 20
6.058609
  0
LWPOLYLINE
  5
1A12
330
1DC8
100
AcDbEntity
  8
0
100
AcDbPolyline
 90
        5
 70
     0
 43
0.0
 10
2.701468
 20
5.997933
 42
0.042358
 10
2.730911
 20
6.002003
 42
0.055588
 10
2.752342
 20
6.009419
 42
0.098361
 10
2.768968
 20
6.021804
 42
0.19581
 10
2.772508
 20
6.031606
  0
LWPOLYLINE
  5
1A19
330
1DC8
100
AcDbEntity
  8
0
100
AcDbPolyline
 90
        5
 70
     0
 43
0.0
 10
2.701468
 20
5.97093
 42
0.042358
 10
2.730911
 20
5.975001
 42
0.055588
 10
2.752342
 20
5.982416000000001
 42
0.098361
 10
2.768968
 20
5.994801
 42
0.19581
 10
2.772508
 20
6.004603
  0
LWPOLYLINE
  5
1A20
330
1DC8
100
AcDbEntity
  8
0
100
AcDbPolyline
 90
        5
 70
     0
 43
0.0
 10
2.701468
 20
5.943927
 42
0.042358
 10
2.730911
 20
5.947998
 42
0.055588
 10
2.752342
 20
5.955413
 42
0.098361
 10
2.768968
 20
5.967798
 42
0.19581
 10
2.772508
 20
5.9776
  0
LWPOLYLINE
  5
1A27
330
1DC8
100
AcDbEntity
  8
0
100
AcDbPolyline
 90
        5
 70
     0
 43
0.0
 10
2.701468
 20
5.916924
 42
0.042358
 10
2.730911
 20
5.920995
 42
0.055588
 10
2.752342
 20
5.92841
 42
0.098361
 10
2.768968
 20
5.940795
 42
0.19581
 10
2.772508
 20
5.950597
  0
LWPOLYLINE
  5
1A2E
330
1DC8
100
AcDbEntity
  8
0
100
AcDbPolyline
 90
        5
 70
     0
 43
0.0
 10
2.701468
 20
5.889921
 42
0.042358
 10
2.730911
 20
5.893992
 42
0.055588
 10
2.752342
 20
5.901407
 42
0.098361
 10
2.768968
 20
5.913792
 42
0.19581
 10
2.772508
 20
5.923594000000001
  0
LWPOLYLINE
  5
1A35
330
1DC8
100
AcDbEntity
  8
0
100
AcDbPolyline
 90
        5
 70
     0
 43
0.0
 10
2.701468
 20
5.862918
 42
0.042358
 10
2.730911
 20
5.866989
 42
0.055588
 10
2.752342
 20
5.874404
 42
0.098361
 10
2.768968
 20
5.886789
 42
0.19581
 10
2.772508
 20
5.896591
  0
LWPOLYLINE
  5
1A3C
330
1DC8
100
AcDbEntity
  8
0
100
AcDbPolyline
 90
        6
 70
     0
 43
0.0
 10
2.627266
 20
5.916780999999999
 42
0.01318
 10
2.627285
 20
5.916057
 42
0.19937
 10
2.631831
 20
5.906556
 42
0.098361
 10
2.649668
 20
5.895989
 42
0.055588
 10
2.67176
 20
5.890871
 42
0.042358
 10
2.701468
 20
5.889921
 42
0.042358
  0
LWPOLYLINE
  5
1A44
330
1DC8
100
AcDbEntity
  8
0
100
AcDbPolyline
 90
        6
 70
     0
 43
0.0
 10
2.627266
 20
5.889778
 42
0.01318
 10
2.627285
 20
5.889054
 42
0.19937
 10
2.631831
 20
5.879553
 42
0.098361
 10
2.649668
 20
5.868987000000001
 42
0.055588
 10
2.67176
 20
5.863868
 42
0.042358
 10
2.701468
 20
5.862918
 42
0.042358
  0
LWPOLYLINE
  5
1A4C
330
1DC8
100
AcDbEntity
  8
0
100
AcDbPolyline
 90
        6
 70
     0
 43
0.0
 10
2.627266
 20
6.078798
 42
0.01318
 10
2.627285
 20
6.078075
 42
0.19937
 10
2.631831
 20
6.068574
 42
0.098361
 10
2.649668
 20
6.058007
 42
0.055588
 10
2.67176
 20
6.052887999999999
 42
0.042358
 10
2.701468
 20
6.051939
 42
0.042358
  0
LWPOLYLINE
  5
1A54
330
1DC8
100
AcDbEntity
  8
0
100
AcDbPolyline
 90
        6
 70
     0
 43
0.0
 10
2.627266
 20
6.051794999999999
 42
0.01318
 10
2.627285
 20
6.051072000000001
 42
0.19937
 10
2.631831
 20
6.041571
 42
0.098361
 10
2.649668
 20
6.031004
 42
0.055588
 10
2.67176
 20
6.025885
 42
0.042358
 10
2.701468
 20
6.024936
 42
0.042358
  0
LWPOLYLINE
  5
1A5C
330
1DC8
100
AcDbEntity
  8
0
100
AcDbPolyline
 90
        6
 70
     0
 43
0.0
 10
2.627266
 20
6.024793
 42
0.01318
 10
2.627285
 20
6.024069
 42
0.19937
 10
2.631831
 20
6.014568
 42
0.098361
 10
2.649668
 20
6.004001000000001
 42
0.055588
 10
2.67176
 20
5.998882
 42
0.042358
 10
2.701468
 20
5.997933
 42
0.042358
  0
LWPOLYLINE
  5
1A64
330
1DC8
100
AcDbEntity
  8
0
100
AcDbPolyline
 90
        6
 70
     0
 43
0.0
 10
2.627266
 20
5.99779
 42
0.01318
 10
2.627285
 20
5.997066
 42
0.19937
 10
2.631831
 20
5.987565
 42
0.098361
 10
2.649668
 20
5.976998
 42
0.055588
 10
2.67176
 20
5.971879
 42
0.042358
 10
2.701468
 20
5.97093
 42
0.042358
  0
LWPOLYLINE
  5
1A6C
330
1DC8
100
AcDbEntity
  8
0
100
AcDbPolyline
 90
        6
 70
     0
 43
0.0
 10
2.627266
 20
5.970787000000001
 42
0.01318
 10
2.627285
 20
5.970063
 42
0.19937
 10
2.631831
 20
5.960562
 42
0.098361
 10
2.649668
 20
5.949995
 42
0.055588
 10
2.67176
 20
5.944877
 42
0.042358
 10
2.701468
 20
5.943927
 42
0.042358
  0
LWPOLYLINE
  5
1A74
330
1DC8
100
AcDbEntity
  8
0
100
AcDbPolyline
 90
        6
 70
     0
 43
0.0
 10
2.627266
 20
5.943784
 42
0.01318
 10
2.627285
 20
5.94306
 42
0.19937
 10
2.631831
 20
5.933559
 42
0.098361
 10
2.649668
 20
5.922992
 42
0.055588
 10
2.67176
 20
5.917873999999999
 42
0.042358
 10
2.701468
 20
5.916924
 42
0.042358
  0
LWPOLYLINE
  5
1A7C
330
1DC8
100
AcDbEntity
  8
0
100
AcDbPolyline
 90
        5
 70
     0
 43
0.0
 10
2.701468
 20
6.267962000000001
 42
0.042358
 10
2.730911
 20
6.272033
 42
0.055588
 10
2.752342
 20
6.279448
 42
0.098361
 10
2.768968
 20
6.291833000000001
 42
0.19581
 10
2.772508
 20
6.301635
  0
LWPOLYLINE
  5
1A83
330
1DC8
100
AcDbEntity
  8
0
100
AcDbPolyline
 90
        5
 70
     0
 43
0.0
 10
2.701468
 20
6.240958999999999
 42
0.042358
 10
2.730911
 20
6.24503
 42
0.055588
 10
2.752342
 20
6.252445
 42
0.098361
 10
2.768968
 20
6.26483
 42
0.19581
 10
2.772508
 20
6.274632
  0
LWPOLYLINE
  5
1A8A
330
1DC8
100
AcDbEntity
  8
0
100
AcDbPolyline
 90
        5
 70
     0
 43
0.0
 10
2.701468
 20
6.213956
 42
0.042358
 10
2.730911
 20
6.218026999999999
 42
0.055588
 10
2.752342
 20
6.225442
 42
0.098361
 10
2.768968
 20
6.237826999999999
 42
0.19581
 10
2.772508
 20
6.247629
  0
LWPOLYLINE
  5
1A91
330
1DC8
100
AcDbEntity
  8
0
100
AcDbPolyline
 90
        5
 70
     0
 43
0.0
 10
2.701468
 20
6.186953
 42
0.042358
 10
2.730911
 20
6.191024
 42
0.055588
 10
2.752342
 20
6.198439
 42
0.098361
 10
2.768968
 20
6.210825
 42
0.19581
 10
2.772508
 20
6.220626
  0
LWPOLYLINE
  5
1A98
330
1DC8
100
AcDbEntity
  8
0
100
AcDbPolyline
 90
        5
 70
     0
 43
0.0
 10
2.701468
 20
6.159951
 42
0.042358
 10
2.730911
 20
6.164021
 42
0.055588
 10
2.752342
 20
6.171436
 42
0.098361
 10
2.768968
 20
6.183822
 42
0.19581
 10
2.772508
 20
6.193623000000001
  0
LWPOLYLINE
  5
1A9F
330
1DC8
100
AcDbEntity
  8
0
100
AcDbPolyline
 90
        5
 70
     0
 43
0.0
 10
2.701468
 20
6.132948000000001
 42
0.042358
 10
2.730911
 20
6.137018
 42
0.055588
 10
2.752342
 20
6.144434
 42
0.098361
 10
2.768968
 20
6.156819000000001
 42
0.19581
 10
2.772508
 20
6.16662
  0
LWPOLYLINE
  5
1AA6
330
1DC8
100
AcDbEntity
  8
0
100
AcDbPolyline
 90
        5
 70
     0
 43
0.0
 10
2.701468
 20
6.105944999999999
 42
0.042358
 10
2.730911
 20
6.110015
 42
0.055588
 10
2.752342
 20
6.117431
 42
0.098361
 10
2.768968
 20
6.129816
 42
0.19581
 10
2.772508
 20
6.139616999999999
  0
LWPOLYLINE
  5
1AAD
330
1DC8
100
AcDbEntity
  8
0
100
AcDbPolyline
 90
        5
 70
     0
 43
0.0
 10
2.701468
 20
6.078942
 42
0.042358
 10
2.730911
 20
6.083012
 42
0.055588
 10
2.752342
 20
6.090428
 42
0.098361
 10
2.768968
 20
6.102812999999999
 42
0.19581
 10
2.772508
 20
6.112615
  0
LWPOLYLINE
  5
1AB4
330
1DC8
100
AcDbEntity
  8
0
100
AcDbPolyline
 90
        6
 70
     0
 43
0.0
 10
2.627266
 20
6.132804
 42
0.01318
 10
2.627285
 20
6.132080999999999
 42
0.19937
 10
2.631831
 20
6.12258
 42
0.098361
 10
2.649668
 20
6.112013
 42
0.055588
 10
2.67176
 20
6.106894000000001
 42
0.042358
 10
2.701468
 20
6.105944999999999
 42
0.042358
  0
LWPOLYLINE
  5
1ABC
330
1DC8
100
AcDbEntity
  8
0
100
AcDbPolyline
 90
        6
 70
     0
 43
0.0
 10
2.627266
 20
6.105801000000001
 42
0.01318
 10
2.627285
 20
6.105078
 42
0.19937
 10
2.631831
 20
6.095577
 42
0.098361
 10
2.649668
 20
6.08501
 42
0.055588
 10
2.67176
 20
6.079891
 42
0.042358
 10
2.701468
 20
6.078942
 42
0.042358
  0
LWPOLYLINE
  5
1AC4
330
1DC8
100
AcDbEntity
  8
0
100
AcDbPolyline
 90
        6
 70
     0
 43
0.0
 10
2.627266
 20
6.294822
 42
0.01318
 10
2.627285
 20
6.294098
 42
0.19937
 10
2.631831
 20
6.284597
 42
0.098361
 10
2.649668
 20
6.274031
 42
0.055588
 10
2.67176
 20
6.268912
 42
0.042358
 10
2.701468
 20
6.267962000000001
 42
0.042358
  0
LWPOLYLINE
  5
1ACC
330
1DC8
100
AcDbEntity
  8
0
100
AcDbPolyline
 90
        6
 70
     0
 43
0.0
 10
2.627266
 20
6.267819
 42
0.01318
 10
2.627285
 20
6.267094999999999
 42
0.19937
 10
2.631831
 20
6.257594
 42
0.098361
 10
2.649668
 20
6.247028
 42
0.055588
 10
2.67176
 20
6.241909
 42
0.042358
 10
2.701468
 20
6.240958999999999
 42
0.042358
  0
LWPOLYLINE
  5
1AD4
330
1DC8
100
AcDbEntity
  8
0
100
AcDbPolyline
 90
        6
 70
     0
 43
0.0
 10
2.627266
 20
6.240816000000001
 42
0.01318
 10
2.627285
 20
6.240092
 42
0.19937
 10
2.631831
 20
6.230591
 42
0.098361
 10
2.649668
 20
6.220025
 42
0.055588
 10
2.67176
 20
6.214906
 42
0.042358
 10
2.701468
 20
6.213956
 42
0.042358
  0
LWPOLYLINE
  5
1ADC
330
1DC8
100
AcDbEntity
  8
0
100
AcDbPolyline
 90
        6
 70
     0
 43
0.0
 10
2.627266
 20
6.213813
 42
0.01318
 10
2.627285
 20
6.213089
 42
0.19937
 10
2.631831
 20
6.203588
 42
0.098361
 10
2.649668
 20
6.193022
 42
0.055588
 10
2.67176
 20
6.187903
 42
0.042358
 10
2.701468
 20
6.186953
 42
0.042358
  0
LWPOLYLINE
  5
1AE4
330
1DC8
100
AcDbEntity
  8
0
100
AcDbPolyline
 90
        6
 70
     0
 43
0.0
 10
2.627266
 20
6.18681
 42
0.01318
 10
2.627285
 20
6.186087000000001
 42
0.19937
 10
2.631831
 20
6.176586
 42
0.098361
 10
2.649668
 20
6.166019
 42
0.055588
 10
2.67176
 20
6.1609
 42
0.042358
 10
2.701468
 20
6.159951
 42
0.042358
  0
LWPOLYLINE
  5
1AEC
330
1DC8
100
AcDbEntity
  8
0
100
AcDbPolyline
 90
        6
 70
     0
 43
0.0
 10
2.627266
 20
6.159807
 42
0.01318
 10
2.627285
 20
6.159084
 42
0.19937
 10
2.631831
 20
6.149583
 42
0.098361
 10
2.649668
 20
6.139016000000001
 42
0.055588
 10
2.67176
 20
6.133897
 42
0.042358
 10
2.701468
 20
6.132948000000001
 42
0.042358
  0
LWPOLYLINE
  5
1B03
330
1DC8
100
AcDbEntity
  8
0
100
AcDbPolyline
 90
        4
 70
     0
 43
0.0
 10
2.648799
 20
6.301348
 42
0.004342
 10
2.649668
 20
6.301033
 42
0.055588
 10
2.67176
 20
6.295915
 42
0.042358
 10
2.701468
 20
6.294965
 42
0.042358
  0
LWPOLYLINE
  5
1B09
330
1DC8
100
AcDbEntity
  8
0
100
AcDbPolyline
 90
        4
 70
     0
 43
0.0
 10
2.701468
 20
6.294965
 42
0.042358
 10
2.730911
 20
6.299036
 42
0.055588
 10
2.752342
 20
6.306451
 42
0.059329
 10
2.762984
 20
6.313162999999999
 42
0.19581
  0
LINE
  5
1B78
330
1DC8
100
AcDbEntity
  8
0
100
AcDbLine
 10
2.772508
 20
6.314148
 30
0.0
 11
2.772508
 21
5.625453
 31
0.0
  0
LWPOLYLINE
  5
1B79
330
1DC8
100
AcDbEntity
  8
0
100
AcDbPolyline
 90
        3
 70
     0
 43
0.0
 10
2.759683
 20
6.722084
 42
0.058228
 10
2.768968
 20
6.730228
 42
0.19581
 10
2.772508
 20
6.74003
  0
LWPOLYLINE
  5
1B7E
330
1DC8
100
AcDbEntity
  8
0
100
AcDbPolyline
 90
        4
 70
     0
 43
0.0
 10
2.74978
 20
6.743669000000001
 42
0.006889
 10
2.752342
 20
6.744846000000001
 42
0.098361
 10
2.768968
 20
6.757231
 42
0.19581
 10
2.772508
 20
6.767032
  0
LWPOLYLINE
  5
1B84
330
1DC8
100
AcDbEntity
  8
0
100
AcDbPolyline
 90
        4
 70
     0
 43
0.0
 10
2.748289
 20
6.770027000000001
 42
0.01086
 10
2.752342
 20
6.771847999999999
 42
0.098361
 10
2.768968
 20
6.784234
 42
0.19581
 10
2.772508
 20
6.794035000000001
  0
LWPOLYLINE
  5
1B8A
330
1DC8
100
AcDbEntity
  8
0
100
AcDbPolyline
 90
        4
 70
     0
 43
0.0
 10
2.744704
 20
6.79559
 42
0.020305
 10
2.752342
 20
6.798850999999999
 42
0.098361
 10
2.768968
 20
6.811236999999999
 42
0.19581
 10
2.772508
 20
6.821038000000001
  0
LWPOLYLINE
  5
1B90
330
1DC8
100
AcDbEntity
  8
0
100
AcDbPolyline
 90
        4
 70
     0
 43
0.0
 10
2.738555
 20
6.820479
 42
0.036208
 10
2.752342
 20
6.825854
 42
0.098361
 10
2.768968
 20
6.838239
 42
0.19581
 10
2.772508
 20
6.848041
  0
LWPOLYLINE
  5
1B96
330
1DC8
100
AcDbEntity
  8
0
100
AcDbPolyline
 90
        5
 70
     0
 43
0.0
 10
2.72966
 20
6.845164
 42
0.001823
 10
2.730911
 20
6.845442
 42
0.055588
 10
2.752342
 20
6.852857000000001
 42
0.098361
 10
2.768968
 20
6.865241999999999
 42
0.19581
 10
2.772508
 20
6.875044
  0
LWPOLYLINE
  5
1BA4
330
1DC8
100
AcDbEntity
  8
0
100
AcDbPolyline
 90
        5
 70
     0
 43
0.0
 10
2.717571
 20
6.86997
 42
0.019308
 10
2.730911
 20
6.872445
 42
0.055588
 10
2.752342
 20
6.879860000000001
 42
0.098361
 10
2.768968
 20
6.892245
 42
0.123936
 10
2.772123
 20
6.898207000000001
  0
LINE
  5
1BAB
330
1DC8
100
AcDbEntity
  8
0
100
AcDbLine
 10
4.1725
 20
7.076356
 30
0.0
 11
4.1725
 21
6.978244999999999
 31
0.0
  0
LWPOLYLINE
  5
1BE2
330
1DC8
100
AcDbEntity
  8
0
100
AcDbPolyline
 90
        3
 70
     0
 43
0.0
 10
4.161109
 20
7.007134
 42
0.049928
 10
4.16896
 20
7.014253999999999
 42
0.185703
 10
4.1725
 20
7.023457000000001
 42
0.19937
  0
LWPOLYLINE
  5
1BE7
330
1DC8
100
AcDbEntity
  8
0
100
AcDbPolyline
 90
        3
 70
     0
 43
0.0
 10
4.155292
 20
7.021884
 42
0.082595
 10
4.16896
 20
7.032746
 42
0.185703
 10
4.1725
 20
7.041949000000001
 42
0.19937
  0
LWPOLYLINE
  5
1BEC
330
1DC8
100
AcDbEntity
  8
0
100
AcDbPolyline
 90
        4
 70
     0
 43
0.0
 10
4.148813
 20
7.038314999999999
 42
0.009446
 10
4.152334
 20
7.039910000000001
 42
0.098361
 10
4.16896
 20
7.052295
 42
0.185703
 10
4.1725
 20
7.061497999999999
 42
0.19937
  0
LWPOLYLINE
  5
1BF2
330
1DC8
100
AcDbEntity
  8
0
100
AcDbPolyline
 90
        4
 70
     0
 43
0.0
 10
4.142887
 20
7.053344999999999
 42
0.025019
 10
4.152334
 20
7.057274000000001
 42
0.098361
 10
4.16896
 20
7.069659
 42
0.185703
 10
4.1725
 20
7.078861999999999
 42
0.19937
  0
LINE
  5
1BF8
330
1DC8
100
AcDbEntity
  8
0
100
AcDbLine
 10
2.970797
 20
6.850495
 30
0.0
 11
2.995956
 21
6.85648
 31
0.0
  0
LINE
  5
1BF9
330
1DC8
100
AcDbEntity
  8
0
100
AcDbLine
 10
2.988438
 20
6.732929
 30
0.0
 11
3.013597
 21
6.738914
 31
0.0
  0
LINE
  5
1BFA
330
1DC8
100
AcDbEntity
  8
0
100
AcDbLine
 10
3.112089
 20
6.696467999999999
 30
0.0
 11
3.137248
 21
6.702453
 31
0.0
  0
LINE
  5
1BFB
330
1DC8
100
AcDbEntity
  8
0
100
AcDbLine
 10
3.094448
 20
6.814034
 30
0.0
 11
3.119608
 21
6.820019
 31
0.0
  0
LINE
  5
1BFC
330
1DC8
100
AcDbEntity
  8
0
100
AcDbLine
 10
2.997019
 20
6.998467
 30
0.0
 11
3.022178
 21
7.004452000000001
 31
0.0
  0
LINE
  5
1BFD
330
1DC8
100
AcDbEntity
  8
0
100
AcDbLine
 10
2.979378
 20
7.116033
 30
0.0
 11
3.004538
 21
7.122018
 31
0.0
  0
LINE
  5
1BFE
330
1DC8
100
AcDbEntity
  8
0
100
AcDbLine
 10
2.862188
 20
6.977614999999999
 30
0.0
 11
2.887347
 21
6.9836
 31
0.0
  0
LINE
  5
1BFF
330
1DC8
100
AcDbEntity
  8
0
100
AcDbLine
 10
2.844547
 20
7.095181
 30
0.0
 11
2.869706
 21
7.101166
 31
0.0
  0
LWPOLYLINE
  5
1C00
330
1DC8
100
AcDbEntity
  8
0
100
AcDbPolyline
 90
        5
 70
     0
 43
0.0
 10
2.887347
 20
6.9836
 42
0.167376
 10
2.897485
 20
6.988885000000001
 42
0.105403
 10
2.906795
 20
7.004122
 42
0.06792
 10
2.910669
 20
7.022962
 42
0.054081
 10
2.909683
 20
7.047058
 42
0.054081
  0
LWPOLYLINE
  5
1C07
330
1DC8
100
AcDbEntity
  8
0
100
AcDbPolyline
 90
        6
 70
     0
 43
0.0
 10
2.909683
 20
7.047058
 42
0.054081
 10
2.903554
 20
7.070380999999999
 42
0.06792
 10
2.894321
 20
7.087254
 42
0.105403
 10
2.880949
 20
7.099088
 42
0.167376
 10
2.869706
 20
7.101166
 42
0.042322
 10
2.86682
 20
7.100478999999999
 42
0.025539
  0
LWPOLYLINE
  5
1C0F
330
1DC8
100
AcDbEntity
  8
0
100
AcDbPolyline
 90
        5
 70
     0
 43
0.0
 10
3.022178
 20
7.004452000000001
 42
0.167376
 10
3.032316
 20
7.009738000000001
 42
0.105403
 10
3.041626
 20
7.024975
 42
0.06792
 10
3.0455
 20
7.043815
 42
0.054081
 10
3.044515
 20
7.06791
 42
0.054081
  0
LWPOLYLINE
  5
1C16
330
1DC8
100
AcDbEntity
  8
0
100
AcDbPolyline
 90
        6
 70
     0
 43
0.0
 10
3.044515
 20
7.06791
 42
0.054081
 10
3.038385
 20
7.091233
 42
0.06792
 10
3.029152
 20
7.108107
 42
0.105403
 10
3.01578
 20
7.119941000000001
 42
0.167376
 10
3.004538
 20
7.122018
 42
0.042322
 10
3.001652
 20
7.121332000000001
 42
0.025539
  0
LWPOLYLINE
  5
1C1E
330
1DC8
100
AcDbEntity
  8
0
100
AcDbPolyline
 90
        5
 70
     0
 43
0.0
 10
3.013597
 20
6.738914
 42
0.167376
 10
3.023735
 20
6.7442
 42
0.105403
 10
3.033045
 20
6.759436999999999
 42
0.06792
 10
3.036919
 20
6.778277
 42
0.054081
 10
3.035933
 20
6.802372
 42
0.054081
  0
LWPOLYLINE
  5
1C35
330
1DC8
100
AcDbEntity
  8
0
100
AcDbPolyline
 90
        5
 70
     0
 43
0.0
 10
3.137248
 20
6.702453
 42
0.167376
 10
3.147386
 20
6.707739
 42
0.105403
 10
3.156696
 20
6.722975999999999
 42
0.06792
 10
3.16057
 20
6.741816
 42
0.054081
 10
3.159585
 20
6.765911
 42
0.054081
  0
LWPOLYLINE
  5
1C4B
330
1DC8
100
AcDbEntity
  8
0
100
AcDbPolyline
 90
        6
 70
     0
 43
0.0
 10
3.159585
 20
6.765911
 42
0.054081
 10
3.153455
 20
6.789235000000001
 42
0.06792
 10
3.144222
 20
6.806108
 42
0.105403
 10
3.13085
 20
6.817942
 42
0.167376
 10
3.119608
 20
6.820019
 42
0.042322
 10
3.116722
 20
6.819333
 42
0.025539
  0
LWPOLYLINE
  5
1C53
330
1DC8
100
AcDbEntity
  8
0
100
AcDbPolyline
 90
        6
 70
     0
 43
0.0
 10
3.035933
 20
6.802372
 42
0.054081
 10
3.029804
 20
6.825695
 42
0.06792
 10
3.020571
 20
6.842569
 42
0.105403
 10
3.007199
 20
6.854402
 42
0.167376
 10
2.995956
 20
6.85648
 42
0.042322
 10
2.99307
 20
6.855794
 42
0.025539
  0
LINE
  5
1D54
330
1DC8
100
AcDbEntity
  8
0
 62
     0
100
AcDbLine
 10
1.062096
 20
3.985405
 30
0.0
 11
1.122357
 21
4.057222
 31
0.0
  0
LINE
  5
1D55
330
1DC8
100
AcDbEntity
  8
0
 62
     0
100
AcDbLine
 10
1.235535
 20
3.045165
 30
0.0
 11
1.295797
 21
3.116982
 31
0.0
  0
LINE
  5
1D56
330
1DC8
100
AcDbEntity
  8
0
 62
     0
100
AcDbLine
 10
0.8886569999999999
 20
4.925644999999999
 30
0.0
 11
0.948918
 21
4.997462000000001
 31
0.0
  0
LINE
  5
1D57
330
1DC8
100
AcDbEntity
  8
0
 62
     0
100
AcDbLine
 10
1.062096
 20
3.985405
 30
0.0
 11
1.136811
 21
3.978868
 31
0.0
  0
LINE
  5
1D58
330
1DC8
100
AcDbEntity
  8
0
 62
     0
100
AcDbLine
 10
0.8886569999999999
 20
4.925644999999999
 30
0.0
 11
0.9633709999999999
 21
4.919109
 31
0.0
  0
LINE
  5
1D59
330
1DC8
100
AcDbEntity
  8
0
 62
     0
100
AcDbLine
 10
1.235535
 20
3.045165
 30
0.0
 11
1.31025
 21
3.038628
 31
0.0
  0
LINE
  5
1D5A
330
1DC8
100
AcDbEntity
  8
0
 62
     0
100
AcDbLine
 10
1.310248
 20
3.038627
 30
0.0
 11
1.295795
 21
3.11698
 31
0.0
  0
LINE
  5
1D5B
330
1DC8
100
AcDbEntity
  8
0
 62
     0
100
AcDbLine
 10
1.13681
 20
3.978867
 30
0.0
 11
1.122357
 21
4.05722
 31
0.0
  0
LINE
  5
1D5C
330
1DC8
100
AcDbEntity
  8
0
 62
     0
100
AcDbLine
 10
0.9633709999999999
 20
4.919107
 30
0.0
 11
0.948918
 21
4.997461
 31
0.0
  0
LINE
  5
1D5D
330
1DC8
100
AcDbEntity
  8
0
 62
     0
100
AcDbLine
 10
0.6898
 20
3.799588
 30
0.0
 11
0.692642
 21
3.802551
 31
0.0
  0
LINE
  5
1D5E
330
1DC8
100
AcDbEntity
  8
0
 62
     0
100
AcDbLine
 10
0.6934680000000001
 20
3.795438
 30
0.0
 11
0.692641
 21
3.80255
 31
0.0
  0
LINE
  5
1D5F
330
1DC8
100
AcDbEntity
  8
0
 62
     0
100
AcDbLine
 10
1.158562
 20
2.855225
 30
0.0
 11
1.242287
 21
2.887364
 31
0.0
  0
LINE
  5
1D60
330
1DC8
100
AcDbEntity
  8
0
 62
     0
100
AcDbLine
 10
1.596753
 20
1.444056
 30
0.0
 11
1.649161
 21
1.464173
 31
0.0
  0
LINE
  5
1D61
330
1DC8
100
AcDbEntity
  8
0
 62
     0
100
AcDbLine
 10
0.7273609999999999
 20
4.269078
 30
0.0
 11
0.800297
 21
4.297075
 31
0.0
  0
LINE
  5
1D62
330
1DC8
100
AcDbEntity
  8
0
 62
     0
100
AcDbLine
 10
0.727727
 20
4.253393
 30
0.0
 11
0.7749520000000001
 21
4.221539
 31
0.0
  0
LINE
  5
1D63
330
1DC8
100
AcDbEntity
  8
0
 62
     0
100
AcDbLine
 10
1.157855
 20
2.851682
 30
0.0
 11
1.216942
 21
2.811828
 31
0.0
  0
LINE
  5
1D64
330
1DC8
100
AcDbEntity
  8
0
 62
     0
100
AcDbLine
 10
1.596753
 20
1.444056
 30
0.0
 11
1.650973
 21
1.407485
 31
0.0
  0
LINE
  5
1D65
330
1DC8
100
AcDbEntity
  8
0
 62
     0
100
AcDbLine
 10
0.7749510000000001
 20
4.221538
 30
0.0
 11
0.800296
 21
4.297073999999999
 31
0.0
  0
LINE
  5
1D66
330
1DC8
100
AcDbEntity
  8
0
 62
     0
100
AcDbLine
 10
1.21694
 20
2.811826
 30
0.0
 11
1.242285
 21
2.887363
 31
0.0
  0
LINE
  5
1D67
330
1DC8
100
AcDbEntity
  8
0
 62
     0
100
AcDbLine
 10
0.9571200000000001
 20
3.679813
 30
0.0
 11
0.9571200000000001
 21
3.679813
 31
0.0
  0
LINE
  5
1D68
330
1DC8
100
AcDbEntity
  8
0
 62
     0
100
AcDbLine
 10
0.9723200000000001
 20
4.095931
 30
0.0
 11
0.9723200000000001
 21
4.095931
 31
0.0
  0
LINE
  5
1D69
330
1DC8
100
AcDbEntity
  8
0
 62
     0
100
AcDbLine
 10
0.987519
 20
4.512048
 30
0.0
 11
0.987519
 21
4.512048
 31
0.0
  0
LINE
  5
1D6A
330
1DC8
100
AcDbEntity
  8
0
 62
     0
100
AcDbLine
 10
1.002719
 20
4.928165
 30
0.0
 11
1.002719
 21
4.928165
 31
0.0
  0
LINE
  5
1D6B
330
1DC8
100
AcDbEntity
  8
0
 62
     0
100
AcDbLine
 10
0.9419200000000001
 20
3.263696
 30
0.0
 11
0.9419200000000001
 21
3.263696
 31
0.0
  0
LINE
  5
1D6C
330
1DC8
100
AcDbEntity
  8
0
 62
     0
100
AcDbLine
 10
0.9267200000000001
 20
2.847579
 30
0.0
 11
0.9267200000000001
 21
2.847579
 31
0.0
  0
LINE
  5
1D6D
330
1DC8
100
AcDbEntity
  8
0
 62
     0
100
AcDbLine
 10
0.9115200000000001
 20
2.431461
 30
0.0
 11
0.9115200000000001
 21
2.431461
 31
0.0
  0
LINE
  5
1D6E
330
1DC8
100
AcDbEntity
  8
0
 62
     0
100
AcDbLine
 10
1.558103
 20
2.927602
 30
0.0
 11
1.558103
 21
2.927602
 31
0.0
  0
LINE
  5
1D6F
330
1DC8
100
AcDbEntity
  8
0
 62
     0
100
AcDbLine
 10
1.542904
 20
2.511485
 30
0.0
 11
1.542904
 21
2.511485
 31
0.0
  0
LINE
  5
1D70
330
1DC8
100
AcDbEntity
  8
0
 62
     0
100
AcDbLine
 10
1.512504
 20
1.67925
 30
0.0
 11
1.512504
 21
1.67925
 31
0.0
  0
LINE
  5
1D71
330
1DC8
100
AcDbEntity
  8
0
 62
     0
100
AcDbLine
 10
0.947626
 20
3.977195
 30
0.0
 11
0.947626
 21
3.977195
 31
0.0
  0
LINE
  5
1D72
330
1DC8
100
AcDbEntity
  8
0
 62
     0
100
AcDbLine
 10
1.260551
 20
4.018392
 30
0.0
 11
1.260551
 21
4.018392
 31
0.0
  0
LINE
  5
1D73
330
1DC8
100
AcDbEntity
  8
0
 62
     0
100
AcDbLine
 10
0.815862
 20
4.859292
 30
0.0
 11
0.815862
 21
4.859292
 31
0.0
  0
LINE
  5
1D74
330
1DC8
100
AcDbEntity
  8
0
 62
     0
100
AcDbLine
 10
0.671284
 20
5.289981
 30
0.0
 11
0.671284
 21
5.289981
 31
0.0
  0
LINE
  5
1D75
330
1DC8
100
AcDbEntity
  8
0
 62
     0
100
AcDbLine
 10
0.618789
 20
3.48418
 30
0.0
 11
0.618789
 21
3.48418
 31
0.0
  0
LINE
  5
1D76
330
1DC8
100
AcDbEntity
  8
0
 62
     0
100
AcDbLine
 10
0.9317139999999999
 20
3.525377
 30
0.0
 11
0.9317139999999999
 21
3.525377
 31
0.0
  0
LINE
  5
1D77
330
1DC8
100
AcDbEntity
  8
0
 62
     0
100
AcDbLine
 10
1.076292
 20
3.094689
 30
0.0
 11
1.076292
 21
3.094689
 31
0.0
  0
LINE
  5
1D78
330
1DC8
100
AcDbEntity
  8
0
 62
     0
100
AcDbLine
 10
1.208056
 20
2.212591
 30
0.0
 11
1.208056
 21
2.212591
 31
0.0
  0
LINE
  5
1D79
330
1DC8
100
AcDbEntity
  8
0
 62
     0
100
AcDbLine
 10
1.192144
 20
1.760774
 30
0.0
 11
1.192144
 21
1.760774
 31
0.0
  0
LINE
  5
1D7A
330
1DC8
100
AcDbEntity
  8
0
 62
     0
100
AcDbLine
 10
0.993761
 20
3.695621
 30
0.0
 11
0.993761
 21
3.695621
 31
0.0
  0
LINE
  5
1D7B
330
1DC8
100
AcDbEntity
  8
0
 62
     0
100
AcDbLine
 10
1.25732
 20
3.527715
 30
0.0
 11
1.25732
 21
3.527715
 31
0.0
  0
LINE
  5
1D7C
330
1DC8
100
AcDbEntity
  8
0
 62
     0
100
AcDbLine
 10
0.818591
 20
4.997945
 30
0.0
 11
0.818591
 21
4.997945
 31
0.0
  0
LINE
  5
1D7D
330
1DC8
100
AcDbEntity
  8
0
 62
     0
100
AcDbLine
 10
1.08215
 20
4.830039
 30
0.0
 11
1.08215
 21
4.830039
 31
0.0
  0
LINE
  5
1D7E
330
1DC8
100
AcDbEntity
  8
0
 62
     0
100
AcDbLine
 10
0.590042
 20
3.555909
 30
0.0
 11
0.590042
 21
3.555909
 31
0.0
  0
LINE
  5
1D7F
330
1DC8
100
AcDbEntity
  8
0
 62
     0
100
AcDbLine
 10
1.412349
 20
3.032041
 30
0.0
 11
1.412349
 21
3.032041
 31
0.0
  0
LINE
  5
1D80
330
1DC8
100
AcDbEntity
  8
0
 62
     0
100
AcDbLine
 10
0.745071
 20
3.060235
 30
0.0
 11
0.745071
 21
3.060235
 31
0.0
  0
LINE
  5
1D81
330
1DC8
100
AcDbEntity
  8
0
 62
     0
100
AcDbLine
 10
1.168931
 20
2.393297
 30
0.0
 11
1.168931
 21
2.393297
 31
0.0
  0
LINE
  5
1D82
330
1DC8
100
AcDbEntity
  8
0
 62
     0
100
AcDbLine
 10
0.8750190000000001
 20
3.875055
 30
0.0
 11
0.8750190000000001
 21
3.875055
 31
0.0
  0
LINE
  5
1D83
330
1DC8
100
AcDbEntity
  8
0
 62
     0
100
AcDbLine
 10
1.174538
 20
3.600597
 30
0.0
 11
1.174538
 21
3.600597
 31
0.0
  0
LINE
  5
1D84
330
1DC8
100
AcDbEntity
  8
0
 62
     0
100
AcDbLine
 10
0.9266280000000001
 20
4.620885
 30
0.0
 11
0.9266280000000001
 21
4.620885
 31
0.0
  0
LINE
  5
1D85
330
1DC8
100
AcDbEntity
  8
0
 62
     0
100
AcDbLine
 10
1.600316
 20
2.417322
 30
0.0
 11
1.600316
 21
2.417322
 31
0.0
  0
LINE
  5
1D86
330
1DC8
100
AcDbEntity
  8
0
 62
     0
100
AcDbLine
 10
1.899834
 20
2.142864
 30
0.0
 11
1.899834
 21
2.142864
 31
0.0
  0
LINE
  5
1D87
330
1DC8
100
AcDbEntity
  8
0
 62
     0
100
AcDbLine
 10
1.170852
 20
2.017733
 30
0.0
 11
1.170852
 21
2.017733
 31
0.0
  0
TEXT
  5
1D88
330
1DC8
100
AcDbEntity
  8
0
100
AcDbText
 10
3.339183
 20
0.8340610000000001
 30
0.0
 40
0.25
  1
Simpson Strong-Tie
100
AcDbText
  0
TEXT
  5
1D89
330
1DC8
100
AcDbEntity
  8
0
100
AcDbText
 10
3.339183
 20
0.429299
 30
0.0
 40
0.25
  1
HGT-2
100
AcDbText
  0
LINE
  5
1D8B
330
1DC8
100
AcDbEntity
  8
0
 62
     0
100
AcDbLine
 10
1.776091
 20
3.18909
 30
0.0
 11
1.776091
 21
3.18909
 31
0.0
  0
LINE
  5
1D8C
330
1DC8
100
AcDbEntity
  8
0
 62
     0
100
AcDbLine
 10
3.06529
 20
4.178327
 30
0.0
 11
3.06529
 21
4.178327
 31
0.0
  0
LINE
  5
1D8D
330
1DC8
100
AcDbEntity
  8
0
 62
     0
100
AcDbLine
 10
1.713098
 20
5.115914
 30
0.0
 11
1.713098
 21
5.115914
 31
0.0
  0
LINE
  5
1D8E
330
1DC8
100
AcDbEntity
  8
0
 62
     0
100
AcDbLine
 10
1.839084
 20
1.262266
 30
0.0
 11
1.839084
 21
1.262266
 31
0.0
  0
LINE
  5
1D8F
330
1DC8
100
AcDbEntity
  8
0
 62
     0
100
AcDbLine
 10
3.128283
 20
2.251503
 30
0.0
 11
3.128283
 21
2.251503
 31
0.0
  0
LINE
  5
1D90
330
1DC8
100
AcDbEntity
  8
0
 62
     0
100
AcDbLine
 10
4.334181
 20
3.176821
 30
0.0
 11
4.334181
 21
3.176821
 31
0.0
  0
LINE
  5
1D91
330
1DC8
100
AcDbEntity
  8
0
 62
     0
100
AcDbLine
 10
5.682881
 20
4.211715
 30
0.0
 11
5.682881
 21
4.211715
 31
0.0
  0
LINE
  5
1D92
330
1DC8
100
AcDbEntity
  8
0
 62
     0
100
AcDbLine
 10
5.745875
 20
2.284892
 30
0.0
 11
5.745875
 21
2.284892
 31
0.0
  0
LINE
  5
1D93
330
1DC8
100
AcDbEntity
  8
0
 62
     0
100
AcDbLine
 10
1.266771
 20
5.368378
 30
0.0
 11
1.266771
 21
5.368378
 31
0.0
  0
LINE
  5
1D94
330
1DC8
100
AcDbEntity
  8
0
 62
     0
100
AcDbLine
 10
1.787279
 20
5.436904
 30
0.0
 11
1.787279
 21
5.436904
 31
0.0
  0
LINE
  5
1D95
330
1DC8
100
AcDbEntity
  8
0
 62
     0
100
AcDbLine
 10
2.600264
 20
5.543936
 30
0.0
 11
2.600264
 21
5.543936
 31
0.0
  0
LINE
  5
1D96
330
1DC8
100
AcDbEntity
  8
0
 62
     0
100
AcDbLine
 10
4.479051999999999
 20
5.791283
 30
0.0
 11
4.479051999999999
 21
5.791283
 31
0.0
  0
LINE
  5
1D97
330
1DC8
100
AcDbEntity
  8
0
 62
     0
100
AcDbLine
 10
5.292037000000001
 20
5.898314
 30
0.0
 11
5.292037000000001
 21
5.898314
 31
0.0
  0
LINE
  5
1D98
330
1DC8
100
AcDbEntity
  8
0
 62
     0
100
AcDbLine
 10
2.188767
 20
2.900611
 30
0.0
 11
2.188767
 21
2.900611
 31
0.0
  0
LINE
  5
1D99
330
1DC8
100
AcDbEntity
  8
0
 62
     0
100
AcDbLine
 10
2.709275
 20
2.969137
 30
0.0
 11
2.709275
 21
2.969137
 31
0.0
  0
LINE
  5
1D9A
330
1DC8
100
AcDbEntity
  8
0
 62
     0
100
AcDbLine
 10
3.52226
 20
3.076168
 30
0.0
 11
3.52226
 21
3.076168
 31
0.0
  0
LINE
  5
1D9B
330
1DC8
100
AcDbEntity
  8
0
 62
     0
100
AcDbLine
 10
4.88054
 20
3.254989
 30
0.0
 11
4.88054
 21
3.254989
 31
0.0
  0
LINE
  5
1D9C
330
1DC8
100
AcDbEntity
  8
0
 62
     0
100
AcDbLine
 10
5.401048
 20
3.323515
 30
0.0
 11
5.401048
 21
3.323515
 31
0.0
  0
LINE
  5
1D9D
330
1DC8
100
AcDbEntity
  8
0
 62
     0
100
AcDbLine
 10
6.214033000000001
 20
3.430547
 30
0.0
 11
6.214033000000001
 21
3.430547
 31
0.0
  0
LINE
  5
1D9E
330
1DC8
100
AcDbEntity
  8
0
 62
     0
100
AcDbLine
 10
1.401344
 20
4.819535
 30
0.0
 11
1.401344
 21
4.819535
 31
0.0
  0
LINE
  5
1D9F
330
1DC8
100
AcDbEntity
  8
0
 62
     0
100
AcDbLine
 10
4.901419000000001
 20
2.589742
 30
0.0
 11
4.901419000000001
 21
2.589742
 31
0.0
  0
LINE
  5
1DA0
330
1DC8
100
AcDbEntity
  8
0
 62
     0
100
AcDbLine
 10
5.323114
 20
2.321092
 30
0.0
 11
5.323114
 21
2.321092
 31
0.0
  0
LINE
  5
1DA1
330
1DC8
100
AcDbEntity
  8
0
 62
     0
100
AcDbLine
 10
2.919449
 20
3.852396
 30
0.0
 11
2.919449
 21
3.852396
 31
0.0
  0
LINE
  5
1DA2
330
1DC8
100
AcDbEntity
  8
0
 62
     0
100
AcDbLine
 10
4.515486
 20
4.825194000000001
 30
0.0
 11
4.515486
 21
4.825194000000001
 31
0.0
  0
LINE
  5
1DA3
330
1DC8
100
AcDbEntity
  8
0
 62
     0
100
AcDbLine
 10
6.03359
 20
3.858055
 30
0.0
 11
6.03359
 21
3.858055
 31
0.0
  0
LINE
  5
1DA4
330
1DC8
100
AcDbEntity
  8
0
 62
     0
100
AcDbLine
 10
5.225962
 20
6.362157
 30
0.0
 11
5.225962
 21
6.362157
 31
0.0
  0
LINE
  5
1DA5
330
1DC8
100
AcDbEntity
  8
0
 62
     0
100
AcDbLine
 10
1.787277
 20
2.584082
 30
0.0
 11
1.787277
 21
2.584082
 31
0.0
  0
LINE
  5
1DA6
330
1DC8
100
AcDbEntity
  8
0
 62
     0
100
AcDbLine
 10
2.208972
 20
2.315433
 30
0.0
 11
2.208972
 21
2.315433
 31
0.0
  0
LINE
  5
1DA7
330
1DC8
100
AcDbEntity
  8
0
 62
     0
100
AcDbLine
 10
1.055952
 20
5.791304
 30
0.0
 11
1.055952
 21
5.791304
 31
0.0
  0
LINE
  5
1DA8
330
1DC8
100
AcDbEntity
  8
0
 62
     0
100
AcDbLine
 10
1.92594
 20
4.994107
 30
0.0
 11
1.92594
 21
4.994107
 31
0.0
  0
LINE
  5
1DA9
330
1DC8
100
AcDbEntity
  8
0
 62
     0
100
AcDbLine
 10
4.970895
 20
2.20392
 30
0.0
 11
4.970895
 21
2.20392
 31
0.0
  0
LINE
  5
1DAA
330
1DC8
100
AcDbEntity
  8
0
 62
     0
100
AcDbLine
 10
2.921264
 20
4.08206
 30
0.0
 11
2.921264
 21
4.08206
 31
0.0
  0
LINE
  5
1DAB
330
1DC8
100
AcDbEntity
  8
0
 62
     0
100
AcDbLine
 10
3.105583
 20
3.913163
 30
0.0
 11
3.105583
 21
3.913163
 31
0.0
  0
LINE
  5
1DAC
330
1DC8
100
AcDbEntity
  8
0
 62
     0
100
AcDbLine
 10
3.975571
 20
3.115966
 30
0.0
 11
3.975571
 21
3.115966
 31
0.0
  0
LINE
  5
1DAD
330
1DC8
100
AcDbEntity
  8
0
 62
     0
100
AcDbLine
 10
4.932066000000001
 20
5.871783
 30
0.0
 11
4.932066000000001
 21
5.871783
 31
0.0
  0
LINE
  5
1DAE
330
1DC8
100
AcDbEntity
  8
0
 62
     0
100
AcDbLine
 10
5.927391
 20
4.959736
 30
0.0
 11
5.927391
 21
4.959736
 31
0.0
  0
LINE
  5
1DAF
330
1DC8
100
AcDbEntity
  8
0
 62
     0
100
AcDbLine
 10
6.11171
 20
4.790838
 30
0.0
 11
6.11171
 21
4.790838
 31
0.0
  0
LINE
  5
1DB0
330
1DC8
100
AcDbEntity
  8
0
 62
     0
100
AcDbLine
 10
1.964768
 20
1.326244
 30
0.0
 11
1.964768
 21
1.326244
 31
0.0
  0
ENDSEC
  0
SECTION
  2
OBJECTS
  0
DICTIONARY
  5
1DBC
330
0
100
AcDbDictionary
281
     1
  3
ACAD_COLOR
350
1E3E
  3
ACAD_GROUP
350
1DBD
  3
ACAD_LAYOUT
350
1DC5
  3
ACAD_MATERIAL
350
1E40
  3
ACAD_MLINESTYLE
350
1DC2
  3
ACAD_PLOTSETTINGS
350
1DC4
  3
ACAD_PLOTSTYLENAME
350
1DBE
  3
ACDBHEADERROUNDTRIPXREC
350
1E3D
  0
DICTIONARY
  5
1E3E
102
{ACAD_REACTORS
330
1DBC
102
}
330
1DBC
100
AcDbDictionary
281
     1
  0
DICTIONARY
  5
1DBD
102
{ACAD_REACTORS
330
1DBC
102
}
330
1DBC
100
AcDbDictionary
281
     1
  0
DICTIONARY
  5
1DC5
102
{ACAD_REACTORS
330
1DBC
102
}
330
1DBC
100
AcDbDictionary
281
     1
  3
Layout1
350
1DC7
  3
Model
350
1DC9
  0
DICTIONARY
  5
1E40
102
{ACAD_REACTORS
330
1DBC
102
}
330
1DBC
100
AcDbDictionary
281
     1
  0
DICTIONARY
  5
1DC2
102
{ACAD_REACTORS
330
1DBC
102
}
330
1DBC
100
AcDbDictionary
281
     1
  3
Standard
350
1DC3
  0
DICTIONARY
  5
1DC4
102
{ACAD_REACTORS
330
1DBC
102
}
330
1DBC
100
AcDbDictionary
281
     1
  0
ACDBDICTIONARYWDFLT
  5
1DBE
102
{ACAD_REACTORS
330
1DBC
102
}
330
1DBC
100
AcDbDictionary
281
     1
  3
Normal
350
1DBF
100
AcDbDictionaryWithDefault
340
1DBF
  0
DICTIONARY
  5
1E3D
102
{ACAD_REACTORS
330
1DBC
102
}
330
1DBC
100
AcDbDictionary
281
     1
  3
COLORDICT
350
1E3F
  3
MATERIALDICT
350
1E41
  0
LAYOUT
  5
1DC7
102
{ACAD_REACTORS
330
1DC5
102
}
102
{ACAD_XDICTIONARY
360
1E42
102
}
330
1DC5
100
AcDbPlotSettings
  1

  2

  4

  6

 40
0.0
 41
0.0
 42
0.0
 43
0.0
 44
0.0
 45
0.0
 46
0.0
 47
0.0
 48
0.0
 49
0.0
140
0.0
141
0.0
142
1.0
143
1.0
 70
   688
 72
     0
 73
     0
 74
     5
  7

 75
    16
147
1.0
148
0.0
149
0.0
100
AcDbLayout
  1
Layout1
 70
     1
 71
     1
 10
0.0
 20
0.0
 11
12.0
 21
9.0
 12
0.0
 22
0.0
 32
0.0
 14
1.000000000000000E+20
 24
1.000000000000000E+20
 34
1.000000000000000E+20
 15
-1.000000000000000E+20
 25
-1.000000000000000E+20
 35
-1.000000000000000E+20
146
0.0
 13
0.0
 23
0.0
 33
0.0
 16
1.0
 26
0.0
 36
0.0
 17
0.0
 27
1.0
 37
0.0
 76
     0
330
1DC6
  0
LAYOUT
  5
1DC9
102
{ACAD_REACTORS
330
1DC5
102
}
102
{ACAD_XDICTIONARY
360
1E44
102
}
330
1DC5
100
AcDbPlotSettings
  1

  2

  4

  6

 40
0.0
 41
0.0
 42
0.0
 43
0.0
 44
0.0
 45
0.0
 46
0.0
 47
0.0
 48
0.0
 49
0.0
140
0.0
141
0.0
142
1.0
143
1.0
 70
  1712
 72
     0
 73
     0
 74
     0
  7

 75
     0
147
1.0
148
0.0
149
0.0
100
AcDbLayout
  1
Model
 70
     1
 71
     0
 10
0.0
 20
0.0
 11
0.0
 21
0.0
 12
0.0
 22
0.0
 32
0.0
 14
0.0
 24
0.0
 34
0.0
 15
0.0
 25
0.0
 35
0.0
146
0.0
 13
0.0
 23
0.0
 33
0.0
 16
1.0
 26
0.0
 36
0.0
 17
0.0
 27
1.0
 37
0.0
 76
     0
330
1DC8
  0
MLINESTYLE
  5
1DC3
102
{ACAD_REACTORS
330
1DC2
102
}
330
1DC2
100
AcDbMlineStyle
  2
Standard
 70
     0
  3

 62
   256
 51
90.0
 52
90.0
 71
     2
 49
0.5
 62
   256
  6
BYLAYER
 49
-0.5
 62
   256
  6
BYLAYER
  0
ACDBPLACEHOLDER
  5
1DBF
102
{ACAD_REACTORS
330
1DBE
102
}
330
1DBE
  0
XRECORD
  5
1E3F
102
{ACAD_REACTORS
330
1E3D
102
}
330
1E3D
100
AcDbXrecord
340
1E3E
  0
XRECORD
  5
1E41
102
{ACAD_REACTORS
330
1E3D
102
}
330
1E3D
100
AcDbXrecord
340
1E40
  0
DICTIONARY
  5
1E42
330
1DC7
100
AcDbDictionary
280
     1
281
     1
  3
ACAD_XREC_ROUNDTRIP
360
1E43
  0
DICTIONARY
  5
1E44
330
1DC9
100
AcDbDictionary
280
     1
281
     1
  3
ACAD_XREC_ROUNDTRIP
360
1E45
  0
XRECORD
  5
1E43
102
{ACAD_REACTORS
330
1E42
102
}
330
1E42
100
AcDbXrecord
102
SHADEPLOT
 70
     0
102
SHADEPLOTRESLEVEL
 70
     0
102
SHADEPLOTCUSTOMDPI
 70
     0
  0
XRECORD
  5
1E45
102
{ACAD_REACTORS
330
1E44
102
}
330
1E44
100
AcDbXrecord
102
SHADEPLOT
 70
     0
102
SHADEPLOTRESLEVEL
 70
     0
102
SHADEPLOTCUSTOMDPI
 70
     0
  0
ENDSEC
  0
EOF
