  0
SECTION
  2
HEADER
  9
$ACADVER
  1
AC1015
  9
$ACADMAINTVER
 70
     6
  9
$DWGCODEPAGE
  3
ASCII
  9
$INSBASE
 10
0.0
 20
0.0
 30
0.0
  9
$EXTMIN
 10
0.628973
 20
0.528342
 30
0.0
  9
$EXTMAX
 10
7.26873180952381
 20
9.346779
 30
0.0
  9
$LIMMIN
 10
0.0
 20
0.0
  9
$LIMMAX
 10
12.0
 20
9.0
  9
$ORTHOMODE
 70
     1
  9
$REGENMODE
 70
     0
  9
$FILLMODE
 70
     1
  9
$QTEXTMODE
 70
     0
  9
$MIRRTEXT
 70
     1
  9
$LTSCALE
 40
0.25
  9
$ATTMODE
 70
     1
  9
$TEXTSIZE
 40
0.25
  9
$TRACEWID
 40
0.05
  9
$TEXTSTYLE
  7
STANDARD
  9
$CLAYER
  8
0
  9
$CELTYPE
  6
ByLayer
  9
$CECOLOR
 62
   256
  9
$CELTSCALE
 40
1.0
  9
$DISPSILH
 70
     0
  9
$DIMSCALE
 40
1.0
  9
$DIMASZ
 40
0.125
  9
$DIMEXO
 40
0.0625
  9
$DIMDLI
 40
0.38
  9
$DIMRND
 40
0.0
  9
$DIMDLE
 40
0.0
  9
$DIMEXE
 40
0.03125
  9
$DIMTP
 40
0.0
  9
$DIMTM
 40
0.0
  9
$DIMTXT
 40
0.1
  9
$DIMCEN
 40
0.09
  9
$DIMTSZ
 40
0.0
  9
$DIMTOL
 70
     0
  9
$DIMLIM
 70
     0
  9
$DIMTIH
 70
     0
  9
$DIMTOH
 70
     0
  9
$DIMSE1
 70
     0
  9
$DIMSE2
 70
     0
  9
$DIMTAD
 70
     0
  9
$DIMZIN
 70
     0
  9
$DIMBLK
  1

  9
$DIMASO
 70
     1
  9
$DIMSHO
 70
     1
  9
$DIMPOST
  1

  9
$DIMAPOST
  1

  9
$DIMALT
 70
     0
  9
$DIMALTD
 70
     2
  9
$DIMALTF
 40
25.4
  9
$DIMLFAC
 40
1.0
  9
$DIMTOFL
 70
     0
  9
$DIMTVP
 40
0.0
  9
$DIMTIX
 70
     0
  9
$DIMSOXD
 70
     0
  9
$DIMSAH
 70
     0
  9
$DIMBLK1
  1

  9
$DIMBLK2
  1

  9
$DIMSTYLE
  2
Standard
  9
$DIMCLRD
 70
     0
  9
$DIMCLRE
 70
     0
  9
$DIMCLRT
 70
     0
  9
$DIMTFAC
 40
1.0
  9
$DIMGAP
 40
0.09
  9
$DIMJUST
 70
     0
  9
$DIMSD1
 70
     0
  9
$DIMSD2
 70
     0
  9
$DIMTOLJ
 70
     1
  9
$DIMTZIN
 70
     0
  9
$DIMALTZ
 70
     0
  9
$DIMALTTZ
 70
     0
  9
$DIMUPT
 70
     0
  9
$DIMDEC
 70
     4
  9
$DIMTDEC
 70
     4
  9
$DIMALTU
 70
     2
  9
$DIMALTTD
 70
     2
  9
$DIMTXSTY
  7
STANDARD
  9
$DIMAUNIT
 70
     0
  9
$DIMADEC
 70
     0
  9
$DIMALTRND
 40
0.0
  9
$DIMAZIN
 70
     0
  9
$DIMDSEP
 70
    46
  9
$DIMATFIT
 70
     3
  9
$DIMFRAC
 70
     0
  9
$DIMLDRBLK
  1

  9
$DIMLUNIT
 70
     2
  9
$DIMLWD
 70
    -2
  9
$DIMLWE
 70
    -2
  9
$DIMTMOVE
 70
     0
  9
$LUNITS
 70
     4
  9
$LUPREC
 70
     4
  9
$SKETCHINC
 40
0.1
  9
$FILLETRAD
 40
0.0
  9
$AUNITS
 70
     0
  9
$AUPREC
 70
     3
  9
$MENU
  1
acad
  9
$ELEVATION
 40
0.0
  9
$PELEVATION
 40
0.0
  9
$THICKNESS
 40
0.0
  9
$LIMCHECK
 70
     0
  9
$CHAMFERA
 40
0.0
  9
$CHAMFERB
 40
0.0
  9
$CHAMFERC
 40
1.0
  9
$CHAMFERD
 40
0.0
  9
$SKPOLY
 70
     0
  9
$TDCREATE
 40
2453955.561656134
  9
$TDUCREATE
 40
2453955.894989468
  9
$TDUPDATE
 40
2453955.603322812
  9
$TDUUPDATE
 40
2453955.894989479
  9
$TDINDWG
 40
0.0000000116
  9
$TDUSRTIMER
 40
0.0000000116
  9
$USRTIMER
 70
     1
  9
$ANGBASE
 50
0.0
  9
$ANGDIR
 70
     0
  9
$PDMODE
 70
     0
  9
$PDSIZE
 40
0.0
  9
$PLINEWID
 40
0.0
  9
$SPLFRAME
 70
     0
  9
$SPLINETYPE
 70
     6
  9
$SPLINESEGS
 70
     8
  9
$HANDSEED
  5
23ED
  9
$SURFTAB1
 70
     6
  9
$SURFTAB2
 70
     6
  9
$SURFTYPE
 70
     6
  9
$SURFU
 70
     6
  9
$SURFV
 70
     6
  9
$UCSBASE
  2

  9
$UCSNAME
  2

  9
$UCSORG
 10
0.0
 20
0.0
 30
0.0
  9
$UCSXDIR
 10
1.0
 20
0.0
 30
0.0
  9
$UCSYDIR
 10
0.0
 20
1.0
 30
0.0
  9
$UCSORTHOREF
  2

  9
$UCSORTHOVIEW
 70
     0
  9
$UCSORGTOP
 10
0.0
 20
0.0
 30
0.0
  9
$UCSORGBOTTOM
 10
0.0
 20
0.0
 30
0.0
  9
$UCSORGLEFT
 10
0.0
 20
0.0
 30
0.0
  9
$UCSORGRIGHT
 10
0.0
 20
0.0
 30
0.0
  9
$UCSORGFRONT
 10
0.0
 20
0.0
 30
0.0
  9
$UCSORGBACK
 10
0.0
 20
0.0
 30
0.0
  9
$PUCSBASE
  2

  9
$PUCSNAME
  2

  9
$PUCSORG
 10
0.0
 20
0.0
 30
0.0
  9
$PUCSXDIR
 10
1.0
 20
0.0
 30
0.0
  9
$PUCSYDIR
 10
0.0
 20
1.0
 30
0.0
  9
$PUCSORTHOREF
  2

  9
$PUCSORTHOVIEW
 70
     0
  9
$PUCSORGTOP
 10
0.0
 20
0.0
 30
0.0
  9
$PUCSORGBOTTOM
 10
0.0
 20
0.0
 30
0.0
  9
$PUCSORGLEFT
 10
0.0
 20
0.0
 30
0.0
  9
$PUCSORGRIGHT
 10
0.0
 20
0.0
 30
0.0
  9
$PUCSORGFRONT
 10
0.0
 20
0.0
 30
0.0
  9
$PUCSORGBACK
 10
0.0
 20
0.0
 30
0.0
  9
$USERI1
 70
     0
  9
$USERI2
 70
     0
  9
$USERI3
 70
     0
  9
$USERI4
 70
     0
  9
$USERI5
 70
     0
  9
$USERR1
 40
0.0
  9
$USERR2
 40
0.0
  9
$USERR3
 40
0.0
  9
$USERR4
 40
0.0
  9
$USERR5
 40
0.0
  9
$WORLDVIEW
 70
     1
  9
$SHADEDGE
 70
     3
  9
$SHADEDIF
 70
    70
  9
$TILEMODE
 70
     1
  9
$MAXACTVP
 70
    16
  9
$PINSBASE
 10
0.0
 20
0.0
 30
0.0
  9
$PLIMCHECK
 70
     0
  9
$PEXTMIN
 10
1.000000000000000E+20
 20
1.000000000000000E+20
 30
1.000000000000000E+20
  9
$PEXTMAX
 10
-1.000000000000000E+20
 20
-1.000000000000000E+20
 30
-1.000000000000000E+20
  9
$PLIMMIN
 10
0.0
 20
0.0
  9
$PLIMMAX
 10
12.0
 20
9.0
  9
$UNITMODE
 70
     0
  9
$VISRETAIN
 70
     0
  9
$PLINEGEN
 70
     0
  9
$PSLTSCALE
 70
     1
  9
$TREEDEPTH
 70
  3020
  9
$CMLSTYLE
  2
Standard
  9
$CMLJUST
 70
     0
  9
$CMLSCALE
 40
1.0
  9
$PROXYGRAPHICS
 70
     1
  9
$MEASUREMENT
 70
     0
  9
$CELWEIGHT
370
    -1
  9
$ENDCAPS
280
     0
  9
$JOINSTYLE
280
     0
  9
$LWDISPLAY
290
     0
  9
$INSUNITS
 70
     1
  9
$HYPERLINKBASE
  1

  9
$STYLESHEET
  1

  9
$XEDIT
290
     1
  9
$CEPSNTYPE
380
     0
  9
$PSTYLEMODE
290
     0
  9
$FINGERPRINTGUID
  2
{FAEB1C30-E019-11D5-929B-00C0DF256EC4}
  9
$VERSIONGUID
  2
{FAEB1C32-E019-11D5-929B-00C0DF256EC4}
  9
$EXTNAMES
290
     1
  9
$PSVPSCALE
 40
0.0
  9
$OLESTARTUP
290
     0
  0
ENDSEC
  0
SECTION
  2
CLASSES
  0
CLASS
  1
ACDBDICTIONARYWDFLT
  2
AcDbDictionaryWithDefault
  3
AutoCAD 2000
 90
        0
280
     0
281
     0
  0
CLASS
  1
ACDBPLACEHOLDER
  2
AcDbPlaceHolder
  3
ObjectDBX Classes
 90
        0
280
     0
281
     0
  0
CLASS
  1
LAYOUT
  2
AcDbLayout
  3
ObjectDBX Classes
 90
        0
280
     0
281
     0
  0
ENDSEC
  0
SECTION
  2
TABLES
  0
TABLE
  2
VPORT
  5
2395
330
0
100
AcDbSymbolTable
 70
     2
  0
VPORT
  5
23AB
330
2395
100
AcDbSymbolTableRecord
100
AcDbViewportTableRecord
  2
*ACTIVE
 70
     0
 10
0.0
 20
0.0
 11
1.0
 21
1.0
 12
6.483903592009686
 22
4.6733895
 13
0.0
 23
0.0
 14
1.0
 24
1.0
 15
0.0
 25
0.0
 16
0.0
 26
0.0
 36
1.0
 17
0.0
 27
0.0
 37
0.0
 40
9.346779
 41
0.7207678883071553
 42
50.0
 43
0.0
 44
0.0
 50
0.0
 51
0.0
 71
     0
 72
  2000
 73
     1
 74
     0
 75
     0
 76
     0
 77
     0
 78
     0
281
     0
 65
     1
110
0.0
120
0.0
130
0.0
111
1.0
121
0.0
131
0.0
112
0.0
122
1.0
132
0.0
 79
     0
146
0.0
  0
ENDTAB
  0
TABLE
  2
LTYPE
  5
2392
330
0
100
AcDbSymbolTable
 70
     1
  0
LTYPE
  5
239D
330
2392
100
AcDbSymbolTableRecord
100
AcDbLinetypeTableRecord
  2
ByBlock
 70
     0
  3

 72
    65
 73
     0
 40
0.0
  0
LTYPE
  5
239E
330
2392
100
AcDbSymbolTableRecord
100
AcDbLinetypeTableRecord
  2
ByLayer
 70
     0
  3

 72
    65
 73
     0
 40
0.0
  0
LTYPE
  5
23A8
330
2392
100
AcDbSymbolTableRecord
100
AcDbLinetypeTableRecord
  2
CONTINUOUS
 70
     0
  3
Solid line
 72
    65
 73
     0
 40
0.0
  0
ENDTAB
  0
TABLE
  2
LAYER
  5
238F
330
0
100
AcDbSymbolTable
 70
     1
  0
LAYER
  5
23A9
330
238F
100
AcDbSymbolTableRecord
100
AcDbLayerTableRecord
  2
0
 70
     0
 62
     7
  6
CONTINUOUS
370
    -3
390
239C
  0
ENDTAB
  0
TABLE
  2
STYLE
  5
2390
330
0
100
AcDbSymbolTable
 70
     1
  0
STYLE
  5
23AE
330
2390
100
AcDbSymbolTableRecord
100
AcDbTextStyleTableRecord
  2
STANDARD
 70
     0
 40
0.0
 41
1.0
 50
0.0
 71
     0
 42
0.25
  3
ROMANS.SHX
  4

  0
ENDTAB
  0
TABLE
  2
VIEW
  5
2393
330
0
100
AcDbSymbolTable
 70
     1
  0
VIEW
  5
23AD
330
2393
100
AcDbSymbolTableRecord
100
AcDbViewTableRecord
  2
1
 70
     0
 40
9.538729
 10
6.558628999999999
 20
0.919056
 41
12.360225
 11
0.0
 21
0.0
 31
1.0
 12
0.0
 22
0.0
 32
0.0
 42
50.0
 43
0.0
 44
0.0
 50
0.0
 71
     0
281
     0
 72
     0
  0
ENDTAB
  0
TABLE
  2
UCS
  5
2394
330
0
100
AcDbSymbolTable
 70
     0
  0
ENDTAB
  0
TABLE
  2
APPID
  5
2396
330
0
100
AcDbSymbolTable
 70
     1
  0
APPID
  5
23AC
330
2396
100
AcDbSymbolTableRecord
100
AcDbRegAppTableRecord
  2
ACAD
 70
     0
  0
ENDTAB
  0
TABLE
  2
DIMSTYLE
  5
2397
330
0
100
AcDbSymbolTable
 70
     1
100
AcDbDimStyleTable
  0
DIMSTYLE
105
23AF
330
2397
100
AcDbSymbolTableRecord
100
AcDbDimStyleTableRecord
  2
Standard
 70
     0
  3

  4

340
23AE
  0
ENDTAB
  0
TABLE
  2
BLOCK_RECORD
  5
238E
330
0
100
AcDbSymbolTable
 70
     0
  0
BLOCK_RECORD
  5
23A5
330
238E
100
AcDbSymbolTableRecord
100
AcDbBlockTableRecord
  2
*Model_Space
340
23A6
  0
BLOCK_RECORD
  5
23A3
330
238E
100
AcDbSymbolTableRecord
100
AcDbBlockTableRecord
  2
*Paper_Space
340
23A4
  0
ENDTAB
  0
ENDSEC
  0
SECTION
  2
BLOCKS
  0
BLOCK
  5
23E2
330
23A5
100
AcDbEntity
  8
0
100
AcDbBlockBegin
  2
*Model_Space
 70
     0
 10
0.0
 20
0.0
 30
0.0
  3
*Model_Space
  1

  4

  0
ENDBLK
  5
23E3
330
23A5
100
AcDbEntity
  8
0
100
AcDbBlockEnd
  0
BLOCK
  5
23E0
330
23A3
100
AcDbEntity
 67
     1
  8
0
100
AcDbBlockBegin
  2
*Paper_Space
 70
     0
 10
0.0
 20
0.0
 30
0.0
  3
*Paper_Space
  1

  4

  0
ENDBLK
  5
23E1
330
23A3
100
AcDbEntity
 67
     1
  8
0
100
AcDbBlockEnd
  0
ENDSEC
  0
SECTION
  2
ENTITIES
  0
LINE
  5
2
330
23A5
100
AcDbEntity
  8
0
100
AcDbLine
 10
3.011046
 20
6.263337
 30
0.0
 11
3.011046
 21
4.910399
 31
0.0
  0
LINE
  5
3
330
23A5
100
AcDbEntity
  8
0
100
AcDbLine
 10
4.503267
 20
6.50376
 30
0.0
 11
4.503267
 21
5.203136
 31
0.0
  0
LINE
  5
4
330
23A5
100
AcDbEntity
  8
0
100
AcDbLine
 10
1.184919
 20
4.547942
 30
0.0
 11
6.076511
 21
5.518845
 31
0.0
  0
LINE
  5
5
330
23A5
100
AcDbEntity
  8
0
100
AcDbLine
 10
3.011046
 20
6.263337
 30
0.0
 11
4.503267
 21
6.50376
 31
0.0
  0
LINE
  5
6
330
23A5
100
AcDbEntity
  8
0
100
AcDbLine
 10
3.011046
 20
4.910399
 30
0.0
 11
2.422655
 21
5.762548000000001
 31
0.0
  0
LINE
  5
7
330
23A5
100
AcDbEntity
  8
0
100
AcDbLine
 10
3.011046
 20
4.910399
 30
0.0
 11
2.51461
 21
6.354919000000001
 31
0.0
  0
LINE
  5
8
330
23A5
100
AcDbEntity
  8
0
100
AcDbLine
 10
3.011046
 20
6.263337
 30
0.0
 11
2.870657
 21
6.703831
 31
0.0
  0
LINE
  5
9
330
23A5
100
AcDbEntity
  8
0
100
AcDbLine
 10
1.892298
 20
8.165716999999999
 30
0.0
 11
2.261359
 21
8.615614000000001
 31
0.0
  0
LINE
  5
A
330
23A5
100
AcDbEntity
  8
0
100
AcDbLine
 10
1.520894
 20
8.051791999999999
 30
0.0
 11
2.198554
 21
7.274576
 31
0.0
  0
LINE
  5
C
330
23A5
100
AcDbEntity
  8
0
100
AcDbLine
 10
1.520894
 20
8.051791999999999
 30
0.0
 11
1.916228
 21
8.096085
 31
0.0
  0
LINE
  5
D
330
23A5
100
AcDbEntity
  8
0
100
AcDbLine
 10
1.520894
 20
8.051791999999999
 30
0.0
 11
1.520894
 21
7.068544999999999
 31
0.0
  0
LINE
  5
E
330
23A5
100
AcDbEntity
  8
0
100
AcDbLine
 10
4.503267
 20
6.50376
 30
0.0
 11
4.338212
 21
6.900342
 31
0.0
  0
LINE
  5
F
330
23A5
100
AcDbEntity
  8
0
100
AcDbLine
 10
3.320022
 20
9.346779
 30
0.0
 11
2.480021
 21
9.306221000000001
 31
0.0
  0
LINE
  5
10
330
23A5
100
AcDbEntity
  8
0
100
AcDbLine
 10
2.480021
 20
9.306221000000001
 30
0.0
 11
3.096294
 21
7.529758
 31
0.0
  0
LINE
  5
11
330
23A5
100
AcDbEntity
  8
0
100
AcDbLine
 10
2.261359
 20
8.615614000000001
 30
0.0
 11
2.696555
 21
8.682041
 31
0.0
  0
LINE
  5
12
330
23A5
100
AcDbEntity
  8
0
100
AcDbLine
 10
2.480021
 20
9.306221000000001
 30
0.0
 11
2.378646
 21
9.166172999999999
 31
0.0
  0
LINE
  5
13
330
23A5
100
AcDbEntity
  8
0
100
AcDbLine
 10
2.112856
 20
8.798985
 30
0.0
 11
2.187165
 21
8.525169
 31
0.0
  0
LINE
  5
14
330
23A5
100
AcDbEntity
  8
0
100
AcDbLine
 10
2.904335
 20
9.326708
 30
0.0
 11
3.552399
 21
7.583348
 31
0.0
  0
LINE
  5
50
330
23A5
100
AcDbEntity
  8
0
100
AcDbLine
 10
1.292511
 20
2.028972
 30
0.0
 11
6.292418
 21
3.339649
 31
0.0
  0
LINE
  5
51
330
23A5
100
AcDbEntity
  8
0
100
AcDbLine
 10
1.292511
 20
2.028972
 30
0.0
 11
1.300635
 21
2.06718
 31
0.0
  0
LINE
  5
52
330
23A5
100
AcDbEntity
  8
0
100
AcDbLine
 10
1.300635
 20
2.06718
 30
0.0
 11
1.249454
 21
2.126631
 31
0.0
  0
LINE
  5
53
330
23A5
100
AcDbEntity
  8
0
100
AcDbLine
 10
1.249454
 20
2.126631
 30
0.0
 11
1.198312
 21
2.205193
 31
0.0
  0
LINE
  5
54
330
23A5
100
AcDbEntity
  8
0
100
AcDbLine
 10
1.198312
 20
2.205193
 30
0.0
 11
1.145143
 21
2.276718
 31
0.0
  0
LINE
  5
55
330
23A5
100
AcDbEntity
  8
0
100
AcDbLine
 10
1.145143
 20
2.276718
 30
0.0
 11
1.217776
 21
2.380179
 31
0.0
  0
LINE
  5
56
330
23A5
100
AcDbEntity
  8
0
100
AcDbLine
 10
1.217776
 20
2.380179
 30
0.0
 11
1.180629
 21
2.41546
 31
0.0
  0
LINE
  5
57
330
23A5
100
AcDbEntity
  8
0
100
AcDbLine
 10
1.180629
 20
2.41546
 30
0.0
 11
1.088261
 21
2.502152
 31
0.0
  0
LINE
  5
58
330
23A5
100
AcDbEntity
  8
0
100
AcDbLine
 10
1.088261
 20
2.502152
 30
0.0
 11
1.138843
 21
2.644887
 31
0.0
  0
LINE
  5
59
330
23A5
100
AcDbEntity
  8
0
100
AcDbLine
 10
1.138843
 20
2.644887
 30
0.0
 11
1.085541
 21
2.650024
 31
0.0
  0
LINE
  5
5A
330
23A5
100
AcDbEntity
  8
0
100
AcDbLine
 10
1.085541
 20
2.650024
 30
0.0
 11
1.062616
 21
2.754683
 31
0.0
  0
LINE
  5
5B
330
23A5
100
AcDbEntity
  8
0
100
AcDbLine
 10
1.062616
 20
2.754683
 30
0.0
 11
0.955314
 21
2.917853
 31
0.0
  0
LINE
  5
5C
330
23A5
100
AcDbEntity
  8
0
100
AcDbLine
 10
0.955314
 20
2.917853
 30
0.0
 11
0.961535
 21
3.010383
 31
0.0
  0
LINE
  5
5D
330
23A5
100
AcDbEntity
  8
0
100
AcDbLine
 10
0.961535
 20
3.010383
 30
0.0
 11
0.9565969999999999
 21
3.055658
 31
0.0
  0
LINE
  5
5E
330
23A5
100
AcDbEntity
  8
0
100
AcDbLine
 10
0.9565969999999999
 20
3.055658
 30
0.0
 11
0.8430350000000001
 21
3.107187
 31
0.0
  0
LINE
  5
5F
330
23A5
100
AcDbEntity
  8
0
100
AcDbLine
 10
0.8430350000000001
 20
3.107187
 30
0.0
 11
0.824998
 21
3.141423
 31
0.0
  0
LINE
  5
60
330
23A5
100
AcDbEntity
  8
0
100
AcDbLine
 10
0.824998
 20
3.141423
 30
0.0
 11
0.8361700000000001
 21
3.194713
 31
0.0
  0
LINE
  5
61
330
23A5
100
AcDbEntity
  8
0
100
AcDbLine
 10
0.8361700000000001
 20
3.194713
 30
0.0
 11
0.8223520000000001
 21
3.326513
 31
0.0
  0
LINE
  5
62
330
23A5
100
AcDbEntity
  8
0
100
AcDbLine
 10
0.8223520000000001
 20
3.326513
 30
0.0
 11
0.7622909999999999
 21
3.471482
 31
0.0
  0
LINE
  5
63
330
23A5
100
AcDbEntity
  8
0
100
AcDbLine
 10
0.7622909999999999
 20
3.471482
 30
0.0
 11
0.690079
 21
3.577246
 31
0.0
  0
LINE
  5
64
330
23A5
100
AcDbEntity
  8
0
100
AcDbLine
 10
0.690079
 20
3.577246
 30
0.0
 11
0.628973
 21
3.703105
 31
0.0
  0
LINE
  5
8B
330
23A5
100
AcDbEntity
  8
0
100
AcDbLine
 10
0.628973
 20
3.703105
 30
0.0
 11
1.023212
 21
3.804507
 31
0.0
  0
LINE
  5
D9
330
23A5
100
AcDbEntity
  8
0
100
AcDbLine
 10
3.296247
 20
2.554232
 30
0.0
 11
3.296247
 21
1.722147
 31
0.0
  0
LINE
  5
DA
330
23A5
100
AcDbEntity
  8
0
100
AcDbLine
 10
3.512283
 20
2.610864
 30
0.0
 11
3.512283
 21
1.714746
 31
0.0
  0
LINE
  5
11D
330
23A5
100
AcDbEntity
  8
0
100
AcDbLine
 10
3.512283
 20
1.714746
 30
0.0
 11
3.604413
 21
1.709477
 31
0.0
  0
LINE
  5
11E
330
23A5
100
AcDbEntity
  8
0
100
AcDbLine
 10
3.604413
 20
1.709477
 30
0.0
 11
3.737146
 21
1.687081
 31
0.0
  0
LINE
  5
11F
330
23A5
100
AcDbEntity
  8
0
100
AcDbLine
 10
3.737146
 20
1.687081
 30
0.0
 11
3.918141
 21
1.654528
 31
0.0
  0
LINE
  5
120
330
23A5
100
AcDbEntity
  8
0
100
AcDbLine
 10
3.918141
 20
1.654528
 30
0.0
 11
4.186921
 21
1.757594
 31
0.0
  0
LINE
  5
121
330
23A5
100
AcDbEntity
  8
0
100
AcDbLine
 10
4.186921
 20
1.757594
 30
0.0
 11
4.298763
 21
1.850917
 31
0.0
  0
LINE
  5
122
330
23A5
100
AcDbEntity
  8
0
100
AcDbLine
 10
4.298763
 20
1.850917
 30
0.0
 11
4.429729
 21
1.950237
 31
0.0
  0
LINE
  5
123
330
23A5
100
AcDbEntity
  8
0
100
AcDbLine
 10
4.429729
 20
1.950237
 30
0.0
 11
4.551621
 21
2.039516
 31
0.0
  0
LINE
  5
124
330
23A5
100
AcDbEntity
  8
0
100
AcDbLine
 10
4.551621
 20
2.039516
 30
0.0
 11
4.665343
 21
2.067452
 31
0.0
  0
LINE
  5
125
330
23A5
100
AcDbEntity
  8
0
100
AcDbLine
 10
4.665343
 20
2.067452
 30
0.0
 11
4.883544000000001
 21
2.028789
 31
0.0
  0
LINE
  5
126
330
23A5
100
AcDbEntity
  8
0
100
AcDbLine
 10
4.883544000000001
 20
2.028789
 30
0.0
 11
5.062624
 21
2.044523
 31
0.0
  0
LINE
  5
127
330
23A5
100
AcDbEntity
  8
0
100
AcDbLine
 10
5.062624
 20
2.044523
 30
0.0
 11
5.217521
 21
2.039182
 31
0.0
  0
LINE
  5
128
330
23A5
100
AcDbEntity
  8
0
100
AcDbLine
 10
5.217521
 20
2.039182
 30
0.0
 11
5.325236
 21
2.081213
 31
0.0
  0
LINE
  5
129
330
23A5
100
AcDbEntity
  8
0
100
AcDbLine
 10
5.325236
 20
2.081213
 30
0.0
 11
5.380764
 21
2.182696
 31
0.0
  0
LINE
  5
12A
330
23A5
100
AcDbEntity
  8
0
100
AcDbLine
 10
5.380764
 20
2.182696
 30
0.0
 11
5.436278
 21
2.277138
 31
0.0
  0
LINE
  5
12B
330
23A5
100
AcDbEntity
  8
0
100
AcDbLine
 10
5.436278
 20
2.277138
 30
0.0
 11
5.540241
 21
2.453966
 31
0.0
  0
LINE
  5
12C
330
23A5
100
AcDbEntity
  8
0
100
AcDbLine
 10
5.540241
 20
2.453966
 30
0.0
 11
5.623015000000001
 21
2.598648
 31
0.0
  0
LINE
  5
12D
330
23A5
100
AcDbEntity
  8
0
100
AcDbLine
 10
5.623015000000001
 20
2.598648
 30
0.0
 11
5.818219999999999
 21
2.629438
 31
0.0
  0
LINE
  5
12E
330
23A5
100
AcDbEntity
  8
0
100
AcDbLine
 10
5.818219999999999
 20
2.629438
 30
0.0
 11
5.86851
 21
2.627325
 31
0.0
  0
LINE
  5
12F
330
23A5
100
AcDbEntity
  8
0
100
AcDbLine
 10
5.86851
 20
2.627325
 30
0.0
 11
5.976355
 21
2.733733
 31
0.0
  0
LINE
  5
130
330
23A5
100
AcDbEntity
  8
0
100
AcDbLine
 10
5.976355
 20
2.733733
 30
0.0
 11
6.020638
 21
2.745714
 31
0.0
  0
LINE
  5
131
330
23A5
100
AcDbEntity
  8
0
100
AcDbLine
 10
6.020638
 20
2.745714
 30
0.0
 11
6.08424
 21
2.860258
 31
0.0
  0
LINE
  5
132
330
23A5
100
AcDbEntity
  8
0
100
AcDbLine
 10
6.08424
 20
2.860258
 30
0.0
 11
6.207986
 21
2.871074
 31
0.0
  0
LINE
  5
133
330
23A5
100
AcDbEntity
  8
0
100
AcDbLine
 10
6.207986
 20
2.871074
 30
0.0
 11
6.300578
 21
2.896035
 31
0.0
  0
LINE
  5
134
330
23A5
100
AcDbEntity
  8
0
100
AcDbLine
 10
6.300578
 20
2.896035
 30
0.0
 11
6.306887000000001
 21
3.031818
 31
0.0
  0
LINE
  5
135
330
23A5
100
AcDbEntity
  8
0
100
AcDbLine
 10
6.306887000000001
 20
3.031818
 30
0.0
 11
6.303086
 21
3.142473
 31
0.0
  0
LINE
  5
136
330
23A5
100
AcDbEntity
  8
0
100
AcDbLine
 10
6.303086
 20
3.142473
 30
0.0
 11
6.289198000000001
 21
3.239067
 31
0.0
  0
LINE
  5
137
330
23A5
100
AcDbEntity
  8
0
100
AcDbLine
 10
6.289198000000001
 20
3.239067
 30
0.0
 11
6.292418
 21
3.339649
 31
0.0
  0
LINE
  5
138
330
23A5
100
AcDbEntity
  8
0
100
AcDbLine
 10
6.002948
 20
3.605545
 30
0.0
 11
6.067499
 21
3.539269
 31
0.0
  0
LINE
  5
139
330
23A5
100
AcDbEntity
  8
0
100
AcDbLine
 10
6.067499
 20
3.539269
 30
0.0
 11
6.143856
 21
3.49385
 31
0.0
  0
LINE
  5
13A
330
23A5
100
AcDbEntity
  8
0
100
AcDbLine
 10
6.143856
 20
3.49385
 30
0.0
 11
6.178973
 21
3.44952
 31
0.0
  0
LINE
  5
13B
330
23A5
100
AcDbEntity
  8
0
100
AcDbLine
 10
6.178973
 20
3.44952
 30
0.0
 11
6.220137
 21
3.411213
 31
0.0
  0
LINE
  5
13C
330
23A5
100
AcDbEntity
  8
0
100
AcDbLine
 10
6.220137
 20
3.411213
 30
0.0
 11
6.292418
 21
3.339649
 31
0.0
  0
LINE
  5
13D
330
23A5
100
AcDbEntity
  8
0
100
AcDbLine
 10
1.300635
 20
2.06718
 30
0.0
 11
1.341571
 21
1.915208
 31
0.0
  0
LINE
  5
13E
330
23A5
100
AcDbEntity
  8
0
100
AcDbLine
 10
1.341571
 20
1.915208
 30
0.0
 11
1.33929
 21
1.781429
 31
0.0
  0
LINE
  5
13F
330
23A5
100
AcDbEntity
  8
0
100
AcDbLine
 10
1.33929
 20
1.781429
 30
0.0
 11
1.349205
 21
1.709991
 31
0.0
  0
LINE
  5
140
330
23A5
100
AcDbEntity
  8
0
100
AcDbLine
 10
1.349205
 20
1.709991
 30
0.0
 11
1.526988
 21
1.580879
 31
0.0
  0
LINE
  5
141
330
23A5
100
AcDbEntity
  8
0
100
AcDbLine
 10
1.526988
 20
1.580879
 30
0.0
 11
1.532718
 21
1.428978
 31
0.0
  0
LINE
  5
142
330
23A5
100
AcDbEntity
  8
0
100
AcDbLine
 10
1.532718
 20
1.428978
 30
0.0
 11
1.549581
 21
1.311255
 31
0.0
  0
LINE
  5
143
330
23A5
100
AcDbEntity
  8
0
100
AcDbLine
 10
1.549581
 20
1.311255
 30
0.0
 11
1.568479
 21
1.204592
 31
0.0
  0
LINE
  5
144
330
23A5
100
AcDbEntity
  8
0
100
AcDbLine
 10
1.568479
 20
1.204592
 30
0.0
 11
1.700278
 21
1.218409
 31
0.0
  0
LINE
  5
145
330
23A5
100
AcDbEntity
  8
0
100
AcDbLine
 10
1.700278
 20
1.218409
 30
0.0
 11
1.890427
 21
1.236133
 31
0.0
  0
LINE
  5
146
330
23A5
100
AcDbEntity
  8
0
100
AcDbLine
 10
1.890427
 20
1.236133
 30
0.0
 11
1.960066
 21
1.35167
 31
0.0
  0
LINE
  5
147
330
23A5
100
AcDbEntity
  8
0
100
AcDbLine
 10
1.960066
 20
1.35167
 30
0.0
 11
2.004305
 21
1.341522
 31
0.0
  0
LINE
  5
148
330
23A5
100
AcDbEntity
  8
0
100
AcDbLine
 10
2.004305
 20
1.341522
 30
0.0
 11
2.026603
 21
1.424967
 31
0.0
  0
LINE
  5
149
330
23A5
100
AcDbEntity
  8
0
100
AcDbLine
 10
2.026603
 20
1.424967
 30
0.0
 11
2.098126
 21
1.477129
 31
0.0
  0
LINE
  5
14A
330
23A5
100
AcDbEntity
  8
0
100
AcDbLine
 10
2.098126
 20
1.477129
 30
0.0
 11
2.159546
 21
1.507182
 31
0.0
  0
LINE
  5
14B
330
23A5
100
AcDbEntity
  8
0
100
AcDbLine
 10
2.159546
 20
1.507182
 30
0.0
 11
2.216865
 21
1.49902
 31
0.0
  0
LINE
  5
14C
330
23A5
100
AcDbEntity
  8
0
100
AcDbLine
 10
2.216865
 20
1.49902
 30
0.0
 11
2.337608
 21
1.516883
 31
0.0
  0
LINE
  5
14D
330
23A5
100
AcDbEntity
  8
0
100
AcDbLine
 10
2.337608
 20
1.516883
 30
0.0
 11
2.446252
 21
1.520688
 31
0.0
  0
LINE
  5
14E
330
23A5
100
AcDbEntity
  8
0
100
AcDbLine
 10
2.446252
 20
1.520688
 30
0.0
 11
2.530757
 21
1.525547
 31
0.0
  0
LINE
  5
14F
330
23A5
100
AcDbEntity
  8
0
100
AcDbLine
 10
2.530757
 20
1.525547
 30
0.0
 11
2.573049
 21
1.547592
 31
0.0
  0
LINE
  5
150
330
23A5
100
AcDbEntity
  8
0
100
AcDbLine
 10
2.573049
 20
1.547592
 30
0.0
 11
2.635438
 21
1.559537
 31
0.0
  0
LINE
  5
151
330
23A5
100
AcDbEntity
  8
0
100
AcDbLine
 10
2.635438
 20
1.559537
 30
0.0
 11
2.710912
 21
1.575479
 31
0.0
  0
LINE
  5
152
330
23A5
100
AcDbEntity
  8
0
100
AcDbLine
 10
2.710912
 20
1.575479
 30
0.0
 11
2.784394
 21
1.601485
 31
0.0
  0
LINE
  5
153
330
23A5
100
AcDbEntity
  8
0
100
AcDbLine
 10
2.784394
 20
1.601485
 30
0.0
 11
2.887039
 21
1.623408
 31
0.0
  0
LINE
  5
154
330
23A5
100
AcDbEntity
  8
0
100
AcDbLine
 10
2.887039
 20
1.623408
 30
0.0
 11
2.93326
 21
1.598168
 31
0.0
  0
LINE
  5
155
330
23A5
100
AcDbEntity
  8
0
100
AcDbLine
 10
2.93326
 20
1.598168
 30
0.0
 11
3.016773
 21
1.61007
 31
0.0
  0
LINE
  5
156
330
23A5
100
AcDbEntity
  8
0
100
AcDbLine
 10
3.016773
 20
1.61007
 30
0.0
 11
3.133567
 21
1.665159
 31
0.0
  0
LINE
  5
157
330
23A5
100
AcDbEntity
  8
0
100
AcDbLine
 10
3.133567
 20
1.665159
 30
0.0
 11
3.153707
 21
1.676184
 31
0.0
  0
LINE
  5
158
330
23A5
100
AcDbEntity
  8
0
100
AcDbLine
 10
3.153707
 20
1.676184
 30
0.0
 11
3.226179
 21
1.700179
 31
0.0
  0
LINE
  5
159
330
23A5
100
AcDbEntity
  8
0
100
AcDbLine
 10
3.226179
 20
1.700179
 30
0.0
 11
3.278516
 21
1.715162
 31
0.0
  0
LINE
  5
15A
330
23A5
100
AcDbEntity
  8
0
100
AcDbLine
 10
3.278516
 20
1.715162
 30
0.0
 11
3.296247
 21
1.722147
 31
0.0
  0
ARC
  5
15B
330
23A5
100
AcDbEntity
  8
0
100
AcDbCircle
 10
3.401227
 20
1.629775
 30
0.0
 40
0.139833
100
AcDbArc
 50
37.420164
 51
138.655485
  0
LINE
  5
15C
330
23A5
100
AcDbEntity
  8
0
100
AcDbLine
 10
5.945532
 20
4.29328
 30
0.0
 11
5.983455999999999
 21
4.26368
 31
0.0
  0
LINE
  5
15D
330
23A5
100
AcDbEntity
  8
0
100
AcDbLine
 10
5.983455999999999
 20
4.26368
 30
0.0
 11
6.005472
 21
4.207305
 31
0.0
  0
LINE
  5
15E
330
23A5
100
AcDbEntity
  8
0
100
AcDbLine
 10
6.005472
 20
4.207305
 30
0.0
 11
6.041528
 21
4.129779
 31
0.0
  0
LINE
  5
15F
330
23A5
100
AcDbEntity
  8
0
100
AcDbLine
 10
6.041528
 20
4.129779
 30
0.0
 11
6.107644000000001
 21
3.993851
 31
0.0
  0
LINE
  5
160
330
23A5
100
AcDbEntity
  8
0
100
AcDbLine
 10
0.666832
 20
6.021609
 30
0.0
 11
2.089923
 21
6.244436
 31
0.0
  0
LINE
  5
161
330
23A5
100
AcDbEntity
  8
0
100
AcDbLine
 10
4.456944
 20
6.615061999999999
 30
0.0
 11
4.783231
 21
6.666152
 31
0.0
  0
LINE
  5
162
330
23A5
100
AcDbEntity
  8
0
100
AcDbLine
 10
4.783231
 20
6.666152
 30
0.0
 11
4.834319
 21
6.56043
 31
0.0
  0
LINE
  5
163
330
23A5
100
AcDbEntity
  8
0
100
AcDbLine
 10
4.834319
 20
6.56043
 30
0.0
 11
4.899667
 21
6.543199
 31
0.0
  0
LINE
  5
164
330
23A5
100
AcDbEntity
  8
0
100
AcDbLine
 10
4.899667
 20
6.543199
 30
0.0
 11
5.025306
 21
6.494663
 31
0.0
  0
LINE
  5
165
330
23A5
100
AcDbEntity
  8
0
100
AcDbLine
 10
5.025306
 20
6.494663
 30
0.0
 11
5.107679
 21
6.440179
 31
0.0
  0
LINE
  5
166
330
23A5
100
AcDbEntity
  8
0
100
AcDbLine
 10
5.107679
 20
6.440179
 30
0.0
 11
5.042258
 21
6.421199
 31
0.0
  0
LINE
  5
167
330
23A5
100
AcDbEntity
  8
0
100
AcDbLine
 10
5.042258
 20
6.421199
 30
0.0
 11
5.029116999999999
 21
6.389037
 31
0.0
  0
LINE
  5
168
330
23A5
100
AcDbEntity
  8
0
100
AcDbLine
 10
5.029116999999999
 20
6.389037
 30
0.0
 11
5.03002
 21
6.337733999999999
 31
0.0
  0
LINE
  5
169
330
23A5
100
AcDbEntity
  8
0
100
AcDbLine
 10
5.03002
 20
6.337733999999999
 30
0.0
 11
4.987647
 21
6.275454
 31
0.0
  0
LINE
  5
16A
330
23A5
100
AcDbEntity
  8
0
100
AcDbLine
 10
4.987647
 20
6.275454
 30
0.0
 11
4.949298000000001
 21
6.213166
 31
0.0
  0
LINE
  5
16B
330
23A5
100
AcDbEntity
  8
0
100
AcDbLine
 10
4.949298000000001
 20
6.213166
 30
0.0
 11
4.961275
 21
6.166871
 31
0.0
  0
LINE
  5
16C
330
23A5
100
AcDbEntity
  8
0
100
AcDbLine
 10
4.961275
 20
6.166871
 30
0.0
 11
4.985342
 21
6.129605000000001
 31
0.0
  0
LINE
  5
16D
330
23A5
100
AcDbEntity
  8
0
100
AcDbLine
 10
4.985342
 20
6.129605000000001
 30
0.0
 11
5.054782
 21
6.146565
 31
0.0
  0
LINE
  5
16E
330
23A5
100
AcDbEntity
  8
0
100
AcDbLine
 10
5.054782
 20
6.146565
 30
0.0
 11
5.127184
 21
6.135355000000001
 31
0.0
  0
LINE
  5
16F
330
23A5
100
AcDbEntity
  8
0
100
AcDbLine
 10
5.127184
 20
6.135355000000001
 30
0.0
 11
5.257999999999999
 21
6.160239
 31
0.0
  0
LINE
  5
170
330
23A5
100
AcDbEntity
  8
0
100
AcDbLine
 10
5.257999999999999
 20
6.160239
 30
0.0
 11
5.305276999999999
 21
6.160144
 31
0.0
  0
LINE
  5
171
330
23A5
100
AcDbEntity
  8
0
100
AcDbLine
 10
5.305276999999999
 20
6.160144
 30
0.0
 11
5.326275
 21
6.097736
 31
0.0
  0
LINE
  5
172
330
23A5
100
AcDbEntity
  8
0
100
AcDbLine
 10
5.326275
 20
6.097736
 30
0.0
 11
5.343272
 21
6.046402
 31
0.0
  0
LINE
  5
173
330
23A5
100
AcDbEntity
  8
0
100
AcDbLine
 10
5.343272
 20
6.046402
 30
0.0
 11
5.385412000000001
 21
5.993005
 31
0.0
  0
LINE
  5
174
330
23A5
100
AcDbEntity
  8
0
100
AcDbLine
 10
5.385412000000001
 20
5.993005
 30
0.0
 11
5.394283000000001
 21
5.902456
 31
0.0
  0
LINE
  5
175
330
23A5
100
AcDbEntity
  8
0
100
AcDbLine
 10
5.394283000000001
 20
5.902456
 30
0.0
 11
5.522026
 21
5.900188
 31
0.0
  0
LINE
  5
176
330
23A5
100
AcDbEntity
  8
0
100
AcDbLine
 10
5.522026
 20
5.900188
 30
0.0
 11
5.63964
 21
5.862733
 31
0.0
  0
LINE
  5
177
330
23A5
100
AcDbEntity
  8
0
100
AcDbLine
 10
5.63964
 20
5.862733
 30
0.0
 11
5.712997000000001
 21
5.826373
 31
0.0
  0
LINE
  5
178
330
23A5
100
AcDbEntity
  8
0
100
AcDbLine
 10
5.712997000000001
 20
5.826373
 30
0.0
 11
5.769161
 21
5.743777
 31
0.0
  0
LINE
  5
179
330
23A5
100
AcDbEntity
  8
0
100
AcDbLine
 10
5.769161
 20
5.743777
 30
0.0
 11
5.809267
 21
5.67932
 31
0.0
  0
LINE
  5
17A
330
23A5
100
AcDbEntity
  8
0
100
AcDbLine
 10
5.809267
 20
5.67932
 30
0.0
 11
5.879647
 21
5.663084
 31
0.0
  0
LINE
  5
17B
330
23A5
100
AcDbEntity
  8
0
100
AcDbLine
 10
5.879647
 20
5.663084
 30
0.0
 11
5.991268
 21
5.646765
 31
0.0
  0
LINE
  5
17C
330
23A5
100
AcDbEntity
  8
0
100
AcDbLine
 10
5.991268
 20
5.646765
 30
0.0
 11
6.042421
 21
5.573232
 31
0.0
  0
LINE
  5
17D
330
23A5
100
AcDbEntity
  8
0
100
AcDbLine
 10
6.042421
 20
5.573232
 30
0.0
 11
6.076511
 21
5.518845
 31
0.0
  0
LINE
  5
17E
330
23A5
100
AcDbEntity
  8
0
100
AcDbLine
 10
5.107679
 20
6.440179
 30
0.0
 11
5.097445
 21
6.352687
 31
0.0
  0
LINE
  5
17F
330
23A5
100
AcDbEntity
  8
0
100
AcDbLine
 10
5.097445
 20
6.352687
 30
0.0
 11
5.087264
 21
6.292354
 31
0.0
  0
LINE
  5
180
330
23A5
100
AcDbEntity
  8
0
100
AcDbLine
 10
5.087264
 20
6.292354
 30
0.0
 11
5.076675
 21
6.143176
 31
0.0
  0
LINE
  5
181
330
23A5
100
AcDbEntity
  8
0
100
AcDbLine
 10
5.081053
 20
6.204854
 30
0.0
 11
5.081053
 21
6.204854
 31
0.0
  0
LINE
  5
182
330
23A5
100
AcDbEntity
  8
0
100
AcDbLine
 10
1.325608
 20
8.731510999999999
 30
0.0
 11
1.90088
 21
8.094366000000001
 31
0.0
  0
LINE
  5
183
330
23A5
100
AcDbEntity
  8
0
100
AcDbLine
 10
1.325608
 20
8.731510999999999
 30
0.0
 11
1.96899
 21
8.787203
 31
0.0
  0
LINE
  5
184
330
23A5
100
AcDbEntity
  8
0
100
AcDbLine
 10
1.96899
 20
8.787203
 30
0.0
 11
2.158237
 21
8.631764
 31
0.0
  0
LINE
  5
185
330
23A5
100
AcDbEntity
  8
0
100
AcDbLine
 10
1.325608
 20
8.731510999999999
 30
0.0
 11
1.325608
 21
8.388149
 31
0.0
  0
LINE
  5
186
330
23A5
100
AcDbEntity
  8
0
100
AcDbLine
 10
1.325608
 20
7.892281
 30
0.0
 11
1.520894
 21
7.601132000000001
 31
0.0
  0
LINE
  5
187
330
23A5
100
AcDbEntity
  8
0
100
AcDbLine
 10
2.053573
 20
8.362316
 30
0.0
 11
1.657997
 21
8.760282999999999
 31
0.0
  0
LINE
  5
2BD
330
23A5
100
AcDbEntity
  8
0
100
AcDbLine
 10
1.325608
 20
8.388149
 30
0.0
 11
1.427808
 21
8.281323
 31
0.0
  0
LINE
  5
2BE
330
23A5
100
AcDbEntity
  8
0
100
AcDbLine
 10
1.427808
 20
8.281323
 30
0.0
 11
1.182262
 21
8.227499
 31
0.0
  0
LINE
  5
2BF
330
23A5
100
AcDbEntity
  8
0
100
AcDbLine
 10
1.182262
 20
8.227499
 30
0.0
 11
1.325608
 21
8.105539
 31
0.0
  0
LINE
  5
2C0
330
23A5
100
AcDbEntity
  8
0
100
AcDbLine
 10
1.325608
 20
8.105539
 30
0.0
 11
1.325608
 21
7.892281
 31
0.0
  0
LINE
  5
2C1
330
23A5
100
AcDbEntity
  8
0
100
AcDbLine
 10
2.378646
 20
9.166172999999999
 30
0.0
 11
2.392786
 21
8.944276
 31
0.0
  0
LINE
  5
2C2
330
23A5
100
AcDbEntity
  8
0
100
AcDbLine
 10
2.392786
 20
8.944276
 30
0.0
 11
2.240179
 21
9.087419000000001
 31
0.0
  0
LINE
  5
2C3
330
23A5
100
AcDbEntity
  8
0
100
AcDbLine
 10
2.240179
 20
9.087419000000001
 30
0.0
 11
2.19814
 21
8.916803999999999
 31
0.0
  0
LINE
  5
2C4
330
23A5
100
AcDbEntity
  8
0
100
AcDbLine
 10
2.19814
 20
8.916803999999999
 30
0.0
 11
2.112856
 21
8.798985
 31
0.0
  0
LINE
  5
2C5
330
23A5
100
AcDbEntity
  8
0
100
AcDbLine
 10
2.383225
 20
9.094325999999999
 30
0.0
 11
2.240179
 21
9.087419000000001
 31
0.0
  0
LINE
  5
2C7
330
23A5
100
AcDbEntity
  8
0
100
AcDbLine
 10
3.507859
 20
6.343382
 30
0.0
 11
3.507859
 21
5.009008000000001
 31
0.0
  0
LINE
  5
2C8
330
23A5
100
AcDbEntity
  8
0
100
AcDbLine
 10
3.984771
 20
6.420221
 30
0.0
 11
3.984771
 21
5.103668
 31
0.0
  0
LINE
  5
B6B
330
23A5
100
AcDbEntity
  8
0
100
AcDbLine
 10
3.011046
 20
5.079409
 30
0.0
 11
3.083897
 21
4.924859
 31
0.0
  0
LINE
  5
B6C
330
23A5
100
AcDbEntity
  8
0
100
AcDbLine
 10
3.011046
 20
5.394246
 30
0.0
 11
3.044224
 21
5.255366
 31
0.0
  0
LINE
  5
B6D
330
23A5
100
AcDbEntity
  8
0
100
AcDbLine
 10
3.044224
 20
5.255366
 30
0.0
 11
3.090414
 21
5.215038
 31
0.0
  0
LINE
  5
B6E
330
23A5
100
AcDbEntity
  8
0
100
AcDbLine
 10
3.090414
 20
5.215038
 30
0.0
 11
3.071207
 21
5.1678
 31
0.0
  0
LINE
  5
B6F
330
23A5
100
AcDbEntity
  8
0
100
AcDbLine
 10
3.071207
 20
5.1678
 30
0.0
 11
3.140983
 21
4.936189
 31
0.0
  0
LINE
  5
B70
330
23A5
100
AcDbEntity
  8
0
100
AcDbLine
 10
3.011046
 20
5.578331
 30
0.0
 11
3.053576
 21
5.40422
 31
0.0
  0
LINE
  5
B71
330
23A5
100
AcDbEntity
  8
0
100
AcDbLine
 10
3.053576
 20
5.40422
 30
0.0
 11
3.147007
 21
5.34569
 31
0.0
  0
LINE
  5
B72
330
23A5
100
AcDbEntity
  8
0
100
AcDbLine
 10
3.147007
 20
5.34569
 30
0.0
 11
3.150783
 21
5.222964
 31
0.0
  0
LINE
  5
B73
330
23A5
100
AcDbEntity
  8
0
100
AcDbLine
 10
3.150783
 20
5.222964
 30
0.0
 11
3.227676
 21
4.953396
 31
0.0
  0
LINE
  5
B74
330
23A5
100
AcDbEntity
  8
0
100
AcDbLine
 10
3.011046
 20
5.89618
 30
0.0
 11
3.063139
 21
5.657685
 31
0.0
  0
LINE
  5
B75
330
23A5
100
AcDbEntity
  8
0
100
AcDbLine
 10
3.063139
 20
5.657685
 30
0.0
 11
3.110133
 21
5.516766000000001
 31
0.0
  0
LINE
  5
B76
330
23A5
100
AcDbEntity
  8
0
100
AcDbLine
 10
3.110133
 20
5.516766000000001
 30
0.0
 11
3.209501
 21
5.409941000000001
 31
0.0
  0
LINE
  5
B77
330
23A5
100
AcDbEntity
  8
0
100
AcDbLine
 10
3.209501
 20
5.409941000000001
 30
0.0
 11
3.333713
 21
4.974443
 31
0.0
  0
LINE
  5
B78
330
23A5
100
AcDbEntity
  8
0
100
AcDbLine
 10
3.062713
 20
6.271661
 30
0.0
 11
3.132139
 21
5.95529
 31
0.0
  0
LINE
  5
B79
330
23A5
100
AcDbEntity
  8
0
100
AcDbLine
 10
3.132139
 20
5.95529
 30
0.0
 11
3.073597
 21
5.855825
 31
0.0
  0
LINE
  5
B7A
330
23A5
100
AcDbEntity
  8
0
100
AcDbLine
 10
3.073597
 20
5.855825
 30
0.0
 11
3.169808
 21
5.6796
 31
0.0
  0
LINE
  5
B7B
330
23A5
100
AcDbEntity
  8
0
100
AcDbLine
 10
3.169808
 20
5.6796
 30
0.0
 11
3.171623
 21
5.582025
 31
0.0
  0
LINE
  5
B7C
330
23A5
100
AcDbEntity
  8
0
100
AcDbLine
 10
3.171623
 20
5.582025
 30
0.0
 11
3.267857
 21
5.416865000000001
 31
0.0
  0
LINE
  5
B7D
330
23A5
100
AcDbEntity
  8
0
100
AcDbLine
 10
3.267857
 20
5.416865000000001
 30
0.0
 11
3.369897
 21
4.981625
 31
0.0
  0
LINE
  5
B7E
330
23A5
100
AcDbEntity
  8
0
100
AcDbLine
 10
3.141902
 20
6.28442
 30
0.0
 11
3.2267
 21
5.959124
 31
0.0
  0
LINE
  5
B7F
330
23A5
100
AcDbEntity
  8
0
100
AcDbLine
 10
3.2267
 20
5.959124
 30
0.0
 11
3.176074
 21
5.794258999999999
 31
0.0
  0
LINE
  5
B80
330
23A5
100
AcDbEntity
  8
0
100
AcDbLine
 10
3.176074
 20
5.794258999999999
 30
0.0
 11
3.368344
 21
5.366368000000001
 31
0.0
  0
LINE
  5
B81
330
23A5
100
AcDbEntity
  8
0
100
AcDbLine
 10
3.368344
 20
5.366368000000001
 30
0.0
 11
3.349032
 21
5.266824
 31
0.0
  0
LINE
  5
B82
330
23A5
100
AcDbEntity
  8
0
100
AcDbLine
 10
3.349032
 20
5.266824
 30
0.0
 11
3.435875
 21
4.994721
 31
0.0
  0
LINE
  5
B83
330
23A5
100
AcDbEntity
  8
0
100
AcDbLine
 10
3.23571
 20
6.299534
 30
0.0
 11
3.349392
 21
5.9458
 31
0.0
  0
LINE
  5
B84
330
23A5
100
AcDbEntity
  8
0
100
AcDbLine
 10
3.349392
 20
5.9458
 30
0.0
 11
3.300905
 21
5.844303
 31
0.0
  0
LINE
  5
B85
330
23A5
100
AcDbEntity
  8
0
100
AcDbLine
 10
3.300905
 20
5.844303
 30
0.0
 11
3.404006
 21
5.592622
 31
0.0
  0
LINE
  5
B86
330
23A5
100
AcDbEntity
  8
0
100
AcDbLine
 10
3.404006
 20
5.592622
 30
0.0
 11
3.423557
 21
5.310933
 31
0.0
  0
LINE
  5
B87
330
23A5
100
AcDbEntity
  8
0
100
AcDbLine
 10
3.423557
 20
5.310933
 30
0.0
 11
3.507859
 21
5.145802
 31
0.0
  0
LINE
  5
B88
330
23A5
100
AcDbEntity
  8
0
100
AcDbLine
 10
3.340242
 20
6.316376
 30
0.0
 11
3.471947
 21
5.864076
 31
0.0
  0
LINE
  5
B89
330
23A5
100
AcDbEntity
  8
0
100
AcDbLine
 10
3.471947
 20
5.864076
 30
0.0
 11
3.426499
 21
5.773638
 31
0.0
  0
LINE
  5
B8A
330
23A5
100
AcDbEntity
  8
0
100
AcDbLine
 10
3.426499
 20
5.773638
 30
0.0
 11
3.507859
 21
5.533075
 31
0.0
  0
LINE
  5
B8B
330
23A5
100
AcDbEntity
  8
0
100
AcDbLine
 10
3.42655
 20
6.330282
 30
0.0
 11
3.507859
 21
6.054126
 31
0.0
  0
LINE
  5
B8C
330
23A5
100
AcDbEntity
  8
0
100
AcDbLine
 10
3.582988
 20
6.355487
 30
0.0
 11
3.55683
 21
6.057037
 31
0.0
  0
LINE
  5
B8D
330
23A5
100
AcDbEntity
  8
0
100
AcDbLine
 10
3.55683
 20
6.057037
 30
0.0
 11
3.616962000000001
 21
5.947274
 31
0.0
  0
LINE
  5
B8E
330
23A5
100
AcDbEntity
  8
0
100
AcDbLine
 10
3.616962000000001
 20
5.947274
 30
0.0
 11
3.569546
 21
5.877962
 31
0.0
  0
LINE
  5
B8F
330
23A5
100
AcDbEntity
  8
0
100
AcDbLine
 10
3.569546
 20
5.877962
 30
0.0
 11
3.585355
 21
5.7361
 31
0.0
  0
LINE
  5
B90
330
23A5
100
AcDbEntity
  8
0
100
AcDbLine
 10
3.585355
 20
5.7361
 30
0.0
 11
3.553743
 21
5.522915
 31
0.0
  0
LINE
  5
B91
330
23A5
100
AcDbEntity
  8
0
100
AcDbLine
 10
3.553743
 20
5.522915
 30
0.0
 11
3.507859
 21
5.31182
 31
0.0
  0
LINE
  5
B92
330
23A5
100
AcDbEntity
  8
0
100
AcDbLine
 10
3.68944
 20
6.372637999999999
 30
0.0
 11
3.631103
 21
5.976416
 31
0.0
  0
LINE
  5
B93
330
23A5
100
AcDbEntity
  8
0
100
AcDbLine
 10
3.631103
 20
5.976416
 30
0.0
 11
3.672159
 21
5.883791
 31
0.0
  0
LINE
  5
B94
330
23A5
100
AcDbEntity
  8
0
100
AcDbLine
 10
3.672159
 20
5.883791
 30
0.0
 11
3.677992
 21
5.783191
 31
0.0
  0
LINE
  5
B95
330
23A5
100
AcDbEntity
  8
0
100
AcDbLine
 10
3.677992
 20
5.783191
 30
0.0
 11
3.655783
 21
5.744005000000001
 31
0.0
  0
LINE
  5
B96
330
23A5
100
AcDbEntity
  8
0
100
AcDbLine
 10
3.655783
 20
5.744005000000001
 30
0.0
 11
3.64416
 21
5.466403
 31
0.0
  0
LINE
  5
B97
330
23A5
100
AcDbEntity
  8
0
100
AcDbLine
 10
3.64416
 20
5.466403
 30
0.0
 11
3.602862000000001
 21
5.438321
 31
0.0
  0
LINE
  5
B98
330
23A5
100
AcDbEntity
  8
0
100
AcDbLine
 10
3.602862000000001
 20
5.438321
 30
0.0
 11
3.559328
 21
5.019224
 31
0.0
  0
LINE
  5
B99
330
23A5
100
AcDbEntity
  8
0
100
AcDbLine
 10
3.771491
 20
6.385858
 30
0.0
 11
3.74909
 21
6.124045
 31
0.0
  0
LINE
  5
B9A
330
23A5
100
AcDbEntity
  8
0
100
AcDbLine
 10
3.74909
 20
6.124045
 30
0.0
 11
3.727638
 21
5.961133
 31
0.0
  0
LINE
  5
B9B
330
23A5
100
AcDbEntity
  8
0
100
AcDbLine
 10
3.727638
 20
5.961133
 30
0.0
 11
3.774421
 21
5.715602
 31
0.0
  0
LINE
  5
B9C
330
23A5
100
AcDbEntity
  8
0
100
AcDbLine
 10
3.774421
 20
5.715602
 30
0.0
 11
3.720583
 21
5.454178
 31
0.0
  0
LINE
  5
B9D
330
23A5
100
AcDbEntity
  8
0
100
AcDbLine
 10
3.720583
 20
5.454178
 30
0.0
 11
3.715216
 21
5.286205000000001
 31
0.0
  0
LINE
  5
B9E
330
23A5
100
AcDbEntity
  8
0
100
AcDbLine
 10
3.715216
 20
5.286205000000001
 30
0.0
 11
3.677947
 21
5.261133
 31
0.0
  0
LINE
  5
B9F
330
23A5
100
AcDbEntity
  8
0
100
AcDbLine
 10
3.677947
 20
5.261133
 30
0.0
 11
3.663624
 21
5.039925
 31
0.0
  0
LINE
  5
BA0
330
23A5
100
AcDbEntity
  8
0
100
AcDbLine
 10
3.879821
 20
6.403312000000001
 30
0.0
 11
3.856685
 21
6.106728
 31
0.0
  0
LINE
  5
BA1
330
23A5
100
AcDbEntity
  8
0
100
AcDbLine
 10
3.856685
 20
6.106728
 30
0.0
 11
3.811886
 21
5.838245
 31
0.0
  0
LINE
  5
BA2
330
23A5
100
AcDbEntity
  8
0
100
AcDbLine
 10
3.811886
 20
5.838245
 30
0.0
 11
3.840802
 21
5.711444999999999
 31
0.0
  0
LINE
  5
BA3
330
23A5
100
AcDbEntity
  8
0
100
AcDbLine
 10
3.840802
 20
5.711444999999999
 30
0.0
 11
3.862587
 21
5.540399
 31
0.0
  0
LINE
  5
BA4
330
23A5
100
AcDbEntity
  8
0
100
AcDbLine
 10
3.862587
 20
5.540399
 30
0.0
 11
3.859252
 21
5.382480999999999
 31
0.0
  0
LINE
  5
BA5
330
23A5
100
AcDbEntity
  8
0
100
AcDbLine
 10
3.859252
 20
5.382480999999999
 30
0.0
 11
3.844951
 21
5.273873
 31
0.0
  0
LINE
  5
BA6
330
23A5
100
AcDbEntity
  8
0
100
AcDbLine
 10
3.844951
 20
5.273873
 30
0.0
 11
3.818654
 21
5.202508
 31
0.0
  0
LINE
  5
BA7
330
23A5
100
AcDbEntity
  8
0
100
AcDbLine
 10
3.818654
 20
5.202508
 30
0.0
 11
3.760262
 21
5.177478
 31
0.0
  0
LINE
  5
BA8
330
23A5
100
AcDbEntity
  8
0
100
AcDbLine
 10
3.760262
 20
5.177478
 30
0.0
 11
3.765018
 21
5.06005
 31
0.0
  0
LINE
  5
BA9
330
23A5
100
AcDbEntity
  8
0
100
AcDbLine
 10
3.984771
 20
6.167853
 30
0.0
 11
3.897251
 21
5.770679
 31
0.0
  0
LINE
  5
BAA
330
23A5
100
AcDbEntity
  8
0
100
AcDbLine
 10
3.897251
 20
5.770679
 30
0.0
 11
3.921945
 21
5.545309
 31
0.0
  0
LINE
  5
BAB
330
23A5
100
AcDbEntity
  8
0
100
AcDbLine
 10
3.921945
 20
5.545309
 30
0.0
 11
3.939425
 21
5.234454
 31
0.0
  0
LINE
  5
BAC
330
23A5
100
AcDbEntity
  8
0
100
AcDbLine
 10
3.939425
 20
5.234454
 30
0.0
 11
3.882448
 21
5.083358000000001
 31
0.0
  0
LINE
  5
BAD
330
23A5
100
AcDbEntity
  8
0
100
AcDbLine
 10
3.984771
 20
5.464707
 30
0.0
 11
4.065404
 21
5.354907
 31
0.0
  0
LINE
  5
BAE
330
23A5
100
AcDbEntity
  8
0
100
AcDbLine
 10
4.065404
 20
5.354907
 30
0.0
 11
4.106729000000001
 21
5.127875
 31
0.0
  0
LINE
  5
BAF
330
23A5
100
AcDbEntity
  8
0
100
AcDbLine
 10
4.195548000000001
 20
5.145504
 30
0.0
 11
4.179148000000001
 21
5.393908000000001
 31
0.0
  0
LINE
  5
BB0
330
23A5
100
AcDbEntity
  8
0
100
AcDbLine
 10
4.179148000000001
 20
5.393908000000001
 30
0.0
 11
4.102998
 21
5.541926999999999
 31
0.0
  0
LINE
  5
BB1
330
23A5
100
AcDbEntity
  8
0
100
AcDbLine
 10
4.102998
 20
5.541926999999999
 30
0.0
 11
4.051963
 21
5.673801999999999
 31
0.0
  0
LINE
  5
BB2
330
23A5
100
AcDbEntity
  8
0
100
AcDbLine
 10
4.051963
 20
5.673801999999999
 30
0.0
 11
4.103523
 21
5.802452
 31
0.0
  0
LINE
  5
BB3
330
23A5
100
AcDbEntity
  8
0
100
AcDbLine
 10
4.103523
 20
5.802452
 30
0.0
 11
4.066424
 21
5.861873999999999
 31
0.0
  0
LINE
  5
BB4
330
23A5
100
AcDbEntity
  8
0
100
AcDbLine
 10
4.066424
 20
5.861873999999999
 30
0.0
 11
3.984771
 21
6.105459
 31
0.0
  0
LINE
  5
BB5
330
23A5
100
AcDbEntity
  8
0
100
AcDbLine
 10
4.068080999999999
 20
6.433644
 30
0.0
 11
4.106937
 21
5.9996
 31
0.0
  0
LINE
  5
BB6
330
23A5
100
AcDbEntity
  8
0
100
AcDbLine
 10
4.106937
 20
5.9996
 30
0.0
 11
4.171083
 21
5.884799
 31
0.0
  0
LINE
  5
BB7
330
23A5
100
AcDbEntity
  8
0
100
AcDbLine
 10
4.171083
 20
5.884799
 30
0.0
 11
4.132624
 21
5.768193
 31
0.0
  0
LINE
  5
BB8
330
23A5
100
AcDbEntity
  8
0
100
AcDbLine
 10
4.132624
 20
5.768193
 30
0.0
 11
4.271591
 21
5.160597
 31
0.0
  0
LINE
  5
BB9
330
23A5
100
AcDbEntity
  8
0
100
AcDbLine
 10
4.14729
 20
6.446406
 30
0.0
 11
4.17661
 21
6.132238
 31
0.0
  0
LINE
  5
BBA
330
23A5
100
AcDbEntity
  8
0
100
AcDbLine
 10
4.17661
 20
6.132238
 30
0.0
 11
4.176236
 21
5.946148
 31
0.0
  0
LINE
  5
BBB
330
23A5
100
AcDbEntity
  8
0
100
AcDbLine
 10
4.176236
 20
5.946148
 30
0.0
 11
4.258468
 21
5.821251999999999
 31
0.0
  0
LINE
  5
BBC
330
23A5
100
AcDbEntity
  8
0
100
AcDbLine
 10
4.258468
 20
5.821251999999999
 30
0.0
 11
4.231031
 21
5.683501000000001
 31
0.0
  0
LINE
  5
BBD
330
23A5
100
AcDbEntity
  8
0
100
AcDbLine
 10
4.231031
 20
5.683501000000001
 30
0.0
 11
4.285018
 21
5.518426
 31
0.0
  0
LINE
  5
BBE
330
23A5
100
AcDbEntity
  8
0
100
AcDbLine
 10
4.285018
 20
5.518426
 30
0.0
 11
4.364653
 21
5.179068
 31
0.0
  0
LINE
  5
BBF
330
23A5
100
AcDbEntity
  8
0
100
AcDbLine
 10
4.259901999999999
 20
6.46455
 30
0.0
 11
4.277286
 21
6.175288
 31
0.0
  0
LINE
  5
BC0
330
23A5
100
AcDbEntity
  8
0
100
AcDbLine
 10
4.277286
 20
6.175288
 30
0.0
 11
4.299124
 21
6.030396
 31
0.0
  0
LINE
  5
BC1
330
23A5
100
AcDbEntity
  8
0
100
AcDbLine
 10
4.299124
 20
6.030396
 30
0.0
 11
4.354207
 21
5.910584
 31
0.0
  0
LINE
  5
BC2
330
23A5
100
AcDbEntity
  8
0
100
AcDbLine
 10
4.354207
 20
5.910584
 30
0.0
 11
4.374993
 21
5.742559
 31
0.0
  0
LINE
  5
BC3
330
23A5
100
AcDbEntity
  8
0
100
AcDbLine
 10
4.374993
 20
5.742559
 30
0.0
 11
4.364719
 21
5.635955
 31
0.0
  0
LINE
  5
BC4
330
23A5
100
AcDbEntity
  8
0
100
AcDbLine
 10
4.364719
 20
5.635955
 30
0.0
 11
4.441674
 21
5.194356
 31
0.0
  0
LINE
  5
BC5
330
23A5
100
AcDbEntity
  8
0
100
AcDbLine
 10
4.353694
 20
6.479662
 30
0.0
 11
4.373914
 21
6.206277
 31
0.0
  0
LINE
  5
BC6
330
23A5
100
AcDbEntity
  8
0
100
AcDbLine
 10
4.373914
 20
6.206277
 30
0.0
 11
4.406578
 21
5.942667
 31
0.0
  0
LINE
  5
BC7
330
23A5
100
AcDbEntity
  8
0
100
AcDbLine
 10
4.406578
 20
5.942667
 30
0.0
 11
4.503267
 21
5.701072
 31
0.0
  0
LINE
  5
BC8
330
23A5
100
AcDbEntity
  8
0
100
AcDbLine
 10
4.415179
 20
6.489568
 30
0.0
 11
4.435398999999999
 21
6.268518
 31
0.0
  0
LINE
  5
BC9
330
23A5
100
AcDbEntity
  8
0
100
AcDbLine
 10
4.435398999999999
 20
6.268518
 30
0.0
 11
4.503267
 21
6.080296
 31
0.0
  0
LINE
  5
BCA
330
23A5
100
AcDbEntity
  8
0
100
AcDbLine
 10
2.320858
 20
9.091315
 30
0.0
 11
2.388365
 21
9.013655999999999
 31
0.0
  0
LINE
  5
BCB
330
23A5
100
AcDbEntity
  8
0
100
AcDbLine
 10
2.648692
 20
7.477167999999999
 30
0.0
 11
4.020709
 21
7.638371
 31
0.0
  0
LINE
  5
BCC
330
23A5
100
AcDbEntity
  8
0
100
AcDbLine
 10
2.907911
 20
6.814805000000001
 30
0.0
 11
4.295674
 21
6.983916000000001
 31
0.0
  0
LINE
  5
BCD
330
23A5
100
AcDbEntity
  8
0
100
AcDbLine
 10
2.919754
 20
6.753497
 30
0.0
 11
4.297733999999999
 21
6.915369
 31
0.0
  0
LINE
  5
BCE
330
23A5
100
AcDbEntity
  8
0
100
AcDbLine
 10
3.348129
 20
6.803819
 30
0.0
 11
3.507859
 21
6.343382
 31
0.0
  0
LINE
  5
BCF
330
23A5
100
AcDbEntity
  8
0
100
AcDbLine
 10
3.821504
 20
6.859425999999999
 30
0.0
 11
3.984771
 21
6.420221
 31
0.0
  0
LINE
  5
BD0
330
23A5
100
AcDbEntity
  8
0
100
AcDbLine
 10
2.568466
 20
7.417289
 30
0.0
 11
2.551132
 21
7.376899000000001
 31
0.0
  0
LINE
  5
BD1
330
23A5
100
AcDbEntity
  8
0
100
AcDbLine
 10
2.82735
 20
6.754135000000001
 30
0.0
 11
2.811271
 21
6.715764999999999
 31
0.0
  0
ARC
  5
BD3
330
23A5
100
AcDbEntity
  8
0
100
AcDbCircle
 10
2.660361
 20
7.377851
 30
0.0
 40
0.1
100
AcDbArc
 50
96.70115800000001
 51
156.772999
  0
ARC
  5
BD4
330
23A5
100
AcDbEntity
  8
0
100
AcDbCircle
 10
2.91958
 20
6.715488000000001
 30
0.0
 40
0.1
100
AcDbArc
 50
96.70115800000001
 51
157.264869
  0
LINE
  5
BD5
330
23A5
100
AcDbEntity
  8
0
100
AcDbLine
 10
2.879474
 20
6.723163
 30
0.0
 11
2.874397
 21
6.711047
 31
0.0
  0
ARC
  5
BD6
330
23A5
100
AcDbEntity
  8
0
100
AcDbCircle
 10
2.925589
 20
6.703839
 30
0.0
 40
0.05
100
AcDbArc
 50
96.70115800000001
 51
157.264869
  0
LINE
  5
BD8
330
23A5
100
AcDbEntity
  8
0
100
AcDbLine
 10
2.864791
 20
6.696208
 30
0.0
 11
2.63807
 21
6.367694
 31
0.0
  0
LINE
  5
BD9
330
23A5
100
AcDbEntity
  8
0
100
AcDbLine
 10
2.63807
 20
6.367694
 30
0.0
 11
2.208584
 21
6.323255000000001
 31
0.0
  0
LINE
  5
BDA
330
23A5
100
AcDbEntity
  8
0
100
AcDbLine
 10
2.19941
 20
6.322305
 30
0.0
 11
2.19941
 21
6.322305
 31
0.0
  0
LINE
  5
BDB
330
23A5
100
AcDbEntity
  8
0
100
AcDbLine
 10
2.811271
 20
6.715764999999999
 30
0.0
 11
2.204947
 21
6.412957
 31
0.0
  0
LINE
  5
BDC
330
23A5
100
AcDbEntity
  8
0
100
AcDbLine
 10
2.672037
 20
6.415883
 30
0.0
 11
2.215994
 21
6.368696
 31
0.0
  0
LINE
  5
BDD
330
23A5
100
AcDbEntity
  8
0
100
AcDbLine
 10
2.850621
 20
6.685639
 30
0.0
 11
2.215994
 21
6.368696
 31
0.0
  0
LINE
  5
BDE
330
23A5
100
AcDbEntity
  8
0
100
AcDbLine
 10
2.215994
 20
6.368696
 30
0.0
 11
2.208584
 21
6.323255000000001
 31
0.0
  0
LINE
  5
BE3
330
23A5
100
AcDbEntity
  8
0
100
AcDbLine
 10
2.215994
 20
6.368696
 30
0.0
 11
2.04397
 21
7.057925
 31
0.0
  0
LINE
  5
BE4
330
23A5
100
AcDbEntity
  8
0
100
AcDbLine
 10
2.208584
 20
6.323255000000001
 30
0.0
 11
2.036211
 21
7.010344
 31
0.0
  0
LINE
  5
BE6
330
23A5
100
AcDbEntity
  8
0
100
AcDbLine
 10
2.04397
 20
7.057925
 30
0.0
 11
2.036211
 21
7.010344
 31
0.0
  0
ARC
  5
BE7
330
23A5
100
AcDbEntity
  8
0
100
AcDbCircle
 10
2.828282
 20
6.73037
 30
0.0
 40
0.05
100
AcDbArc
 50
296.538275
 51
337.264869
  0
LINE
  5
BE9
330
23A5
100
AcDbEntity
  8
0
100
AcDbLine
 10
2.49123
 20
7.377903999999999
 30
0.0
 11
2.345528
 21
7.285736999999999
 31
0.0
  0
LINE
  5
BEA
330
23A5
100
AcDbEntity
  8
0
100
AcDbLine
 10
2.551132
 20
7.376899000000001
 30
0.0
 11
2.34835
 21
7.249361
 31
0.0
  0
LINE
  5
BEB
330
23A5
100
AcDbEntity
  8
0
100
AcDbLine
 10
2.145474
 20
7.159186999999999
 30
0.0
 11
2.04397
 21
7.057925
 31
0.0
  0
LINE
  5
BEC
330
23A5
100
AcDbEntity
  8
0
100
AcDbLine
 10
2.221649
 20
7.207374000000001
 30
0.0
 11
1.892298
 21
8.165716999999999
 31
0.0
  0
LINE
  5
BED
330
23A5
100
AcDbEntity
  8
0
100
AcDbLine
 10
2.277464
 20
6.620898
 30
0.0
 11
2.187622
 21
6.963659
 31
0.0
  0
LINE
  5
BEE
330
23A5
100
AcDbEntity
  8
0
100
AcDbLine
 10
2.277464
 20
6.620898
 30
0.0
 11
2.518921
 21
6.642542
 31
0.0
  0
ARC
  5
C23
330
23A5
100
AcDbEntity
  8
0
100
AcDbCircle
 10
2.325197
 20
6.800994
 30
0.0
 40
0.250272
100
AcDbArc
 50
320.719346
 51
42.523339
  0
ARC
  5
C24
330
23A5
100
AcDbEntity
  8
0
100
AcDbCircle
 10
2.08374
 20
6.77935
 30
0.0
 40
0.250272
100
AcDbArc
 50
320.719346
 51
36.378161
  0
ARC
  5
C25
330
23A5
100
AcDbEntity
  8
0
100
AcDbCircle
 10
2.149147
 20
6.77935
 30
0.0
 40
0.250272
100
AcDbArc
 50
359.596447
 51
35.179658
  0
ARC
  5
C26
330
23A5
100
AcDbEntity
  8
0
100
AcDbCircle
 10
2.258821
 20
6.77935
 30
0.0
 40
0.250272
100
AcDbArc
 50
356.666401
 51
36.378161
  0
ARC
  5
C27
330
23A5
100
AcDbEntity
  8
0
100
AcDbCircle
 10
2.455957
 20
6.787561
 30
0.0
 40
0.057418
100
AcDbArc
 50
190.003351
 51
336.642464
  0
LINE
  5
C31
330
23A5
100
AcDbEntity
  8
0
100
AcDbLine
 10
2.211152
 20
7.122635000000001
 30
0.0
 11
2.211152
 21
7.028085000000001
 31
0.0
  0
LINE
  5
C32
330
23A5
100
AcDbEntity
  8
0
100
AcDbLine
 10
2.300395
 20
6.982636
 30
0.0
 11
2.300395
 21
7.086239999999999
 31
0.0
  0
LINE
  5
C33
330
23A5
100
AcDbEntity
  8
0
100
AcDbLine
 10
2.42333
 20
7.090019
 30
0.0
 11
2.42333
 21
6.989424000000001
 31
0.0
  0
LINE
  5
C35
330
23A5
100
AcDbEntity
  8
0
100
AcDbLine
 10
2.480754
 20
7.134163
 30
0.0
 11
2.480754
 21
7.043639
 31
0.0
  0
LINE
  5
C36
330
23A5
100
AcDbEntity
  8
0
100
AcDbLine
 10
2.211152
 20
7.028085000000001
 30
0.0
 11
2.300395
 21
6.982636
 31
0.0
  0
LINE
  5
C37
330
23A5
100
AcDbEntity
  8
0
100
AcDbLine
 10
2.300395
 20
6.982636
 30
0.0
 11
2.42333
 21
6.989424000000001
 31
0.0
  0
LINE
  5
C39
330
23A5
100
AcDbEntity
  8
0
100
AcDbLine
 10
2.42333
 20
6.989424000000001
 30
0.0
 11
2.480754
 21
7.043639
 31
0.0
  0
ARC
  5
C3A
330
23A5
100
AcDbEntity
  8
0
100
AcDbCircle
 10
2.182346
 20
6.924383
 30
0.0
 40
0.200333
100
AcDbArc
 50
53.895149
 51
81.73258800000001
  0
ARC
  5
C3B
330
23A5
100
AcDbEntity
  8
0
100
AcDbCircle
 10
2.442208
 20
4.474179
 30
0.0
 40
2.615908
100
AcDbArc
 50
90.41349699999999
 51
93.10763700000001
  0
ARC
  5
C3C
330
23A5
100
AcDbEntity
  8
0
100
AcDbCircle
 10
2.498529
 20
7.051618
 30
0.0
 40
0.084437
100
AcDbArc
 50
102.152139
 51
152.94857
  0
LINE
  5
C73
330
23A5
100
AcDbEntity
  8
0
100
AcDbLine
 10
2.422675
 20
7.222508
 30
0.0
 11
2.422675
 21
7.151094000000001
 31
0.0
  0
LINE
  5
C74
330
23A5
100
AcDbEntity
  8
0
100
AcDbLine
 10
2.277433
 20
7.216294
 30
0.0
 11
2.277433
 21
7.144880000000001
 31
0.0
  0
LINE
  5
C84
330
23A5
100
AcDbEntity
  8
0
100
AcDbLine
 10
2.345528
 20
7.285736999999999
 30
0.0
 11
2.145474
 21
7.159186999999999
 31
0.0
  0
LINE
  5
C85
330
23A5
100
AcDbEntity
  8
0
100
AcDbLine
 10
2.277433
 20
7.204758
 30
0.0
 11
2.04397
 21
7.057925
 31
0.0
  0
LINE
  5
C86
330
23A5
100
AcDbEntity
  8
0
100
AcDbLine
 10
2.211152
 20
7.122635000000001
 30
0.0
 11
2.277433
 21
7.156784
 31
0.0
  0
LINE
  5
C87
330
23A5
100
AcDbEntity
  8
0
100
AcDbLine
 10
2.480754
 20
7.134163
 30
0.0
 11
2.422675
 21
7.158369
 31
0.0
  0
LINE
  5
D2A
330
23A5
100
AcDbEntity
  8
0
100
AcDbLine
 10
4.302914
 20
7.457996000000001
 30
0.0
 11
4.302914
 21
7.386583
 31
0.0
  0
LINE
  5
D32
330
23A5
100
AcDbEntity
  8
0
100
AcDbLine
 10
4.137747
 20
7.382006
 30
0.0
 11
4.157672
 21
7.392272999999999
 31
0.0
  0
LINE
  5
D33
330
23A5
100
AcDbEntity
  8
0
100
AcDbLine
 10
4.157672
 20
7.451782000000001
 30
0.0
 11
4.157672
 21
7.380367999999999
 31
0.0
  0
ARC
  5
D34
330
23A5
100
AcDbEntity
  8
0
100
AcDbCircle
 10
4.062584999999999
 20
7.159872
 30
0.0
 40
0.200333
100
AcDbArc
 50
53.895149
 51
62.02338100000001
  0
LINE
  5
D37
330
23A5
100
AcDbEntity
  8
0
100
AcDbLine
 10
4.180635
 20
7.278958
 30
0.0
 11
4.180635
 21
7.321729
 31
0.0
  0
ARC
  5
D38
330
23A5
100
AcDbEntity
  8
0
100
AcDbCircle
 10
4.322448000000001
 20
4.709668
 30
0.0
 40
2.615908
100
AcDbArc
 50
90.41349699999999
 51
93.10763700000001
  0
ARC
  5
D39
330
23A5
100
AcDbEntity
  8
0
100
AcDbCircle
 10
4.378769
 20
7.287107000000001
 30
0.0
 40
0.084437
100
AcDbArc
 50
102.152139
 51
152.94857
  0
LINE
  5
D3A
330
23A5
100
AcDbEntity
  8
0
100
AcDbLine
 10
4.360994
 20
7.369650999999999
 30
0.0
 11
4.302914
 21
7.393858
 31
0.0
  0
LINE
  5
D3B
330
23A5
100
AcDbEntity
  8
0
100
AcDbLine
 10
4.360994
 20
7.369650999999999
 30
0.0
 11
4.360994
 21
7.279127000000001
 31
0.0
  0
LINE
  5
D3C
330
23A5
100
AcDbEntity
  8
0
100
AcDbLine
 10
4.303569
 20
7.224913000000001
 30
0.0
 11
4.360994
 21
7.279127000000001
 31
0.0
  0
LINE
  5
D3D
330
23A5
100
AcDbEntity
  8
0
100
AcDbLine
 10
4.303569
 20
7.325508
 30
0.0
 11
4.303569
 21
7.224913000000001
 31
0.0
  0
LINE
  5
D3E
330
23A5
100
AcDbEntity
  8
0
100
AcDbLine
 10
4.205384
 20
7.219491000000001
 30
0.0
 11
4.303569
 21
7.224913000000001
 31
0.0
  0
ARC
  5
D61
330
23A5
100
AcDbEntity
  8
0
100
AcDbCircle
 10
4.205437
 20
7.036482
 30
0.0
 40
0.250272
100
AcDbArc
 50
323.28862
 51
42.523339
  0
ARC
  5
D62
330
23A5
100
AcDbEntity
  8
0
100
AcDbCircle
 10
4.139061
 20
7.014839
 30
0.0
 40
0.250272
100
AcDbArc
 50
356.666401
 51
39.013703
  0
ARC
  5
D63
330
23A5
100
AcDbEntity
  8
0
100
AcDbCircle
 10
3.949057
 20
6.971858
 30
0.0
 40
0.340874
100
AcDbArc
 50
9.347118
 51
33.304947
  0
ARC
  5
D65
330
23A5
100
AcDbEntity
  8
0
100
AcDbCircle
 10
4.336197
 20
7.02305
 30
0.0
 40
0.057418
100
AcDbArc
 50
293.261614
 51
336.642464
  0
LINE
  5
D74
330
23A5
100
AcDbEntity
  8
0
100
AcDbLine
 10
4.408156
 20
6.732285000000001
 30
0.0
 11
4.604371
 21
6.760059
 31
0.0
  0
LINE
  5
D76
330
23A5
100
AcDbEntity
  8
0
100
AcDbLine
 10
4.604371
 20
6.760059
 30
0.0
 11
4.596961
 21
6.714617999999999
 31
0.0
  0
LINE
  5
D77
330
23A5
100
AcDbEntity
  8
0
100
AcDbLine
 10
4.596961
 20
6.714617999999999
 30
0.0
 11
4.426073000000001
 21
6.689236
 31
0.0
  0
LINE
  5
D78
330
23A5
100
AcDbEntity
  8
0
100
AcDbLine
 10
4.604371
 20
6.760059
 30
0.0
 11
4.453691
 21
7.068203
 31
0.0
  0
ARC
  5
D7B
330
23A5
100
AcDbEntity
  8
0
100
AcDbCircle
 10
4.304605000000001
 20
6.891572999999999
 30
0.0
 40
0.092774
100
AcDbArc
 50
315.820457
 51
95.524621
  0
ARC
  5
D7F
330
23A5
100
AcDbEntity
  8
0
100
AcDbCircle
 10
4.305251999999999
 20
6.873589
 30
0.0
 40
0.042451
100
AcDbArc
 50
39.06545
 51
100.200287
  0
LINE
  5
D80
330
23A5
100
AcDbEntity
  8
0
100
AcDbLine
 10
4.604371
 20
6.760059
 30
0.0
 11
4.397375
 21
6.892434
 31
0.0
  0
LINE
  5
D81
330
23A5
100
AcDbEntity
  8
0
100
AcDbLine
 10
4.56083
 20
6.753896000000001
 30
0.0
 11
4.392291999999999
 21
6.861273
 31
0.0
  0
LINE
  5
D83
330
23A5
100
AcDbEntity
  8
0
100
AcDbLine
 10
4.303181
 20
6.984512
 30
0.0
 11
3.320022
 21
9.346779
 31
0.0
  0
LINE
  5
D85
330
23A5
100
AcDbEntity
  8
0
100
AcDbLine
 10
2.694537
 20
7.435836999999999
 30
0.0
 11
2.890491
 21
6.838949
 31
0.0
  0
LINE
  5
D86
330
23A5
100
AcDbEntity
  8
0
100
AcDbLine
 10
4.030633
 20
7.570956
 30
0.0
 11
4.241835
 21
7.053503
 31
0.0
  0
LINE
  5
D87
330
23A5
100
AcDbEntity
  8
0
100
AcDbLine
 10
2.625921
 20
7.471734
 30
0.0
 11
2.261359
 21
8.615614000000001
 31
0.0
  0
LINE
  5
D88
330
23A5
100
AcDbEntity
  8
0
100
AcDbLine
 10
2.838555
 20
6.807346000000001
 30
0.0
 11
2.815095
 21
6.880589
 31
0.0
  0
LINE
  5
D89
330
23A5
100
AcDbEntity
  8
0
100
AcDbLine
 10
2.798629
 20
6.931996000000001
 30
0.0
 11
2.693311
 21
7.260797999999999
 31
0.0
  0
LINE
  5
D8A
330
23A5
100
AcDbEntity
  8
0
100
AcDbLine
 10
2.659972
 20
7.364882000000001
 30
0.0
 11
2.633939
 21
7.446155999999999
 31
0.0
  0
LINE
  5
1042
330
23A5
100
AcDbEntity
  8
0
100
AcDbLine
 10
2.277452
 20
6.33038
 30
0.0
 11
2.277452
 21
5.666472
 31
0.0
  0
LINE
  5
1043
330
23A5
100
AcDbEntity
  8
0
100
AcDbLine
 10
2.422655
 20
6.929531
 30
0.0
 11
2.422655
 21
6.740788
 31
0.0
  0
LINE
  5
1056
330
23A5
100
AcDbEntity
  8
0
100
AcDbLine
 10
2.277452
 20
5.972843
 30
0.0
 11
1.520894
 21
7.068544999999999
 31
0.0
  0
LINE
  5
1363
330
23A5
100
AcDbEntity
  8
0
100
AcDbLine
 10
2.422655
 20
6.345405
 30
0.0
 11
2.422655
 21
5.672687000000001
 31
0.0
  0
LINE
  5
13F6
330
23A5
100
AcDbEntity
  8
0
100
AcDbLine
 10
4.302914
 20
7.165023
 30
0.0
 11
4.302914
 21
6.984331
 31
0.0
  0
LINE
  5
141F
330
23A5
100
AcDbEntity
  8
0
100
AcDbLine
 10
4.302914
 20
7.165023
 30
0.0
 11
4.302914
 21
7.114414999999999
 31
0.0
  0
LINE
  5
14ED
330
23A5
100
AcDbEntity
  8
0
100
AcDbLine
 10
2.744615
 20
6.845292999999999
 30
0.0
 11
2.769774
 21
6.851278
 31
0.0
  0
LINE
  5
14EE
330
23A5
100
AcDbEntity
  8
0
100
AcDbLine
 10
2.762256
 20
6.727727000000001
 30
0.0
 11
2.787415
 21
6.733711
 31
0.0
  0
LINE
  5
151A
330
23A5
100
AcDbEntity
  8
0
100
AcDbLine
 10
2.512355
 20
7.008873
 30
0.0
 11
2.537514
 21
7.014858
 31
0.0
  0
LINE
  5
1523
330
23A5
100
AcDbEntity
  8
0
100
AcDbLine
 10
2.494714
 20
7.126439
 30
0.0
 11
2.519873
 21
7.132424
 31
0.0
  0
LINE
  5
1558
330
23A5
100
AcDbEntity
  8
0
100
AcDbLine
 10
2.202145
 20
7.048131
 30
0.0
 11
2.04397
 21
7.057925
 31
0.0
  0
LINE
  5
1559
330
23A5
100
AcDbEntity
  8
0
100
AcDbLine
 10
2.527695
 20
7.322286999999999
 30
0.0
 11
2.452087
 21
7.146111
 31
0.0
  0
ARC
  5
155A
330
23A5
100
AcDbEntity
  8
0
100
AcDbCircle
 10
2.523237
 20
7.319399000000001
 30
0.0
 40
0.066688
100
AcDbArc
 50
64.230959
 51
118.681868
  0
LINE
  5
1DF0
330
23A5
100
AcDbEntity
  8
0
 62
     0
100
AcDbLine
 10
1.546093
 20
2.578804
 30
0.0
 11
1.546093
 21
2.578804
 31
0.0
  0
LINE
  5
1DF1
330
23A5
100
AcDbEntity
  8
0
 62
     0
100
AcDbLine
 10
5.38989
 20
5.528253
 30
0.0
 11
5.38989
 21
5.528253
 31
0.0
  0
LINE
  5
1DF2
330
23A5
100
AcDbEntity
  8
0
 62
     0
100
AcDbLine
 10
2.220443
 20
3.096251
 30
0.0
 11
2.220443
 21
3.096251
 31
0.0
  0
LINE
  5
1DF3
330
23A5
100
AcDbEntity
  8
0
 62
     0
100
AcDbLine
 10
2.865043
 20
3.59087
 30
0.0
 11
2.865043
 21
3.59087
 31
0.0
  0
LINE
  5
1DF4
330
23A5
100
AcDbEntity
  8
0
 62
     0
100
AcDbLine
 10
3.467992
 20
4.053529
 30
0.0
 11
3.467992
 21
4.053529
 31
0.0
  0
LINE
  5
1DF5
330
23A5
100
AcDbEntity
  8
0
 62
     0
100
AcDbLine
 10
4.142342
 20
4.570976
 30
0.0
 11
4.142342
 21
4.570976
 31
0.0
  0
LINE
  5
1DF6
330
23A5
100
AcDbEntity
  8
0
 62
     0
100
AcDbLine
 10
4.786941000000001
 20
5.065595
 30
0.0
 11
4.786941000000001
 21
5.065595
 31
0.0
  0
LINE
  5
1DF7
330
23A5
100
AcDbEntity
  8
0
 62
     0
100
AcDbLine
 10
0.9116479999999999
 20
3.079557
 30
0.0
 11
0.9116479999999999
 21
3.079557
 31
0.0
  0
LINE
  5
1DF8
330
23A5
100
AcDbEntity
  8
0
 62
     0
100
AcDbLine
 10
4.755445
 20
6.029006
 30
0.0
 11
4.755445
 21
6.029006
 31
0.0
  0
LINE
  5
1DF9
330
23A5
100
AcDbEntity
  8
0
 62
     0
100
AcDbLine
 10
1.514596
 20
3.542216
 30
0.0
 11
1.514596
 21
3.542216
 31
0.0
  0
LINE
  5
1DFA
330
23A5
100
AcDbEntity
  8
0
 62
     0
100
AcDbLine
 10
2.188947
 20
4.059663
 30
0.0
 11
2.188947
 21
4.059663
 31
0.0
  0
LINE
  5
1DFB
330
23A5
100
AcDbEntity
  8
0
 62
     0
100
AcDbLine
 10
2.833546
 20
4.554282
 30
0.0
 11
2.833546
 21
4.554282
 31
0.0
  0
LINE
  5
1DFC
330
23A5
100
AcDbEntity
  8
0
 62
     0
100
AcDbLine
 10
1.4831
 20
4.505628
 30
0.0
 11
1.4831
 21
4.505628
 31
0.0
  0
LINE
  5
1DFD
330
23A5
100
AcDbEntity
  8
0
 62
     0
100
AcDbLine
 10
2.15745
 20
5.023075
 30
0.0
 11
2.15745
 21
5.023075
 31
0.0
  0
LINE
  5
1DFE
330
23A5
100
AcDbEntity
  8
0
 62
     0
100
AcDbLine
 10
1.451603
 20
5.469040000000001
 30
0.0
 11
1.451603
 21
5.469040000000001
 31
0.0
  0
LINE
  5
1DFF
330
23A5
100
AcDbEntity
  8
0
 62
     0
100
AcDbLine
 10
2.125953
 20
5.986487
 30
0.0
 11
2.125953
 21
5.986487
 31
0.0
  0
LINE
  5
1E00
330
23A5
100
AcDbEntity
  8
0
 62
     0
100
AcDbLine
 10
0.8171579999999999
 20
5.969793
 30
0.0
 11
0.8171579999999999
 21
5.969793
 31
0.0
  0
LINE
  5
1E01
330
23A5
100
AcDbEntity
  8
0
 62
     0
100
AcDbLine
 10
1.57759
 20
1.615392
 30
0.0
 11
1.57759
 21
1.615392
 31
0.0
  0
LINE
  5
1E02
330
23A5
100
AcDbEntity
  8
0
 62
     0
100
AcDbLine
 10
2.25194
 20
2.132839
 30
0.0
 11
2.25194
 21
2.132839
 31
0.0
  0
LINE
  5
1E03
330
23A5
100
AcDbEntity
  8
0
 62
     0
100
AcDbLine
 10
2.89654
 20
2.627458
 30
0.0
 11
2.89654
 21
2.627458
 31
0.0
  0
LINE
  5
1E04
330
23A5
100
AcDbEntity
  8
0
 62
     0
100
AcDbLine
 10
3.499488
 20
3.090117
 30
0.0
 11
3.499488
 21
3.090117
 31
0.0
  0
LINE
  5
1E05
330
23A5
100
AcDbEntity
  8
0
 62
     0
100
AcDbLine
 10
4.173839
 20
3.607564
 30
0.0
 11
4.173839
 21
3.607564
 31
0.0
  0
LINE
  5
1E06
330
23A5
100
AcDbEntity
  8
0
 62
     0
100
AcDbLine
 10
4.818438
 20
4.102183
 30
0.0
 11
4.818438
 21
4.102183
 31
0.0
  0
LINE
  5
1E07
330
23A5
100
AcDbEntity
  8
0
 62
     0
100
AcDbLine
 10
5.421387
 20
4.564841
 30
0.0
 11
5.421387
 21
4.564841
 31
0.0
  0
LINE
  5
1E08
330
23A5
100
AcDbEntity
  8
0
 62
     0
100
AcDbLine
 10
2.928036
 20
1.664046
 30
0.0
 11
2.928036
 21
1.664046
 31
0.0
  0
LINE
  5
1E09
330
23A5
100
AcDbEntity
  8
0
 62
     0
100
AcDbLine
 10
4.849934999999999
 20
3.138771
 30
0.0
 11
4.849934999999999
 21
3.138771
 31
0.0
  0
LINE
  5
1E0A
330
23A5
100
AcDbEntity
  8
0
 62
     0
100
AcDbLine
 10
5.452883
 20
3.601429
 30
0.0
 11
5.452883
 21
3.601429
 31
0.0
  0
LINE
  5
1E0B
330
23A5
100
AcDbEntity
  8
0
 62
     0
100
AcDbLine
 10
3.530985
 20
2.126705
 30
0.0
 11
3.530985
 21
2.126705
 31
0.0
  0
LINE
  5
1E0C
330
23A5
100
AcDbEntity
  8
0
 62
     0
100
AcDbLine
 10
4.205335
 20
2.644152
 30
0.0
 11
4.205335
 21
2.644152
 31
0.0
  0
LINE
  5
1E0D
330
23A5
100
AcDbEntity
  8
0
 62
     0
100
AcDbLine
 10
4.881432
 20
2.175359
 30
0.0
 11
4.881432
 21
2.175359
 31
0.0
  0
LINE
  5
1E0E
330
23A5
100
AcDbEntity
  8
0
 62
     0
100
AcDbLine
 10
5.484380000000001
 20
2.638018
 30
0.0
 11
5.484380000000001
 21
2.638018
 31
0.0
  0
LINE
  5
1E0F
330
23A5
100
AcDbEntity
  8
0
 62
     0
100
AcDbLine
 10
6.15873
 20
3.155465
 30
0.0
 11
6.15873
 21
3.155465
 31
0.0
  0
LINE
  5
1E10
330
23A5
100
AcDbEntity
  8
0
 62
     0
100
AcDbLine
 10
1.326778
 20
4.815184
 30
0.0
 11
1.326778
 21
4.815184
 31
0.0
  0
LINE
  5
1E11
330
23A5
100
AcDbEntity
  8
0
 62
     0
100
AcDbLine
 10
1.587032
 20
4.849447000000001
 30
0.0
 11
1.587032
 21
4.849447000000001
 31
0.0
  0
LINE
  5
1E12
330
23A5
100
AcDbEntity
  8
0
 62
     0
100
AcDbLine
 10
1.993525
 20
4.902963
 30
0.0
 11
1.993525
 21
4.902963
 31
0.0
  0
LINE
  5
1E13
330
23A5
100
AcDbEntity
  8
0
 62
     0
100
AcDbLine
 10
2.672664
 20
4.992373000000001
 30
0.0
 11
2.672664
 21
4.992373000000001
 31
0.0
  0
LINE
  5
1E14
330
23A5
100
AcDbEntity
  8
0
 62
     0
100
AcDbLine
 10
5.364437000000001
 20
5.346752
 30
0.0
 11
5.364437000000001
 21
5.346752
 31
0.0
  0
LINE
  5
1E15
330
23A5
100
AcDbEntity
  8
0
 62
     0
100
AcDbLine
 10
5.624691
 20
5.381015000000001
 30
0.0
 11
5.624691
 21
5.381015000000001
 31
0.0
  0
LINE
  5
1E16
330
23A5
100
AcDbEntity
  8
0
 62
     0
100
AcDbLine
 10
6.031184
 20
5.434531
 30
0.0
 11
6.031184
 21
5.434531
 31
0.0
  0
LINE
  5
1E17
330
23A5
100
AcDbEntity
  8
0
 62
     0
100
AcDbLine
 10
4.685297
 20
5.257341
 30
0.0
 11
4.685297
 21
5.257341
 31
0.0
  0
LINE
  5
1E18
330
23A5
100
AcDbEntity
  8
0
 62
     0
100
AcDbLine
 10
0.8657799999999999
 20
6.049068
 30
0.0
 11
0.8657799999999999
 21
6.049068
 31
0.0
  0
LINE
  5
1E19
330
23A5
100
AcDbEntity
  8
0
 62
     0
100
AcDbLine
 10
1.126034
 20
6.083330999999999
 30
0.0
 11
1.126034
 21
6.083330999999999
 31
0.0
  0
LINE
  5
1E1A
330
23A5
100
AcDbEntity
  8
0
 62
     0
100
AcDbLine
 10
1.532527
 20
6.136846
 30
0.0
 11
1.532527
 21
6.136846
 31
0.0
  0
LINE
  5
1E1B
330
23A5
100
AcDbEntity
  8
0
 62
     0
100
AcDbLine
 10
1.108636
 20
3.49189
 30
0.0
 11
1.108636
 21
3.49189
 31
0.0
  0
LINE
  5
1E1C
330
23A5
100
AcDbEntity
  8
0
 62
     0
100
AcDbLine
 10
1.787776
 20
3.5813
 30
0.0
 11
1.787776
 21
3.5813
 31
0.0
  0
LINE
  5
1E1D
330
23A5
100
AcDbEntity
  8
0
 62
     0
100
AcDbLine
 10
2.04803
 20
3.615563
 30
0.0
 11
2.04803
 21
3.615563
 31
0.0
  0
LINE
  5
1E1E
330
23A5
100
AcDbEntity
  8
0
 62
     0
100
AcDbLine
 10
2.454523
 20
3.669079
 30
0.0
 11
2.454523
 21
3.669079
 31
0.0
  0
LINE
  5
1E1F
330
23A5
100
AcDbEntity
  8
0
 62
     0
100
AcDbLine
 10
3.133662
 20
3.758489
 30
0.0
 11
3.133662
 21
3.758489
 31
0.0
  0
LINE
  5
1E20
330
23A5
100
AcDbEntity
  8
0
 62
     0
100
AcDbLine
 10
3.393917
 20
3.792753
 30
0.0
 11
3.393917
 21
3.792753
 31
0.0
  0
LINE
  5
1E21
330
23A5
100
AcDbEntity
  8
0
 62
     0
100
AcDbLine
 10
3.800409
 20
3.846268
 30
0.0
 11
3.800409
 21
3.846268
 31
0.0
  0
LINE
  5
1E22
330
23A5
100
AcDbEntity
  8
0
 62
     0
100
AcDbLine
 10
4.479549
 20
3.935679
 30
0.0
 11
4.479549
 21
3.935679
 31
0.0
  0
LINE
  5
1E23
330
23A5
100
AcDbEntity
  8
0
 62
     0
100
AcDbLine
 10
4.739803
 20
3.969942
 30
0.0
 11
4.739803
 21
3.969942
 31
0.0
  0
LINE
  5
1E24
330
23A5
100
AcDbEntity
  8
0
 62
     0
100
AcDbLine
 10
5.146294999999999
 20
4.023458
 30
0.0
 11
5.146294999999999
 21
4.023458
 31
0.0
  0
LINE
  5
1E25
330
23A5
100
AcDbEntity
  8
0
 62
     0
100
AcDbLine
 10
5.825435
 20
4.112868
 30
0.0
 11
5.825435
 21
4.112868
 31
0.0
  0
LINE
  5
1E26
330
23A5
100
AcDbEntity
  8
0
 62
     0
100
AcDbLine
 10
1.569634
 20
2.258006
 30
0.0
 11
1.569634
 21
2.258006
 31
0.0
  0
LINE
  5
1E27
330
23A5
100
AcDbEntity
  8
0
 62
     0
100
AcDbLine
 10
3.59466
 20
2.524606
 30
0.0
 11
3.59466
 21
2.524606
 31
0.0
  0
LINE
  5
1E28
330
23A5
100
AcDbEntity
  8
0
 62
     0
100
AcDbLine
 10
3.854915
 20
2.558869
 30
0.0
 11
3.854915
 21
2.558869
 31
0.0
  0
LINE
  5
1E29
330
23A5
100
AcDbEntity
  8
0
 62
     0
100
AcDbLine
 10
4.261407
 20
2.612385
 30
0.0
 11
4.261407
 21
2.612385
 31
0.0
  0
LINE
  5
1E2A
330
23A5
100
AcDbEntity
  8
0
 62
     0
100
AcDbLine
 10
4.940547000000001
 20
2.701795
 30
0.0
 11
4.940547000000001
 21
2.701795
 31
0.0
  0
LINE
  5
1E2B
330
23A5
100
AcDbEntity
  8
0
 62
     0
100
AcDbLine
 10
5.200801
 20
2.736058
 30
0.0
 11
5.200801
 21
2.736058
 31
0.0
  0
LINE
  5
1E2C
330
23A5
100
AcDbEntity
  8
0
 62
     0
100
AcDbLine
 10
5.607293
 20
2.789574
 30
0.0
 11
5.607293
 21
2.789574
 31
0.0
  0
LINE
  5
1E2D
330
23A5
100
AcDbEntity
  8
0
 62
     0
100
AcDbLine
 10
2.248774
 20
2.347416
 30
0.0
 11
2.248774
 21
2.347416
 31
0.0
  0
LINE
  5
1E2E
330
23A5
100
AcDbEntity
  8
0
 62
     0
100
AcDbLine
 10
2.509028
 20
2.38168
 30
0.0
 11
2.509028
 21
2.38168
 31
0.0
  0
LINE
  5
1E2F
330
23A5
100
AcDbEntity
  8
0
 62
     0
100
AcDbLine
 10
2.915521
 20
2.435195
 30
0.0
 11
2.915521
 21
2.435195
 31
0.0
  0
LINE
  5
1E30
330
23A5
100
AcDbEntity
  8
0
 62
     0
100
AcDbLine
 10
4.325187000000001
 20
2.633611
 30
0.0
 11
4.325187000000001
 21
2.633611
 31
0.0
  0
LINE
  5
1E31
330
23A5
100
AcDbEntity
  8
0
 62
     0
100
AcDbLine
 10
1.394401
 20
4.500727
 30
0.0
 11
1.394401
 21
4.500727
 31
0.0
  0
LINE
  5
1E32
330
23A5
100
AcDbEntity
  8
0
 62
     0
100
AcDbLine
 10
1.605249
 20
4.366403
 30
0.0
 11
1.605249
 21
4.366403
 31
0.0
  0
LINE
  5
1E33
330
23A5
100
AcDbEntity
  8
0
 62
     0
100
AcDbLine
 10
2.364301
 20
3.882833
 30
0.0
 11
2.364301
 21
3.882833
 31
0.0
  0
LINE
  5
1E34
330
23A5
100
AcDbEntity
  8
0
 62
     0
100
AcDbLine
 10
3.355286
 20
3.251506
 30
0.0
 11
3.355286
 21
3.251506
 31
0.0
  0
LINE
  5
1E35
330
23A5
100
AcDbEntity
  8
0
 62
     0
100
AcDbLine
 10
3.566134
 20
3.117181
 30
0.0
 11
3.566134
 21
3.117181
 31
0.0
  0
LINE
  5
1E36
330
23A5
100
AcDbEntity
  8
0
 62
     0
100
AcDbLine
 10
0.9905870000000001
 20
5.752779
 30
0.0
 11
0.9905870000000001
 21
5.752779
 31
0.0
  0
LINE
  5
1E37
330
23A5
100
AcDbEntity
  8
0
 62
     0
100
AcDbLine
 10
1.201435
 20
5.618454
 30
0.0
 11
1.201435
 21
5.618454
 31
0.0
  0
LINE
  5
1E38
330
23A5
100
AcDbEntity
  8
0
 62
     0
100
AcDbLine
 10
1.960487
 20
5.134884
 30
0.0
 11
1.960487
 21
5.134884
 31
0.0
  0
LINE
  5
1E39
330
23A5
100
AcDbEntity
  8
0
 62
     0
100
AcDbLine
 10
2.951472
 20
4.503557
 30
0.0
 11
2.951472
 21
4.503557
 31
0.0
  0
LINE
  5
1E3A
330
23A5
100
AcDbEntity
  8
0
 62
     0
100
AcDbLine
 10
3.16232
 20
4.369232
 30
0.0
 11
3.16232
 21
4.369232
 31
0.0
  0
LINE
  5
1E3B
330
23A5
100
AcDbEntity
  8
0
 62
     0
100
AcDbLine
 10
3.921372
 20
3.885662
 30
0.0
 11
3.921372
 21
3.885662
 31
0.0
  0
LINE
  5
1E3C
330
23A5
100
AcDbEntity
  8
0
 62
     0
100
AcDbLine
 10
4.912357
 20
3.254335
 30
0.0
 11
4.912357
 21
3.254335
 31
0.0
  0
LINE
  5
1E3D
330
23A5
100
AcDbEntity
  8
0
 62
     0
100
AcDbLine
 10
5.123205000000001
 20
3.12001
 30
0.0
 11
5.123205000000001
 21
3.12001
 31
0.0
  0
LINE
  5
1E3E
330
23A5
100
AcDbEntity
  8
0
 62
     0
100
AcDbLine
 10
4.508543
 20
4.506387
 30
0.0
 11
4.508543
 21
4.506387
 31
0.0
  0
LINE
  5
1E3F
330
23A5
100
AcDbEntity
  8
0
 62
     0
100
AcDbLine
 10
4.719391000000001
 20
4.372062000000001
 30
0.0
 11
4.719391000000001
 21
4.372062000000001
 31
0.0
  0
LINE
  5
1E40
330
23A5
100
AcDbEntity
  8
0
 62
     0
100
AcDbLine
 10
5.478443
 20
3.888492
 30
0.0
 11
5.478443
 21
3.888492
 31
0.0
  0
LINE
  5
1E41
330
23A5
100
AcDbEntity
  8
0
 62
     0
100
AcDbLine
 10
5.074629
 20
5.140543
 30
0.0
 11
5.074629
 21
5.140543
 31
0.0
  0
LINE
  5
1E42
330
23A5
100
AcDbEntity
  8
0
 62
     0
100
AcDbLine
 10
4.670815
 20
6.392594
 30
0.0
 11
4.670815
 21
6.392594
 31
0.0
  0
LINE
  5
1E43
330
23A5
100
AcDbEntity
  8
0
 62
     0
100
AcDbLine
 10
5.6618
 20
5.761267
 30
0.0
 11
5.6618
 21
5.761267
 31
0.0
  0
LINE
  5
1E44
330
23A5
100
AcDbEntity
  8
0
 62
     0
100
AcDbLine
 10
5.872648000000001
 20
5.626942
 30
0.0
 11
5.872648000000001
 21
5.626942
 31
0.0
  0
LINE
  5
1E45
330
23A5
100
AcDbEntity
  8
0
 62
     0
100
AcDbLine
 10
3.759101
 20
1.999455
 30
0.0
 11
3.759101
 21
1.999455
 31
0.0
  0
LINE
  5
1E46
330
23A5
100
AcDbEntity
  8
0
 62
     0
100
AcDbLine
 10
3.969948000000001
 20
1.86513
 30
0.0
 11
3.969948000000001
 21
1.86513
 31
0.0
  0
LINE
  5
1E47
330
23A5
100
AcDbEntity
  8
0
 62
     0
100
AcDbLine
 10
1.798215
 20
3.248676
 30
0.0
 11
1.798215
 21
3.248676
 31
0.0
  0
LINE
  5
1E48
330
23A5
100
AcDbEntity
  8
0
 62
     0
100
AcDbLine
 10
2.009063
 20
3.114351
 30
0.0
 11
2.009063
 21
3.114351
 31
0.0
  0
LINE
  5
1E49
330
23A5
100
AcDbEntity
  8
0
 62
     0
100
AcDbLine
 10
2.768116
 20
2.630782
 30
0.0
 11
2.768116
 21
2.630782
 31
0.0
  0
LINE
  5
1E4A
330
23A5
100
AcDbEntity
  8
0
 62
     0
100
AcDbLine
 10
1.211045
 20
2.627952
 30
0.0
 11
1.211045
 21
2.627952
 31
0.0
  0
LINE
  5
1E4B
330
23A5
100
AcDbEntity
  8
0
 62
     0
100
AcDbLine
 10
2.20203
 20
1.996625
 30
0.0
 11
2.20203
 21
1.996625
 31
0.0
  0
LINE
  5
1E4C
330
23A5
100
AcDbEntity
  8
0
 62
     0
100
AcDbLine
 10
2.412877
 20
1.8623
 30
0.0
 11
2.412877
 21
1.8623
 31
0.0
  0
LINE
  5
1E4D
330
23A5
100
AcDbEntity
  8
0
 62
     0
100
AcDbLine
 10
1.614859
 20
1.375901
 30
0.0
 11
1.614859
 21
1.375901
 31
0.0
  0
LINE
  5
1E4E
330
23A5
100
AcDbEntity
  8
0
 62
     0
100
AcDbLine
 10
1.286386
 20
5.372744
 30
0.0
 11
1.286386
 21
5.372744
 31
0.0
  0
LINE
  5
1E4F
330
23A5
100
AcDbEntity
  8
0
 62
     0
100
AcDbLine
 10
1.378546
 20
5.288295
 30
0.0
 11
1.378546
 21
5.288295
 31
0.0
  0
LINE
  5
1E50
330
23A5
100
AcDbEntity
  8
0
 62
     0
100
AcDbLine
 10
1.813539
 20
4.889697
 30
0.0
 11
1.813539
 21
4.889697
 31
0.0
  0
LINE
  5
1E51
330
23A5
100
AcDbEntity
  8
0
 62
     0
100
AcDbLine
 10
4.360832
 20
2.555533
 30
0.0
 11
4.360832
 21
2.555533
 31
0.0
  0
LINE
  5
1E52
330
23A5
100
AcDbEntity
  8
0
 62
     0
100
AcDbLine
 10
4.452992
 20
2.471084
 30
0.0
 11
4.452992
 21
2.471084
 31
0.0
  0
LINE
  5
1E53
330
23A5
100
AcDbEntity
  8
0
 62
     0
100
AcDbLine
 10
4.887986
 20
2.072486
 30
0.0
 11
4.887986
 21
2.072486
 31
0.0
  0
LINE
  5
1E54
330
23A5
100
AcDbEntity
  8
0
 62
     0
100
AcDbLine
 10
2.311201
 20
4.433674
 30
0.0
 11
2.311201
 21
4.433674
 31
0.0
  0
LINE
  5
1E55
330
23A5
100
AcDbEntity
  8
0
 62
     0
100
AcDbLine
 10
2.403361
 20
4.349225
 30
0.0
 11
2.403361
 21
4.349225
 31
0.0
  0
LINE
  5
1E56
330
23A5
100
AcDbEntity
  8
0
 62
     0
100
AcDbLine
 10
2.838355
 20
3.950627
 30
0.0
 11
2.838355
 21
3.950627
 31
0.0
  0
LINE
  5
1E57
330
23A5
100
AcDbEntity
  8
0
 62
     0
100
AcDbLine
 10
3.336017
 20
3.494603
 30
0.0
 11
3.336017
 21
3.494603
 31
0.0
  0
LINE
  5
1E58
330
23A5
100
AcDbEntity
  8
0
 62
     0
100
AcDbLine
 10
3.428177
 20
3.410154
 30
0.0
 11
3.428177
 21
3.410154
 31
0.0
  0
LINE
  5
1E59
330
23A5
100
AcDbEntity
  8
0
 62
     0
100
AcDbLine
 10
3.86317
 20
3.011556
 30
0.0
 11
3.86317
 21
3.011556
 31
0.0
  0
LINE
  5
1E5A
330
23A5
100
AcDbEntity
  8
0
 62
     0
100
AcDbLine
 10
3.814265
 20
4.872511
 30
0.0
 11
3.814265
 21
4.872511
 31
0.0
  0
LINE
  5
1E5B
330
23A5
100
AcDbEntity
  8
0
 62
     0
100
AcDbLine
 10
3.906424
 20
4.788063
 30
0.0
 11
3.906424
 21
4.788063
 31
0.0
  0
LINE
  5
1E5C
330
23A5
100
AcDbEntity
  8
0
 62
     0
100
AcDbLine
 10
4.341418
 20
4.389464
 30
0.0
 11
4.341418
 21
4.389464
 31
0.0
  0
LINE
  5
1E5D
330
23A5
100
AcDbEntity
  8
0
 62
     0
100
AcDbLine
 10
4.83908
 20
3.933441
 30
0.0
 11
4.83908
 21
3.933441
 31
0.0
  0
LINE
  5
1E5E
330
23A5
100
AcDbEntity
  8
0
 62
     0
100
AcDbLine
 10
4.93124
 20
3.848992
 30
0.0
 11
4.93124
 21
3.848992
 31
0.0
  0
LINE
  5
1E5F
330
23A5
100
AcDbEntity
  8
0
 62
     0
100
AcDbLine
 10
5.366234
 20
3.450394
 30
0.0
 11
5.366234
 21
3.450394
 31
0.0
  0
LINE
  5
1E60
330
23A5
100
AcDbEntity
  8
0
 62
     0
100
AcDbLine
 10
5.863896
 20
2.994371
 30
0.0
 11
5.863896
 21
2.994371
 31
0.0
  0
LINE
  5
1E61
330
23A5
100
AcDbEntity
  8
0
 62
     0
100
AcDbLine
 10
5.956055
 20
2.909922
 30
0.0
 11
5.956055
 21
2.909922
 31
0.0
  0
LINE
  5
1E62
330
23A5
100
AcDbEntity
  8
0
 62
     0
100
AcDbLine
 10
4.819666000000001
 20
5.767373
 30
0.0
 11
4.819666000000001
 21
5.767373
 31
0.0
  0
LINE
  5
1E63
330
23A5
100
AcDbEntity
  8
0
 62
     0
100
AcDbLine
 10
5.317328
 20
5.311349
 30
0.0
 11
5.317328
 21
5.311349
 31
0.0
  0
LINE
  5
1E64
330
23A5
100
AcDbEntity
  8
0
 62
     0
100
AcDbLine
 10
5.409488
 20
5.2269
 30
0.0
 11
5.409488
 21
5.2269
 31
0.0
  0
LINE
  5
1E65
330
23A5
100
AcDbEntity
  8
0
 62
     0
100
AcDbLine
 10
5.844481
 20
4.828302
 30
0.0
 11
5.844481
 21
4.828302
 31
0.0
  0
LINE
  5
1E66
330
23A5
100
AcDbEntity
  8
0
 62
     0
100
AcDbLine
 10
2.857769
 20
2.116695
 30
0.0
 11
2.857769
 21
2.116695
 31
0.0
  0
LINE
  5
1E67
330
23A5
100
AcDbEntity
  8
0
 62
     0
100
AcDbLine
 10
2.949929
 20
2.032246
 30
0.0
 11
2.949929
 21
2.032246
 31
0.0
  0
LINE
  5
1E68
330
23A5
100
AcDbEntity
  8
0
 62
     0
100
AcDbLine
 10
1.832954
 20
3.055765
 30
0.0
 11
1.832954
 21
3.055765
 31
0.0
  0
LINE
  5
1E69
330
23A5
100
AcDbEntity
  8
0
 62
     0
100
AcDbLine
 10
1.925113
 20
2.971317
 30
0.0
 11
1.925113
 21
2.971317
 31
0.0
  0
LINE
  5
1E6A
330
23A5
100
AcDbEntity
  8
0
 62
     0
100
AcDbLine
 10
2.360107
 20
2.572718
 30
0.0
 11
2.360107
 21
2.572718
 31
0.0
  0
ARC
  5
1E6B
330
23A5
100
AcDbEntity
  8
0
100
AcDbCircle
 10
2.424125
 20
7.055741
 30
0.0
 40
0.111803
100
AcDbArc
 50
8.533567999999999
 51
20.916067
  0
ARC
  5
1E6C
330
23A5
100
AcDbEntity
  8
0
100
AcDbCircle
 10
2.462124
 20
7.070263000000001
 30
0.0
 40
0.071124
100
AcDbArc
 50
20.916067
 51
36.458332
  0
ARC
  5
1E6D
330
23A5
100
AcDbEntity
  8
0
100
AcDbCircle
 10
2.484886
 20
7.087081
 30
0.0
 40
0.042823
100
AcDbArc
 50
36.458332
 51
60.526073
  0
ARC
  5
1E6E
330
23A5
100
AcDbEntity
  8
0
100
AcDbCircle
 10
2.497319
 20
7.109079
 30
0.0
 40
0.017555
100
AcDbArc
 50
60.526073
 51
98.533568
  0
ARC
  5
1E6F
330
23A5
100
AcDbEntity
  8
0
100
AcDbCircle
 10
2.497319
 20
7.109079
 30
0.0
 40
0.017555
100
AcDbArc
 50
98.533568
 51
136.541063
  0
ARC
  5
1E70
330
23A5
100
AcDbEntity
  8
0
100
AcDbCircle
 10
2.51566
 20
7.091699
 30
0.0
 40
0.042823
100
AcDbArc
 50
136.541063
 51
144.598752
  0
ARC
  5
1E71
330
23A5
100
AcDbEntity
  8
0
100
AcDbCircle
 10
2.50975
 20
7.026234
 30
0.0
 40
0.017555
100
AcDbArc
 50
278.533568
 51
316.541063
  0
ARC
  5
1E72
330
23A5
100
AcDbEntity
  8
0
100
AcDbCircle
 10
2.491408
 20
7.043614
 30
0.0
 40
0.042823
100
AcDbArc
 50
316.541063
 51
340.608803
  0
ARC
  5
1E73
330
23A5
100
AcDbEntity
  8
0
100
AcDbCircle
 10
2.464713
 20
7.05301
 30
0.0
 40
0.071124
100
AcDbArc
 50
340.608803
 51
356.151069
  0
ARC
  5
1E74
330
23A5
100
AcDbEntity
  8
0
100
AcDbCircle
 10
2.424125
 20
7.055741
 30
0.0
 40
0.111803
100
AcDbArc
 50
356.151069
 51
8.533567999999999
  0
ARC
  5
1E75
330
23A5
100
AcDbEntity
  8
0
100
AcDbCircle
 10
2.449285
 20
7.061725999999999
 30
0.0
 40
0.111803
100
AcDbArc
 50
8.533567999999999
 51
20.916067
  0
ARC
  5
1E76
330
23A5
100
AcDbEntity
  8
0
100
AcDbCircle
 10
2.487283
 20
7.076248
 30
0.0
 40
0.071124
100
AcDbArc
 50
20.916067
 51
36.458332
  0
ARC
  5
1E77
330
23A5
100
AcDbEntity
  8
0
100
AcDbCircle
 10
2.510045
 20
7.093066
 30
0.0
 40
0.042823
100
AcDbArc
 50
36.458332
 51
60.526073
  0
ARC
  5
1E78
330
23A5
100
AcDbEntity
  8
0
100
AcDbCircle
 10
2.522478
 20
7.115064
 30
0.0
 40
0.017555
100
AcDbArc
 50
60.526073
 51
98.533568
  0
ARC
  5
1E79
330
23A5
100
AcDbEntity
  8
0
100
AcDbCircle
 10
2.522478
 20
7.115064
 30
0.0
 40
0.017555
100
AcDbArc
 50
98.533568
 51
108.227366
  0
ARC
  5
1E7A
330
23A5
100
AcDbEntity
  8
0
100
AcDbCircle
 10
2.534909
 20
7.032219
 30
0.0
 40
0.017555
100
AcDbArc
 50
278.533568
 51
316.541063
  0
ARC
  5
1E7B
330
23A5
100
AcDbEntity
  8
0
100
AcDbCircle
 10
2.516568
 20
7.049599000000001
 30
0.0
 40
0.042823
100
AcDbArc
 50
316.541063
 51
340.608803
  0
ARC
  5
1E7C
330
23A5
100
AcDbEntity
  8
0
100
AcDbCircle
 10
2.489872
 20
7.058995
 30
0.0
 40
0.071124
100
AcDbArc
 50
340.608803
 51
356.151069
  0
ARC
  5
1E7D
330
23A5
100
AcDbEntity
  8
0
100
AcDbCircle
 10
2.449285
 20
7.061725999999999
 30
0.0
 40
0.111803
100
AcDbArc
 50
356.151069
 51
8.533567999999999
  0
LWPOLYLINE
  5
1E7E
330
23A5
100
AcDbEntity
  8
0
100
AcDbPolyline
 90
        5
 70
     0
 43
0.0
 10
2.672345
 20
7.035710000000001
 42
0.167376
 10
2.682483
 20
7.040996000000001
 42
0.105403
 10
2.691793
 20
7.056233
 42
0.06792
 10
2.695667
 20
7.075073
 42
0.054081
 10
2.694682
 20
7.099169
 42
0.054081
  0
LWPOLYLINE
  5
1E85
330
23A5
100
AcDbEntity
  8
0
100
AcDbPolyline
 90
       16
 70
     1
 43
0.0
 10
2.669522
 20
7.093184
 42
0.054081
 10
2.663393
 20
7.116507
 42
0.06792
 10
2.65416
 20
7.133380000000001
 42
0.105403
 10
2.640788
 20
7.145214
 42
0.167376
 10
2.629545
 20
7.147292
 42
0.167376
 10
2.619408
 20
7.142005999999999
 42
0.105403
 10
2.610098
 20
7.126769
 42
0.06792
 10
2.606223
 20
7.107929
 42
0.054081
 10
2.607209
 20
7.083834
 42
0.054081
 10
2.613339
 20
7.060510000000001
 42
0.06792
 10
2.622572
 20
7.043637
 42
0.105403
 10
2.635944
 20
7.031803
 42
0.167376
 10
2.647186
 20
7.029725999999999
 42
0.167376
 10
2.657324
 20
7.035011
 42
0.105403
 10
2.666634
 20
7.050249000000001
 42
0.06792
 10
2.670508
 20
7.069089
 42
0.054081
  0
LINE
  5
1E97
330
23A5
100
AcDbEntity
  8
0
100
AcDbLine
 10
2.647186
 20
7.029725999999999
 30
0.0
 11
2.672345
 21
7.035710000000001
 31
0.0
  0
LWPOLYLINE
  5
1E98
330
23A5
100
AcDbEntity
  8
0
100
AcDbPolyline
 90
        6
 70
     0
 43
0.0
 10
2.694682
 20
7.099169
 42
0.054081
 10
2.688552
 20
7.122492
 42
0.06792
 10
2.679319
 20
7.139365
 42
0.105403
 10
2.665947
 20
7.151199
 42
0.167376
 10
2.654705
 20
7.153277
 42
0.042322
 10
2.651818
 20
7.152589999999999
 42
0.025539
  0
LINE
  5
1EA0
330
23A5
100
AcDbEntity
  8
0
100
AcDbLine
 10
2.629545
 20
7.147292
 30
0.0
 11
2.654705
 21
7.153277
 31
0.0
  0
LWPOLYLINE
  5
1EA1
330
23A5
100
AcDbEntity
  8
0
100
AcDbPolyline
 90
        5
 70
     0
 43
0.0
 10
2.663764
 20
6.770172000000001
 42
0.167376
 10
2.673902
 20
6.775458
 42
0.105403
 10
2.683212
 20
6.790695
 42
0.06792
 10
2.687086
 20
6.809535
 42
0.054081
 10
2.6861
 20
6.83363
 42
0.054081
  0
LWPOLYLINE
  5
1EA8
330
23A5
100
AcDbEntity
  8
0
100
AcDbPolyline
 90
       16
 70
     1
 43
0.0
 10
2.660941
 20
6.827646000000001
 42
0.054081
 10
2.654811
 20
6.850969
 42
0.06792
 10
2.645578
 20
6.867842
 42
0.105403
 10
2.632206
 20
6.879676
 42
0.167376
 10
2.620964
 20
6.881753999999999
 42
0.167376
 10
2.610826
 20
6.876467999999999
 42
0.105403
 10
2.601516
 20
6.861231
 42
0.06792
 10
2.597642
 20
6.842391
 42
0.054081
 10
2.598628
 20
6.818296000000001
 42
0.054081
 10
2.604757
 20
6.794972000000001
 42
0.06792
 10
2.61399
 20
6.778099
 42
0.105403
 10
2.627362
 20
6.766265
 42
0.167376
 10
2.638605
 20
6.764188000000001
 42
0.167376
 10
2.648742
 20
6.769473
 42
0.105403
 10
2.658052
 20
6.784710000000001
 42
0.06792
 10
2.661926
 20
6.80355
 42
0.054081
  0
LINE
  5
1EBA
330
23A5
100
AcDbEntity
  8
0
100
AcDbLine
 10
2.638605
 20
6.764188000000001
 30
0.0
 11
2.663764
 21
6.770172000000001
 31
0.0
  0
LWPOLYLINE
  5
1EBB
330
23A5
100
AcDbEntity
  8
0
100
AcDbPolyline
 90
        6
 70
     0
 43
0.0
 10
2.6861
 20
6.83363
 42
0.054081
 10
2.679971
 20
6.856953999999999
 42
0.06792
 10
2.670738
 20
6.873827
 42
0.105403
 10
2.657366
 20
6.885661
 42
0.167376
 10
2.646123
 20
6.887738000000001
 42
0.042322
 10
2.643237
 20
6.887052000000001
 42
0.025539
  0
LINE
  5
1EC3
330
23A5
100
AcDbEntity
  8
0
100
AcDbLine
 10
2.620964
 20
6.881753999999999
 30
0.0
 11
2.646123
 21
6.887738000000001
 31
0.0
  0
ARC
  5
1EC4
330
23A5
100
AcDbEntity
  8
0
100
AcDbCircle
 10
2.78481
 20
6.751072
 30
0.0
 40
0.017555
100
AcDbArc
 50
278.533568
 51
316.541063
  0
ARC
  5
1EC5
330
23A5
100
AcDbEntity
  8
0
100
AcDbCircle
 10
2.766469
 20
6.768452000000001
 30
0.0
 40
0.042823
100
AcDbArc
 50
316.541063
 51
340.608803
  0
ARC
  5
1EC6
330
23A5
100
AcDbEntity
  8
0
100
AcDbCircle
 10
2.739774
 20
6.777849000000001
 30
0.0
 40
0.071124
100
AcDbArc
 50
340.608803
 51
356.151069
  0
ARC
  5
1EC7
330
23A5
100
AcDbEntity
  8
0
100
AcDbCircle
 10
2.699186
 20
6.780579
 30
0.0
 40
0.111803
100
AcDbArc
 50
356.151069
 51
8.533567999999999
  0
ARC
  5
1EC8
330
23A5
100
AcDbEntity
  8
0
100
AcDbCircle
 10
2.699186
 20
6.780579
 30
0.0
 40
0.111803
100
AcDbArc
 50
8.533567999999999
 51
20.916067
  0
ARC
  5
1EC9
330
23A5
100
AcDbEntity
  8
0
100
AcDbCircle
 10
2.737185
 20
6.795102
 30
0.0
 40
0.071124
100
AcDbArc
 50
20.916067
 51
36.458332
  0
ARC
  5
1ECA
330
23A5
100
AcDbEntity
  8
0
100
AcDbCircle
 10
2.759947
 20
6.811919000000001
 30
0.0
 40
0.042823
100
AcDbArc
 50
36.458332
 51
60.526073
  0
ARC
  5
1ECB
330
23A5
100
AcDbEntity
  8
0
100
AcDbCircle
 10
2.772379
 20
6.833917
 30
0.0
 40
0.017555
100
AcDbArc
 50
60.526073
 51
98.533568
  0
ARC
  5
1ECC
330
23A5
100
AcDbEntity
  8
0
100
AcDbCircle
 10
2.772379
 20
6.833917
 30
0.0
 40
0.017555
100
AcDbArc
 50
98.533568
 51
108.227366
  0
LWPOLYLINE
  5
1ECD
330
23A5
100
AcDbEntity
  8
0
100
AcDbPolyline
 90
        5
 70
     0
 43
0.0
 10
2.390468
 20
7.922467999999999
 42
0.167376
 10
2.400605
 20
7.927753999999999
 42
0.105403
 10
2.409915
 20
7.942991
 42
0.06792
 10
2.41379
 20
7.961831
 42
0.054081
 10
2.412804
 20
7.985925999999999
 42
0.054081
  0
LWPOLYLINE
  5
1ED4
330
23A5
100
AcDbEntity
  8
0
100
AcDbPolyline
 90
       16
 70
     1
 43
0.0
 10
2.387645
 20
7.979941
 42
0.054081
 10
2.381515
 20
8.003264999999999
 42
0.06792
 10
2.372282
 20
8.020138000000001
 42
0.105403
 10
2.35891
 20
8.031972
 42
0.167376
 10
2.347668
 20
8.034050000000001
 42
0.167376
 10
2.33753
 20
8.028764000000001
 42
0.105403
 10
2.32822
 20
8.013527
 42
0.06792
 10
2.324346
 20
7.994687
 42
0.054081
 10
2.325332
 20
7.970591000000001
 42
0.054081
 10
2.331461
 20
7.947267999999999
 42
0.06792
 10
2.340694
 20
7.930395
 42
0.105403
 10
2.354066
 20
7.918561
 42
0.167376
 10
2.365309
 20
7.916483
 42
0.167376
 10
2.375446
 20
7.921769
 42
0.105403
 10
2.384756
 20
7.937005999999999
 42
0.06792
 10
2.38863
 20
7.955846000000001
 42
0.054081
  0
LINE
  5
1EE6
330
23A5
100
AcDbEntity
  8
0
100
AcDbLine
 10
2.365309
 20
7.916483
 30
0.0
 11
2.390468
 21
7.922467999999999
 31
0.0
  0
LWPOLYLINE
  5
1EE7
330
23A5
100
AcDbEntity
  8
0
100
AcDbPolyline
 90
        6
 70
     0
 43
0.0
 10
2.412804
 20
7.985925999999999
 42
0.054081
 10
2.406674
 20
8.00925
 42
0.06792
 10
2.397442
 20
8.026123
 42
0.105403
 10
2.384069
 20
8.037957000000001
 42
0.167376
 10
2.372827
 20
8.040034
 42
0.042322
 10
2.369941
 20
8.039348
 42
0.025539
  0
LINE
  5
1EEF
330
23A5
100
AcDbEntity
  8
0
100
AcDbLine
 10
2.347668
 20
8.034050000000001
 30
0.0
 11
2.372827
 21
8.040034
 31
0.0
  0
LWPOLYLINE
  5
1EF0
330
23A5
100
AcDbEntity
  8
0
100
AcDbPolyline
 90
        5
 70
     0
 43
0.0
 10
2.279192
 20
8.274288
 42
0.167376
 10
2.28933
 20
8.279574
 42
0.105403
 10
2.29864
 20
8.294810999999999
 42
0.06792
 10
2.302514
 20
8.313651
 42
0.054081
 10
2.301528
 20
8.337746000000001
 42
0.054081
  0
LWPOLYLINE
  5
1EF7
330
23A5
100
AcDbEntity
  8
0
100
AcDbPolyline
 90
       16
 70
     1
 43
0.0
 10
2.276369
 20
8.331761
 42
0.054081
 10
2.27024
 20
8.355085000000001
 42
0.06792
 10
2.261007
 20
8.371957999999999
 42
0.105403
 10
2.247635
 20
8.383792
 42
0.167376
 10
2.236392
 20
8.385869
 42
0.167376
 10
2.226255
 20
8.380583999999999
 42
0.105403
 10
2.216945
 20
8.365346000000001
 42
0.06792
 10
2.21307
 20
8.346506
 42
0.054081
 10
2.214056
 20
8.322411000000001
 42
0.054081
 10
2.220186
 20
8.299088000000001
 42
0.06792
 10
2.229418
 20
8.282214999999999
 42
0.105403
 10
2.24279
 20
8.270381
 42
0.167376
 10
2.254033
 20
8.268303
 42
0.167376
 10
2.264171
 20
8.273588999999999
 42
0.105403
 10
2.273481
 20
8.288826
 42
0.06792
 10
2.277355
 20
8.307666000000001
 42
0.054081
  0
LINE
  5
1F09
330
23A5
100
AcDbEntity
  8
0
100
AcDbLine
 10
2.254033
 20
8.268303
 30
0.0
 11
2.279192
 21
8.274288
 31
0.0
  0
LWPOLYLINE
  5
1F0A
330
23A5
100
AcDbEntity
  8
0
100
AcDbPolyline
 90
        6
 70
     0
 43
0.0
 10
2.301528
 20
8.337746000000001
 42
0.054081
 10
2.295399
 20
8.361069000000001
 42
0.06792
 10
2.286166
 20
8.377943
 42
0.105403
 10
2.272794
 20
8.389777000000001
 42
0.167376
 10
2.261551
 20
8.391853999999999
 42
0.042322
 10
2.258665
 20
8.391167999999999
 42
0.025539
  0
LINE
  5
1F12
330
23A5
100
AcDbEntity
  8
0
100
AcDbLine
 10
2.236392
 20
8.385869
 30
0.0
 11
2.261551
 21
8.391853999999999
 31
0.0
  0
LWPOLYLINE
  5
1F13
330
23A5
100
AcDbEntity
  8
0
100
AcDbPolyline
 90
        5
 70
     0
 43
0.0
 10
2.123395
 20
8.077869
 42
0.167376
 10
2.133533
 20
8.083155
 42
0.105403
 10
2.142843
 20
8.098392000000001
 42
0.06792
 10
2.146717
 20
8.117232000000001
 42
0.054081
 10
2.145731
 20
8.141328
 42
0.054081
  0
LWPOLYLINE
  5
1F1A
330
23A5
100
AcDbEntity
  8
0
100
AcDbPolyline
 90
       16
 70
     1
 43
0.0
 10
2.120572
 20
8.135342999999999
 42
0.054081
 10
2.114442
 20
8.158666
 42
0.06792
 10
2.105209
 20
8.175539000000001
 42
0.105403
 10
2.091837
 20
8.187372999999999
 42
0.167376
 10
2.080595
 20
8.189451
 42
0.167376
 10
2.070457
 20
8.184165
 42
0.105403
 10
2.061147
 20
8.168927999999999
 42
0.06792
 10
2.057273
 20
8.150088
 42
0.054081
 10
2.058259
 20
8.125992999999999
 42
0.054081
 10
2.064388
 20
8.102669000000001
 42
0.06792
 10
2.073621
 20
8.085796
 42
0.105403
 10
2.086993
 20
8.073962
 42
0.167376
 10
2.098236
 20
8.071885
 42
0.167376
 10
2.108373
 20
8.077169999999999
 42
0.105403
 10
2.117683
 20
8.092408000000001
 42
0.06792
 10
2.121558
 20
8.111248
 42
0.054081
  0
LINE
  5
1F2C
330
23A5
100
AcDbEntity
  8
0
100
AcDbLine
 10
2.098236
 20
8.071885
 30
0.0
 11
2.123395
 21
8.077869
 31
0.0
  0
LWPOLYLINE
  5
1F2D
330
23A5
100
AcDbEntity
  8
0
100
AcDbPolyline
 90
        6
 70
     0
 43
0.0
 10
2.145731
 20
8.141328
 42
0.054081
 10
2.139602
 20
8.164650999999999
 42
0.06792
 10
2.130369
 20
8.181524000000001
 42
0.105403
 10
2.116997
 20
8.193358
 42
0.167376
 10
2.105754
 20
8.195436000000001
 42
0.042322
 10
2.102868
 20
8.194749
 42
0.025539
  0
LINE
  5
1F35
330
23A5
100
AcDbEntity
  8
0
100
AcDbLine
 10
2.080595
 20
8.189451
 30
0.0
 11
2.105754
 21
8.195436000000001
 31
0.0
  0
LWPOLYLINE
  5
1F36
330
23A5
100
AcDbEntity
  8
0
100
AcDbPolyline
 90
        5
 70
     0
 43
0.0
 10
2.216032
 20
7.715605
 42
0.167376
 10
2.22617
 20
7.720891
 42
0.105403
 10
2.23548
 20
7.736128
 42
0.06792
 10
2.239354
 20
7.754967999999999
 42
0.054081
 10
2.238369
 20
7.779063000000001
 42
0.054081
  0
LWPOLYLINE
  5
1F3D
330
23A5
100
AcDbEntity
  8
0
100
AcDbPolyline
 90
       16
 70
     1
 43
0.0
 10
2.213209
 20
7.773078999999999
 42
0.054081
 10
2.20708
 20
7.796402000000001
 42
0.06792
 10
2.197847
 20
7.813275
 42
0.105403
 10
2.184475
 20
7.825108999999999
 42
0.167376
 10
2.173232
 20
7.827187
 42
0.167376
 10
2.163095
 20
7.821901
 42
0.105403
 10
2.153785
 20
7.806664
 42
0.06792
 10
2.14991
 20
7.787824000000001
 42
0.054081
 10
2.150896
 20
7.763729
 42
0.054081
 10
2.157026
 20
7.740405
 42
0.06792
 10
2.166259
 20
7.723532000000001
 42
0.105403
 10
2.179631
 20
7.711697999999999
 42
0.167376
 10
2.190873
 20
7.709621
 42
0.167376
 10
2.201011
 20
7.714906
 42
0.105403
 10
2.210321
 20
7.730142999999999
 42
0.06792
 10
2.214195
 20
7.748983
 42
0.054081
  0
LINE
  5
1F4F
330
23A5
100
AcDbEntity
  8
0
100
AcDbLine
 10
2.190873
 20
7.709621
 30
0.0
 11
2.216032
 21
7.715605
 31
0.0
  0
LWPOLYLINE
  5
1F50
330
23A5
100
AcDbEntity
  8
0
100
AcDbPolyline
 90
        6
 70
     0
 43
0.0
 10
2.238369
 20
7.779063000000001
 42
0.054081
 10
2.232239
 20
7.802387
 42
0.06792
 10
2.223006
 20
7.819260000000001
 42
0.105403
 10
2.209634
 20
7.831094
 42
0.167376
 10
2.198392
 20
7.833171000000001
 42
0.042322
 10
2.195506
 20
7.832485
 42
0.025539
  0
LINE
  5
1F58
330
23A5
100
AcDbEntity
  8
0
100
AcDbLine
 10
2.173232
 20
7.827187
 30
0.0
 11
2.198392
 21
7.833171000000001
 31
0.0
  0
LWPOLYLINE
  5
1F59
330
23A5
100
AcDbEntity
  8
0
100
AcDbPolyline
 90
        5
 70
     0
 43
0.0
 10
2.519963
 20
7.484338
 42
0.167376
 10
2.530101
 20
7.489624000000001
 42
0.105403
 10
2.539411
 20
7.504861
 42
0.06792
 10
2.543285
 20
7.523700999999999
 42
0.054081
 10
2.5423
 20
7.547797
 42
0.054081
  0
LWPOLYLINE
  5
1F60
330
23A5
100
AcDbEntity
  8
0
100
AcDbPolyline
 90
       16
 70
     1
 43
0.0
 10
2.51714
 20
7.541811999999999
 42
0.054081
 10
2.511011
 20
7.565135000000001
 42
0.06792
 10
2.501778
 20
7.582008999999999
 42
0.105403
 10
2.488406
 20
7.593842
 42
0.167376
 10
2.477163
 20
7.59592
 42
0.167376
 10
2.467026
 20
7.590634
 42
0.105403
 10
2.457716
 20
7.575397
 42
0.06792
 10
2.453842
 20
7.556557000000001
 42
0.054081
 10
2.454827
 20
7.532462
 42
0.054081
 10
2.460957
 20
7.509138
 42
0.06792
 10
2.47019
 20
7.492265
 42
0.105403
 10
2.483562
 20
7.480430999999999
 42
0.167376
 10
2.494804
 20
7.478354
 42
0.167376
 10
2.504942
 20
7.483639
 42
0.105403
 10
2.514252
 20
7.498877
 42
0.06792
 10
2.518126
 20
7.517717
 42
0.054081
  0
LINE
  5
1F72
330
23A5
100
AcDbEntity
  8
0
100
AcDbLine
 10
2.494804
 20
7.478354
 30
0.0
 11
2.519963
 21
7.484338
 31
0.0
  0
LWPOLYLINE
  5
1F73
330
23A5
100
AcDbEntity
  8
0
100
AcDbPolyline
 90
        6
 70
     0
 43
0.0
 10
2.5423
 20
7.547797
 42
0.054081
 10
2.53617
 20
7.57112
 42
0.06792
 10
2.526937
 20
7.587992999999999
 42
0.105403
 10
2.513565
 20
7.599827
 42
0.167376
 10
2.502323
 20
7.601905
 42
0.042322
 10
2.499437
 20
7.601217999999999
 42
0.025539
  0
LINE
  5
1F7B
330
23A5
100
AcDbEntity
  8
0
100
AcDbLine
 10
2.477163
 20
7.59592
 30
0.0
 11
2.502323
 21
7.601905
 31
0.0
  0
LWPOLYLINE
  5
1F7C
330
23A5
100
AcDbEntity
  8
0
100
AcDbPolyline
 90
        5
 70
     0
 43
0.0
 10
2.068758
 20
7.193658999999999
 42
0.167376
 10
2.078895
 20
7.198945
 42
0.105403
 10
2.088205
 20
7.214182000000001
 42
0.06792
 10
2.092079
 20
7.233022
 42
0.054081
 10
2.091094
 20
7.257117
 42
0.054081
  0
LWPOLYLINE
  5
1F83
330
23A5
100
AcDbEntity
  8
0
100
AcDbPolyline
 90
       16
 70
     1
 43
0.0
 10
2.065935
 20
7.251133
 42
0.054081
 10
2.059805
 20
7.274456
 42
0.06792
 10
2.050572
 20
7.291328999999999
 42
0.105403
 10
2.0372
 20
7.303163000000001
 42
0.167376
 10
2.025958
 20
7.305241000000001
 42
0.167376
 10
2.01582
 20
7.299955000000001
 42
0.105403
 10
2.00651
 20
7.284717999999999
 42
0.06792
 10
2.002636
 20
7.265878
 42
0.054081
 10
2.003621
 20
7.241782000000001
 42
0.054081
 10
2.009751
 20
7.218458999999999
 42
0.06792
 10
2.018984
 20
7.201586
 42
0.105403
 10
2.032356
 20
7.189752
 42
0.167376
 10
2.043598
 20
7.187674
 42
0.167376
 10
2.053736
 20
7.19296
 42
0.105403
 10
2.063046
 20
7.208197
 42
0.06792
 10
2.06692
 20
7.227036999999999
 42
0.054081
  0
LINE
  5
1F95
330
23A5
100
AcDbEntity
  8
0
100
AcDbLine
 10
2.043598
 20
7.187674
 30
0.0
 11
2.068758
 21
7.193658999999999
 31
0.0
  0
LWPOLYLINE
  5
1F96
330
23A5
100
AcDbEntity
  8
0
100
AcDbPolyline
 90
        6
 70
     0
 43
0.0
 10
2.091094
 20
7.257117
 42
0.054081
 10
2.084964
 20
7.280441000000001
 42
0.06792
 10
2.075731
 20
7.297314
 42
0.105403
 10
2.062359
 20
7.309148
 42
0.167376
 10
2.051117
 20
7.311225
 42
0.042322
 10
2.048231
 20
7.310539
 42
0.025539
  0
LINE
  5
1F9E
330
23A5
100
AcDbEntity
  8
0
100
AcDbLine
 10
2.025958
 20
7.305241000000001
 30
0.0
 11
2.051117
 21
7.311225
 31
0.0
  0
LWPOLYLINE
  5
1F9F
330
23A5
100
AcDbEntity
  8
0
100
AcDbPolyline
 90
        5
 70
     0
 43
0.0
 10
1.846378
 20
7.470911
 42
0.167376
 10
1.856516
 20
7.476197
 42
0.105403
 10
1.865826
 20
7.491434
 42
0.06792
 10
1.8697
 20
7.510274000000001
 42
0.054081
 10
1.868714
 20
7.53437
 42
0.054081
  0
LWPOLYLINE
  5
1FA6
330
23A5
100
AcDbEntity
  8
0
100
AcDbPolyline
 90
       16
 70
     1
 43
0.0
 10
1.843555
 20
7.528385000000001
 42
0.054081
 10
1.837425
 20
7.551708000000001
 42
0.06792
 10
1.828192
 20
7.568581
 42
0.105403
 10
1.81482
 20
7.580415
 42
0.167376
 10
1.803578
 20
7.582493
 42
0.167376
 10
1.79344
 20
7.577207000000001
 42
0.105403
 10
1.78413
 20
7.56197
 42
0.06792
 10
1.780256
 20
7.543130000000001
 42
0.054081
 10
1.781242
 20
7.519035000000001
 42
0.054081
 10
1.787371
 20
7.495711
 42
0.06792
 10
1.796604
 20
7.478838000000001
 42
0.105403
 10
1.809976
 20
7.467003999999999
 42
0.167376
 10
1.821219
 20
7.464927
 42
0.167376
 10
1.831356
 20
7.470211999999999
 42
0.105403
 10
1.840666
 20
7.48545
 42
0.06792
 10
1.84454
 20
7.504289999999999
 42
0.054081
  0
LINE
  5
1FB8
330
23A5
100
AcDbEntity
  8
0
100
AcDbLine
 10
1.821219
 20
7.464927
 30
0.0
 11
1.846378
 21
7.470911
 31
0.0
  0
LWPOLYLINE
  5
1FB9
330
23A5
100
AcDbEntity
  8
0
100
AcDbPolyline
 90
        6
 70
     0
 43
0.0
 10
1.868714
 20
7.53437
 42
0.054081
 10
1.862585
 20
7.557693
 42
0.06792
 10
1.853352
 20
7.574566
 42
0.105403
 10
1.83998
 20
7.5864
 42
0.167376
 10
1.828737
 20
7.588478
 42
0.042322
 10
1.825851
 20
7.587791
 42
0.025539
  0
LINE
  5
1FC1
330
23A5
100
AcDbEntity
  8
0
100
AcDbLine
 10
1.803578
 20
7.582493
 30
0.0
 11
1.828737
 21
7.588478
 31
0.0
  0
LWPOLYLINE
  5
1FC2
330
23A5
100
AcDbEntity
  8
0
100
AcDbPolyline
 90
        5
 70
     0
 43
0.0
 10
1.657743
 20
7.705664
 42
0.167376
 10
1.66788
 20
7.710949
 42
0.105403
 10
1.67719
 20
7.726187
 42
0.06792
 10
1.681064
 20
7.745027
 42
0.054081
 10
1.680079
 20
7.769122
 42
0.054081
  0
LWPOLYLINE
  5
1FC9
330
23A5
100
AcDbEntity
  8
0
100
AcDbPolyline
 90
       16
 70
     1
 43
0.0
 10
1.654919
 20
7.763137
 42
0.054081
 10
1.64879
 20
7.786460000000001
 42
0.06792
 10
1.639557
 20
7.803334
 42
0.105403
 10
1.626185
 20
7.815167
 42
0.167376
 10
1.614942
 20
7.817245
 42
0.167376
 10
1.604805
 20
7.811959
 42
0.105403
 10
1.595495
 20
7.796722
 42
0.06792
 10
1.591621
 20
7.777882000000001
 42
0.054081
 10
1.592606
 20
7.753786999999999
 42
0.054081
 10
1.598736
 20
7.730464
 42
0.06792
 10
1.607969
 20
7.713589999999999
 42
0.105403
 10
1.621341
 20
7.701756
 42
0.167376
 10
1.632583
 20
7.699679
 42
0.167376
 10
1.642721
 20
7.704965
 42
0.105403
 10
1.652031
 20
7.720202000000001
 42
0.06792
 10
1.655905
 20
7.739042
 42
0.054081
  0
LINE
  5
1FDB
330
23A5
100
AcDbEntity
  8
0
100
AcDbLine
 10
1.632583
 20
7.699679
 30
0.0
 11
1.657743
 21
7.705664
 31
0.0
  0
LWPOLYLINE
  5
1FDC
330
23A5
100
AcDbEntity
  8
0
100
AcDbPolyline
 90
        6
 70
     0
 43
0.0
 10
1.680079
 20
7.769122
 42
0.054081
 10
1.673949
 20
7.792445
 42
0.06792
 10
1.664716
 20
7.809317999999999
 42
0.105403
 10
1.651344
 20
7.821152000000001
 42
0.167376
 10
1.640102
 20
7.823230000000001
 42
0.042322
 10
1.637216
 20
7.822543
 42
0.025539
  0
LINE
  5
1FE4
330
23A5
100
AcDbEntity
  8
0
100
AcDbLine
 10
1.614942
 20
7.817245
 30
0.0
 11
1.640102
 21
7.823230000000001
 31
0.0
  0
LWPOLYLINE
  5
1FE5
330
23A5
100
AcDbEntity
  8
0
100
AcDbPolyline
 90
        5
 70
     0
 43
0.0
 10
1.658817
 20
7.239934
 42
0.167376
 10
1.668955
 20
7.245219000000001
 42
0.105403
 10
1.678265
 20
7.260457000000001
 42
0.06792
 10
1.682139
 20
7.279297
 42
0.054081
 10
1.681154
 20
7.303392
 42
0.054081
  0
LWPOLYLINE
  5
1FEC
330
23A5
100
AcDbEntity
  8
0
100
AcDbPolyline
 90
       16
 70
     1
 43
0.0
 10
1.655994
 20
7.297407000000001
 42
0.054081
 10
1.649865
 20
7.32073
 42
0.06792
 10
1.640632
 20
7.337604
 42
0.105403
 10
1.62726
 20
7.349436999999999
 42
0.167376
 10
1.616017
 20
7.351514999999999
 42
0.167376
 10
1.60588
 20
7.346228999999999
 42
0.105403
 10
1.59657
 20
7.330992
 42
0.06792
 10
1.592695
 20
7.312152
 42
0.054081
 10
1.593681
 20
7.288057000000001
 42
0.054081
 10
1.599811
 20
7.264734
 42
0.06792
 10
1.609044
 20
7.24786
 42
0.105403
 10
1.622416
 20
7.236026
 42
0.167376
 10
1.633658
 20
7.233949000000001
 42
0.167376
 10
1.643796
 20
7.239235000000001
 42
0.105403
 10
1.653106
 20
7.254472
 42
0.06792
 10
1.65698
 20
7.273312
 42
0.054081
  0
LINE
  5
1FFE
330
23A5
100
AcDbEntity
  8
0
100
AcDbLine
 10
1.633658
 20
7.233949000000001
 30
0.0
 11
1.658817
 21
7.239934
 31
0.0
  0
LWPOLYLINE
  5
1FFF
330
23A5
100
AcDbEntity
  8
0
100
AcDbPolyline
 90
        6
 70
     0
 43
0.0
 10
1.681154
 20
7.303392
 42
0.054081
 10
1.675024
 20
7.326714999999999
 42
0.06792
 10
1.665791
 20
7.343588
 42
0.105403
 10
1.652419
 20
7.355422
 42
0.167376
 10
1.641177
 20
7.3575
 42
0.042322
 10
1.638291
 20
7.356813000000001
 42
0.025539
  0
LINE
  5
2007
330
23A5
100
AcDbEntity
  8
0
100
AcDbLine
 10
1.616017
 20
7.351514999999999
 30
0.0
 11
1.641177
 21
7.3575
 31
0.0
  0
LWPOLYLINE
  5
2008
330
23A5
100
AcDbEntity
  8
0
100
AcDbPolyline
 90
        5
 70
     0
 43
0.0
 10
1.852405
 20
6.966948
 42
0.167376
 10
1.862543
 20
6.972233
 42
0.105403
 10
1.871853
 20
6.98747
 42
0.06792
 10
1.875727
 20
7.006310000000001
 42
0.054081
 10
1.874741
 20
7.030406
 42
0.054081
  0
LWPOLYLINE
  5
200F
330
23A5
100
AcDbEntity
  8
0
100
AcDbPolyline
 90
       16
 70
     1
 43
0.0
 10
1.849582
 20
7.024421
 42
0.054081
 10
1.843453
 20
7.047744000000001
 42
0.06792
 10
1.83422
 20
7.064617999999999
 42
0.105403
 10
1.820848
 20
7.076451
 42
0.167376
 10
1.809605
 20
7.078529
 42
0.167376
 10
1.799468
 20
7.073243
 42
0.105403
 10
1.790158
 20
7.058006
 42
0.06792
 10
1.786283
 20
7.039166000000001
 42
0.054081
 10
1.787269
 20
7.015071000000001
 42
0.054081
 10
1.793399
 20
6.991747
 42
0.06792
 10
1.802631
 20
6.974874000000001
 42
0.105403
 10
1.816003
 20
6.96304
 42
0.167376
 10
1.827246
 20
6.960963000000001
 42
0.167376
 10
1.837384
 20
6.966247999999999
 42
0.105403
 10
1.846694
 20
6.981486
 42
0.06792
 10
1.850568
 20
7.000325999999999
 42
0.054081
  0
LINE
  5
2021
330
23A5
100
AcDbEntity
  8
0
100
AcDbLine
 10
1.827246
 20
6.960963000000001
 30
0.0
 11
1.852405
 21
6.966948
 31
0.0
  0
LWPOLYLINE
  5
2022
330
23A5
100
AcDbEntity
  8
0
100
AcDbPolyline
 90
        6
 70
     0
 43
0.0
 10
1.874741
 20
7.030406
 42
0.054081
 10
1.868612
 20
7.053729
 42
0.06792
 10
1.859379
 20
7.070602
 42
0.105403
 10
1.846007
 20
7.082436
 42
0.167376
 10
1.834764
 20
7.084514
 42
0.042322
 10
1.831878
 20
7.083827
 42
0.025539
  0
LINE
  5
202A
330
23A5
100
AcDbEntity
  8
0
100
AcDbLine
 10
1.809605
 20
7.078529
 30
0.0
 11
1.834764
 21
7.084514
 31
0.0
  0
LWPOLYLINE
  5
202B
330
23A5
100
AcDbEntity
  8
0
100
AcDbPolyline
 90
        5
 70
     0
 43
0.0
 10
2.07006
 20
6.656695
 42
0.167376
 10
2.080197
 20
6.661981
 42
0.105403
 10
2.089507
 20
6.677217999999999
 42
0.06792
 10
2.093381
 20
6.696058
 42
0.054081
 10
2.092396
 20
6.720153
 42
0.054081
  0
LWPOLYLINE
  5
2032
330
23A5
100
AcDbEntity
  8
0
100
AcDbPolyline
 90
       16
 70
     1
 43
0.0
 10
2.067236
 20
6.714167999999999
 42
0.054081
 10
2.061107
 20
6.737492
 42
0.06792
 10
2.051874
 20
6.754364999999999
 42
0.105403
 10
2.038502
 20
6.766199
 42
0.167376
 10
2.027259
 20
6.768277
 42
0.167376
 10
2.017122
 20
6.762991
 42
0.105403
 10
2.007812
 20
6.747754
 42
0.06792
 10
2.003938
 20
6.728914
 42
0.054081
 10
2.004923
 20
6.704818
 42
0.054081
 10
2.011053
 20
6.681495
 42
0.06792
 10
2.020286
 20
6.664622000000001
 42
0.105403
 10
2.033658
 20
6.652788
 42
0.167376
 10
2.0449
 20
6.650710000000001
 42
0.167376
 10
2.055038
 20
6.655996000000001
 42
0.105403
 10
2.064348
 20
6.671233
 42
0.06792
 10
2.068222
 20
6.690073
 42
0.054081
  0
LINE
  5
2044
330
23A5
100
AcDbEntity
  8
0
100
AcDbLine
 10
2.0449
 20
6.650710000000001
 30
0.0
 11
2.07006
 21
6.656695
 31
0.0
  0
LWPOLYLINE
  5
2045
330
23A5
100
AcDbEntity
  8
0
100
AcDbPolyline
 90
        6
 70
     0
 43
0.0
 10
2.092396
 20
6.720153
 42
0.054081
 10
2.086266
 20
6.743477
 42
0.06792
 10
2.077033
 20
6.76035
 42
0.105403
 10
2.063661
 20
6.772183999999999
 42
0.167376
 10
2.052419
 20
6.774261
 42
0.042322
 10
2.049533
 20
6.773575
 42
0.025539
  0
LINE
  5
204D
330
23A5
100
AcDbEntity
  8
0
100
AcDbLine
 10
2.027259
 20
6.768277
 30
0.0
 11
2.052419
 21
6.774261
 31
0.0
  0
LWPOLYLINE
  5
204E
330
23A5
100
AcDbEntity
  8
0
100
AcDbPolyline
 90
        5
 70
     0
 43
0.0
 10
2.948054
 20
6.082576
 42
0.167376
 10
2.958192
 20
6.087862
 42
0.105403
 10
2.967502
 20
6.103098999999999
 42
0.06792
 10
2.971376
 20
6.121939
 42
0.054081
 10
2.97039
 20
6.146033999999999
 42
0.054081
  0
LWPOLYLINE
  5
2055
330
23A5
100
AcDbEntity
  8
0
100
AcDbPolyline
 90
       16
 70
     1
 43
0.0
 10
2.945231
 20
6.14005
 42
0.054081
 10
2.939101
 20
6.163373
 42
0.06792
 10
2.929868
 20
6.180246
 42
0.105403
 10
2.916496
 20
6.192080000000001
 42
0.167376
 10
2.905254
 20
6.194158
 42
0.167376
 10
2.895116
 20
6.188872
 42
0.105403
 10
2.885806
 20
6.173635
 42
0.06792
 10
2.881932
 20
6.154795
 42
0.054081
 10
2.882918
 20
6.1307
 42
0.054081
 10
2.889047
 20
6.107376
 42
0.06792
 10
2.89828
 20
6.090503
 42
0.105403
 10
2.911652
 20
6.078669000000001
 42
0.167376
 10
2.922895
 20
6.076592
 42
0.167376
 10
2.933032
 20
6.081877
 42
0.105403
 10
2.942342
 20
6.097115000000001
 42
0.06792
 10
2.946216
 20
6.115955000000001
 42
0.054081
  0
LINE
  5
2067
330
23A5
100
AcDbEntity
  8
0
100
AcDbLine
 10
2.922895
 20
6.076592
 30
0.0
 11
2.948054
 21
6.082576
 31
0.0
  0
LWPOLYLINE
  5
2068
330
23A5
100
AcDbEntity
  8
0
100
AcDbPolyline
 90
        6
 70
     0
 43
0.0
 10
2.97039
 20
6.146033999999999
 42
0.054081
 10
2.964261
 20
6.169358
 42
0.06792
 10
2.955028
 20
6.186230999999999
 42
0.105403
 10
2.941656
 20
6.198065
 42
0.167376
 10
2.930413
 20
6.200143
 42
0.042322
 10
2.927527
 20
6.199456
 42
0.025539
  0
LINE
  5
2070
330
23A5
100
AcDbEntity
  8
0
100
AcDbLine
 10
2.905254
 20
6.194158
 30
0.0
 11
2.930413
 21
6.200143
 31
0.0
  0
LWPOLYLINE
  5
2071
330
23A5
100
AcDbEntity
  8
0
100
AcDbPolyline
 90
        5
 70
     0
 43
0.0
 10
2.932193
 20
5.698358
 42
0.167376
 10
2.94233
 20
5.703643000000001
 42
0.105403
 10
2.95164
 20
5.718881
 42
0.06792
 10
2.955514
 20
5.737721
 42
0.054081
 10
2.954529
 20
5.761816000000001
 42
0.054081
  0
LWPOLYLINE
  5
2078
330
23A5
100
AcDbEntity
  8
0
100
AcDbPolyline
 90
       16
 70
     1
 43
0.0
 10
2.929369
 20
5.755831
 42
0.054081
 10
2.92324
 20
5.779154
 42
0.06792
 10
2.914007
 20
5.796028
 42
0.105403
 10
2.900635
 20
5.807862
 42
0.167376
 10
2.889392
 20
5.809939
 42
0.167376
 10
2.879255
 20
5.804653
 42
0.105403
 10
2.869945
 20
5.789416
 42
0.06792
 10
2.866071
 20
5.770576
 42
0.054081
 10
2.867056
 20
5.746481
 42
0.054081
 10
2.873186
 20
5.723158
 42
0.06792
 10
2.882419
 20
5.706283999999999
 42
0.105403
 10
2.895791
 20
5.694451
 42
0.167376
 10
2.907033
 20
5.692373
 42
0.167376
 10
2.917171
 20
5.697659
 42
0.105403
 10
2.926481
 20
5.712896
 42
0.06792
 10
2.930355
 20
5.731736
 42
0.054081
  0
LINE
  5
208A
330
23A5
100
AcDbEntity
  8
0
100
AcDbLine
 10
2.907033
 20
5.692373
 30
0.0
 11
2.932193
 21
5.698358
 31
0.0
  0
LWPOLYLINE
  5
208B
330
23A5
100
AcDbEntity
  8
0
100
AcDbPolyline
 90
        6
 70
     0
 43
0.0
 10
2.954529
 20
5.761816000000001
 42
0.054081
 10
2.948399
 20
5.785139
 42
0.06792
 10
2.939166
 20
5.802012
 42
0.105403
 10
2.925794
 20
5.813846
 42
0.167376
 10
2.914552
 20
5.815924
 42
0.042322
 10
2.911666
 20
5.815237000000001
 42
0.025539
  0
LINE
  5
2093
330
23A5
100
AcDbEntity
  8
0
100
AcDbLine
 10
2.889392
 20
5.809939
 30
0.0
 11
2.914552
 21
5.815924
 31
0.0
  0
LWPOLYLINE
  5
2094
330
23A5
100
AcDbEntity
  8
0
100
AcDbPolyline
 90
        5
 70
     0
 43
0.0
 10
2.663788
 20
5.693308
 42
0.167376
 10
2.673926
 20
5.698593
 42
0.105403
 10
2.683236
 20
5.713831
 42
0.06792
 10
2.68711
 20
5.732671
 42
0.054081
 10
2.686125
 20
5.756766000000001
 42
0.054081
  0
LWPOLYLINE
  5
209B
330
23A5
100
AcDbEntity
  8
0
100
AcDbPolyline
 90
       16
 70
     1
 43
0.0
 10
2.660965
 20
5.750781
 42
0.054081
 10
2.654836
 20
5.774105000000001
 42
0.06792
 10
2.645603
 20
5.790978
 42
0.105403
 10
2.632231
 20
5.802812
 42
0.167376
 10
2.620988
 20
5.804889
 42
0.167376
 10
2.610851
 20
5.799604
 42
0.105403
 10
2.601541
 20
5.784366
 42
0.06792
 10
2.597666
 20
5.765526
 42
0.054081
 10
2.598652
 20
5.741431
 42
0.054081
 10
2.604782
 20
5.718108
 42
0.06792
 10
2.614015
 20
5.701234
 42
0.105403
 10
2.627387
 20
5.689401
 42
0.167376
 10
2.638629
 20
5.687323
 42
0.167376
 10
2.648767
 20
5.692609
 42
0.105403
 10
2.658077
 20
5.707846
 42
0.06792
 10
2.661951
 20
5.726686
 42
0.054081
  0
LINE
  5
20AD
330
23A5
100
AcDbEntity
  8
0
100
AcDbLine
 10
2.638629
 20
5.687323
 30
0.0
 11
2.663788
 21
5.693308
 31
0.0
  0
LWPOLYLINE
  5
20AE
330
23A5
100
AcDbEntity
  8
0
100
AcDbPolyline
 90
        6
 70
     0
 43
0.0
 10
2.686125
 20
5.756766000000001
 42
0.054081
 10
2.679995
 20
5.780089
 42
0.06792
 10
2.670762
 20
5.796963
 42
0.105403
 10
2.65739
 20
5.808796
 42
0.167376
 10
2.646148
 20
5.810874
 42
0.042322
 10
2.643262
 20
5.810188
 42
0.025539
  0
LINE
  5
20B6
330
23A5
100
AcDbEntity
  8
0
100
AcDbLine
 10
2.620988
 20
5.804889
 30
0.0
 11
2.646148
 21
5.810874
 31
0.0
  0
ARC
  5
20B7
330
23A5
100
AcDbEntity
  8
0
100
AcDbCircle
 10
4.259887
 20
7.085507000000001
 30
0.0
 40
0.053202
100
AcDbArc
 50
296.333586
 51
317.919458
  0
ARC
  5
20B8
330
23A5
100
AcDbEntity
  8
0
100
AcDbCircle
 10
4.289182
 20
7.059055
 30
0.0
 40
0.013732
100
AcDbArc
 50
317.919458
 51
0.0
  0
ARC
  5
20B9
330
23A5
100
AcDbEntity
  8
0
100
AcDbCircle
 10
4.238786
 20
7.147811
 30
0.0
 40
0.102308
100
AcDbArc
 50
293.669852
 51
295.449125
  0
ARC
  5
20BA
330
23A5
100
AcDbEntity
  8
0
100
AcDbCircle
 10
4.259887
 20
7.103471000000001
 30
0.0
 40
0.053202
100
AcDbArc
 50
295.449125
 51
317.919458
  0
ARC
  5
20BB
330
23A5
100
AcDbEntity
  8
0
100
AcDbCircle
 10
4.289182
 20
7.077019
 30
0.0
 40
0.013732
100
AcDbArc
 50
317.919458
 51
0.0
  0
ARC
  5
20BC
330
23A5
100
AcDbEntity
  8
0
100
AcDbCircle
 10
4.238786
 20
7.185208
 30
0.0
 40
0.102308
100
AcDbArc
 50
287.561751
 51
295.449125
  0
ARC
  5
20BD
330
23A5
100
AcDbEntity
  8
0
100
AcDbCircle
 10
4.259887
 20
7.140867
 30
0.0
 40
0.053202
100
AcDbArc
 50
295.449125
 51
317.919458
  0
ARC
  5
20BE
330
23A5
100
AcDbEntity
  8
0
100
AcDbCircle
 10
4.289182
 20
7.114414999999999
 30
0.0
 40
0.013732
100
AcDbArc
 50
317.919458
 51
0.0
  0
ARC
  5
20BF
330
23A5
100
AcDbEntity
  8
0
100
AcDbCircle
 10
4.238786
 20
7.166303999999999
 30
0.0
 40
0.102308
100
AcDbArc
 50
290.897465
 51
295.449125
  0
ARC
  5
20C0
330
23A5
100
AcDbEntity
  8
0
100
AcDbCircle
 10
4.259887
 20
7.121963
 30
0.0
 40
0.053202
100
AcDbArc
 50
295.449125
 51
317.919458
  0
ARC
  5
20C1
330
23A5
100
AcDbEntity
  8
0
100
AcDbCircle
 10
4.289182
 20
7.095511
 30
0.0
 40
0.013732
100
AcDbArc
 50
317.919458
 51
0.0
  0
ARC
  5
20C2
330
23A5
100
AcDbEntity
  8
0
100
AcDbCircle
 10
4.222615
 20
7.312841000000001
 30
0.0
 40
0.175739
100
AcDbArc
 50
277.91553
 51
282.7224470000001
  0
ARC
  5
20C3
330
23A5
100
AcDbEntity
  8
0
100
AcDbCircle
 10
4.238786
 20
7.241213
 30
0.0
 40
0.102308
100
AcDbArc
 50
282.7224470000001
 51
295.449125
  0
ARC
  5
20C4
330
23A5
100
AcDbEntity
  8
0
100
AcDbCircle
 10
4.259887
 20
7.196872
 30
0.0
 40
0.053202
100
AcDbArc
 50
295.449125
 51
317.919458
  0
ARC
  5
20C5
330
23A5
100
AcDbEntity
  8
0
100
AcDbCircle
 10
4.289182
 20
7.17042
 30
0.0
 40
0.013732
100
AcDbArc
 50
317.919458
 51
335.897235
  0
ARC
  5
20C6
330
23A5
100
AcDbEntity
  8
0
100
AcDbCircle
 10
4.259887
 20
7.068044
 30
0.0
 40
0.053202
100
AcDbArc
 50
301.107352
 51
317.919458
  0
ARC
  5
20C7
330
23A5
100
AcDbEntity
  8
0
100
AcDbCircle
 10
4.289182
 20
7.041592999999999
 30
0.0
 40
0.013732
100
AcDbArc
 50
317.919458
 51
0.0
  0
ARC
  5
20C8
330
23A5
100
AcDbEntity
  8
0
100
AcDbCircle
 10
4.259887
 20
7.050081
 30
0.0
 40
0.053202
100
AcDbArc
 50
308.721659
 51
317.919458
  0
ARC
  5
20C9
330
23A5
100
AcDbEntity
  8
0
100
AcDbCircle
 10
4.289182
 20
7.023629
 30
0.0
 40
0.013732
100
AcDbArc
 50
317.919458
 51
0.0
  0
ARC
  5
20CA
330
23A5
100
AcDbEntity
  8
0
100
AcDbCircle
 10
4.238786
 20
7.203171
 30
0.0
 40
0.102308
100
AcDbArc
 50
283.861992
 51
295.449125
  0
ARC
  5
20CB
330
23A5
100
AcDbEntity
  8
0
100
AcDbCircle
 10
4.259887
 20
7.158831
 30
0.0
 40
0.053202
100
AcDbArc
 50
295.449125
 51
317.919458
  0
ARC
  5
20CC
330
23A5
100
AcDbEntity
  8
0
100
AcDbCircle
 10
4.289182
 20
7.132378999999999
 30
0.0
 40
0.013732
100
AcDbArc
 50
317.919458
 51
0.0
  0
ARC
  5
20CD
330
23A5
100
AcDbEntity
  8
0
100
AcDbCircle
 10
4.222615
 20
7.293292
 30
0.0
 40
0.175739
100
AcDbArc
 50
280.994523
 51
282.7224470000001
  0
ARC
  5
20CE
330
23A5
100
AcDbEntity
  8
0
100
AcDbCircle
 10
4.238786
 20
7.221664
 30
0.0
 40
0.102308
100
AcDbArc
 50
282.7224470000001
 51
295.449125
  0
ARC
  5
20CF
330
23A5
100
AcDbEntity
  8
0
100
AcDbCircle
 10
4.259887
 20
7.177323
 30
0.0
 40
0.053202
100
AcDbArc
 50
295.449125
 51
317.919458
  0
ARC
  5
20D0
330
23A5
100
AcDbEntity
  8
0
100
AcDbCircle
 10
4.289182
 20
7.150871
 30
0.0
 40
0.013732
100
AcDbArc
 50
317.919458
 51
0.0
  0
ARC
  5
20D1
330
23A5
100
AcDbEntity
  8
0
100
AcDbCircle
 10
2.342375
 20
7.090382000000001
 30
0.0
 40
0.175739
100
AcDbArc
 50
275.487019
 51
282.7224470000001
  0
ARC
  5
20D2
330
23A5
100
AcDbEntity
  8
0
100
AcDbCircle
 10
2.358546
 20
7.018754
 30
0.0
 40
0.102308
100
AcDbArc
 50
282.7224470000001
 51
295.449125
  0
ARC
  5
20D3
330
23A5
100
AcDbEntity
  8
0
100
AcDbCircle
 10
2.379647
 20
6.974413
 30
0.0
 40
0.053202
100
AcDbArc
 50
295.449125
 51
296.362366
  0
ARC
  5
20D4
330
23A5
100
AcDbEntity
  8
0
100
AcDbCircle
 10
2.358546
 20
6.90463
 30
0.0
 40
0.102308
100
AcDbArc
 50
292.39829
 51
295.449125
  0
ARC
  5
20D5
330
23A5
100
AcDbEntity
  8
0
100
AcDbCircle
 10
2.379647
 20
6.860289999999999
 30
0.0
 40
0.053202
100
AcDbArc
 50
295.449125
 51
317.919458
  0
ARC
  5
20D6
330
23A5
100
AcDbEntity
  8
0
100
AcDbCircle
 10
2.408942
 20
6.833838
 30
0.0
 40
0.013732
100
AcDbArc
 50
317.919458
 51
0.0
  0
ARC
  5
20D7
330
23A5
100
AcDbEntity
  8
0
100
AcDbCircle
 10
2.379647
 20
6.803756
 30
0.0
 40
0.053202
100
AcDbArc
 50
300.624954
 51
317.919458
  0
ARC
  5
20D8
330
23A5
100
AcDbEntity
  8
0
100
AcDbCircle
 10
2.408942
 20
6.777305
 30
0.0
 40
0.013732
100
AcDbArc
 50
317.919458
 51
0.0
  0
ARC
  5
20D9
330
23A5
100
AcDbEntity
  8
0
100
AcDbCircle
 10
2.358546
 20
6.90463
 30
0.0
 40
0.102308
100
AcDbArc
 50
292.39829
 51
295.449125
  0
ARC
  5
20DA
330
23A5
100
AcDbEntity
  8
0
100
AcDbCircle
 10
2.379647
 20
6.860289999999999
 30
0.0
 40
0.053202
100
AcDbArc
 50
295.449125
 51
317.919458
  0
ARC
  5
20DB
330
23A5
100
AcDbEntity
  8
0
100
AcDbCircle
 10
2.408942
 20
6.833838
 30
0.0
 40
0.013732
100
AcDbArc
 50
317.919458
 51
0.0
  0
ARC
  5
20DC
330
23A5
100
AcDbEntity
  8
0
100
AcDbCircle
 10
2.358546
 20
6.923122
 30
0.0
 40
0.102308
100
AcDbArc
 50
290.727716
 51
295.449125
  0
ARC
  5
20DD
330
23A5
100
AcDbEntity
  8
0
100
AcDbCircle
 10
2.379647
 20
6.878782000000001
 30
0.0
 40
0.053202
100
AcDbArc
 50
295.449125
 51
317.919458
  0
ARC
  5
20DE
330
23A5
100
AcDbEntity
  8
0
100
AcDbCircle
 10
2.408942
 20
6.85233
 30
0.0
 40
0.013732
100
AcDbArc
 50
317.919458
 51
0.0
  0
ARC
  5
20DF
330
23A5
100
AcDbEntity
  8
0
100
AcDbCircle
 10
2.358546
 20
6.961164
 30
0.0
 40
0.102308
100
AcDbArc
 50
285.123195
 51
295.449125
  0
ARC
  5
20E0
330
23A5
100
AcDbEntity
  8
0
100
AcDbCircle
 10
2.379647
 20
6.916823
 30
0.0
 40
0.053202
100
AcDbArc
 50
295.449125
 51
317.919458
  0
ARC
  5
20E1
330
23A5
100
AcDbEntity
  8
0
100
AcDbCircle
 10
2.408942
 20
6.890371000000001
 30
0.0
 40
0.013732
100
AcDbArc
 50
317.919458
 51
0.0
  0
ARC
  5
20E2
330
23A5
100
AcDbEntity
  8
0
100
AcDbCircle
 10
2.358546
 20
6.942671000000001
 30
0.0
 40
0.102308
100
AcDbArc
 50
288.212399
 51
295.449125
  0
ARC
  5
20E3
330
23A5
100
AcDbEntity
  8
0
100
AcDbCircle
 10
2.379647
 20
6.898331
 30
0.0
 40
0.053202
100
AcDbArc
 50
295.449125
 51
317.919458
  0
ARC
  5
20E4
330
23A5
100
AcDbEntity
  8
0
100
AcDbCircle
 10
2.408942
 20
6.871878999999999
 30
0.0
 40
0.013732
100
AcDbArc
 50
317.919458
 51
0.0
  0
ARC
  5
20E5
330
23A5
100
AcDbEntity
  8
0
100
AcDbCircle
 10
2.358546
 20
6.885081
 30
0.0
 40
0.102308
100
AcDbArc
 50
293.376746
 51
295.449125
  0
ARC
  5
20E6
330
23A5
100
AcDbEntity
  8
0
100
AcDbCircle
 10
2.379647
 20
6.840741
 30
0.0
 40
0.053202
100
AcDbArc
 50
295.449125
 51
317.919458
  0
ARC
  5
20E7
330
23A5
100
AcDbEntity
  8
0
100
AcDbCircle
 10
2.408942
 20
6.814289
 30
0.0
 40
0.013732
100
AcDbArc
 50
317.919458
 51
0.0
  0
ARC
  5
20E8
330
23A5
100
AcDbEntity
  8
0
100
AcDbCircle
 10
2.342375
 20
7.070833
 30
0.0
 40
0.175739
100
AcDbArc
 50
279.011624
 51
282.7224470000001
  0
ARC
  5
20E9
330
23A5
100
AcDbEntity
  8
0
100
AcDbCircle
 10
2.358546
 20
6.999205
 30
0.0
 40
0.102308
100
AcDbArc
 50
282.7224470000001
 51
295.449125
  0
ARC
  5
20EA
330
23A5
100
AcDbEntity
  8
0
100
AcDbCircle
 10
2.379647
 20
6.954864
 30
0.0
 40
0.053202
100
AcDbArc
 50
295.449125
 51
317.919458
  0
ARC
  5
20EB
330
23A5
100
AcDbEntity
  8
0
100
AcDbCircle
 10
2.408942
 20
6.928412
 30
0.0
 40
0.013732
100
AcDbArc
 50
317.919458
 51
0.0
  0
ARC
  5
20EC
330
23A5
100
AcDbEntity
  8
0
100
AcDbCircle
 10
2.342375
 20
7.052341
 30
0.0
 40
0.175739
100
AcDbArc
 50
281.750167
 51
282.7224470000001
  0
ARC
  5
20ED
330
23A5
100
AcDbEntity
  8
0
100
AcDbCircle
 10
2.358546
 20
6.980712
 30
0.0
 40
0.102308
100
AcDbArc
 50
282.7224470000001
 51
295.449125
  0
ARC
  5
20EE
330
23A5
100
AcDbEntity
  8
0
100
AcDbCircle
 10
2.379647
 20
6.936372
 30
0.0
 40
0.053202
100
AcDbArc
 50
295.449125
 51
317.919458
  0
ARC
  5
20EF
330
23A5
100
AcDbEntity
  8
0
100
AcDbCircle
 10
2.408942
 20
6.90992
 30
0.0
 40
0.013732
100
AcDbArc
 50
317.919458
 51
0.0
  0
ARC
  5
20F0
330
23A5
100
AcDbEntity
  8
0
100
AcDbCircle
 10
2.342375
 20
7.052341
 30
0.0
 40
0.175739
100
AcDbArc
 50
281.750167
 51
282.7224470000001
  0
ARC
  5
20F1
330
23A5
100
AcDbEntity
  8
0
100
AcDbCircle
 10
2.358546
 20
6.980712
 30
0.0
 40
0.102308
100
AcDbArc
 50
282.7224470000001
 51
295.449125
  0
ARC
  5
20F2
330
23A5
100
AcDbEntity
  8
0
100
AcDbCircle
 10
2.379647
 20
6.936372
 30
0.0
 40
0.053202
100
AcDbArc
 50
295.449125
 51
317.919458
  0
ARC
  5
20F3
330
23A5
100
AcDbEntity
  8
0
100
AcDbCircle
 10
2.408942
 20
6.90992
 30
0.0
 40
0.013732
100
AcDbArc
 50
317.919458
 51
0.0
  0
ARC
  5
20F4
330
23A5
100
AcDbEntity
  8
0
100
AcDbCircle
 10
2.358546
 20
6.866589
 30
0.0
 40
0.102308
100
AcDbArc
 50
294.123831
 51
295.449125
  0
ARC
  5
20F5
330
23A5
100
AcDbEntity
  8
0
100
AcDbCircle
 10
2.379647
 20
6.822249
 30
0.0
 40
0.053202
100
AcDbArc
 50
295.449125
 51
317.919458
  0
ARC
  5
20F6
330
23A5
100
AcDbEntity
  8
0
100
AcDbCircle
 10
2.408942
 20
6.795797
 30
0.0
 40
0.013732
100
AcDbArc
 50
317.919458
 51
0.0
  0
ARC
  5
20F7
330
23A5
100
AcDbEntity
  8
0
100
AcDbCircle
 10
2.291165
 20
6.33767
 30
0.0
 40
0.013732
100
AcDbArc
 50
211.073157
 51
228.121427
  0
ARC
  5
20F8
330
23A5
100
AcDbEntity
  8
0
100
AcDbCircle
 10
2.317513
 20
6.367058
 30
0.0
 40
0.053202
100
AcDbArc
 50
228.121427
 51
250.59176
  0
ARC
  5
20F9
330
23A5
100
AcDbEntity
  8
0
100
AcDbCircle
 10
2.333831
 20
6.413373
 30
0.0
 40
0.102308
100
AcDbArc
 50
250.59176
 51
263.318438
  0
ARC
  5
20FA
330
23A5
100
AcDbEntity
  8
0
100
AcDbCircle
 10
2.342375
 20
6.486305000000001
 30
0.0
 40
0.175739
100
AcDbArc
 50
263.318438
 51
273.020442
  0
ARC
  5
20FB
330
23A5
100
AcDbEntity
  8
0
100
AcDbCircle
 10
2.342375
 20
6.504797
 30
0.0
 40
0.175739
100
AcDbArc
 50
273.020442
 51
282.7224470000001
  0
ARC
  5
20FC
330
23A5
100
AcDbEntity
  8
0
100
AcDbCircle
 10
2.358546
 20
6.433169
 30
0.0
 40
0.102308
100
AcDbArc
 50
282.7224470000001
 51
295.449125
  0
ARC
  5
20FD
330
23A5
100
AcDbEntity
  8
0
100
AcDbCircle
 10
2.379647
 20
6.388829
 30
0.0
 40
0.053202
100
AcDbArc
 50
295.449125
 51
302.390434
  0
ARC
  5
20FE
330
23A5
100
AcDbEntity
  8
0
100
AcDbCircle
 10
2.333831
 20
6.431865
 30
0.0
 40
0.102308
100
AcDbArc
 50
254.337402
 51
263.318438
  0
ARC
  5
20FF
330
23A5
100
AcDbEntity
  8
0
100
AcDbCircle
 10
2.342375
 20
6.504797
 30
0.0
 40
0.175739
100
AcDbArc
 50
263.318438
 51
273.020442
  0
ARC
  5
2100
330
23A5
100
AcDbEntity
  8
0
100
AcDbCircle
 10
2.342375
 20
6.486305000000001
 30
0.0
 40
0.175739
100
AcDbArc
 50
273.020442
 51
282.7224470000001
  0
ARC
  5
2101
330
23A5
100
AcDbEntity
  8
0
100
AcDbCircle
 10
2.358546
 20
6.414676999999999
 30
0.0
 40
0.102308
100
AcDbArc
 50
282.7224470000001
 51
295.449125
  0
ARC
  5
2102
330
23A5
100
AcDbEntity
  8
0
100
AcDbCircle
 10
2.379647
 20
6.370336
 30
0.0
 40
0.053202
100
AcDbArc
 50
295.449125
 51
317.919458
  0
ARC
  5
2103
330
23A5
100
AcDbEntity
  8
0
100
AcDbCircle
 10
2.408942
 20
6.343885
 30
0.0
 40
0.013732
100
AcDbArc
 50
317.919458
 51
0.0
  0
ARC
  5
2104
330
23A5
100
AcDbEntity
  8
0
100
AcDbCircle
 10
2.342375
 20
6.468341000000001
 30
0.0
 40
0.175739
100
AcDbArc
 50
273.020442
 51
282.7224470000001
  0
ARC
  5
2105
330
23A5
100
AcDbEntity
  8
0
100
AcDbCircle
 10
2.358546
 20
6.396713
 30
0.0
 40
0.102308
100
AcDbArc
 50
282.7224470000001
 51
295.449125
  0
ARC
  5
2106
330
23A5
100
AcDbEntity
  8
0
100
AcDbCircle
 10
2.379647
 20
6.352373
 30
0.0
 40
0.053202
100
AcDbArc
 50
295.449125
 51
317.919458
  0
ARC
  5
2107
330
23A5
100
AcDbEntity
  8
0
100
AcDbCircle
 10
2.408942
 20
6.325921
 30
0.0
 40
0.013732
100
AcDbArc
 50
317.919458
 51
0.0
  0
ARC
  5
2108
330
23A5
100
AcDbEntity
  8
0
100
AcDbCircle
 10
2.291165
 20
6.319706
 30
0.0
 40
0.013732
100
AcDbArc
 50
180.0
 51
183.020442
  0
ARC
  5
2109
330
23A5
100
AcDbEntity
  8
0
100
AcDbCircle
 10
2.291165
 20
6.319706
 30
0.0
 40
0.013732
100
AcDbArc
 50
183.020442
 51
228.121427
  0
ARC
  5
210A
330
23A5
100
AcDbEntity
  8
0
100
AcDbCircle
 10
2.317513
 20
6.349094
 30
0.0
 40
0.053202
100
AcDbArc
 50
228.121427
 51
250.59176
  0
ARC
  5
210B
330
23A5
100
AcDbEntity
  8
0
100
AcDbCircle
 10
2.333831
 20
6.395409
 30
0.0
 40
0.102308
100
AcDbArc
 50
250.59176
 51
263.318438
  0
ARC
  5
210C
330
23A5
100
AcDbEntity
  8
0
100
AcDbCircle
 10
2.342375
 20
6.468341000000001
 30
0.0
 40
0.175739
100
AcDbArc
 50
263.318438
 51
273.020442
  0
ARC
  5
210D
330
23A5
100
AcDbEntity
  8
0
100
AcDbCircle
 10
2.342375
 20
6.448792
 30
0.0
 40
0.175739
100
AcDbArc
 50
273.020442
 51
282.7224470000001
  0
ARC
  5
210E
330
23A5
100
AcDbEntity
  8
0
100
AcDbCircle
 10
2.358546
 20
6.377164
 30
0.0
 40
0.102308
100
AcDbArc
 50
282.7224470000001
 51
295.449125
  0
ARC
  5
210F
330
23A5
100
AcDbEntity
  8
0
100
AcDbCircle
 10
2.379647
 20
6.332824
 30
0.0
 40
0.053202
100
AcDbArc
 50
295.449125
 51
317.919458
  0
ARC
  5
2110
330
23A5
100
AcDbEntity
  8
0
100
AcDbCircle
 10
2.408942
 20
6.306372000000001
 30
0.0
 40
0.013732
100
AcDbArc
 50
317.919458
 51
0.0
  0
ARC
  5
2111
330
23A5
100
AcDbEntity
  8
0
100
AcDbCircle
 10
2.291165
 20
6.300157
 30
0.0
 40
0.013732
100
AcDbArc
 50
180.0
 51
183.020442
  0
ARC
  5
2112
330
23A5
100
AcDbEntity
  8
0
100
AcDbCircle
 10
2.291165
 20
6.300157
 30
0.0
 40
0.013732
100
AcDbArc
 50
183.020442
 51
228.121427
  0
ARC
  5
2113
330
23A5
100
AcDbEntity
  8
0
100
AcDbCircle
 10
2.317513
 20
6.329545
 30
0.0
 40
0.053202
100
AcDbArc
 50
228.121427
 51
250.59176
  0
ARC
  5
2114
330
23A5
100
AcDbEntity
  8
0
100
AcDbCircle
 10
2.333831
 20
6.375859999999999
 30
0.0
 40
0.102308
100
AcDbArc
 50
250.59176
 51
263.318438
  0
ARC
  5
2115
330
23A5
100
AcDbEntity
  8
0
100
AcDbCircle
 10
2.342375
 20
6.448792
 30
0.0
 40
0.175739
100
AcDbArc
 50
263.318438
 51
273.020442
  0
ARC
  5
2116
330
23A5
100
AcDbEntity
  8
0
100
AcDbCircle
 10
2.342375
 20
6.431885
 30
0.0
 40
0.175739
100
AcDbArc
 50
273.020442
 51
282.7224470000001
  0
ARC
  5
2117
330
23A5
100
AcDbEntity
  8
0
100
AcDbCircle
 10
2.358546
 20
6.360257
 30
0.0
 40
0.102308
100
AcDbArc
 50
282.7224470000001
 51
295.449125
  0
ARC
  5
2118
330
23A5
100
AcDbEntity
  8
0
100
AcDbCircle
 10
2.379647
 20
6.315917
 30
0.0
 40
0.053202
100
AcDbArc
 50
295.449125
 51
317.919458
  0
ARC
  5
2119
330
23A5
100
AcDbEntity
  8
0
100
AcDbCircle
 10
2.408942
 20
6.289465
 30
0.0
 40
0.013732
100
AcDbArc
 50
317.919458
 51
0.0
  0
ARC
  5
211A
330
23A5
100
AcDbEntity
  8
0
100
AcDbCircle
 10
2.291165
 20
6.28325
 30
0.0
 40
0.013732
100
AcDbArc
 50
180.0
 51
183.020442
  0
ARC
  5
211B
330
23A5
100
AcDbEntity
  8
0
100
AcDbCircle
 10
2.291165
 20
6.28325
 30
0.0
 40
0.013732
100
AcDbArc
 50
183.020442
 51
228.121427
  0
ARC
  5
211C
330
23A5
100
AcDbEntity
  8
0
100
AcDbCircle
 10
2.317513
 20
6.312638
 30
0.0
 40
0.053202
100
AcDbArc
 50
228.121427
 51
250.59176
  0
ARC
  5
211D
330
23A5
100
AcDbEntity
  8
0
100
AcDbCircle
 10
2.333831
 20
6.358953
 30
0.0
 40
0.102308
100
AcDbArc
 50
250.59176
 51
263.318438
  0
ARC
  5
211E
330
23A5
100
AcDbEntity
  8
0
100
AcDbCircle
 10
2.342375
 20
6.431885
 30
0.0
 40
0.175739
100
AcDbArc
 50
263.318438
 51
273.020442
  0
ARC
  5
211F
330
23A5
100
AcDbEntity
  8
0
100
AcDbCircle
 10
2.342375
 20
6.393844000000001
 30
0.0
 40
0.175739
100
AcDbArc
 50
273.020442
 51
282.7224470000001
  0
ARC
  5
2120
330
23A5
100
AcDbEntity
  8
0
100
AcDbCircle
 10
2.358546
 20
6.322216
 30
0.0
 40
0.102308
100
AcDbArc
 50
282.7224470000001
 51
295.449125
  0
ARC
  5
2121
330
23A5
100
AcDbEntity
  8
0
100
AcDbCircle
 10
2.379647
 20
6.277875
 30
0.0
 40
0.053202
100
AcDbArc
 50
295.449125
 51
317.919458
  0
ARC
  5
2122
330
23A5
100
AcDbEntity
  8
0
100
AcDbCircle
 10
2.408942
 20
6.251424
 30
0.0
 40
0.013732
100
AcDbArc
 50
317.919458
 51
0.0
  0
ARC
  5
2123
330
23A5
100
AcDbEntity
  8
0
100
AcDbCircle
 10
2.291165
 20
6.245209
 30
0.0
 40
0.013732
100
AcDbArc
 50
180.0
 51
183.020442
  0
ARC
  5
2124
330
23A5
100
AcDbEntity
  8
0
100
AcDbCircle
 10
2.291165
 20
6.245209
 30
0.0
 40
0.013732
100
AcDbArc
 50
183.020442
 51
228.121427
  0
ARC
  5
2125
330
23A5
100
AcDbEntity
  8
0
100
AcDbCircle
 10
2.317513
 20
6.274597
 30
0.0
 40
0.053202
100
AcDbArc
 50
228.121427
 51
250.59176
  0
ARC
  5
2126
330
23A5
100
AcDbEntity
  8
0
100
AcDbCircle
 10
2.333831
 20
6.320912
 30
0.0
 40
0.102308
100
AcDbArc
 50
250.59176
 51
263.318438
  0
ARC
  5
2127
330
23A5
100
AcDbEntity
  8
0
100
AcDbCircle
 10
2.342375
 20
6.393844000000001
 30
0.0
 40
0.175739
100
AcDbArc
 50
263.318438
 51
273.020442
  0
ARC
  5
2128
330
23A5
100
AcDbEntity
  8
0
100
AcDbCircle
 10
2.342375
 20
6.412336
 30
0.0
 40
0.175739
100
AcDbArc
 50
273.020442
 51
282.7224470000001
  0
ARC
  5
2129
330
23A5
100
AcDbEntity
  8
0
100
AcDbCircle
 10
2.358546
 20
6.340708
 30
0.0
 40
0.102308
100
AcDbArc
 50
282.7224470000001
 51
295.449125
  0
ARC
  5
212A
330
23A5
100
AcDbEntity
  8
0
100
AcDbCircle
 10
2.379647
 20
6.296368
 30
0.0
 40
0.053202
100
AcDbArc
 50
295.449125
 51
317.919458
  0
ARC
  5
212B
330
23A5
100
AcDbEntity
  8
0
100
AcDbCircle
 10
2.408942
 20
6.269916
 30
0.0
 40
0.013732
100
AcDbArc
 50
317.919458
 51
0.0
  0
ARC
  5
212C
330
23A5
100
AcDbEntity
  8
0
100
AcDbCircle
 10
2.291165
 20
6.263701
 30
0.0
 40
0.013732
100
AcDbArc
 50
180.0
 51
183.020442
  0
ARC
  5
212D
330
23A5
100
AcDbEntity
  8
0
100
AcDbCircle
 10
2.291165
 20
6.263701
 30
0.0
 40
0.013732
100
AcDbArc
 50
183.020442
 51
228.121427
  0
ARC
  5
212E
330
23A5
100
AcDbEntity
  8
0
100
AcDbCircle
 10
2.317513
 20
6.293089
 30
0.0
 40
0.053202
100
AcDbArc
 50
228.121427
 51
250.59176
  0
ARC
  5
212F
330
23A5
100
AcDbEntity
  8
0
100
AcDbCircle
 10
2.333831
 20
6.339404
 30
0.0
 40
0.102308
100
AcDbArc
 50
250.59176
 51
263.318438
  0
ARC
  5
2130
330
23A5
100
AcDbEntity
  8
0
100
AcDbCircle
 10
2.342375
 20
6.412336
 30
0.0
 40
0.175739
100
AcDbArc
 50
263.318438
 51
273.020442
  0
ARC
  5
2131
330
23A5
100
AcDbEntity
  8
0
100
AcDbCircle
 10
2.342375
 20
6.37588
 30
0.0
 40
0.175739
100
AcDbArc
 50
273.020442
 51
282.7224470000001
  0
ARC
  5
2132
330
23A5
100
AcDbEntity
  8
0
100
AcDbCircle
 10
2.358546
 20
6.304252
 30
0.0
 40
0.102308
100
AcDbArc
 50
282.7224470000001
 51
295.449125
  0
ARC
  5
2133
330
23A5
100
AcDbEntity
  8
0
100
AcDbCircle
 10
2.379647
 20
6.259912
 30
0.0
 40
0.053202
100
AcDbArc
 50
295.449125
 51
317.919458
  0
ARC
  5
2134
330
23A5
100
AcDbEntity
  8
0
100
AcDbCircle
 10
2.408942
 20
6.23346
 30
0.0
 40
0.013732
100
AcDbArc
 50
317.919458
 51
0.0
  0
ARC
  5
2135
330
23A5
100
AcDbEntity
  8
0
100
AcDbCircle
 10
2.291165
 20
6.227245
 30
0.0
 40
0.013732
100
AcDbArc
 50
180.0
 51
183.020442
  0
ARC
  5
2136
330
23A5
100
AcDbEntity
  8
0
100
AcDbCircle
 10
2.291165
 20
6.227245
 30
0.0
 40
0.013732
100
AcDbArc
 50
183.020442
 51
228.121427
  0
ARC
  5
2137
330
23A5
100
AcDbEntity
  8
0
100
AcDbCircle
 10
2.317513
 20
6.256633
 30
0.0
 40
0.053202
100
AcDbArc
 50
228.121427
 51
250.59176
  0
ARC
  5
2138
330
23A5
100
AcDbEntity
  8
0
100
AcDbCircle
 10
2.333831
 20
6.302948000000001
 30
0.0
 40
0.102308
100
AcDbArc
 50
250.59176
 51
263.318438
  0
ARC
  5
2139
330
23A5
100
AcDbEntity
  8
0
100
AcDbCircle
 10
2.342375
 20
6.37588
 30
0.0
 40
0.175739
100
AcDbArc
 50
263.318438
 51
273.020442
  0
ARC
  5
213A
330
23A5
100
AcDbEntity
  8
0
100
AcDbCircle
 10
2.342375
 20
6.337839
 30
0.0
 40
0.175739
100
AcDbArc
 50
273.020442
 51
282.7224470000001
  0
ARC
  5
213B
330
23A5
100
AcDbEntity
  8
0
100
AcDbCircle
 10
2.358546
 20
6.266211
 30
0.0
 40
0.102308
100
AcDbArc
 50
282.7224470000001
 51
295.449125
  0
ARC
  5
213C
330
23A5
100
AcDbEntity
  8
0
100
AcDbCircle
 10
2.379647
 20
6.221871
 30
0.0
 40
0.053202
100
AcDbArc
 50
295.449125
 51
317.919458
  0
ARC
  5
213D
330
23A5
100
AcDbEntity
  8
0
100
AcDbCircle
 10
2.408942
 20
6.195419
 30
0.0
 40
0.013732
100
AcDbArc
 50
317.919458
 51
0.0
  0
ARC
  5
213E
330
23A5
100
AcDbEntity
  8
0
100
AcDbCircle
 10
2.291165
 20
6.189204
 30
0.0
 40
0.013732
100
AcDbArc
 50
180.0
 51
183.020442
  0
ARC
  5
213F
330
23A5
100
AcDbEntity
  8
0
100
AcDbCircle
 10
2.291165
 20
6.189204
 30
0.0
 40
0.013732
100
AcDbArc
 50
183.020442
 51
228.121427
  0
ARC
  5
2140
330
23A5
100
AcDbEntity
  8
0
100
AcDbCircle
 10
2.317513
 20
6.218592
 30
0.0
 40
0.053202
100
AcDbArc
 50
228.121427
 51
250.59176
  0
ARC
  5
2141
330
23A5
100
AcDbEntity
  8
0
100
AcDbCircle
 10
2.333831
 20
6.264907
 30
0.0
 40
0.102308
100
AcDbArc
 50
250.59176
 51
263.318438
  0
ARC
  5
2142
330
23A5
100
AcDbEntity
  8
0
100
AcDbCircle
 10
2.342375
 20
6.337839
 30
0.0
 40
0.175739
100
AcDbArc
 50
263.318438
 51
273.020442
  0
ARC
  5
2143
330
23A5
100
AcDbEntity
  8
0
100
AcDbCircle
 10
2.342375
 20
6.356332
 30
0.0
 40
0.175739
100
AcDbArc
 50
273.020442
 51
282.7224470000001
  0
ARC
  5
2144
330
23A5
100
AcDbEntity
  8
0
100
AcDbCircle
 10
2.358546
 20
6.284703
 30
0.0
 40
0.102308
100
AcDbArc
 50
282.7224470000001
 51
295.449125
  0
ARC
  5
2145
330
23A5
100
AcDbEntity
  8
0
100
AcDbCircle
 10
2.379647
 20
6.240362999999999
 30
0.0
 40
0.053202
100
AcDbArc
 50
295.449125
 51
317.919458
  0
ARC
  5
2146
330
23A5
100
AcDbEntity
  8
0
100
AcDbCircle
 10
2.408942
 20
6.213911
 30
0.0
 40
0.013732
100
AcDbArc
 50
317.919458
 51
0.0
  0
ARC
  5
2147
330
23A5
100
AcDbEntity
  8
0
100
AcDbCircle
 10
2.291165
 20
6.207696
 30
0.0
 40
0.013732
100
AcDbArc
 50
180.0
 51
183.020442
  0
ARC
  5
2148
330
23A5
100
AcDbEntity
  8
0
100
AcDbCircle
 10
2.291165
 20
6.207696
 30
0.0
 40
0.013732
100
AcDbArc
 50
183.020442
 51
228.121427
  0
ARC
  5
2149
330
23A5
100
AcDbEntity
  8
0
100
AcDbCircle
 10
2.317513
 20
6.237083999999999
 30
0.0
 40
0.053202
100
AcDbArc
 50
228.121427
 51
250.59176
  0
ARC
  5
214A
330
23A5
100
AcDbEntity
  8
0
100
AcDbCircle
 10
2.333831
 20
6.283399
 30
0.0
 40
0.102308
100
AcDbArc
 50
250.59176
 51
263.318438
  0
ARC
  5
214B
330
23A5
100
AcDbEntity
  8
0
100
AcDbCircle
 10
2.342375
 20
6.356332
 30
0.0
 40
0.175739
100
AcDbArc
 50
263.318438
 51
273.020442
  0
ARC
  5
214C
330
23A5
100
AcDbEntity
  8
0
100
AcDbCircle
 10
2.342375
 20
6.319875
 30
0.0
 40
0.175739
100
AcDbArc
 50
273.020442
 51
282.7224470000001
  0
ARC
  5
214D
330
23A5
100
AcDbEntity
  8
0
100
AcDbCircle
 10
2.358546
 20
6.248247
 30
0.0
 40
0.102308
100
AcDbArc
 50
282.7224470000001
 51
295.449125
  0
ARC
  5
214E
330
23A5
100
AcDbEntity
  8
0
100
AcDbCircle
 10
2.379647
 20
6.203907
 30
0.0
 40
0.053202
100
AcDbArc
 50
295.449125
 51
317.919458
  0
ARC
  5
214F
330
23A5
100
AcDbEntity
  8
0
100
AcDbCircle
 10
2.408942
 20
6.177455
 30
0.0
 40
0.013732
100
AcDbArc
 50
317.919458
 51
0.0
  0
ARC
  5
2150
330
23A5
100
AcDbEntity
  8
0
100
AcDbCircle
 10
2.291165
 20
6.17124
 30
0.0
 40
0.013732
100
AcDbArc
 50
180.0
 51
183.020442
  0
ARC
  5
2151
330
23A5
100
AcDbEntity
  8
0
100
AcDbCircle
 10
2.291165
 20
6.17124
 30
0.0
 40
0.013732
100
AcDbArc
 50
183.020442
 51
228.121427
  0
ARC
  5
2152
330
23A5
100
AcDbEntity
  8
0
100
AcDbCircle
 10
2.317513
 20
6.200628
 30
0.0
 40
0.053202
100
AcDbArc
 50
228.121427
 51
250.59176
  0
ARC
  5
2153
330
23A5
100
AcDbEntity
  8
0
100
AcDbCircle
 10
2.333831
 20
6.246943
 30
0.0
 40
0.102308
100
AcDbArc
 50
250.59176
 51
263.318438
  0
ARC
  5
2154
330
23A5
100
AcDbEntity
  8
0
100
AcDbCircle
 10
2.342375
 20
6.319875
 30
0.0
 40
0.175739
100
AcDbArc
 50
263.318438
 51
273.020442
  0
ARC
  5
2155
330
23A5
100
AcDbEntity
  8
0
100
AcDbCircle
 10
2.342375
 20
6.281834
 30
0.0
 40
0.175739
100
AcDbArc
 50
273.020442
 51
282.7224470000001
  0
ARC
  5
2156
330
23A5
100
AcDbEntity
  8
0
100
AcDbCircle
 10
2.358546
 20
6.210205999999999
 30
0.0
 40
0.102308
100
AcDbArc
 50
282.7224470000001
 51
295.449125
  0
ARC
  5
2157
330
23A5
100
AcDbEntity
  8
0
100
AcDbCircle
 10
2.379647
 20
6.165866
 30
0.0
 40
0.053202
100
AcDbArc
 50
295.449125
 51
317.919458
  0
ARC
  5
2158
330
23A5
100
AcDbEntity
  8
0
100
AcDbCircle
 10
2.408942
 20
6.139414
 30
0.0
 40
0.013732
100
AcDbArc
 50
317.919458
 51
0.0
  0
ARC
  5
2159
330
23A5
100
AcDbEntity
  8
0
100
AcDbCircle
 10
2.291165
 20
6.133198999999999
 30
0.0
 40
0.013732
100
AcDbArc
 50
180.0
 51
183.020442
  0
ARC
  5
215A
330
23A5
100
AcDbEntity
  8
0
100
AcDbCircle
 10
2.291165
 20
6.133198999999999
 30
0.0
 40
0.013732
100
AcDbArc
 50
183.020442
 51
228.121427
  0
ARC
  5
215B
330
23A5
100
AcDbEntity
  8
0
100
AcDbCircle
 10
2.317513
 20
6.162587
 30
0.0
 40
0.053202
100
AcDbArc
 50
228.121427
 51
250.59176
  0
ARC
  5
215C
330
23A5
100
AcDbEntity
  8
0
100
AcDbCircle
 10
2.333831
 20
6.208901999999999
 30
0.0
 40
0.102308
100
AcDbArc
 50
250.59176
 51
263.318438
  0
ARC
  5
215D
330
23A5
100
AcDbEntity
  8
0
100
AcDbCircle
 10
2.342375
 20
6.281834
 30
0.0
 40
0.175739
100
AcDbArc
 50
263.318438
 51
273.020442
  0
ARC
  5
215E
330
23A5
100
AcDbEntity
  8
0
100
AcDbCircle
 10
2.342375
 20
6.300326999999999
 30
0.0
 40
0.175739
100
AcDbArc
 50
273.020442
 51
282.7224470000001
  0
ARC
  5
215F
330
23A5
100
AcDbEntity
  8
0
100
AcDbCircle
 10
2.358546
 20
6.228698000000001
 30
0.0
 40
0.102308
100
AcDbArc
 50
282.7224470000001
 51
295.449125
  0
ARC
  5
2160
330
23A5
100
AcDbEntity
  8
0
100
AcDbCircle
 10
2.379647
 20
6.184358000000001
 30
0.0
 40
0.053202
100
AcDbArc
 50
295.449125
 51
317.919458
  0
ARC
  5
2161
330
23A5
100
AcDbEntity
  8
0
100
AcDbCircle
 10
2.408942
 20
6.157906
 30
0.0
 40
0.013732
100
AcDbArc
 50
317.919458
 51
0.0
  0
ARC
  5
2162
330
23A5
100
AcDbEntity
  8
0
100
AcDbCircle
 10
2.291165
 20
6.151691000000001
 30
0.0
 40
0.013732
100
AcDbArc
 50
180.0
 51
183.020442
  0
ARC
  5
2163
330
23A5
100
AcDbEntity
  8
0
100
AcDbCircle
 10
2.291165
 20
6.151691000000001
 30
0.0
 40
0.013732
100
AcDbArc
 50
183.020442
 51
228.121427
  0
ARC
  5
2164
330
23A5
100
AcDbEntity
  8
0
100
AcDbCircle
 10
2.317513
 20
6.181079
 30
0.0
 40
0.053202
100
AcDbArc
 50
228.121427
 51
250.59176
  0
ARC
  5
2165
330
23A5
100
AcDbEntity
  8
0
100
AcDbCircle
 10
2.333831
 20
6.227394
 30
0.0
 40
0.102308
100
AcDbArc
 50
250.59176
 51
263.318438
  0
ARC
  5
2166
330
23A5
100
AcDbEntity
  8
0
100
AcDbCircle
 10
2.342375
 20
6.300326999999999
 30
0.0
 40
0.175739
100
AcDbArc
 50
263.318438
 51
273.020442
  0
ARC
  5
2167
330
23A5
100
AcDbEntity
  8
0
100
AcDbCircle
 10
2.342375
 20
6.263871
 30
0.0
 40
0.175739
100
AcDbArc
 50
273.020442
 51
282.7224470000001
  0
ARC
  5
2168
330
23A5
100
AcDbEntity
  8
0
100
AcDbCircle
 10
2.358546
 20
6.192242
 30
0.0
 40
0.102308
100
AcDbArc
 50
282.7224470000001
 51
295.449125
  0
ARC
  5
2169
330
23A5
100
AcDbEntity
  8
0
100
AcDbCircle
 10
2.379647
 20
6.147901999999999
 30
0.0
 40
0.053202
100
AcDbArc
 50
295.449125
 51
317.919458
  0
ARC
  5
216A
330
23A5
100
AcDbEntity
  8
0
100
AcDbCircle
 10
2.408942
 20
6.12145
 30
0.0
 40
0.013732
100
AcDbArc
 50
317.919458
 51
0.0
  0
ARC
  5
216B
330
23A5
100
AcDbEntity
  8
0
100
AcDbCircle
 10
2.291165
 20
6.115235
 30
0.0
 40
0.013732
100
AcDbArc
 50
180.0
 51
183.020442
  0
ARC
  5
216C
330
23A5
100
AcDbEntity
  8
0
100
AcDbCircle
 10
2.291165
 20
6.115235
 30
0.0
 40
0.013732
100
AcDbArc
 50
183.020442
 51
228.121427
  0
ARC
  5
216D
330
23A5
100
AcDbEntity
  8
0
100
AcDbCircle
 10
2.317513
 20
6.144623
 30
0.0
 40
0.053202
100
AcDbArc
 50
228.121427
 51
250.59176
  0
ARC
  5
216E
330
23A5
100
AcDbEntity
  8
0
100
AcDbCircle
 10
2.333831
 20
6.190938
 30
0.0
 40
0.102308
100
AcDbArc
 50
250.59176
 51
263.318438
  0
ARC
  5
216F
330
23A5
100
AcDbEntity
  8
0
100
AcDbCircle
 10
2.342375
 20
6.263871
 30
0.0
 40
0.175739
100
AcDbArc
 50
263.318438
 51
273.020442
  0
ARC
  5
2170
330
23A5
100
AcDbEntity
  8
0
100
AcDbCircle
 10
2.342375
 20
6.225829
 30
0.0
 40
0.175739
100
AcDbArc
 50
273.020442
 51
282.7224470000001
  0
ARC
  5
2171
330
23A5
100
AcDbEntity
  8
0
100
AcDbCircle
 10
2.358546
 20
6.154201000000001
 30
0.0
 40
0.102308
100
AcDbArc
 50
282.7224470000001
 51
295.449125
  0
ARC
  5
2172
330
23A5
100
AcDbEntity
  8
0
100
AcDbCircle
 10
2.379647
 20
6.109861
 30
0.0
 40
0.053202
100
AcDbArc
 50
295.449125
 51
317.919458
  0
ARC
  5
2173
330
23A5
100
AcDbEntity
  8
0
100
AcDbCircle
 10
2.408942
 20
6.083409
 30
0.0
 40
0.013732
100
AcDbArc
 50
317.919458
 51
0.0
  0
ARC
  5
2174
330
23A5
100
AcDbEntity
  8
0
100
AcDbCircle
 10
2.291165
 20
6.077194
 30
0.0
 40
0.013732
100
AcDbArc
 50
180.0
 51
183.020442
  0
ARC
  5
2175
330
23A5
100
AcDbEntity
  8
0
100
AcDbCircle
 10
2.291165
 20
6.077194
 30
0.0
 40
0.013732
100
AcDbArc
 50
183.020442
 51
228.121427
  0
ARC
  5
2176
330
23A5
100
AcDbEntity
  8
0
100
AcDbCircle
 10
2.317513
 20
6.106582
 30
0.0
 40
0.053202
100
AcDbArc
 50
228.121427
 51
250.59176
  0
ARC
  5
2177
330
23A5
100
AcDbEntity
  8
0
100
AcDbCircle
 10
2.333831
 20
6.152897
 30
0.0
 40
0.102308
100
AcDbArc
 50
250.59176
 51
263.318438
  0
ARC
  5
2178
330
23A5
100
AcDbEntity
  8
0
100
AcDbCircle
 10
2.342375
 20
6.225829
 30
0.0
 40
0.175739
100
AcDbArc
 50
263.318438
 51
273.020442
  0
ARC
  5
2179
330
23A5
100
AcDbEntity
  8
0
100
AcDbCircle
 10
2.342375
 20
6.244322
 30
0.0
 40
0.175739
100
AcDbArc
 50
273.020442
 51
282.7224470000001
  0
ARC
  5
217A
330
23A5
100
AcDbEntity
  8
0
100
AcDbCircle
 10
2.358546
 20
6.172694
 30
0.0
 40
0.102308
100
AcDbArc
 50
282.7224470000001
 51
295.449125
  0
ARC
  5
217B
330
23A5
100
AcDbEntity
  8
0
100
AcDbCircle
 10
2.379647
 20
6.128353
 30
0.0
 40
0.053202
100
AcDbArc
 50
295.449125
 51
317.919458
  0
ARC
  5
217C
330
23A5
100
AcDbEntity
  8
0
100
AcDbCircle
 10
2.408942
 20
6.101901
 30
0.0
 40
0.013732
100
AcDbArc
 50
317.919458
 51
0.0
  0
ARC
  5
217D
330
23A5
100
AcDbEntity
  8
0
100
AcDbCircle
 10
2.291165
 20
6.095686
 30
0.0
 40
0.013732
100
AcDbArc
 50
180.0
 51
183.020442
  0
ARC
  5
217E
330
23A5
100
AcDbEntity
  8
0
100
AcDbCircle
 10
2.291165
 20
6.095686
 30
0.0
 40
0.013732
100
AcDbArc
 50
183.020442
 51
228.121427
  0
ARC
  5
217F
330
23A5
100
AcDbEntity
  8
0
100
AcDbCircle
 10
2.317513
 20
6.125074
 30
0.0
 40
0.053202
100
AcDbArc
 50
228.121427
 51
250.59176
  0
ARC
  5
2180
330
23A5
100
AcDbEntity
  8
0
100
AcDbCircle
 10
2.333831
 20
6.171389
 30
0.0
 40
0.102308
100
AcDbArc
 50
250.59176
 51
263.318438
  0
ARC
  5
2181
330
23A5
100
AcDbEntity
  8
0
100
AcDbCircle
 10
2.342375
 20
6.244322
 30
0.0
 40
0.175739
100
AcDbArc
 50
263.318438
 51
273.020442
  0
ARC
  5
2182
330
23A5
100
AcDbEntity
  8
0
100
AcDbCircle
 10
2.342375
 20
6.207866
 30
0.0
 40
0.175739
100
AcDbArc
 50
273.020442
 51
282.7224470000001
  0
ARC
  5
2183
330
23A5
100
AcDbEntity
  8
0
100
AcDbCircle
 10
2.358546
 20
6.136237
 30
0.0
 40
0.102308
100
AcDbArc
 50
282.7224470000001
 51
295.449125
  0
ARC
  5
2184
330
23A5
100
AcDbEntity
  8
0
100
AcDbCircle
 10
2.379647
 20
6.091897
 30
0.0
 40
0.053202
100
AcDbArc
 50
295.449125
 51
317.919458
  0
ARC
  5
2185
330
23A5
100
AcDbEntity
  8
0
100
AcDbCircle
 10
2.408942
 20
6.065445
 30
0.0
 40
0.013732
100
AcDbArc
 50
317.919458
 51
0.0
  0
ARC
  5
2186
330
23A5
100
AcDbEntity
  8
0
100
AcDbCircle
 10
2.291165
 20
6.05923
 30
0.0
 40
0.013732
100
AcDbArc
 50
180.0
 51
183.020442
  0
ARC
  5
2187
330
23A5
100
AcDbEntity
  8
0
100
AcDbCircle
 10
2.291165
 20
6.05923
 30
0.0
 40
0.013732
100
AcDbArc
 50
183.020442
 51
228.121427
  0
ARC
  5
2188
330
23A5
100
AcDbEntity
  8
0
100
AcDbCircle
 10
2.317513
 20
6.088618
 30
0.0
 40
0.053202
100
AcDbArc
 50
228.121427
 51
250.59176
  0
ARC
  5
2189
330
23A5
100
AcDbEntity
  8
0
100
AcDbCircle
 10
2.333831
 20
6.134933
 30
0.0
 40
0.102308
100
AcDbArc
 50
250.59176
 51
263.318438
  0
ARC
  5
218A
330
23A5
100
AcDbEntity
  8
0
100
AcDbCircle
 10
2.342375
 20
6.207866
 30
0.0
 40
0.175739
100
AcDbArc
 50
263.318438
 51
273.020442
  0
ARC
  5
218B
330
23A5
100
AcDbEntity
  8
0
100
AcDbCircle
 10
2.342375
 20
6.169825
 30
0.0
 40
0.175739
100
AcDbArc
 50
273.020442
 51
282.7224470000001
  0
ARC
  5
218C
330
23A5
100
AcDbEntity
  8
0
100
AcDbCircle
 10
2.358546
 20
6.098196
 30
0.0
 40
0.102308
100
AcDbArc
 50
282.7224470000001
 51
295.449125
  0
ARC
  5
218D
330
23A5
100
AcDbEntity
  8
0
100
AcDbCircle
 10
2.379647
 20
6.053856
 30
0.0
 40
0.053202
100
AcDbArc
 50
295.449125
 51
317.919458
  0
ARC
  5
218E
330
23A5
100
AcDbEntity
  8
0
100
AcDbCircle
 10
2.408942
 20
6.027404
 30
0.0
 40
0.013732
100
AcDbArc
 50
317.919458
 51
0.0
  0
ARC
  5
218F
330
23A5
100
AcDbEntity
  8
0
100
AcDbCircle
 10
2.291165
 20
6.021189
 30
0.0
 40
0.013732
100
AcDbArc
 50
180.0
 51
183.020442
  0
ARC
  5
2190
330
23A5
100
AcDbEntity
  8
0
100
AcDbCircle
 10
2.291165
 20
6.021189
 30
0.0
 40
0.013732
100
AcDbArc
 50
183.020442
 51
228.121427
  0
ARC
  5
2191
330
23A5
100
AcDbEntity
  8
0
100
AcDbCircle
 10
2.317513
 20
6.050577
 30
0.0
 40
0.053202
100
AcDbArc
 50
228.121427
 51
250.59176
  0
ARC
  5
2192
330
23A5
100
AcDbEntity
  8
0
100
AcDbCircle
 10
2.333831
 20
6.096892
 30
0.0
 40
0.102308
100
AcDbArc
 50
250.59176
 51
263.318438
  0
ARC
  5
2193
330
23A5
100
AcDbEntity
  8
0
100
AcDbCircle
 10
2.342375
 20
6.169825
 30
0.0
 40
0.175739
100
AcDbArc
 50
263.318438
 51
273.020442
  0
ARC
  5
2194
330
23A5
100
AcDbEntity
  8
0
100
AcDbCircle
 10
2.342375
 20
6.188317
 30
0.0
 40
0.175739
100
AcDbArc
 50
273.020442
 51
282.7224470000001
  0
ARC
  5
2195
330
23A5
100
AcDbEntity
  8
0
100
AcDbCircle
 10
2.358546
 20
6.116689
 30
0.0
 40
0.102308
100
AcDbArc
 50
282.7224470000001
 51
295.449125
  0
ARC
  5
2196
330
23A5
100
AcDbEntity
  8
0
100
AcDbCircle
 10
2.379647
 20
6.072348000000001
 30
0.0
 40
0.053202
100
AcDbArc
 50
295.449125
 51
317.919458
  0
ARC
  5
2197
330
23A5
100
AcDbEntity
  8
0
100
AcDbCircle
 10
2.408942
 20
6.045896
 30
0.0
 40
0.013732
100
AcDbArc
 50
317.919458
 51
0.0
  0
ARC
  5
2198
330
23A5
100
AcDbEntity
  8
0
100
AcDbCircle
 10
2.291165
 20
6.039682
 30
0.0
 40
0.013732
100
AcDbArc
 50
180.0
 51
183.020442
  0
ARC
  5
2199
330
23A5
100
AcDbEntity
  8
0
100
AcDbCircle
 10
2.291165
 20
6.039682
 30
0.0
 40
0.013732
100
AcDbArc
 50
183.020442
 51
228.121427
  0
ARC
  5
219A
330
23A5
100
AcDbEntity
  8
0
100
AcDbCircle
 10
2.317513
 20
6.069069
 30
0.0
 40
0.053202
100
AcDbArc
 50
228.121427
 51
250.59176
  0
ARC
  5
219B
330
23A5
100
AcDbEntity
  8
0
100
AcDbCircle
 10
2.333831
 20
6.115384
 30
0.0
 40
0.102308
100
AcDbArc
 50
250.59176
 51
263.318438
  0
ARC
  5
219C
330
23A5
100
AcDbEntity
  8
0
100
AcDbCircle
 10
2.342375
 20
6.188317
 30
0.0
 40
0.175739
100
AcDbArc
 50
263.318438
 51
273.020442
  0
ARC
  5
219D
330
23A5
100
AcDbEntity
  8
0
100
AcDbCircle
 10
2.342375
 20
6.151861
 30
0.0
 40
0.175739
100
AcDbArc
 50
273.020442
 51
282.7224470000001
  0
ARC
  5
219E
330
23A5
100
AcDbEntity
  8
0
100
AcDbCircle
 10
2.358546
 20
6.080233
 30
0.0
 40
0.102308
100
AcDbArc
 50
282.7224470000001
 51
295.449125
  0
ARC
  5
219F
330
23A5
100
AcDbEntity
  8
0
100
AcDbCircle
 10
2.379647
 20
6.035892
 30
0.0
 40
0.053202
100
AcDbArc
 50
295.449125
 51
317.919458
  0
ARC
  5
21A0
330
23A5
100
AcDbEntity
  8
0
100
AcDbCircle
 10
2.408942
 20
6.009440000000001
 30
0.0
 40
0.013732
100
AcDbArc
 50
317.919458
 51
0.0
  0
ARC
  5
21A1
330
23A5
100
AcDbEntity
  8
0
100
AcDbCircle
 10
2.291165
 20
6.003226000000001
 30
0.0
 40
0.013732
100
AcDbArc
 50
180.0
 51
183.020442
  0
ARC
  5
21A2
330
23A5
100
AcDbEntity
  8
0
100
AcDbCircle
 10
2.291165
 20
6.003226000000001
 30
0.0
 40
0.013732
100
AcDbArc
 50
183.020442
 51
228.121427
  0
ARC
  5
21A3
330
23A5
100
AcDbEntity
  8
0
100
AcDbCircle
 10
2.317513
 20
6.032613
 30
0.0
 40
0.053202
100
AcDbArc
 50
228.121427
 51
250.59176
  0
ARC
  5
21A4
330
23A5
100
AcDbEntity
  8
0
100
AcDbCircle
 10
2.333831
 20
6.078927999999999
 30
0.0
 40
0.102308
100
AcDbArc
 50
250.59176
 51
263.318438
  0
ARC
  5
21A5
330
23A5
100
AcDbEntity
  8
0
100
AcDbCircle
 10
2.342375
 20
6.151861
 30
0.0
 40
0.175739
100
AcDbArc
 50
263.318438
 51
273.020442
  0
ARC
  5
21A6
330
23A5
100
AcDbEntity
  8
0
100
AcDbCircle
 10
2.342375
 20
6.11382
 30
0.0
 40
0.175739
100
AcDbArc
 50
273.020442
 51
282.7224470000001
  0
ARC
  5
21A7
330
23A5
100
AcDbEntity
  8
0
100
AcDbCircle
 10
2.358546
 20
6.042191000000001
 30
0.0
 40
0.102308
100
AcDbArc
 50
282.7224470000001
 51
295.449125
  0
ARC
  5
21A8
330
23A5
100
AcDbEntity
  8
0
100
AcDbCircle
 10
2.379647
 20
5.997851
 30
0.0
 40
0.053202
100
AcDbArc
 50
295.449125
 51
317.919458
  0
ARC
  5
21A9
330
23A5
100
AcDbEntity
  8
0
100
AcDbCircle
 10
2.408942
 20
5.971399
 30
0.0
 40
0.013732
100
AcDbArc
 50
317.919458
 51
0.0
  0
ARC
  5
21AA
330
23A5
100
AcDbEntity
  8
0
100
AcDbCircle
 10
2.291165
 20
5.965184
 30
0.0
 40
0.013732
100
AcDbArc
 50
180.0
 51
183.020442
  0
ARC
  5
21AB
330
23A5
100
AcDbEntity
  8
0
100
AcDbCircle
 10
2.291165
 20
5.965184
 30
0.0
 40
0.013732
100
AcDbArc
 50
183.020442
 51
228.121427
  0
ARC
  5
21AC
330
23A5
100
AcDbEntity
  8
0
100
AcDbCircle
 10
2.317513
 20
5.994572
 30
0.0
 40
0.053202
100
AcDbArc
 50
228.121427
 51
250.59176
  0
ARC
  5
21AD
330
23A5
100
AcDbEntity
  8
0
100
AcDbCircle
 10
2.333831
 20
6.040887000000001
 30
0.0
 40
0.102308
100
AcDbArc
 50
250.59176
 51
263.318438
  0
ARC
  5
21AE
330
23A5
100
AcDbEntity
  8
0
100
AcDbCircle
 10
2.342375
 20
6.11382
 30
0.0
 40
0.175739
100
AcDbArc
 50
263.318438
 51
273.020442
  0
ARC
  5
21AF
330
23A5
100
AcDbEntity
  8
0
100
AcDbCircle
 10
2.342375
 20
6.132312000000001
 30
0.0
 40
0.175739
100
AcDbArc
 50
273.020442
 51
282.7224470000001
  0
ARC
  5
21B0
330
23A5
100
AcDbEntity
  8
0
100
AcDbCircle
 10
2.358546
 20
6.060683999999999
 30
0.0
 40
0.102308
100
AcDbArc
 50
282.7224470000001
 51
295.449125
  0
ARC
  5
21B1
330
23A5
100
AcDbEntity
  8
0
100
AcDbCircle
 10
2.379647
 20
6.016343
 30
0.0
 40
0.053202
100
AcDbArc
 50
295.449125
 51
317.919458
  0
ARC
  5
21B2
330
23A5
100
AcDbEntity
  8
0
100
AcDbCircle
 10
2.408942
 20
5.989891
 30
0.0
 40
0.013732
100
AcDbArc
 50
317.919458
 51
0.0
  0
ARC
  5
21B3
330
23A5
100
AcDbEntity
  8
0
100
AcDbCircle
 10
2.291165
 20
5.983676999999999
 30
0.0
 40
0.013732
100
AcDbArc
 50
180.0
 51
183.020442
  0
ARC
  5
21B4
330
23A5
100
AcDbEntity
  8
0
100
AcDbCircle
 10
2.291165
 20
5.983676999999999
 30
0.0
 40
0.013732
100
AcDbArc
 50
183.020442
 51
228.121427
  0
ARC
  5
21B5
330
23A5
100
AcDbEntity
  8
0
100
AcDbCircle
 10
2.317513
 20
6.013064
 30
0.0
 40
0.053202
100
AcDbArc
 50
228.121427
 51
250.59176
  0
ARC
  5
21B6
330
23A5
100
AcDbEntity
  8
0
100
AcDbCircle
 10
2.333831
 20
6.05938
 30
0.0
 40
0.102308
100
AcDbArc
 50
250.59176
 51
263.318438
  0
ARC
  5
21B7
330
23A5
100
AcDbEntity
  8
0
100
AcDbCircle
 10
2.342375
 20
6.132312000000001
 30
0.0
 40
0.175739
100
AcDbArc
 50
263.318438
 51
273.020442
  0
ARC
  5
21B8
330
23A5
100
AcDbEntity
  8
0
100
AcDbCircle
 10
2.342375
 20
6.095856
 30
0.0
 40
0.175739
100
AcDbArc
 50
273.020442
 51
282.7224470000001
  0
ARC
  5
21B9
330
23A5
100
AcDbEntity
  8
0
100
AcDbCircle
 10
2.358546
 20
6.024228
 30
0.0
 40
0.102308
100
AcDbArc
 50
282.7224470000001
 51
295.449125
  0
ARC
  5
21BA
330
23A5
100
AcDbEntity
  8
0
100
AcDbCircle
 10
2.379647
 20
5.979887000000001
 30
0.0
 40
0.053202
100
AcDbArc
 50
295.449125
 51
317.919458
  0
ARC
  5
21BB
330
23A5
100
AcDbEntity
  8
0
100
AcDbCircle
 10
2.408942
 20
5.953435
 30
0.0
 40
0.013732
100
AcDbArc
 50
317.919458
 51
0.0
  0
ARC
  5
21BC
330
23A5
100
AcDbEntity
  8
0
100
AcDbCircle
 10
2.291165
 20
5.947221
 30
0.0
 40
0.013732
100
AcDbArc
 50
180.0
 51
183.020442
  0
ARC
  5
21BD
330
23A5
100
AcDbEntity
  8
0
100
AcDbCircle
 10
2.291165
 20
5.947221
 30
0.0
 40
0.013732
100
AcDbArc
 50
183.020442
 51
228.121427
  0
ARC
  5
21BE
330
23A5
100
AcDbEntity
  8
0
100
AcDbCircle
 10
2.317513
 20
5.976608000000001
 30
0.0
 40
0.053202
100
AcDbArc
 50
228.121427
 51
250.59176
  0
ARC
  5
21BF
330
23A5
100
AcDbEntity
  8
0
100
AcDbCircle
 10
2.333831
 20
6.022923000000001
 30
0.0
 40
0.102308
100
AcDbArc
 50
250.59176
 51
263.318438
  0
ARC
  5
21C0
330
23A5
100
AcDbEntity
  8
0
100
AcDbCircle
 10
2.342375
 20
6.095856
 30
0.0
 40
0.175739
100
AcDbArc
 50
263.318438
 51
273.020442
  0
ARC
  5
21C1
330
23A5
100
AcDbEntity
  8
0
100
AcDbCircle
 10
2.342375
 20
6.057815
 30
0.0
 40
0.175739
100
AcDbArc
 50
273.020442
 51
282.7224470000001
  0
ARC
  5
21C2
330
23A5
100
AcDbEntity
  8
0
100
AcDbCircle
 10
2.358546
 20
5.986187
 30
0.0
 40
0.102308
100
AcDbArc
 50
282.7224470000001
 51
295.449125
  0
ARC
  5
21C3
330
23A5
100
AcDbEntity
  8
0
100
AcDbCircle
 10
2.379647
 20
5.941846
 30
0.0
 40
0.053202
100
AcDbArc
 50
295.449125
 51
317.919458
  0
ARC
  5
21C4
330
23A5
100
AcDbEntity
  8
0
100
AcDbCircle
 10
2.408942
 20
5.915394
 30
0.0
 40
0.013732
100
AcDbArc
 50
317.919458
 51
0.0
  0
ARC
  5
21C5
330
23A5
100
AcDbEntity
  8
0
100
AcDbCircle
 10
2.291165
 20
5.909179
 30
0.0
 40
0.013732
100
AcDbArc
 50
180.0
 51
183.020442
  0
ARC
  5
21C6
330
23A5
100
AcDbEntity
  8
0
100
AcDbCircle
 10
2.291165
 20
5.909179
 30
0.0
 40
0.013732
100
AcDbArc
 50
183.020442
 51
228.121427
  0
ARC
  5
21C7
330
23A5
100
AcDbEntity
  8
0
100
AcDbCircle
 10
2.317513
 20
5.938567
 30
0.0
 40
0.053202
100
AcDbArc
 50
228.121427
 51
250.59176
  0
ARC
  5
21C8
330
23A5
100
AcDbEntity
  8
0
100
AcDbCircle
 10
2.333831
 20
5.984882
 30
0.0
 40
0.102308
100
AcDbArc
 50
250.59176
 51
263.318438
  0
ARC
  5
21C9
330
23A5
100
AcDbEntity
  8
0
100
AcDbCircle
 10
2.342375
 20
6.057815
 30
0.0
 40
0.175739
100
AcDbArc
 50
263.318438
 51
273.020442
  0
ARC
  5
21CA
330
23A5
100
AcDbEntity
  8
0
100
AcDbCircle
 10
2.342375
 20
6.076307
 30
0.0
 40
0.175739
100
AcDbArc
 50
273.020442
 51
282.7224470000001
  0
ARC
  5
21CB
330
23A5
100
AcDbEntity
  8
0
100
AcDbCircle
 10
2.358546
 20
6.004679
 30
0.0
 40
0.102308
100
AcDbArc
 50
282.7224470000001
 51
295.449125
  0
ARC
  5
21CC
330
23A5
100
AcDbEntity
  8
0
100
AcDbCircle
 10
2.379647
 20
5.960338
 30
0.0
 40
0.053202
100
AcDbArc
 50
295.449125
 51
317.919458
  0
ARC
  5
21CD
330
23A5
100
AcDbEntity
  8
0
100
AcDbCircle
 10
2.408942
 20
5.933886
 30
0.0
 40
0.013732
100
AcDbArc
 50
317.919458
 51
0.0
  0
ARC
  5
21CE
330
23A5
100
AcDbEntity
  8
0
100
AcDbCircle
 10
2.291165
 20
5.927672
 30
0.0
 40
0.013732
100
AcDbArc
 50
180.0
 51
183.020442
  0
ARC
  5
21CF
330
23A5
100
AcDbEntity
  8
0
100
AcDbCircle
 10
2.291165
 20
5.927672
 30
0.0
 40
0.013732
100
AcDbArc
 50
183.020442
 51
228.121427
  0
ARC
  5
21D0
330
23A5
100
AcDbEntity
  8
0
100
AcDbCircle
 10
2.317513
 20
5.95706
 30
0.0
 40
0.053202
100
AcDbArc
 50
228.121427
 51
250.59176
  0
ARC
  5
21D1
330
23A5
100
AcDbEntity
  8
0
100
AcDbCircle
 10
2.333831
 20
6.003375
 30
0.0
 40
0.102308
100
AcDbArc
 50
250.59176
 51
263.318438
  0
ARC
  5
21D2
330
23A5
100
AcDbEntity
  8
0
100
AcDbCircle
 10
2.342375
 20
6.076307
 30
0.0
 40
0.175739
100
AcDbArc
 50
263.318438
 51
273.020442
  0
ARC
  5
21D3
330
23A5
100
AcDbEntity
  8
0
100
AcDbCircle
 10
2.342375
 20
6.039851000000001
 30
0.0
 40
0.175739
100
AcDbArc
 50
273.020442
 51
282.7224470000001
  0
ARC
  5
21D4
330
23A5
100
AcDbEntity
  8
0
100
AcDbCircle
 10
2.358546
 20
5.968223
 30
0.0
 40
0.102308
100
AcDbArc
 50
282.7224470000001
 51
295.449125
  0
ARC
  5
21D5
330
23A5
100
AcDbEntity
  8
0
100
AcDbCircle
 10
2.379647
 20
5.923882
 30
0.0
 40
0.053202
100
AcDbArc
 50
295.449125
 51
317.919458
  0
ARC
  5
21D6
330
23A5
100
AcDbEntity
  8
0
100
AcDbCircle
 10
2.408942
 20
5.89743
 30
0.0
 40
0.013732
100
AcDbArc
 50
317.919458
 51
0.0
  0
ARC
  5
21D7
330
23A5
100
AcDbEntity
  8
0
100
AcDbCircle
 10
2.291165
 20
5.891216
 30
0.0
 40
0.013732
100
AcDbArc
 50
180.0
 51
183.020442
  0
ARC
  5
21D8
330
23A5
100
AcDbEntity
  8
0
100
AcDbCircle
 10
2.291165
 20
5.891216
 30
0.0
 40
0.013732
100
AcDbArc
 50
183.020442
 51
228.121427
  0
ARC
  5
21D9
330
23A5
100
AcDbEntity
  8
0
100
AcDbCircle
 10
2.317513
 20
5.920603
 30
0.0
 40
0.053202
100
AcDbArc
 50
228.121427
 51
250.59176
  0
ARC
  5
21DA
330
23A5
100
AcDbEntity
  8
0
100
AcDbCircle
 10
2.333831
 20
5.966919
 30
0.0
 40
0.102308
100
AcDbArc
 50
250.59176
 51
263.318438
  0
ARC
  5
21DB
330
23A5
100
AcDbEntity
  8
0
100
AcDbCircle
 10
2.342375
 20
6.039851000000001
 30
0.0
 40
0.175739
100
AcDbArc
 50
263.318438
 51
273.020442
  0
ARC
  5
21DC
330
23A5
100
AcDbEntity
  8
0
100
AcDbCircle
 10
2.342375
 20
6.00181
 30
0.0
 40
0.175739
100
AcDbArc
 50
273.020442
 51
282.7224470000001
  0
ARC
  5
21DD
330
23A5
100
AcDbEntity
  8
0
100
AcDbCircle
 10
2.358546
 20
5.930182
 30
0.0
 40
0.102308
100
AcDbArc
 50
282.7224470000001
 51
295.449125
  0
ARC
  5
21DE
330
23A5
100
AcDbEntity
  8
0
100
AcDbCircle
 10
2.379647
 20
5.885841
 30
0.0
 40
0.053202
100
AcDbArc
 50
295.449125
 51
317.919458
  0
ARC
  5
21DF
330
23A5
100
AcDbEntity
  8
0
100
AcDbCircle
 10
2.408942
 20
5.859389
 30
0.0
 40
0.013732
100
AcDbArc
 50
317.919458
 51
0.0
  0
ARC
  5
21E0
330
23A5
100
AcDbEntity
  8
0
100
AcDbCircle
 10
2.291165
 20
5.853175
 30
0.0
 40
0.013732
100
AcDbArc
 50
180.0
 51
183.020442
  0
ARC
  5
21E1
330
23A5
100
AcDbEntity
  8
0
100
AcDbCircle
 10
2.291165
 20
5.853175
 30
0.0
 40
0.013732
100
AcDbArc
 50
183.020442
 51
228.121427
  0
ARC
  5
21E2
330
23A5
100
AcDbEntity
  8
0
100
AcDbCircle
 10
2.317513
 20
5.882562
 30
0.0
 40
0.053202
100
AcDbArc
 50
228.121427
 51
250.59176
  0
ARC
  5
21E3
330
23A5
100
AcDbEntity
  8
0
100
AcDbCircle
 10
2.333831
 20
5.928877
 30
0.0
 40
0.102308
100
AcDbArc
 50
250.59176
 51
263.318438
  0
ARC
  5
21E4
330
23A5
100
AcDbEntity
  8
0
100
AcDbCircle
 10
2.342375
 20
6.00181
 30
0.0
 40
0.175739
100
AcDbArc
 50
263.318438
 51
273.020442
  0
ARC
  5
21E5
330
23A5
100
AcDbEntity
  8
0
100
AcDbCircle
 10
2.342375
 20
6.020302
 30
0.0
 40
0.175739
100
AcDbArc
 50
273.020442
 51
282.7224470000001
  0
ARC
  5
21E6
330
23A5
100
AcDbEntity
  8
0
100
AcDbCircle
 10
2.358546
 20
5.948674
 30
0.0
 40
0.102308
100
AcDbArc
 50
282.7224470000001
 51
295.449125
  0
ARC
  5
21E7
330
23A5
100
AcDbEntity
  8
0
100
AcDbCircle
 10
2.379647
 20
5.904333
 30
0.0
 40
0.053202
100
AcDbArc
 50
295.449125
 51
317.919458
  0
ARC
  5
21E8
330
23A5
100
AcDbEntity
  8
0
100
AcDbCircle
 10
2.408942
 20
5.877881
 30
0.0
 40
0.013732
100
AcDbArc
 50
317.919458
 51
0.0
  0
ARC
  5
21E9
330
23A5
100
AcDbEntity
  8
0
100
AcDbCircle
 10
2.291165
 20
5.871667
 30
0.0
 40
0.013732
100
AcDbArc
 50
180.0
 51
183.020442
  0
ARC
  5
21EA
330
23A5
100
AcDbEntity
  8
0
100
AcDbCircle
 10
2.291165
 20
5.871667
 30
0.0
 40
0.013732
100
AcDbArc
 50
183.020442
 51
228.121427
  0
ARC
  5
21EB
330
23A5
100
AcDbEntity
  8
0
100
AcDbCircle
 10
2.317513
 20
5.901055
 30
0.0
 40
0.053202
100
AcDbArc
 50
228.121427
 51
250.59176
  0
ARC
  5
21EC
330
23A5
100
AcDbEntity
  8
0
100
AcDbCircle
 10
2.333831
 20
5.947369999999999
 30
0.0
 40
0.102308
100
AcDbArc
 50
250.59176
 51
263.318438
  0
ARC
  5
21ED
330
23A5
100
AcDbEntity
  8
0
100
AcDbCircle
 10
2.342375
 20
6.020302
 30
0.0
 40
0.175739
100
AcDbArc
 50
263.318438
 51
273.020442
  0
ARC
  5
21EE
330
23A5
100
AcDbEntity
  8
0
100
AcDbCircle
 10
2.342375
 20
5.983846
 30
0.0
 40
0.175739
100
AcDbArc
 50
273.020442
 51
282.7224470000001
  0
ARC
  5
21EF
330
23A5
100
AcDbEntity
  8
0
100
AcDbCircle
 10
2.358546
 20
5.912218
 30
0.0
 40
0.102308
100
AcDbArc
 50
282.7224470000001
 51
295.449125
  0
ARC
  5
21F0
330
23A5
100
AcDbEntity
  8
0
100
AcDbCircle
 10
2.379647
 20
5.867877
 30
0.0
 40
0.053202
100
AcDbArc
 50
295.449125
 51
317.919458
  0
ARC
  5
21F1
330
23A5
100
AcDbEntity
  8
0
100
AcDbCircle
 10
2.408942
 20
5.841425
 30
0.0
 40
0.013732
100
AcDbArc
 50
317.919458
 51
0.0
  0
ARC
  5
21F2
330
23A5
100
AcDbEntity
  8
0
100
AcDbCircle
 10
2.291165
 20
5.835211
 30
0.0
 40
0.013732
100
AcDbArc
 50
180.0
 51
183.020442
  0
ARC
  5
21F3
330
23A5
100
AcDbEntity
  8
0
100
AcDbCircle
 10
2.291165
 20
5.835211
 30
0.0
 40
0.013732
100
AcDbArc
 50
183.020442
 51
228.121427
  0
ARC
  5
21F4
330
23A5
100
AcDbEntity
  8
0
100
AcDbCircle
 10
2.317513
 20
5.864599
 30
0.0
 40
0.053202
100
AcDbArc
 50
228.121427
 51
250.59176
  0
ARC
  5
21F5
330
23A5
100
AcDbEntity
  8
0
100
AcDbCircle
 10
2.333831
 20
5.910914
 30
0.0
 40
0.102308
100
AcDbArc
 50
250.59176
 51
263.318438
  0
ARC
  5
21F6
330
23A5
100
AcDbEntity
  8
0
100
AcDbCircle
 10
2.342375
 20
5.983846
 30
0.0
 40
0.175739
100
AcDbArc
 50
263.318438
 51
273.020442
  0
ARC
  5
21F7
330
23A5
100
AcDbEntity
  8
0
100
AcDbCircle
 10
2.342375
 20
5.945805
 30
0.0
 40
0.175739
100
AcDbArc
 50
273.020442
 51
282.7224470000001
  0
ARC
  5
21F8
330
23A5
100
AcDbEntity
  8
0
100
AcDbCircle
 10
2.358546
 20
5.874177
 30
0.0
 40
0.102308
100
AcDbArc
 50
282.7224470000001
 51
295.449125
  0
ARC
  5
21F9
330
23A5
100
AcDbEntity
  8
0
100
AcDbCircle
 10
2.379647
 20
5.829836
 30
0.0
 40
0.053202
100
AcDbArc
 50
295.449125
 51
317.919458
  0
ARC
  5
21FA
330
23A5
100
AcDbEntity
  8
0
100
AcDbCircle
 10
2.408942
 20
5.803383999999999
 30
0.0
 40
0.013732
100
AcDbArc
 50
317.919458
 51
0.0
  0
ARC
  5
21FB
330
23A5
100
AcDbEntity
  8
0
100
AcDbCircle
 10
2.291165
 20
5.79717
 30
0.0
 40
0.013732
100
AcDbArc
 50
180.0
 51
183.020442
  0
ARC
  5
21FC
330
23A5
100
AcDbEntity
  8
0
100
AcDbCircle
 10
2.291165
 20
5.79717
 30
0.0
 40
0.013732
100
AcDbArc
 50
183.020442
 51
228.121427
  0
ARC
  5
21FD
330
23A5
100
AcDbEntity
  8
0
100
AcDbCircle
 10
2.317513
 20
5.826557
 30
0.0
 40
0.053202
100
AcDbArc
 50
228.121427
 51
250.59176
  0
ARC
  5
21FE
330
23A5
100
AcDbEntity
  8
0
100
AcDbCircle
 10
2.333831
 20
5.872873
 30
0.0
 40
0.102308
100
AcDbArc
 50
250.59176
 51
263.318438
  0
ARC
  5
21FF
330
23A5
100
AcDbEntity
  8
0
100
AcDbCircle
 10
2.342375
 20
5.945805
 30
0.0
 40
0.175739
100
AcDbArc
 50
263.318438
 51
273.020442
  0
ARC
  5
2200
330
23A5
100
AcDbEntity
  8
0
100
AcDbCircle
 10
2.342375
 20
5.964297
 30
0.0
 40
0.175739
100
AcDbArc
 50
273.020442
 51
282.7224470000001
  0
ARC
  5
2201
330
23A5
100
AcDbEntity
  8
0
100
AcDbCircle
 10
2.358546
 20
5.892669000000001
 30
0.0
 40
0.102308
100
AcDbArc
 50
282.7224470000001
 51
295.449125
  0
ARC
  5
2202
330
23A5
100
AcDbEntity
  8
0
100
AcDbCircle
 10
2.379647
 20
5.848328
 30
0.0
 40
0.053202
100
AcDbArc
 50
295.449125
 51
317.919458
  0
ARC
  5
2203
330
23A5
100
AcDbEntity
  8
0
100
AcDbCircle
 10
2.408942
 20
5.821876000000001
 30
0.0
 40
0.013732
100
AcDbArc
 50
317.919458
 51
0.0
  0
ARC
  5
2204
330
23A5
100
AcDbEntity
  8
0
100
AcDbCircle
 10
2.291165
 20
5.815662000000001
 30
0.0
 40
0.013732
100
AcDbArc
 50
180.0
 51
183.020442
  0
ARC
  5
2205
330
23A5
100
AcDbEntity
  8
0
100
AcDbCircle
 10
2.291165
 20
5.815662000000001
 30
0.0
 40
0.013732
100
AcDbArc
 50
183.020442
 51
228.121427
  0
ARC
  5
2206
330
23A5
100
AcDbEntity
  8
0
100
AcDbCircle
 10
2.317513
 20
5.84505
 30
0.0
 40
0.053202
100
AcDbArc
 50
228.121427
 51
250.59176
  0
ARC
  5
2207
330
23A5
100
AcDbEntity
  8
0
100
AcDbCircle
 10
2.333831
 20
5.891365
 30
0.0
 40
0.102308
100
AcDbArc
 50
250.59176
 51
263.318438
  0
ARC
  5
2208
330
23A5
100
AcDbEntity
  8
0
100
AcDbCircle
 10
2.342375
 20
5.964297
 30
0.0
 40
0.175739
100
AcDbArc
 50
263.318438
 51
273.020442
  0
ARC
  5
2209
330
23A5
100
AcDbEntity
  8
0
100
AcDbCircle
 10
2.342375
 20
5.927841
 30
0.0
 40
0.175739
100
AcDbArc
 50
273.020442
 51
282.7224470000001
  0
ARC
  5
220A
330
23A5
100
AcDbEntity
  8
0
100
AcDbCircle
 10
2.358546
 20
5.856212999999999
 30
0.0
 40
0.102308
100
AcDbArc
 50
282.7224470000001
 51
295.449125
  0
ARC
  5
220B
330
23A5
100
AcDbEntity
  8
0
100
AcDbCircle
 10
2.379647
 20
5.811872
 30
0.0
 40
0.053202
100
AcDbArc
 50
295.449125
 51
317.919458
  0
ARC
  5
220C
330
23A5
100
AcDbEntity
  8
0
100
AcDbCircle
 10
2.408942
 20
5.785419999999999
 30
0.0
 40
0.013732
100
AcDbArc
 50
317.919458
 51
0.0
  0
ARC
  5
220D
330
23A5
100
AcDbEntity
  8
0
100
AcDbCircle
 10
2.291165
 20
5.779205999999999
 30
0.0
 40
0.013732
100
AcDbArc
 50
180.0
 51
183.020442
  0
ARC
  5
220E
330
23A5
100
AcDbEntity
  8
0
100
AcDbCircle
 10
2.291165
 20
5.779205999999999
 30
0.0
 40
0.013732
100
AcDbArc
 50
183.020442
 51
228.121427
  0
ARC
  5
220F
330
23A5
100
AcDbEntity
  8
0
100
AcDbCircle
 10
2.317513
 20
5.808594
 30
0.0
 40
0.053202
100
AcDbArc
 50
228.121427
 51
250.59176
  0
ARC
  5
2210
330
23A5
100
AcDbEntity
  8
0
100
AcDbCircle
 10
2.333831
 20
5.854908999999999
 30
0.0
 40
0.102308
100
AcDbArc
 50
250.59176
 51
263.318438
  0
ARC
  5
2211
330
23A5
100
AcDbEntity
  8
0
100
AcDbCircle
 10
2.342375
 20
5.927841
 30
0.0
 40
0.175739
100
AcDbArc
 50
263.318438
 51
273.020442
  0
ARC
  5
2212
330
23A5
100
AcDbEntity
  8
0
100
AcDbCircle
 10
2.342375
 20
5.8898
 30
0.0
 40
0.175739
100
AcDbArc
 50
273.020442
 51
282.7224470000001
  0
ARC
  5
2213
330
23A5
100
AcDbEntity
  8
0
100
AcDbCircle
 10
2.358546
 20
5.818172
 30
0.0
 40
0.102308
100
AcDbArc
 50
282.7224470000001
 51
295.449125
  0
ARC
  5
2214
330
23A5
100
AcDbEntity
  8
0
100
AcDbCircle
 10
2.379647
 20
5.773831
 30
0.0
 40
0.053202
100
AcDbArc
 50
295.449125
 51
317.919458
  0
ARC
  5
2215
330
23A5
100
AcDbEntity
  8
0
100
AcDbCircle
 10
2.408942
 20
5.747379000000001
 30
0.0
 40
0.013732
100
AcDbArc
 50
317.919458
 51
0.0
  0
ARC
  5
2216
330
23A5
100
AcDbEntity
  8
0
100
AcDbCircle
 10
2.291165
 20
5.741165000000001
 30
0.0
 40
0.013732
100
AcDbArc
 50
180.0
 51
183.020442
  0
ARC
  5
2217
330
23A5
100
AcDbEntity
  8
0
100
AcDbCircle
 10
2.291165
 20
5.741165000000001
 30
0.0
 40
0.013732
100
AcDbArc
 50
183.020442
 51
228.121427
  0
ARC
  5
2218
330
23A5
100
AcDbEntity
  8
0
100
AcDbCircle
 10
2.317513
 20
5.770553
 30
0.0
 40
0.053202
100
AcDbArc
 50
228.121427
 51
250.59176
  0
ARC
  5
2219
330
23A5
100
AcDbEntity
  8
0
100
AcDbCircle
 10
2.333831
 20
5.816868
 30
0.0
 40
0.102308
100
AcDbArc
 50
250.59176
 51
263.318438
  0
ARC
  5
221A
330
23A5
100
AcDbEntity
  8
0
100
AcDbCircle
 10
2.342375
 20
5.8898
 30
0.0
 40
0.175739
100
AcDbArc
 50
263.318438
 51
273.020442
  0
ARC
  5
221B
330
23A5
100
AcDbEntity
  8
0
100
AcDbCircle
 10
2.342375
 20
5.908291999999999
 30
0.0
 40
0.175739
100
AcDbArc
 50
273.020442
 51
282.7224470000001
  0
ARC
  5
221C
330
23A5
100
AcDbEntity
  8
0
100
AcDbCircle
 10
2.358546
 20
5.836664
 30
0.0
 40
0.102308
100
AcDbArc
 50
282.7224470000001
 51
295.449125
  0
ARC
  5
221D
330
23A5
100
AcDbEntity
  8
0
100
AcDbCircle
 10
2.379647
 20
5.792323000000001
 30
0.0
 40
0.053202
100
AcDbArc
 50
295.449125
 51
317.919458
  0
ARC
  5
221E
330
23A5
100
AcDbEntity
  8
0
100
AcDbCircle
 10
2.408942
 20
5.765871
 30
0.0
 40
0.013732
100
AcDbArc
 50
317.919458
 51
0.0
  0
ARC
  5
221F
330
23A5
100
AcDbEntity
  8
0
100
AcDbCircle
 10
2.291165
 20
5.759657
 30
0.0
 40
0.013732
100
AcDbArc
 50
180.0
 51
183.020442
  0
ARC
  5
2220
330
23A5
100
AcDbEntity
  8
0
100
AcDbCircle
 10
2.291165
 20
5.759657
 30
0.0
 40
0.013732
100
AcDbArc
 50
183.020442
 51
228.121427
  0
ARC
  5
2221
330
23A5
100
AcDbEntity
  8
0
100
AcDbCircle
 10
2.317513
 20
5.789045
 30
0.0
 40
0.053202
100
AcDbArc
 50
228.121427
 51
250.59176
  0
ARC
  5
2222
330
23A5
100
AcDbEntity
  8
0
100
AcDbCircle
 10
2.333831
 20
5.83536
 30
0.0
 40
0.102308
100
AcDbArc
 50
250.59176
 51
263.318438
  0
ARC
  5
2223
330
23A5
100
AcDbEntity
  8
0
100
AcDbCircle
 10
2.342375
 20
5.908291999999999
 30
0.0
 40
0.175739
100
AcDbArc
 50
263.318438
 51
273.020442
  0
ARC
  5
2224
330
23A5
100
AcDbEntity
  8
0
100
AcDbCircle
 10
2.291165
 20
5.665749
 30
0.0
 40
0.013732
100
AcDbArc
 50
176.979558
 51
183.020442
  0
ARC
  5
2225
330
23A5
100
AcDbEntity
  8
0
100
AcDbCircle
 10
2.291165
 20
5.665749
 30
0.0
 40
0.013732
100
AcDbArc
 50
183.020442
 51
228.121427
  0
ARC
  5
2226
330
23A5
100
AcDbEntity
  8
0
100
AcDbCircle
 10
2.317513
 20
5.695137
 30
0.0
 40
0.053202
100
AcDbArc
 50
228.121427
 51
250.59176
  0
ARC
  5
2227
330
23A5
100
AcDbEntity
  8
0
100
AcDbCircle
 10
2.333831
 20
5.741452
 30
0.0
 40
0.102308
100
AcDbArc
 50
250.59176
 51
263.318438
  0
ARC
  5
2228
330
23A5
100
AcDbEntity
  8
0
100
AcDbCircle
 10
2.342375
 20
5.814384
 30
0.0
 40
0.175739
100
AcDbArc
 50
263.318438
 51
273.020442
  0
ARC
  5
2229
330
23A5
100
AcDbEntity
  8
0
100
AcDbCircle
 10
2.342375
 20
5.814384
 30
0.0
 40
0.175739
100
AcDbArc
 50
273.020442
 51
282.7224470000001
  0
ARC
  5
222A
330
23A5
100
AcDbEntity
  8
0
100
AcDbCircle
 10
2.358546
 20
5.742756
 30
0.0
 40
0.102308
100
AcDbArc
 50
282.7224470000001
 51
295.449125
  0
ARC
  5
222B
330
23A5
100
AcDbEntity
  8
0
100
AcDbCircle
 10
2.379647
 20
5.698415
 30
0.0
 40
0.053202
100
AcDbArc
 50
295.449125
 51
317.919458
  0
ARC
  5
222C
330
23A5
100
AcDbEntity
  8
0
100
AcDbCircle
 10
2.408942
 20
5.671963
 30
0.0
 40
0.013732
100
AcDbArc
 50
317.919458
 51
3.020442
  0
ARC
  5
222D
330
23A5
100
AcDbEntity
  8
0
100
AcDbCircle
 10
2.342375
 20
5.871836
 30
0.0
 40
0.175739
100
AcDbArc
 50
273.020442
 51
282.7224470000001
  0
ARC
  5
222E
330
23A5
100
AcDbEntity
  8
0
100
AcDbCircle
 10
2.358546
 20
5.800208000000001
 30
0.0
 40
0.102308
100
AcDbArc
 50
282.7224470000001
 51
295.449125
  0
ARC
  5
222F
330
23A5
100
AcDbEntity
  8
0
100
AcDbCircle
 10
2.379647
 20
5.755866999999999
 30
0.0
 40
0.053202
100
AcDbArc
 50
295.449125
 51
317.919458
  0
ARC
  5
2230
330
23A5
100
AcDbEntity
  8
0
100
AcDbCircle
 10
2.408942
 20
5.729415
 30
0.0
 40
0.013732
100
AcDbArc
 50
317.919458
 51
0.0
  0
ARC
  5
2231
330
23A5
100
AcDbEntity
  8
0
100
AcDbCircle
 10
2.342375
 20
5.833794999999999
 30
0.0
 40
0.175739
100
AcDbArc
 50
273.020442
 51
282.7224470000001
  0
ARC
  5
2232
330
23A5
100
AcDbEntity
  8
0
100
AcDbCircle
 10
2.358546
 20
5.762167
 30
0.0
 40
0.102308
100
AcDbArc
 50
282.7224470000001
 51
295.449125
  0
ARC
  5
2233
330
23A5
100
AcDbEntity
  8
0
100
AcDbCircle
 10
2.379647
 20
5.717826000000001
 30
0.0
 40
0.053202
100
AcDbArc
 50
295.449125
 51
317.919458
  0
ARC
  5
2234
330
23A5
100
AcDbEntity
  8
0
100
AcDbCircle
 10
2.408942
 20
5.691374
 30
0.0
 40
0.013732
100
AcDbArc
 50
317.919458
 51
0.0
  0
ARC
  5
2235
330
23A5
100
AcDbEntity
  8
0
100
AcDbCircle
 10
2.291165
 20
5.68516
 30
0.0
 40
0.013732
100
AcDbArc
 50
180.0
 51
183.020442
  0
ARC
  5
2236
330
23A5
100
AcDbEntity
  8
0
100
AcDbCircle
 10
2.291165
 20
5.68516
 30
0.0
 40
0.013732
100
AcDbArc
 50
183.020442
 51
228.121427
  0
ARC
  5
2237
330
23A5
100
AcDbEntity
  8
0
100
AcDbCircle
 10
2.317513
 20
5.714548000000001
 30
0.0
 40
0.053202
100
AcDbArc
 50
228.121427
 51
250.59176
  0
ARC
  5
2238
330
23A5
100
AcDbEntity
  8
0
100
AcDbCircle
 10
2.333831
 20
5.760863
 30
0.0
 40
0.102308
100
AcDbArc
 50
250.59176
 51
263.318438
  0
ARC
  5
2239
330
23A5
100
AcDbEntity
  8
0
100
AcDbCircle
 10
2.342375
 20
5.833794999999999
 30
0.0
 40
0.175739
100
AcDbArc
 50
263.318438
 51
273.020442
  0
ARC
  5
223A
330
23A5
100
AcDbEntity
  8
0
100
AcDbCircle
 10
2.291165
 20
5.703652
 30
0.0
 40
0.013732
100
AcDbArc
 50
180.0
 51
183.020442
  0
ARC
  5
223B
330
23A5
100
AcDbEntity
  8
0
100
AcDbCircle
 10
2.291165
 20
5.703652
 30
0.0
 40
0.013732
100
AcDbArc
 50
183.020442
 51
228.121427
  0
ARC
  5
223C
330
23A5
100
AcDbEntity
  8
0
100
AcDbCircle
 10
2.317513
 20
5.73304
 30
0.0
 40
0.053202
100
AcDbArc
 50
228.121427
 51
250.59176
  0
ARC
  5
223D
330
23A5
100
AcDbEntity
  8
0
100
AcDbCircle
 10
2.333831
 20
5.779355000000001
 30
0.0
 40
0.102308
100
AcDbArc
 50
250.59176
 51
263.318438
  0
ARC
  5
223E
330
23A5
100
AcDbEntity
  8
0
100
AcDbCircle
 10
2.342375
 20
5.852287000000001
 30
0.0
 40
0.175739
100
AcDbArc
 50
263.318438
 51
273.020442
  0
ARC
  5
223F
330
23A5
100
AcDbEntity
  8
0
100
AcDbCircle
 10
2.342375
 20
5.852287000000001
 30
0.0
 40
0.175739
100
AcDbArc
 50
273.020442
 51
282.7224470000001
  0
ARC
  5
2240
330
23A5
100
AcDbEntity
  8
0
100
AcDbCircle
 10
2.358546
 20
5.780659
 30
0.0
 40
0.102308
100
AcDbArc
 50
282.7224470000001
 51
295.449125
  0
ARC
  5
2241
330
23A5
100
AcDbEntity
  8
0
100
AcDbCircle
 10
2.379647
 20
5.736318
 30
0.0
 40
0.053202
100
AcDbArc
 50
295.449125
 51
317.919458
  0
ARC
  5
2242
330
23A5
100
AcDbEntity
  8
0
100
AcDbCircle
 10
2.408942
 20
5.709867
 30
0.0
 40
0.013732
100
AcDbArc
 50
317.919458
 51
0.0
  0
ARC
  5
2243
330
23A5
100
AcDbEntity
  8
0
100
AcDbCircle
 10
2.291165
 20
5.723201
 30
0.0
 40
0.013732
100
AcDbArc
 50
180.0
 51
183.020442
  0
ARC
  5
2244
330
23A5
100
AcDbEntity
  8
0
100
AcDbCircle
 10
2.291165
 20
5.723201
 30
0.0
 40
0.013732
100
AcDbArc
 50
183.020442
 51
228.121427
  0
ARC
  5
2245
330
23A5
100
AcDbEntity
  8
0
100
AcDbCircle
 10
2.317513
 20
5.752589
 30
0.0
 40
0.053202
100
AcDbArc
 50
228.121427
 51
250.59176
  0
ARC
  5
2246
330
23A5
100
AcDbEntity
  8
0
100
AcDbCircle
 10
2.333831
 20
5.798904
 30
0.0
 40
0.102308
100
AcDbArc
 50
250.59176
 51
263.318438
  0
ARC
  5
2247
330
23A5
100
AcDbEntity
  8
0
100
AcDbCircle
 10
2.342375
 20
5.871836
 30
0.0
 40
0.175739
100
AcDbArc
 50
263.318438
 51
273.020442
  0
ARC
  5
2248
330
23A5
100
AcDbEntity
  8
0
100
AcDbCircle
 10
2.342356
 20
7.365652000000001
 30
0.0
 40
0.175739
100
AcDbArc
 50
273.020442
 51
282.7224470000001
  0
ARC
  5
2249
330
23A5
100
AcDbEntity
  8
0
100
AcDbCircle
 10
2.358527
 20
7.294024
 30
0.0
 40
0.102308
100
AcDbArc
 50
282.7224470000001
 51
295.449125
  0
ARC
  5
224A
330
23A5
100
AcDbEntity
  8
0
100
AcDbCircle
 10
2.379628
 20
7.249683999999999
 30
0.0
 40
0.053202
100
AcDbArc
 50
295.449125
 51
317.919458
  0
ARC
  5
224B
330
23A5
100
AcDbEntity
  8
0
100
AcDbCircle
 10
2.408923
 20
7.223232
 30
0.0
 40
0.013732
100
AcDbArc
 50
317.919458
 51
3.020442
  0
ARC
  5
224C
330
23A5
100
AcDbEntity
  8
0
100
AcDbCircle
 10
2.408923
 20
7.223232
 30
0.0
 40
0.013732
100
AcDbArc
 50
3.020442
 51
48.121427
  0
ARC
  5
224D
330
23A5
100
AcDbEntity
  8
0
100
AcDbCircle
 10
2.382575
 20
7.193844
 30
0.0
 40
0.053202
100
AcDbArc
 50
48.121427
 51
70.59175999999999
  0
ARC
  5
224E
330
23A5
100
AcDbEntity
  8
0
100
AcDbCircle
 10
2.366257
 20
7.147529
 30
0.0
 40
0.102308
100
AcDbArc
 50
70.59175999999999
 51
83.318438
  0
ARC
  5
224F
330
23A5
100
AcDbEntity
  8
0
100
AcDbCircle
 10
2.357713
 20
7.074597
 30
0.0
 40
0.175739
100
AcDbArc
 50
83.318438
 51
93.02044199999999
  0
ARC
  5
2250
330
23A5
100
AcDbEntity
  8
0
100
AcDbCircle
 10
2.357713
 20
7.074597
 30
0.0
 40
0.175739
100
AcDbArc
 50
93.02044199999999
 51
102.722447
  0
ARC
  5
2251
330
23A5
100
AcDbEntity
  8
0
100
AcDbCircle
 10
2.341542
 20
7.146225
 30
0.0
 40
0.102308
100
AcDbArc
 50
102.722447
 51
115.449125
  0
ARC
  5
2252
330
23A5
100
AcDbEntity
  8
0
100
AcDbCircle
 10
2.320441
 20
7.190564999999999
 30
0.0
 40
0.053202
100
AcDbArc
 50
115.449125
 51
137.919458
  0
ARC
  5
2253
330
23A5
100
AcDbEntity
  8
0
100
AcDbCircle
 10
2.291146
 20
7.217017
 30
0.0
 40
0.013732
100
AcDbArc
 50
137.919458
 51
183.020442
  0
ARC
  5
2254
330
23A5
100
AcDbEntity
  8
0
100
AcDbCircle
 10
2.291146
 20
7.217017
 30
0.0
 40
0.013732
100
AcDbArc
 50
183.020442
 51
228.121427
  0
ARC
  5
2255
330
23A5
100
AcDbEntity
  8
0
100
AcDbCircle
 10
2.317494
 20
7.246405
 30
0.0
 40
0.053202
100
AcDbArc
 50
228.121427
 51
250.59176
  0
ARC
  5
2256
330
23A5
100
AcDbEntity
  8
0
100
AcDbCircle
 10
2.333812
 20
7.29272
 30
0.0
 40
0.102308
100
AcDbArc
 50
250.59176
 51
263.318438
  0
ARC
  5
2257
330
23A5
100
AcDbEntity
  8
0
100
AcDbCircle
 10
2.342356
 20
7.365652000000001
 30
0.0
 40
0.175739
100
AcDbArc
 50
263.318438
 51
273.020442
  0
ARC
  5
2258
330
23A5
100
AcDbEntity
  8
0
100
AcDbCircle
 10
2.674027
 20
6.774595
 30
0.0
 40
0.111803
100
AcDbArc
 50
8.533567999999999
 51
20.916067
  0
ARC
  5
2259
330
23A5
100
AcDbEntity
  8
0
100
AcDbCircle
 10
2.712025
 20
6.789117
 30
0.0
 40
0.071124
100
AcDbArc
 50
20.916067
 51
36.458332
  0
ARC
  5
225A
330
23A5
100
AcDbEntity
  8
0
100
AcDbCircle
 10
2.734787
 20
6.805934
 30
0.0
 40
0.042823
100
AcDbArc
 50
36.458332
 51
60.526073
  0
ARC
  5
225B
330
23A5
100
AcDbEntity
  8
0
100
AcDbCircle
 10
2.74722
 20
6.827932000000001
 30
0.0
 40
0.017555
100
AcDbArc
 50
60.526073
 51
98.533568
  0
ARC
  5
225C
330
23A5
100
AcDbEntity
  8
0
100
AcDbCircle
 10
2.74722
 20
6.827932000000001
 30
0.0
 40
0.017555
100
AcDbArc
 50
98.533568
 51
136.541063
  0
ARC
  5
225D
330
23A5
100
AcDbEntity
  8
0
100
AcDbCircle
 10
2.765561
 20
6.810552
 30
0.0
 40
0.042823
100
AcDbArc
 50
136.541063
 51
160.608803
  0
ARC
  5
225E
330
23A5
100
AcDbEntity
  8
0
100
AcDbCircle
 10
2.792257
 20
6.801156
 30
0.0
 40
0.071124
100
AcDbArc
 50
160.608803
 51
176.151069
  0
ARC
  5
225F
330
23A5
100
AcDbEntity
  8
0
100
AcDbCircle
 10
2.832844
 20
6.798425
 30
0.0
 40
0.111803
100
AcDbArc
 50
176.151069
 51
188.533568
  0
ARC
  5
2260
330
23A5
100
AcDbEntity
  8
0
100
AcDbCircle
 10
2.832844
 20
6.798425
 30
0.0
 40
0.111803
100
AcDbArc
 50
188.533568
 51
200.916067
  0
ARC
  5
2261
330
23A5
100
AcDbEntity
  8
0
100
AcDbCircle
 10
2.794846
 20
6.783903
 30
0.0
 40
0.071124
100
AcDbArc
 50
200.916067
 51
216.458332
  0
ARC
  5
2262
330
23A5
100
AcDbEntity
  8
0
100
AcDbCircle
 10
2.772084
 20
6.767085000000001
 30
0.0
 40
0.042823
100
AcDbArc
 50
216.458332
 51
240.526073
  0
ARC
  5
2263
330
23A5
100
AcDbEntity
  8
0
100
AcDbCircle
 10
2.759651
 20
6.745087
 30
0.0
 40
0.017555
100
AcDbArc
 50
240.526073
 51
278.533568
  0
ARC
  5
2264
330
23A5
100
AcDbEntity
  8
0
100
AcDbCircle
 10
2.759651
 20
6.745087
 30
0.0
 40
0.017555
100
AcDbArc
 50
278.533568
 51
316.541063
  0
ARC
  5
2265
330
23A5
100
AcDbEntity
  8
0
100
AcDbCircle
 10
2.74131
 20
6.762467999999999
 30
0.0
 40
0.042823
100
AcDbArc
 50
316.541063
 51
340.608803
  0
ARC
  5
2266
330
23A5
100
AcDbEntity
  8
0
100
AcDbCircle
 10
2.714614
 20
6.771864
 30
0.0
 40
0.071124
100
AcDbArc
 50
340.608803
 51
356.151069
  0
ARC
  5
2267
330
23A5
100
AcDbEntity
  8
0
100
AcDbCircle
 10
2.674027
 20
6.774595
 30
0.0
 40
0.111803
100
AcDbArc
 50
356.151069
 51
8.533567999999999
  0
ARC
  5
2268
330
23A5
100
AcDbEntity
  8
0
100
AcDbCircle
 10
4.22861
 20
7.627014
 30
0.0
 40
0.468014
100
AcDbArc
 50
270.238543
 51
277.898735
  0
ARC
  5
2269
330
23A5
100
AcDbEntity
  8
0
100
AcDbCircle
 10
4.25675
 20
7.424189999999999
 30
0.0
 40
0.263247
100
AcDbArc
 50
277.898735
 51
289.223724
  0
ARC
  5
226A
330
23A5
100
AcDbEntity
  8
0
100
AcDbCircle
 10
4.301114
 20
7.296962
 30
0.0
 40
0.128506
100
AcDbArc
 50
289.223724
 51
310.42684
  0
ARC
  5
226B
330
23A5
100
AcDbEntity
  8
0
100
AcDbCircle
 10
4.368035
 20
7.218404
 30
0.0
 40
0.025308
100
AcDbArc
 50
310.42684
 51
359.411225
  0
ARC
  5
226C
330
23A5
100
AcDbEntity
  8
0
100
AcDbCircle
 10
4.368035
 20
7.218404
 30
0.0
 40
0.025308
100
AcDbArc
 50
359.411225
 51
36.59416
  0
ARC
  5
226D
330
23A5
100
AcDbEntity
  8
0
100
AcDbCircle
 10
4.22861
 20
7.657189
 30
0.0
 40
0.468014
100
AcDbArc
 50
268.695003
 51
269.411225
  0
ARC
  5
226E
330
23A5
100
AcDbEntity
  8
0
100
AcDbCircle
 10
4.22861
 20
7.657189
 30
0.0
 40
0.468014
100
AcDbArc
 50
269.411225
 51
277.898735
  0
ARC
  5
226F
330
23A5
100
AcDbEntity
  8
0
100
AcDbCircle
 10
4.25675
 20
7.454364999999999
 30
0.0
 40
0.263247
100
AcDbArc
 50
277.898735
 51
289.223724
  0
ARC
  5
2270
330
23A5
100
AcDbEntity
  8
0
100
AcDbCircle
 10
4.301114
 20
7.327137
 30
0.0
 40
0.128506
100
AcDbArc
 50
289.223724
 51
310.42684
  0
ARC
  5
2271
330
23A5
100
AcDbEntity
  8
0
100
AcDbCircle
 10
4.368035
 20
7.248578999999999
 30
0.0
 40
0.025308
100
AcDbArc
 50
310.42684
 51
359.411225
  0
ARC
  5
2272
330
23A5
100
AcDbEntity
  8
0
100
AcDbCircle
 10
4.368035
 20
7.248578999999999
 30
0.0
 40
0.025308
100
AcDbArc
 50
359.411225
 51
48.39561099999999
  0
ARC
  5
2273
330
23A5
100
AcDbEntity
  8
0
100
AcDbCircle
 10
4.299514
 20
7.171413
 30
0.0
 40
0.128506
100
AcDbArc
 50
48.39561099999999
 51
61.417536
  0
ARC
  5
2274
330
23A5
100
AcDbEntity
  8
0
100
AcDbCircle
 10
4.222615
 20
7.585008
 30
0.0
 40
0.175739
100
AcDbArc
 50
273.020442
 51
282.7224470000001
  0
ARC
  5
2275
330
23A5
100
AcDbEntity
  8
0
100
AcDbCircle
 10
4.238786
 20
7.513380000000001
 30
0.0
 40
0.102308
100
AcDbArc
 50
282.7224470000001
 51
295.449125
  0
ARC
  5
2276
330
23A5
100
AcDbEntity
  8
0
100
AcDbCircle
 10
4.259887
 20
7.469039
 30
0.0
 40
0.053202
100
AcDbArc
 50
295.449125
 51
317.919458
  0
ARC
  5
2277
330
23A5
100
AcDbEntity
  8
0
100
AcDbCircle
 10
4.289182
 20
7.442587
 30
0.0
 40
0.013732
100
AcDbArc
 50
317.919458
 51
0.0
  0
ARC
  5
2278
330
23A5
100
AcDbEntity
  8
0
100
AcDbCircle
 10
4.222615
 20
7.565459
 30
0.0
 40
0.175739
100
AcDbArc
 50
273.020442
 51
282.7224470000001
  0
ARC
  5
2279
330
23A5
100
AcDbEntity
  8
0
100
AcDbCircle
 10
4.238786
 20
7.493831
 30
0.0
 40
0.102308
100
AcDbArc
 50
282.7224470000001
 51
295.449125
  0
ARC
  5
227A
330
23A5
100
AcDbEntity
  8
0
100
AcDbCircle
 10
4.259887
 20
7.449489999999999
 30
0.0
 40
0.053202
100
AcDbArc
 50
295.449125
 51
317.919458
  0
ARC
  5
227B
330
23A5
100
AcDbEntity
  8
0
100
AcDbCircle
 10
4.289182
 20
7.423039
 30
0.0
 40
0.013732
100
AcDbArc
 50
317.919458
 51
0.0
  0
ARC
  5
227C
330
23A5
100
AcDbEntity
  8
0
100
AcDbCircle
 10
4.222615
 20
7.546967
 30
0.0
 40
0.175739
100
AcDbArc
 50
273.020442
 51
282.7224470000001
  0
ARC
  5
227D
330
23A5
100
AcDbEntity
  8
0
100
AcDbCircle
 10
4.238786
 20
7.475339
 30
0.0
 40
0.102308
100
AcDbArc
 50
282.7224470000001
 51
295.449125
  0
ARC
  5
227E
330
23A5
100
AcDbEntity
  8
0
100
AcDbCircle
 10
4.259887
 20
7.430998
 30
0.0
 40
0.053202
100
AcDbArc
 50
295.449125
 51
317.919458
  0
ARC
  5
227F
330
23A5
100
AcDbEntity
  8
0
100
AcDbCircle
 10
4.289182
 20
7.404546000000001
 30
0.0
 40
0.013732
100
AcDbArc
 50
317.919458
 51
0.0
  0
ARC
  5
2280
330
23A5
100
AcDbEntity
  8
0
100
AcDbCircle
 10
4.222615
 20
7.529002999999999
 30
0.0
 40
0.175739
100
AcDbArc
 50
273.020442
 51
282.7224470000001
  0
ARC
  5
2281
330
23A5
100
AcDbEntity
  8
0
100
AcDbCircle
 10
4.238786
 20
7.457375
 30
0.0
 40
0.102308
100
AcDbArc
 50
282.7224470000001
 51
295.449125
  0
ARC
  5
2282
330
23A5
100
AcDbEntity
  8
0
100
AcDbCircle
 10
4.259887
 20
7.413034
 30
0.0
 40
0.053202
100
AcDbArc
 50
295.449125
 51
317.919458
  0
ARC
  5
2283
330
23A5
100
AcDbEntity
  8
0
100
AcDbCircle
 10
4.289182
 20
7.386583
 30
0.0
 40
0.013732
100
AcDbArc
 50
317.919458
 51
0.0
  0
ARC
  5
2284
330
23A5
100
AcDbEntity
  8
0
100
AcDbCircle
 10
4.171405
 20
7.380367999999999
 30
0.0
 40
0.013732
100
AcDbArc
 50
180.0
 51
183.020442
  0
ARC
  5
2285
330
23A5
100
AcDbEntity
  8
0
100
AcDbCircle
 10
4.171405
 20
7.380367999999999
 30
0.0
 40
0.013732
100
AcDbArc
 50
183.020442
 51
228.121427
  0
ARC
  5
2286
330
23A5
100
AcDbEntity
  8
0
100
AcDbCircle
 10
4.197753
 20
7.409756
 30
0.0
 40
0.053202
100
AcDbArc
 50
228.121427
 51
250.59176
  0
ARC
  5
2287
330
23A5
100
AcDbEntity
  8
0
100
AcDbCircle
 10
4.214071
 20
7.456071000000001
 30
0.0
 40
0.102308
100
AcDbArc
 50
250.59176
 51
263.318438
  0
ARC
  5
2288
330
23A5
100
AcDbEntity
  8
0
100
AcDbCircle
 10
4.222615
 20
7.529002999999999
 30
0.0
 40
0.175739
100
AcDbArc
 50
263.318438
 51
273.020442
  0
ARC
  5
2289
330
23A5
100
AcDbEntity
  8
0
100
AcDbCircle
 10
4.171405
 20
7.398332000000001
 30
0.0
 40
0.013732
100
AcDbArc
 50
180.0
 51
183.020442
  0
ARC
  5
228A
330
23A5
100
AcDbEntity
  8
0
100
AcDbCircle
 10
4.171405
 20
7.398332000000001
 30
0.0
 40
0.013732
100
AcDbArc
 50
183.020442
 51
228.121427
  0
ARC
  5
228B
330
23A5
100
AcDbEntity
  8
0
100
AcDbCircle
 10
4.197753
 20
7.42772
 30
0.0
 40
0.053202
100
AcDbArc
 50
228.121427
 51
250.59176
  0
ARC
  5
228C
330
23A5
100
AcDbEntity
  8
0
100
AcDbCircle
 10
4.214071
 20
7.474035000000001
 30
0.0
 40
0.102308
100
AcDbArc
 50
250.59176
 51
263.318438
  0
ARC
  5
228D
330
23A5
100
AcDbEntity
  8
0
100
AcDbCircle
 10
4.222615
 20
7.546967
 30
0.0
 40
0.175739
100
AcDbArc
 50
263.318438
 51
273.020442
  0
ARC
  5
228E
330
23A5
100
AcDbEntity
  8
0
100
AcDbCircle
 10
4.171405
 20
7.416824
 30
0.0
 40
0.013732
100
AcDbArc
 50
180.0
 51
183.020442
  0
ARC
  5
228F
330
23A5
100
AcDbEntity
  8
0
100
AcDbCircle
 10
4.171405
 20
7.416824
 30
0.0
 40
0.013732
100
AcDbArc
 50
183.020442
 51
228.121427
  0
ARC
  5
2290
330
23A5
100
AcDbEntity
  8
0
100
AcDbCircle
 10
4.197753
 20
7.446211999999999
 30
0.0
 40
0.053202
100
AcDbArc
 50
228.121427
 51
250.59176
  0
ARC
  5
2291
330
23A5
100
AcDbEntity
  8
0
100
AcDbCircle
 10
4.214071
 20
7.492527000000001
 30
0.0
 40
0.102308
100
AcDbArc
 50
250.59176
 51
263.318438
  0
ARC
  5
2292
330
23A5
100
AcDbEntity
  8
0
100
AcDbCircle
 10
4.222615
 20
7.565459
 30
0.0
 40
0.175739
100
AcDbArc
 50
263.318438
 51
273.020442
  0
ARC
  5
2293
330
23A5
100
AcDbEntity
  8
0
100
AcDbCircle
 10
4.171405
 20
7.436373
 30
0.0
 40
0.013732
100
AcDbArc
 50
180.0
 51
183.020442
  0
ARC
  5
2294
330
23A5
100
AcDbEntity
  8
0
100
AcDbCircle
 10
4.171405
 20
7.436373
 30
0.0
 40
0.013732
100
AcDbArc
 50
183.020442
 51
228.121427
  0
ARC
  5
2295
330
23A5
100
AcDbEntity
  8
0
100
AcDbCircle
 10
4.197753
 20
7.465761
 30
0.0
 40
0.053202
100
AcDbArc
 50
228.121427
 51
250.59176
  0
ARC
  5
2296
330
23A5
100
AcDbEntity
  8
0
100
AcDbCircle
 10
4.214071
 20
7.512076
 30
0.0
 40
0.102308
100
AcDbArc
 50
250.59176
 51
263.318438
  0
ARC
  5
2297
330
23A5
100
AcDbEntity
  8
0
100
AcDbCircle
 10
4.222615
 20
7.585008
 30
0.0
 40
0.175739
100
AcDbArc
 50
263.318438
 51
273.020442
  0
ARC
  5
2298
330
23A5
100
AcDbEntity
  8
0
100
AcDbCircle
 10
4.222615
 20
7.600417
 30
0.0
 40
0.175739
100
AcDbArc
 50
273.020442
 51
282.7224470000001
  0
ARC
  5
2299
330
23A5
100
AcDbEntity
  8
0
100
AcDbCircle
 10
4.238786
 20
7.528789
 30
0.0
 40
0.102308
100
AcDbArc
 50
282.7224470000001
 51
295.449125
  0
ARC
  5
229A
330
23A5
100
AcDbEntity
  8
0
100
AcDbCircle
 10
4.259887
 20
7.484448
 30
0.0
 40
0.053202
100
AcDbArc
 50
295.449125
 51
317.919458
  0
ARC
  5
229B
330
23A5
100
AcDbEntity
  8
0
100
AcDbCircle
 10
4.289182
 20
7.457996000000001
 30
0.0
 40
0.013732
100
AcDbArc
 50
317.919458
 51
3.020442
  0
ARC
  5
229C
330
23A5
100
AcDbEntity
  8
0
100
AcDbCircle
 10
4.289182
 20
7.457996000000001
 30
0.0
 40
0.013732
100
AcDbArc
 50
3.020442
 51
48.121427
  0
ARC
  5
229D
330
23A5
100
AcDbEntity
  8
0
100
AcDbCircle
 10
4.262834
 20
7.428609
 30
0.0
 40
0.053202
100
AcDbArc
 50
48.121427
 51
70.59175999999999
  0
ARC
  5
229E
330
23A5
100
AcDbEntity
  8
0
100
AcDbCircle
 10
4.246516000000001
 20
7.382294
 30
0.0
 40
0.102308
100
AcDbArc
 50
70.59175999999999
 51
83.318438
  0
ARC
  5
229F
330
23A5
100
AcDbEntity
  8
0
100
AcDbCircle
 10
4.237972
 20
7.309361
 30
0.0
 40
0.175739
100
AcDbArc
 50
83.318438
 51
93.02044199999999
  0
ARC
  5
22A0
330
23A5
100
AcDbEntity
  8
0
100
AcDbCircle
 10
4.237972
 20
7.309361
 30
0.0
 40
0.175739
100
AcDbArc
 50
93.02044199999999
 51
102.722447
  0
ARC
  5
22A1
330
23A5
100
AcDbEntity
  8
0
100
AcDbCircle
 10
4.221801
 20
7.380989
 30
0.0
 40
0.102308
100
AcDbArc
 50
102.722447
 51
115.449125
  0
ARC
  5
22A2
330
23A5
100
AcDbEntity
  8
0
100
AcDbCircle
 10
4.2007
 20
7.425330000000001
 30
0.0
 40
0.053202
100
AcDbArc
 50
115.449125
 51
137.919458
  0
ARC
  5
22A3
330
23A5
100
AcDbEntity
  8
0
100
AcDbCircle
 10
4.171405
 20
7.451782000000001
 30
0.0
 40
0.013732
100
AcDbArc
 50
137.919458
 51
183.020442
  0
ARC
  5
22A4
330
23A5
100
AcDbEntity
  8
0
100
AcDbCircle
 10
4.171405
 20
7.451782000000001
 30
0.0
 40
0.013732
100
AcDbArc
 50
183.020442
 51
228.121427
  0
ARC
  5
22A5
330
23A5
100
AcDbEntity
  8
0
100
AcDbCircle
 10
4.197753
 20
7.48117
 30
0.0
 40
0.053202
100
AcDbArc
 50
228.121427
 51
250.59176
  0
ARC
  5
22A6
330
23A5
100
AcDbEntity
  8
0
100
AcDbCircle
 10
4.214071
 20
7.527485
 30
0.0
 40
0.102308
100
AcDbArc
 50
250.59176
 51
263.318438
  0
ARC
  5
22A7
330
23A5
100
AcDbEntity
  8
0
100
AcDbCircle
 10
4.222615
 20
7.600417
 30
0.0
 40
0.175739
100
AcDbArc
 50
263.318438
 51
273.020442
  0
ARC
  5
22A8
330
23A5
100
AcDbEntity
  8
0
100
AcDbCircle
 10
2.34837
 20
7.4217
 30
0.0
 40
0.468014
100
AcDbArc
 50
269.411225
 51
277.898735
  0
ARC
  5
22A9
330
23A5
100
AcDbEntity
  8
0
100
AcDbCircle
 10
2.37651
 20
7.218876
 30
0.0
 40
0.263247
100
AcDbArc
 50
277.898735
 51
289.223724
  0
ARC
  5
22AA
330
23A5
100
AcDbEntity
  8
0
100
AcDbCircle
 10
2.420874
 20
7.091647999999999
 30
0.0
 40
0.128506
100
AcDbArc
 50
289.223724
 51
310.42684
  0
ARC
  5
22AB
330
23A5
100
AcDbEntity
  8
0
100
AcDbCircle
 10
2.487796
 20
7.013091
 30
0.0
 40
0.025308
100
AcDbArc
 50
310.42684
 51
359.411225
  0
ARC
  5
22AC
330
23A5
100
AcDbEntity
  8
0
100
AcDbCircle
 10
2.487796
 20
7.013091
 30
0.0
 40
0.025308
100
AcDbArc
 50
359.411225
 51
48.39561099999999
  0
ARC
  5
22AD
330
23A5
100
AcDbEntity
  8
0
100
AcDbCircle
 10
2.419274
 20
6.935925
 30
0.0
 40
0.128506
100
AcDbArc
 50
48.39561099999999
 51
61.417536
  0
ARC
  5
22AE
330
23A5
100
AcDbEntity
  8
0
100
AcDbCircle
 10
2.267498
 20
6.937485000000001
 30
0.0
 40
0.128506
100
AcDbArc
 50
116.006424
 51
130.42684
  0
ARC
  5
22AF
330
23A5
100
AcDbEntity
  8
0
100
AcDbCircle
 10
2.200577
 20
7.016042
 30
0.0
 40
0.025308
100
AcDbArc
 50
130.42684
 51
179.411225
  0
ARC
  5
22B0
330
23A5
100
AcDbEntity
  8
0
100
AcDbCircle
 10
2.200577
 20
7.016042
 30
0.0
 40
0.025308
100
AcDbArc
 50
179.411225
 51
228.395611
  0
ARC
  5
22B1
330
23A5
100
AcDbEntity
  8
0
100
AcDbCircle
 10
2.269099
 20
7.093208
 30
0.0
 40
0.128506
100
AcDbArc
 50
228.395611
 51
249.598727
  0
ARC
  5
22B2
330
23A5
100
AcDbEntity
  8
0
100
AcDbCircle
 10
2.316068
 20
7.219498
 30
0.0
 40
0.263247
100
AcDbArc
 50
249.598727
 51
260.923716
  0
ARC
  5
22B3
330
23A5
100
AcDbEntity
  8
0
100
AcDbCircle
 10
2.34837
 20
7.4217
 30
0.0
 40
0.468014
100
AcDbArc
 50
260.923716
 51
269.411225
  0
ARC
  5
22B4
330
23A5
100
AcDbEntity
  8
0
100
AcDbCircle
 10
2.342375
 20
7.34952
 30
0.0
 40
0.175739
100
AcDbArc
 50
273.020442
 51
282.7224470000001
  0
ARC
  5
22B5
330
23A5
100
AcDbEntity
  8
0
100
AcDbCircle
 10
2.358546
 20
7.277892
 30
0.0
 40
0.102308
100
AcDbArc
 50
282.7224470000001
 51
295.449125
  0
ARC
  5
22B6
330
23A5
100
AcDbEntity
  8
0
100
AcDbCircle
 10
2.379647
 20
7.233550999999999
 30
0.0
 40
0.053202
100
AcDbArc
 50
295.449125
 51
317.919458
  0
ARC
  5
22B7
330
23A5
100
AcDbEntity
  8
0
100
AcDbCircle
 10
2.408942
 20
7.207099
 30
0.0
 40
0.013732
100
AcDbArc
 50
317.919458
 51
0.0
  0
ARC
  5
22B8
330
23A5
100
AcDbEntity
  8
0
100
AcDbCircle
 10
2.291165
 20
7.200885
 30
0.0
 40
0.013732
100
AcDbArc
 50
180.0
 51
183.020442
  0
ARC
  5
22B9
330
23A5
100
AcDbEntity
  8
0
100
AcDbCircle
 10
2.291165
 20
7.200885
 30
0.0
 40
0.013732
100
AcDbArc
 50
183.020442
 51
228.121427
  0
ARC
  5
22BA
330
23A5
100
AcDbEntity
  8
0
100
AcDbCircle
 10
2.317513
 20
7.230272
 30
0.0
 40
0.053202
100
AcDbArc
 50
228.121427
 51
250.59176
  0
ARC
  5
22BB
330
23A5
100
AcDbEntity
  8
0
100
AcDbCircle
 10
2.333831
 20
7.276586999999999
 30
0.0
 40
0.102308
100
AcDbArc
 50
250.59176
 51
263.318438
  0
ARC
  5
22BC
330
23A5
100
AcDbEntity
  8
0
100
AcDbCircle
 10
2.342375
 20
7.34952
 30
0.0
 40
0.175739
100
AcDbArc
 50
263.318438
 51
273.020442
  0
ARC
  5
22BD
330
23A5
100
AcDbEntity
  8
0
100
AcDbCircle
 10
2.342375
 20
7.329971000000001
 30
0.0
 40
0.175739
100
AcDbArc
 50
273.020442
 51
282.7224470000001
  0
ARC
  5
22BE
330
23A5
100
AcDbEntity
  8
0
100
AcDbCircle
 10
2.358546
 20
7.258342999999999
 30
0.0
 40
0.102308
100
AcDbArc
 50
282.7224470000001
 51
295.449125
  0
ARC
  5
22BF
330
23A5
100
AcDbEntity
  8
0
100
AcDbCircle
 10
2.379647
 20
7.214002000000001
 30
0.0
 40
0.053202
100
AcDbArc
 50
295.449125
 51
317.919458
  0
ARC
  5
22C0
330
23A5
100
AcDbEntity
  8
0
100
AcDbCircle
 10
2.408942
 20
7.18755
 30
0.0
 40
0.013732
100
AcDbArc
 50
317.919458
 51
0.0
  0
ARC
  5
22C1
330
23A5
100
AcDbEntity
  8
0
100
AcDbCircle
 10
2.291165
 20
7.181336
 30
0.0
 40
0.013732
100
AcDbArc
 50
180.0
 51
183.020442
  0
ARC
  5
22C2
330
23A5
100
AcDbEntity
  8
0
100
AcDbCircle
 10
2.291165
 20
7.181336
 30
0.0
 40
0.013732
100
AcDbArc
 50
183.020442
 51
228.121427
  0
ARC
  5
22C3
330
23A5
100
AcDbEntity
  8
0
100
AcDbCircle
 10
2.317513
 20
7.210723
 30
0.0
 40
0.053202
100
AcDbArc
 50
228.121427
 51
250.59176
  0
ARC
  5
22C4
330
23A5
100
AcDbEntity
  8
0
100
AcDbCircle
 10
2.333831
 20
7.257039
 30
0.0
 40
0.102308
100
AcDbArc
 50
250.59176
 51
263.318438
  0
ARC
  5
22C5
330
23A5
100
AcDbEntity
  8
0
100
AcDbCircle
 10
2.342375
 20
7.329971000000001
 30
0.0
 40
0.175739
100
AcDbArc
 50
263.318438
 51
273.020442
  0
ARC
  5
22C6
330
23A5
100
AcDbEntity
  8
0
100
AcDbCircle
 10
2.342375
 20
7.311478999999999
 30
0.0
 40
0.175739
100
AcDbArc
 50
273.020442
 51
282.7224470000001
  0
ARC
  5
22C7
330
23A5
100
AcDbEntity
  8
0
100
AcDbCircle
 10
2.358546
 20
7.23985
 30
0.0
 40
0.102308
100
AcDbArc
 50
282.7224470000001
 51
295.449125
  0
ARC
  5
22C8
330
23A5
100
AcDbEntity
  8
0
100
AcDbCircle
 10
2.379647
 20
7.195510000000001
 30
0.0
 40
0.053202
100
AcDbArc
 50
295.449125
 51
317.919458
  0
ARC
  5
22C9
330
23A5
100
AcDbEntity
  8
0
100
AcDbCircle
 10
2.408942
 20
7.169058000000001
 30
0.0
 40
0.013732
100
AcDbArc
 50
317.919458
 51
0.0
  0
ARC
  5
22CA
330
23A5
100
AcDbEntity
  8
0
100
AcDbCircle
 10
2.291165
 20
7.162843
 30
0.0
 40
0.013732
100
AcDbArc
 50
180.0
 51
183.020442
  0
ARC
  5
22CB
330
23A5
100
AcDbEntity
  8
0
100
AcDbCircle
 10
2.291165
 20
7.162843
 30
0.0
 40
0.013732
100
AcDbArc
 50
183.020442
 51
228.121427
  0
ARC
  5
22CC
330
23A5
100
AcDbEntity
  8
0
100
AcDbCircle
 10
2.317513
 20
7.192231
 30
0.0
 40
0.053202
100
AcDbArc
 50
228.121427
 51
250.59176
  0
ARC
  5
22CD
330
23A5
100
AcDbEntity
  8
0
100
AcDbCircle
 10
2.333831
 20
7.238546
 30
0.0
 40
0.102308
100
AcDbArc
 50
250.59176
 51
263.318438
  0
ARC
  5
22CE
330
23A5
100
AcDbEntity
  8
0
100
AcDbCircle
 10
2.342375
 20
7.311478999999999
 30
0.0
 40
0.175739
100
AcDbArc
 50
263.318438
 51
273.020442
  0
ARC
  5
22CF
330
23A5
100
AcDbEntity
  8
0
100
AcDbCircle
 10
2.291165
 20
7.144880000000001
 30
0.0
 40
0.013732
100
AcDbArc
 50
180.0
 51
183.020442
  0
ARC
  5
22D0
330
23A5
100
AcDbEntity
  8
0
100
AcDbCircle
 10
2.291165
 20
7.144880000000001
 30
0.0
 40
0.013732
100
AcDbArc
 50
183.020442
 51
228.121427
  0
ARC
  5
22D1
330
23A5
100
AcDbEntity
  8
0
100
AcDbCircle
 10
2.317513
 20
7.174267
 30
0.0
 40
0.053202
100
AcDbArc
 50
228.121427
 51
250.59176
  0
ARC
  5
22D2
330
23A5
100
AcDbEntity
  8
0
100
AcDbCircle
 10
2.333831
 20
7.220583
 30
0.0
 40
0.102308
100
AcDbArc
 50
250.59176
 51
263.318438
  0
ARC
  5
22D3
330
23A5
100
AcDbEntity
  8
0
100
AcDbCircle
 10
2.342375
 20
7.293514999999999
 30
0.0
 40
0.175739
100
AcDbArc
 50
263.318438
 51
273.020442
  0
ARC
  5
22D4
330
23A5
100
AcDbEntity
  8
0
100
AcDbCircle
 10
2.342375
 20
7.293514999999999
 30
0.0
 40
0.175739
100
AcDbArc
 50
273.020442
 51
282.7224470000001
  0
ARC
  5
22D5
330
23A5
100
AcDbEntity
  8
0
100
AcDbCircle
 10
2.358546
 20
7.221887
 30
0.0
 40
0.102308
100
AcDbArc
 50
282.7224470000001
 51
295.449125
  0
ARC
  5
22D6
330
23A5
100
AcDbEntity
  8
0
100
AcDbCircle
 10
2.379647
 20
7.177546
 30
0.0
 40
0.053202
100
AcDbArc
 50
295.449125
 51
317.919458
  0
ARC
  5
22D7
330
23A5
100
AcDbEntity
  8
0
100
AcDbCircle
 10
2.408942
 20
7.151094000000001
 30
0.0
 40
0.013732
100
AcDbArc
 50
317.919458
 51
0.0
  0
ARC
  5
22D8
330
23A5
100
AcDbEntity
  8
0
100
AcDbCircle
 10
2.200577
 20
6.985867999999999
 30
0.0
 40
0.025308
100
AcDbArc
 50
143.40584
 51
179.411225
  0
ARC
  5
22D9
330
23A5
100
AcDbEntity
  8
0
100
AcDbCircle
 10
2.200577
 20
6.985867999999999
 30
0.0
 40
0.025308
100
AcDbArc
 50
179.411225
 51
228.395611
  0
ARC
  5
22DA
330
23A5
100
AcDbEntity
  8
0
100
AcDbCircle
 10
2.269099
 20
7.063034
 30
0.0
 40
0.128506
100
AcDbArc
 50
228.395611
 51
249.598727
  0
ARC
  5
22DB
330
23A5
100
AcDbEntity
  8
0
100
AcDbCircle
 10
2.316068
 20
7.189323
 30
0.0
 40
0.263247
100
AcDbArc
 50
249.598727
 51
260.923716
  0
ARC
  5
22DC
330
23A5
100
AcDbEntity
  8
0
100
AcDbCircle
 10
2.34837
 20
7.391526
 30
0.0
 40
0.468014
100
AcDbArc
 50
260.923716
 51
269.411225
  0
ARC
  5
22DD
330
23A5
100
AcDbEntity
  8
0
100
AcDbCircle
 10
2.34837
 20
7.391526
 30
0.0
 40
0.468014
100
AcDbArc
 50
269.411225
 51
277.898735
  0
ARC
  5
22DE
330
23A5
100
AcDbEntity
  8
0
100
AcDbCircle
 10
2.37651
 20
7.188702
 30
0.0
 40
0.263247
100
AcDbArc
 50
277.898735
 51
289.223724
  0
ARC
  5
22DF
330
23A5
100
AcDbEntity
  8
0
100
AcDbCircle
 10
2.420874
 20
7.061474000000001
 30
0.0
 40
0.128506
100
AcDbArc
 50
289.223724
 51
310.42684
  0
ARC
  5
22E0
330
23A5
100
AcDbEntity
  8
0
100
AcDbCircle
 10
2.487796
 20
6.982916
 30
0.0
 40
0.025308
100
AcDbArc
 50
310.42684
 51
359.411225
  0
ARC
  5
22E1
330
23A5
100
AcDbEntity
  8
0
100
AcDbCircle
 10
2.487796
 20
6.982916
 30
0.0
 40
0.025308
100
AcDbArc
 50
359.411225
 51
36.59416
  0
LINE
  5
22E2
330
23A5
100
AcDbEntity
  8
0
 62
     0
100
AcDbLine
 10
1.04704
 20
4.306812
 30
0.0
 11
1.095249
 21
4.364265000000001
 31
0.0
  0
LINE
  5
22E3
330
23A5
100
AcDbEntity
  8
0
 62
     0
100
AcDbLine
 10
1.201726
 20
3.57361
 30
0.0
 11
1.234
 21
3.612073000000001
 31
0.0
  0
LINE
  5
22E4
330
23A5
100
AcDbEntity
  8
0
 62
     0
100
AcDbLine
 10
0.9082889999999999
 20
5.059004
 30
0.0
 11
0.956498
 21
5.116457
 31
0.0
  0
LINE
  5
22E5
330
23A5
100
AcDbEntity
  8
0
 62
     0
100
AcDbLine
 10
0.769537
 20
5.811196
 30
0.0
 11
0.808679
 21
5.857844
 31
0.0
  0
LINE
  5
22E6
330
23A5
100
AcDbEntity
  8
0
 62
     0
100
AcDbLine
 10
1.04704
 20
4.306812
 30
0.0
 11
1.106812
 21
4.301583
 31
0.0
  0
LINE
  5
22E7
330
23A5
100
AcDbEntity
  8
0
 62
     0
100
AcDbLine
 10
0.9082889999999999
 20
5.059004
 30
0.0
 11
0.96806
 21
5.053775
 31
0.0
  0
LINE
  5
22E8
330
23A5
100
AcDbEntity
  8
0
 62
     0
100
AcDbLine
 10
0.769537
 20
5.811196
 30
0.0
 11
0.829309
 21
5.805967
 31
0.0
  0
LINE
  5
22E9
330
23A5
100
AcDbEntity
  8
0
 62
     0
100
AcDbLine
 10
1.222483
 20
3.55141
 30
0.0
 11
1.245563
 21
3.549391
 31
0.0
  0
LINE
  5
22EA
330
23A5
100
AcDbEntity
  8
0
 62
     0
100
AcDbLine
 10
1.245562
 20
3.549389
 30
0.0
 11
1.234
 21
3.612071
 31
0.0
  0
LINE
  5
22EB
330
23A5
100
AcDbEntity
  8
0
 62
     0
100
AcDbLine
 10
1.106811
 20
4.301581
 30
0.0
 11
1.095249
 21
4.364264
 31
0.0
  0
LINE
  5
22EC
330
23A5
100
AcDbEntity
  8
0
 62
     0
100
AcDbLine
 10
0.9680610000000001
 20
5.053773000000001
 30
0.0
 11
0.956498
 21
5.116455999999999
 31
0.0
  0
LINE
  5
22ED
330
23A5
100
AcDbEntity
  8
0
 62
     0
100
AcDbLine
 10
0.82931
 20
5.805965000000001
 30
0.0
 11
0.8227330000000001
 21
5.841618
 31
0.0
  0
LINE
  5
22EE
330
23A5
100
AcDbEntity
  8
0
 62
     0
100
AcDbLine
 10
1.029741
 20
4.364030000000001
 30
0.0
 11
1.10763
 21
4.445207
 31
0.0
  0
LINE
  5
22EF
330
23A5
100
AcDbEntity
  8
0
 62
     0
100
AcDbLine
 10
0.8971620000000001
 20
5.503668
 30
0.0
 11
0.9633799999999999
 21
5.572680999999999
 31
0.0
  0
LINE
  5
22F0
330
23A5
100
AcDbEntity
  8
0
 62
     0
100
AcDbLine
 10
1.118678
 20
4.350236
 30
0.0
 11
1.10763
 21
4.445206
 31
0.0
  0
LINE
  5
22F1
330
23A5
100
AcDbEntity
  8
0
 62
     0
100
AcDbLine
 10
1.029741
 20
4.364030000000001
 30
0.0
 11
1.118678
 21
4.350237
 31
0.0
  0
LINE
  5
22F2
330
23A5
100
AcDbEntity
  8
0
 62
     0
100
AcDbLine
 10
0.8971620000000001
 20
5.503668
 30
0.0
 11
0.961673
 21
5.493663
 31
0.0
  0
LINE
  5
22F3
330
23A5
100
AcDbEntity
  8
0
 62
     0
100
AcDbLine
 10
1.029296
 20
4.162362
 30
0.0
 11
1.099314
 21
4.189239
 31
0.0
  0
LINE
  5
22F4
330
23A5
100
AcDbEntity
  8
0
 62
     0
100
AcDbLine
 10
1.411302
 20
3.0455
 30
0.0
 11
1.452906
 21
3.06147
 31
0.0
  0
LINE
  5
22F5
330
23A5
100
AcDbEntity
  8
0
 62
     0
100
AcDbLine
 10
1.139572
 20
2.309443
 30
0.0
 11
1.178647
 21
2.324442
 31
0.0
  0
LINE
  5
22F6
330
23A5
100
AcDbEntity
  8
0
 62
     0
100
AcDbLine
 10
1.416486
 20
3.011931
 30
0.0
 11
1.43263
 21
3.001041
 31
0.0
  0
LINE
  5
22F7
330
23A5
100
AcDbEntity
  8
0
 62
     0
100
AcDbLine
 10
1.029296
 20
4.162362
 30
0.0
 11
1.079038
 21
4.12881
 31
0.0
  0
LINE
  5
22F8
330
23A5
100
AcDbEntity
  8
0
 62
     0
100
AcDbLine
 10
1.139572
 20
2.309443
 30
0.0
 11
1.158944
 21
2.296376
 31
0.0
  0
LINE
  5
22F9
330
23A5
100
AcDbEntity
  8
0
 62
     0
100
AcDbLine
 10
1.079038
 20
4.128809
 30
0.0
 11
1.099314
 21
4.189238
 31
0.0
  0
LINE
  5
22FA
330
23A5
100
AcDbEntity
  8
0
 62
     0
100
AcDbLine
 10
1.432629
 20
3.001039
 30
0.0
 11
1.452905
 21
3.061469
 31
0.0
  0
LINE
  5
22FB
330
23A5
100
AcDbEntity
  8
0
 62
     0
100
AcDbLine
 10
1.421203
 20
3.844787
 30
0.0
 11
1.421203
 21
3.844787
 31
0.0
  0
LINE
  5
22FC
330
23A5
100
AcDbEntity
  8
0
 62
     0
100
AcDbLine
 10
1.433363
 20
4.177681
 30
0.0
 11
1.433363
 21
4.177681
 31
0.0
  0
LINE
  5
22FD
330
23A5
100
AcDbEntity
  8
0
 62
     0
100
AcDbLine
 10
0.9261360000000001
 20
4.435599
 30
0.0
 11
0.9261360000000001
 21
4.435599
 31
0.0
  0
LINE
  5
22FE
330
23A5
100
AcDbEntity
  8
0
 62
     0
100
AcDbLine
 10
0.9382959999999999
 20
4.768492
 30
0.0
 11
0.9382959999999999
 21
4.768492
 31
0.0
  0
LINE
  5
22FF
330
23A5
100
AcDbEntity
  8
0
 62
     0
100
AcDbLine
 10
0.950456
 20
5.101386
 30
0.0
 11
0.950456
 21
5.101386
 31
0.0
  0
LINE
  5
2300
330
23A5
100
AcDbEntity
  8
0
 62
     0
100
AcDbLine
 10
0.962616
 20
5.43428
 30
0.0
 11
0.962616
 21
5.43428
 31
0.0
  0
LINE
  5
2301
330
23A5
100
AcDbEntity
  8
0
 62
     0
100
AcDbLine
 10
1.409044
 20
3.511893
 30
0.0
 11
1.409044
 21
3.511893
 31
0.0
  0
LINE
  5
2302
330
23A5
100
AcDbEntity
  8
0
 62
     0
100
AcDbLine
 10
0.8653370000000001
 20
2.771129
 30
0.0
 11
0.8653370000000001
 21
2.771129
 31
0.0
  0
LINE
  5
2303
330
23A5
100
AcDbEntity
  8
0
 62
     0
100
AcDbLine
 10
1.396884
 20
3.179
 30
0.0
 11
1.396884
 21
3.179
 31
0.0
  0
LINE
  5
2304
330
23A5
100
AcDbEntity
  8
0
 62
     0
100
AcDbLine
 10
1.336084
 20
1.51453
 30
0.0
 11
1.336084
 21
1.51453
 31
0.0
  0
LINE
  5
2305
330
23A5
100
AcDbEntity
  8
0
 62
     0
100
AcDbLine
 10
1.269097
 20
4.088034
 30
0.0
 11
1.269097
 21
4.088034
 31
0.0
  0
LINE
  5
2306
330
23A5
100
AcDbEntity
  8
0
 62
     0
100
AcDbLine
 10
0.9030940000000001
 20
4.399627
 30
0.0
 11
0.9030940000000001
 21
4.399627
 31
0.0
  0
LINE
  5
2307
330
23A5
100
AcDbEntity
  8
0
 62
     0
100
AcDbLine
 10
1.153434
 20
4.432585
 30
0.0
 11
1.153434
 21
4.432585
 31
0.0
  0
LINE
  5
2308
330
23A5
100
AcDbEntity
  8
0
 62
     0
100
AcDbLine
 10
1.166164
 20
4.794039
 30
0.0
 11
1.166164
 21
4.794039
 31
0.0
  0
LINE
  5
2309
330
23A5
100
AcDbEntity
  8
0
 62
     0
100
AcDbLine
 10
0.69475
 20
5.81131
 30
0.0
 11
0.69475
 21
5.81131
 31
0.0
  0
LINE
  5
230A
330
23A5
100
AcDbEntity
  8
0
 62
     0
100
AcDbLine
 10
0.742957
 20
3.299211
 30
0.0
 11
0.742957
 21
3.299211
 31
0.0
  0
LINE
  5
230B
330
23A5
100
AcDbEntity
  8
0
 62
     0
100
AcDbLine
 10
1.374508
 20
3.382356
 30
0.0
 11
1.374508
 21
3.382356
 31
0.0
  0
LINE
  5
230C
330
23A5
100
AcDbEntity
  8
0
 62
     0
100
AcDbLine
 10
1.098709
 20
2.62649
 30
0.0
 11
1.098709
 21
2.62649
 31
0.0
  0
LINE
  5
230D
330
23A5
100
AcDbEntity
  8
0
 62
     0
100
AcDbLine
 10
1.319782
 20
1.576261
 30
0.0
 11
1.319782
 21
1.576261
 31
0.0
  0
LINE
  5
230E
330
23A5
100
AcDbEntity
  8
0
 62
     0
100
AcDbLine
 10
1.481508
 20
3.340435
 30
0.0
 11
1.481508
 21
3.340435
 31
0.0
  0
LINE
  5
230F
330
23A5
100
AcDbEntity
  8
0
 62
     0
100
AcDbLine
 10
1.14242
 20
3.873985
 30
0.0
 11
1.14242
 21
3.873985
 31
0.0
  0
LINE
  5
2310
330
23A5
100
AcDbEntity
  8
0
 62
     0
100
AcDbLine
 10
1.018397
 20
4.270524
 30
0.0
 11
1.018397
 21
4.270524
 31
0.0
  0
LINE
  5
2311
330
23A5
100
AcDbEntity
  8
0
 62
     0
100
AcDbLine
 10
1.002284
 20
4.915844
 30
0.0
 11
1.002284
 21
4.915844
 31
0.0
  0
LINE
  5
2312
330
23A5
100
AcDbEntity
  8
0
 62
     0
100
AcDbLine
 10
0.8782610000000001
 20
5.312383000000001
 30
0.0
 11
0.8782610000000001
 21
5.312383000000001
 31
0.0
  0
LINE
  5
2313
330
23A5
100
AcDbEntity
  8
0
 62
     0
100
AcDbLine
 10
0.748733
 20
2.854681
 30
0.0
 11
0.748733
 21
2.854681
 31
0.0
  0
LINE
  5
2314
330
23A5
100
AcDbEntity
  8
0
 62
     0
100
AcDbLine
 10
1.087821
 20
2.321131
 30
0.0
 11
1.087821
 21
2.321131
 31
0.0
  0
LINE
  5
2315
330
23A5
100
AcDbEntity
  8
0
 62
     0
100
AcDbLine
 10
1.52358
 20
3.059674
 30
0.0
 11
1.52358
 21
3.059674
 31
0.0
  0
LINE
  5
2316
330
23A5
100
AcDbEntity
  8
0
 62
     0
100
AcDbLine
 10
0.943343
 20
4.225861
 30
0.0
 11
0.943343
 21
4.225861
 31
0.0
  0
LINE
  5
2317
330
23A5
100
AcDbEntity
  8
0
 62
     0
100
AcDbLine
 10
1.485242
 20
3.729302
 30
0.0
 11
1.485242
 21
3.729302
 31
0.0
  0
LINE
  5
2318
330
23A5
100
AcDbEntity
  8
0
 62
     0
100
AcDbLine
 10
0.9050040000000001
 20
4.895487999999999
 30
0.0
 11
0.9050040000000001
 21
4.895487999999999
 31
0.0
  0
LINE
  5
2319
330
23A5
100
AcDbEntity
  8
0
 62
     0
100
AcDbLine
 10
1.144619
 20
4.675922
 30
0.0
 11
1.144619
 21
4.675922
 31
0.0
  0
LINE
  5
231A
330
23A5
100
AcDbEntity
  8
0
 62
     0
100
AcDbLine
 10
0.946291
 20
5.492152
 30
0.0
 11
0.946291
 21
5.492152
 31
0.0
  0
LINE
  5
231B
330
23A5
100
AcDbEntity
  8
0
 62
     0
100
AcDbLine
 10
0.9403940000000001
 20
2.959569
 30
0.0
 11
0.9403940000000001
 21
2.959569
 31
0.0
  0
LINE
  5
231C
330
23A5
100
AcDbEntity
  8
0
 62
     0
100
AcDbLine
 10
0.899107
 20
2.362906
 30
0.0
 11
0.899107
 21
2.362906
 31
0.0
  0
LINE
  5
231D
330
23A5
100
AcDbEntity
  8
0
 62
     0
100
AcDbLine
 10
1.138722
 20
2.143339
 30
0.0
 11
1.138722
 21
2.143339
 31
0.0
  0
LINE
  5
231E
330
23A5
100
AcDbEntity
  8
0
100
AcDbLine
 10
0.628973
 20
3.703105
 30
0.0
 11
0.653586
 21
3.4375
 31
0.0
  0
LINE
  5
231F
330
23A5
100
AcDbEntity
  8
0
100
AcDbLine
 10
0.653586
 20
3.4375
 30
0.0
 11
0.653292
 21
3.291647
 31
0.0
  0
LINE
  5
2320
330
23A5
100
AcDbEntity
  8
0
100
AcDbLine
 10
0.653292
 20
3.291647
 30
0.0
 11
0.646616
 21
2.972792
 31
0.0
  0
LINE
  5
2321
330
23A5
100
AcDbEntity
  8
0
100
AcDbLine
 10
0.646616
 20
2.972792
 30
0.0
 11
0.701684
 21
2.845939
 31
0.0
  0
LINE
  5
2322
330
23A5
100
AcDbEntity
  8
0
100
AcDbLine
 10
0.701684
 20
2.845939
 30
0.0
 11
0.7829229999999999
 21
2.727081
 31
0.0
  0
LINE
  5
2323
330
23A5
100
AcDbEntity
  8
0
100
AcDbLine
 10
0.7829229999999999
 20
2.727081
 30
0.0
 11
0.8501049999999999
 21
2.621327
 31
0.0
  0
LINE
  5
2324
330
23A5
100
AcDbEntity
  8
0
100
AcDbLine
 10
0.8501049999999999
 20
2.621327
 30
0.0
 11
0.865976
 21
2.510647
 31
0.0
  0
LINE
  5
2325
330
23A5
100
AcDbEntity
  8
0
100
AcDbLine
 10
0.865976
 20
2.510647
 30
0.0
 11
0.843577
 21
2.376908
 31
0.0
  0
LINE
  5
2326
330
23A5
100
AcDbEntity
  8
0
100
AcDbLine
 10
0.843577
 20
2.376908
 30
0.0
 11
0.8432959999999999
 21
2.23709
 31
0.0
  0
LINE
  5
2327
330
23A5
100
AcDbEntity
  8
0
100
AcDbLine
 10
0.8432959999999999
 20
2.23709
 30
0.0
 11
0.8199200000000001
 21
2.117436
 31
0.0
  0
LINE
  5
2328
330
23A5
100
AcDbEntity
  8
0
100
AcDbLine
 10
0.8199200000000001
 20
2.117436
 30
0.0
 11
0.9766790000000001
 21
2.037655
 31
0.0
  0
LINE
  5
2329
330
23A5
100
AcDbEntity
  8
0
100
AcDbLine
 10
0.9766790000000001
 20
2.037655
 30
0.0
 11
1.014653
 21
1.913854
 31
0.0
  0
LINE
  5
232A
330
23A5
100
AcDbEntity
  8
0
100
AcDbLine
 10
1.014653
 20
1.913854
 30
0.0
 11
1.021421
 21
1.778045
 31
0.0
  0
LINE
  5
232B
330
23A5
100
AcDbEntity
  8
0
100
AcDbLine
 10
1.021421
 20
1.778045
 30
0.0
 11
1.048287
 21
1.632137
 31
0.0
  0
LINE
  5
232C
330
23A5
100
AcDbEntity
  8
0
100
AcDbLine
 10
1.048287
 20
1.632137
 30
0.0
 11
1.114546
 21
1.567626
 31
0.0
  0
LINE
  5
232D
330
23A5
100
AcDbEntity
  8
0
100
AcDbLine
 10
1.114546
 20
1.567626
 30
0.0
 11
1.258258
 21
1.50296
 31
0.0
  0
LINE
  5
232E
330
23A5
100
AcDbEntity
  8
0
100
AcDbLine
 10
1.258258
 20
1.50296
 30
0.0
 11
1.387927
 21
1.457434
 31
0.0
  0
LINE
  5
232F
330
23A5
100
AcDbEntity
  8
0
100
AcDbLine
 10
1.387927
 20
1.457434
 30
0.0
 11
1.464198
 21
1.369768
 31
0.0
  0
LINE
  5
2330
330
23A5
100
AcDbEntity
  8
0
100
AcDbLine
 10
1.464198
 20
1.369768
 30
0.0
 11
1.542832
 21
1.358373
 31
0.0
  0
LINE
  5
2331
330
23A5
100
AcDbEntity
  8
0
100
AcDbLine
 10
1.184919
 20
4.547942
 30
0.0
 11
1.185502
 21
4.837637
 31
0.0
  0
LINE
  5
2332
330
23A5
100
AcDbEntity
  8
0
100
AcDbLine
 10
1.185502
 20
4.837637
 30
0.0
 11
1.19384
 21
4.982469
 31
0.0
  0
LINE
  5
2333
330
23A5
100
AcDbEntity
  8
0
100
AcDbLine
 10
1.19384
 20
4.982469
 30
0.0
 11
1.134701
 21
5.086195
 31
0.0
  0
LINE
  5
2334
330
23A5
100
AcDbEntity
  8
0
100
AcDbLine
 10
1.134701
 20
5.086195
 30
0.0
 11
0.9982120000000001
 21
5.241377
 31
0.0
  0
LINE
  5
2335
330
23A5
100
AcDbEntity
  8
0
100
AcDbLine
 10
0.9982120000000001
 20
5.241377
 30
0.0
 11
0.95095
 21
5.248513
 31
0.0
  0
LINE
  5
2336
330
23A5
100
AcDbEntity
  8
0
100
AcDbLine
 10
0.95095
 20
5.248513
 30
0.0
 11
0.9935309999999999
 21
5.414399
 31
0.0
  0
LINE
  5
2337
330
23A5
100
AcDbEntity
  8
0
100
AcDbLine
 10
0.9935309999999999
 20
5.414399
 30
0.0
 11
0.9554969999999999
 21
5.50903
 31
0.0
  0
LINE
  5
2338
330
23A5
100
AcDbEntity
  8
0
100
AcDbLine
 10
0.9554969999999999
 20
5.50903
 30
0.0
 11
0.974925
 21
5.66591
 31
0.0
  0
LINE
  5
2339
330
23A5
100
AcDbEntity
  8
0
100
AcDbLine
 10
0.974925
 20
5.66591
 30
0.0
 11
0.666832
 21
6.021609
 31
0.0
  0
LINE
  5
233A
330
23A5
100
AcDbEntity
  8
0
100
AcDbLine
 10
0.666832
 20
6.021609
 30
0.0
 11
0.685658
 21
5.879741
 31
0.0
  0
LINE
  5
233B
330
23A5
100
AcDbEntity
  8
0
100
AcDbLine
 10
0.685658
 20
5.879741
 30
0.0
 11
0.691331
 21
5.699675
 31
0.0
  0
LINE
  5
233C
330
23A5
100
AcDbEntity
  8
0
100
AcDbLine
 10
0.691331
 20
5.699675
 30
0.0
 11
0.685122
 21
5.613180000000001
 31
0.0
  0
LINE
  5
233D
330
23A5
100
AcDbEntity
  8
0
100
AcDbLine
 10
0.685122
 20
5.613180000000001
 30
0.0
 11
0.7804989999999999
 21
5.522458
 31
0.0
  0
LINE
  5
233E
330
23A5
100
AcDbEntity
  8
0
100
AcDbLine
 10
0.7804989999999999
 20
5.522458
 30
0.0
 11
0.744123
 21
5.441054
 31
0.0
  0
LINE
  5
233F
330
23A5
100
AcDbEntity
  8
0
100
AcDbLine
 10
0.744123
 20
5.441054
 30
0.0
 11
0.8232
 21
5.247764
 31
0.0
  0
LINE
  5
2340
330
23A5
100
AcDbEntity
  8
0
100
AcDbLine
 10
0.8232
 20
5.247764
 30
0.0
 11
0.872007
 21
5.008264
 31
0.0
  0
LINE
  5
2341
330
23A5
100
AcDbEntity
  8
0
100
AcDbLine
 10
0.872007
 20
5.008264
 30
0.0
 11
0.903863
 21
4.843233000000001
 31
0.0
  0
LINE
  5
2342
330
23A5
100
AcDbEntity
  8
0
100
AcDbLine
 10
0.903863
 20
4.843233000000001
 30
0.0
 11
0.8885360000000001
 21
4.724569
 31
0.0
  0
LINE
  5
2343
330
23A5
100
AcDbEntity
  8
0
100
AcDbLine
 10
0.8885360000000001
 20
4.724569
 30
0.0
 11
0.774347
 21
4.464273
 31
0.0
  0
LINE
  5
2344
330
23A5
100
AcDbEntity
  8
0
100
AcDbLine
 10
0.774347
 20
4.464273
 30
0.0
 11
0.860691
 21
4.383628
 31
0.0
  0
LINE
  5
2345
330
23A5
100
AcDbEntity
  8
0
100
AcDbLine
 10
0.860691
 20
4.383628
 30
0.0
 11
0.951047
 21
4.296939
 31
0.0
  0
LINE
  5
2346
330
23A5
100
AcDbEntity
  8
0
100
AcDbLine
 10
0.951047
 20
4.296939
 30
0.0
 11
0.9347340000000001
 21
4.188336
 31
0.0
  0
LINE
  5
2347
330
23A5
100
AcDbEntity
  8
0
100
AcDbLine
 10
0.9347340000000001
 20
4.188336
 30
0.0
 11
0.9959110000000001
 21
4.097682
 31
0.0
  0
LINE
  5
2348
330
23A5
100
AcDbEntity
  8
0
100
AcDbLine
 10
0.9959110000000001
 20
4.097682
 30
0.0
 11
0.9372889999999999
 21
3.957981
 31
0.0
  0
LINE
  5
2349
330
23A5
100
AcDbEntity
  8
0
100
AcDbLine
 10
0.9372889999999999
 20
3.957981
 30
0.0
 11
1.045536
 21
3.764632
 31
0.0
  0
LINE
  5
234A
330
23A5
100
AcDbEntity
  8
0
100
AcDbLine
 10
1.045536
 20
3.764632
 30
0.0
 11
1.171958
 21
3.605447
 31
0.0
  0
LINE
  5
234B
330
23A5
100
AcDbEntity
  8
0
100
AcDbLine
 10
1.171958
 20
3.605447
 30
0.0
 11
1.264301
 21
3.506684
 31
0.0
  0
LINE
  5
234C
330
23A5
100
AcDbEntity
  8
0
100
AcDbLine
 10
1.264301
 20
3.506684
 30
0.0
 11
1.277882
 21
3.257196
 31
0.0
  0
LINE
  5
234D
330
23A5
100
AcDbEntity
  8
0
100
AcDbLine
 10
1.277882
 20
3.257196
 30
0.0
 11
1.38938
 21
3.179518
 31
0.0
  0
LINE
  5
234E
330
23A5
100
AcDbEntity
  8
0
100
AcDbLine
 10
1.38938
 20
3.179518
 30
0.0
 11
1.416209
 21
3.015503
 31
0.0
  0
LINE
  5
234F
330
23A5
100
AcDbEntity
  8
0
100
AcDbLine
 10
1.416209
 20
3.015503
 30
0.0
 11
1.431896
 21
2.813288
 31
0.0
  0
LINE
  5
2350
330
23A5
100
AcDbEntity
  8
0
100
AcDbLine
 10
1.431896
 20
2.813288
 30
0.0
 11
1.489031
 21
2.713589
 31
0.0
  0
LINE
  5
2351
330
23A5
100
AcDbEntity
  8
0
100
AcDbLine
 10
1.489031
 20
2.713589
 30
0.0
 11
1.598376
 21
2.565503
 31
0.0
  0
LINE
  5
2352
330
23A5
100
AcDbEntity
  8
0
100
AcDbLine
 10
1.598376
 20
2.565503
 30
0.0
 11
1.729718
 21
2.35199
 31
0.0
  0
LINE
  5
2353
330
23A5
100
AcDbEntity
  8
0
100
AcDbLine
 10
1.729718
 20
2.35199
 30
0.0
 11
1.859015
 21
2.177476
 31
0.0
  0
LINE
  5
2354
330
23A5
100
AcDbEntity
  8
0
100
AcDbLine
 10
1.184919
 20
4.547942
 30
0.0
 11
1.240162
 21
4.507594999999999
 31
0.0
  0
LINE
  5
2355
330
23A5
100
AcDbEntity
  8
0
100
AcDbLine
 10
1.240162
 20
4.507594999999999
 30
0.0
 11
1.290393
 21
4.476311
 31
0.0
  0
LINE
  5
2356
330
23A5
100
AcDbEntity
  8
0
100
AcDbLine
 10
1.290393
 20
4.476311
 30
0.0
 11
1.329564
 21
4.447061
 31
0.0
  0
LINE
  5
2357
330
23A5
100
AcDbEntity
  8
0
100
AcDbLine
 10
1.329564
 20
4.447061
 30
0.0
 11
1.334507
 21
4.403798
 31
0.0
  0
LINE
  5
2358
330
23A5
100
AcDbEntity
  8
0
100
AcDbLine
 10
1.334507
 20
4.403798
 30
0.0
 11
1.325359
 21
4.35654
 31
0.0
  0
LINE
  5
2359
330
23A5
100
AcDbEntity
  8
0
100
AcDbLine
 10
1.325359
 20
4.35654
 30
0.0
 11
1.352435
 21
4.315244
 31
0.0
  0
LINE
  5
235A
330
23A5
100
AcDbEntity
  8
0
100
AcDbLine
 10
1.352435
 20
4.315244
 30
0.0
 11
1.414711
 21
4.270859
 31
0.0
  0
LINE
  5
235B
330
23A5
100
AcDbEntity
  8
0
100
AcDbLine
 10
1.414711
 20
4.270859
 30
0.0
 11
1.444776
 21
4.215475
 31
0.0
  0
LINE
  5
235C
330
23A5
100
AcDbEntity
  8
0
100
AcDbLine
 10
1.444776
 20
4.215475
 30
0.0
 11
1.430491
 21
4.114914
 31
0.0
  0
LINE
  5
235D
330
23A5
100
AcDbEntity
  8
0
100
AcDbLine
 10
1.430491
 20
4.114914
 30
0.0
 11
1.408141
 21
4.005317
 31
0.0
  0
LINE
  5
235E
330
23A5
100
AcDbEntity
  8
0
100
AcDbLine
 10
1.408141
 20
4.005317
 30
0.0
 11
1.383862
 21
3.936965
 31
0.0
  0
LINE
  5
235F
330
23A5
100
AcDbEntity
  8
0
100
AcDbLine
 10
1.383862
 20
3.936965
 30
0.0
 11
1.430018
 21
3.879536
 31
0.0
  0
LINE
  5
2360
330
23A5
100
AcDbEntity
  8
0
100
AcDbLine
 10
1.430018
 20
3.879536
 30
0.0
 11
1.460044
 21
3.80504
 31
0.0
  0
LINE
  5
2361
330
23A5
100
AcDbEntity
  8
0
100
AcDbLine
 10
1.460044
 20
3.80504
 30
0.0
 11
1.497119
 21
3.733547
 31
0.0
  0
LINE
  5
2362
330
23A5
100
AcDbEntity
  8
0
100
AcDbLine
 10
1.497119
 20
3.733547
 30
0.0
 11
1.482858
 21
3.645057
 31
0.0
  0
LINE
  5
2363
330
23A5
100
AcDbEntity
  8
0
100
AcDbLine
 10
1.482858
 20
3.645057
 30
0.0
 11
1.479687
 21
3.568616000000001
 31
0.0
  0
LINE
  5
2364
330
23A5
100
AcDbEntity
  8
0
100
AcDbLine
 10
1.479687
 20
3.568616000000001
 30
0.0
 11
1.481607
 21
3.523347
 31
0.0
  0
LINE
  5
2365
330
23A5
100
AcDbEntity
  8
0
100
AcDbLine
 10
1.481607
 20
3.523347
 30
0.0
 11
1.535844
 21
3.483002
 31
0.0
  0
LINE
  5
2366
330
23A5
100
AcDbEntity
  8
0
100
AcDbLine
 10
1.535844
 20
3.483002
 30
0.0
 11
1.530669
 21
3.410588
 31
0.0
  0
LINE
  5
2367
330
23A5
100
AcDbEntity
  8
0
100
AcDbLine
 10
1.530669
 20
3.410588
 30
0.0
 11
1.511499
 21
3.381456
 31
0.0
  0
LINE
  5
2368
330
23A5
100
AcDbEntity
  8
0
100
AcDbLine
 10
1.511499
 20
3.381456
 30
0.0
 11
1.557624
 21
3.308939
 31
0.0
  0
LINE
  5
2369
330
23A5
100
AcDbEntity
  8
0
100
AcDbLine
 10
1.557624
 20
3.308939
 30
0.0
 11
1.593682
 21
3.232419
 31
0.0
  0
LINE
  5
236A
330
23A5
100
AcDbEntity
  8
0
100
AcDbLine
 10
1.593682
 20
3.232419
 30
0.0
 11
1.636806
 21
3.167955
 31
0.0
  0
LINE
  5
236B
330
23A5
100
AcDbEntity
  8
0
100
AcDbLine
 10
1.636806
 20
3.167955
 30
0.0
 11
1.696143
 21
3.162806
 31
0.0
  0
LINE
  5
236C
330
23A5
100
AcDbEntity
  8
0
100
AcDbLine
 10
1.696143
 20
3.162806
 30
0.0
 11
1.751236
 21
3.048024
 31
0.0
  0
LINE
  5
236D
330
23A5
100
AcDbEntity
  8
0
100
AcDbLine
 10
1.751236
 20
3.048024
 30
0.0
 11
1.792293
 21
2.956405
 31
0.0
  0
LINE
  5
236E
330
23A5
100
AcDbEntity
  8
0
100
AcDbLine
 10
1.792293
 20
2.956405
 30
0.0
 11
1.752879
 21
2.864948
 31
0.0
  0
LINE
  5
236F
330
23A5
100
AcDbEntity
  8
0
100
AcDbLine
 10
1.752879
 20
2.864948
 30
0.0
 11
1.733484
 21
2.724162
 31
0.0
  0
LINE
  5
2370
330
23A5
100
AcDbEntity
  8
0
100
AcDbLine
 10
1.733484
 20
2.724162
 30
0.0
 11
1.705277
 21
2.703095
 31
0.0
  0
LINE
  5
2371
330
23A5
100
AcDbEntity
  8
0
100
AcDbLine
 10
1.705277
 20
2.703095
 30
0.0
 11
1.757393
 21
2.608437
 31
0.0
  0
LINE
  5
2372
330
23A5
100
AcDbEntity
  8
0
100
AcDbLine
 10
1.757393
 20
2.608437
 30
0.0
 11
1.799513
 21
2.544981
 31
0.0
  0
LINE
  5
2373
330
23A5
100
AcDbEntity
  8
0
100
AcDbLine
 10
1.799513
 20
2.544981
 30
0.0
 11
1.793305
 21
2.459493
 31
0.0
  0
LINE
  5
2374
330
23A5
100
AcDbEntity
  8
0
100
AcDbLine
 10
1.793305
 20
2.459493
 30
0.0
 11
1.824283
 21
2.357835
 31
0.0
  0
LINE
  5
2375
330
23A5
100
AcDbEntity
  8
0
100
AcDbLine
 10
1.824283
 20
2.357835
 30
0.0
 11
1.861301
 21
2.258177
 31
0.0
  0
LINE
  5
2376
330
23A5
100
AcDbEntity
  8
0
100
AcDbLine
 10
1.861301
 20
2.258177
 30
0.0
 11
1.859015
 21
2.177476
 31
0.0
  0
LINE
  5
2377
330
23A5
100
AcDbEntity
  8
0
100
AcDbLine
 10
6.076511
 20
5.518845
 30
0.0
 11
6.024564
 21
5.197064
 31
0.0
  0
LINE
  5
2378
330
23A5
100
AcDbEntity
  8
0
100
AcDbLine
 10
6.024564
 20
5.197064
 30
0.0
 11
6.093763
 21
5.094323999999999
 31
0.0
  0
LINE
  5
2379
330
23A5
100
AcDbEntity
  8
0
100
AcDbLine
 10
6.093763
 20
5.094323999999999
 30
0.0
 11
6.082626
 21
5.058134
 31
0.0
  0
LINE
  5
237A
330
23A5
100
AcDbEntity
  8
0
100
AcDbLine
 10
6.082626
 20
5.058134
 30
0.0
 11
6.022131
 21
4.987844
 31
0.0
  0
LINE
  5
237B
330
23A5
100
AcDbEntity
  8
0
100
AcDbLine
 10
6.022131
 20
4.987844
 30
0.0
 11
6.014697
 21
4.792716
 31
0.0
  0
LINE
  5
237C
330
23A5
100
AcDbEntity
  8
0
100
AcDbLine
 10
6.014697
 20
4.792716
 30
0.0
 11
6.022297
 21
4.570398
 31
0.0
  0
LINE
  5
237D
330
23A5
100
AcDbEntity
  8
0
100
AcDbLine
 10
6.022297
 20
4.570398
 30
0.0
 11
6.044261
 21
4.487871
 31
0.0
  0
LINE
  5
237E
330
23A5
100
AcDbEntity
  8
0
100
AcDbLine
 10
6.044261
 20
4.487871
 30
0.0
 11
5.958424
 21
4.321066
 31
0.0
  0
LINE
  5
237F
330
23A5
100
AcDbEntity
  8
0
100
AcDbLine
 10
5.958424
 20
4.321066
 30
0.0
 11
5.909930999999999
 21
4.216551
 31
0.0
  0
LINE
  5
2380
330
23A5
100
AcDbEntity
  8
0
100
AcDbLine
 10
5.909930999999999
 20
4.216551
 30
0.0
 11
5.948015
 21
4.147067
 31
0.0
  0
LINE
  5
2381
330
23A5
100
AcDbEntity
  8
0
100
AcDbLine
 10
5.948015
 20
4.147067
 30
0.0
 11
5.929753
 21
4.069651
 31
0.0
  0
LINE
  5
2382
330
23A5
100
AcDbEntity
  8
0
100
AcDbLine
 10
5.929753
 20
4.069651
 30
0.0
 11
6.107644000000001
 21
3.993851
 31
0.0
  0
LINE
  5
2383
330
23A5
100
AcDbEntity
  8
0
100
AcDbLine
 10
6.107644000000001
 20
3.993851
 30
0.0
 11
6.007672
 21
3.800921
 31
0.0
  0
LINE
  5
2384
330
23A5
100
AcDbEntity
  8
0
100
AcDbLine
 10
6.007672
 20
3.800921
 30
0.0
 11
6.018521
 21
3.693268
 31
0.0
  0
LINE
  5
2385
330
23A5
100
AcDbEntity
  8
0
100
AcDbLine
 10
6.018521
 20
3.693268
 30
0.0
 11
6.016363
 21
3.620849
 31
0.0
  0
LINE
  5
2386
330
23A5
100
AcDbEntity
  8
0
100
AcDbLine
 10
6.016363
 20
3.620849
 30
0.0
 11
5.960912
 21
3.557589
 31
0.0
  0
LINE
  5
2387
330
23A5
100
AcDbEntity
  8
0
100
AcDbLine
 10
5.960912
 20
3.557589
 30
0.0
 11
5.900437
 21
3.497357
 31
0.0
  0
LINE
  5
2388
330
23A5
100
AcDbEntity
  8
0
100
AcDbLine
 10
5.900437
 20
3.497357
 30
0.0
 11
5.845544
 21
3.222506
 31
0.0
  0
TEXT
  5
238B
330
23A5
100
AcDbEntity
  8
0
100
AcDbText
 10
3.459208
 20
0.933103
 30
0.0
 40
0.25
  1
Simpson Strong-Tie
100
AcDbText
  0
TEXT
  5
238C
330
23A5
100
AcDbEntity
  8
0
100
AcDbText
 10
3.459208
 20
0.528342
 30
0.0
 40
0.25
  1
HGT-3
100
AcDbText
  0
ENDSEC
  0
SECTION
  2
OBJECTS
  0
DICTIONARY
  5
2399
330
0
100
AcDbDictionary
281
     1
  3
ACAD_COLOR
350
23E5
  3
ACAD_GROUP
350
239A
  3
ACAD_LAYOUT
350
23A2
  3
ACAD_MATERIAL
350
23E7
  3
ACAD_MLINESTYLE
350
239F
  3
ACAD_PLOTSETTINGS
350
23A1
  3
ACAD_PLOTSTYLENAME
350
239B
  3
ACDBHEADERROUNDTRIPXREC
350
23E4
  0
DICTIONARY
  5
23E5
102
{ACAD_REACTORS
330
2399
102
}
330
2399
100
AcDbDictionary
281
     1
  0
DICTIONARY
  5
239A
102
{ACAD_REACTORS
330
2399
102
}
330
2399
100
AcDbDictionary
281
     1
  0
DICTIONARY
  5
23A2
102
{ACAD_REACTORS
330
2399
102
}
330
2399
100
AcDbDictionary
281
     1
  3
Layout1
350
23A4
  3
Model
350
23A6
  0
DICTIONARY
  5
23E7
102
{ACAD_REACTORS
330
2399
102
}
330
2399
100
AcDbDictionary
281
     1
  0
DICTIONARY
  5
239F
102
{ACAD_REACTORS
330
2399
102
}
330
2399
100
AcDbDictionary
281
     1
  3
Standard
350
23A0
  0
DICTIONARY
  5
23A1
102
{ACAD_REACTORS
330
2399
102
}
330
2399
100
AcDbDictionary
281
     1
  0
ACDBDICTIONARYWDFLT
  5
239B
102
{ACAD_REACTORS
330
2399
102
}
330
2399
100
AcDbDictionary
281
     1
  3
Normal
350
239C
100
AcDbDictionaryWithDefault
340
239C
  0
DICTIONARY
  5
23E4
102
{ACAD_REACTORS
330
2399
102
}
330
2399
100
AcDbDictionary
281
     1
  3
COLORDICT
350
23E6
  3
MATERIALDICT
350
23E8
  0
LAYOUT
  5
23A4
102
{ACAD_REACTORS
330
23A2
102
}
102
{ACAD_XDICTIONARY
360
23E9
102
}
330
23A2
100
AcDbPlotSettings
  1

  2

  4

  6

 40
0.0
 41
0.0
 42
0.0
 43
0.0
 44
0.0
 45
0.0
 46
0.0
 47
0.0
 48
0.0
 49
0.0
140
0.0
141
0.0
142
1.0
143
1.0
 70
   688
 72
     0
 73
     0
 74
     5
  7

 75
    16
147
1.0
148
0.0
149
0.0
100
AcDbLayout
  1
Layout1
 70
     1
 71
     1
 10
0.0
 20
0.0
 11
12.0
 21
9.0
 12
0.0
 22
0.0
 32
0.0
 14
1.000000000000000E+20
 24
1.000000000000000E+20
 34
1.000000000000000E+20
 15
-1.000000000000000E+20
 25
-1.000000000000000E+20
 35
-1.000000000000000E+20
146
0.0
 13
0.0
 23
0.0
 33
0.0
 16
1.0
 26
0.0
 36
0.0
 17
0.0
 27
1.0
 37
0.0
 76
     0
330
23A3
  0
LAYOUT
  5
23A6
102
{ACAD_REACTORS
330
23A2
102
}
102
{ACAD_XDICTIONARY
360
23EB
102
}
330
23A2
100
AcDbPlotSettings
  1

  2

  4

  6

 40
0.0
 41
0.0
 42
0.0
 43
0.0
 44
0.0
 45
0.0
 46
0.0
 47
0.0
 48
0.0
 49
0.0
140
0.0
141
0.0
142
1.0
143
1.0
 70
  1712
 72
     0
 73
     0
 74
     0
  7

 75
     0
147
1.0
148
0.0
149
0.0
100
AcDbLayout
  1
Model
 70
     1
 71
     0
 10
0.0
 20
0.0
 11
0.0
 21
0.0
 12
0.0
 22
0.0
 32
0.0
 14
0.0
 24
0.0
 34
0.0
 15
0.0
 25
0.0
 35
0.0
146
0.0
 13
0.0
 23
0.0
 33
0.0
 16
1.0
 26
0.0
 36
0.0
 17
0.0
 27
1.0
 37
0.0
 76
     0
330
23A5
  0
MLINESTYLE
  5
23A0
102
{ACAD_REACTORS
330
239F
102
}
330
239F
100
AcDbMlineStyle
  2
Standard
 70
     0
  3

 62
   256
 51
90.0
 52
90.0
 71
     2
 49
0.5
 62
   256
  6
BYLAYER
 49
-0.5
 62
   256
  6
BYLAYER
  0
ACDBPLACEHOLDER
  5
239C
102
{ACAD_REACTORS
330
239B
102
}
330
239B
  0
XRECORD
  5
23E6
102
{ACAD_REACTORS
330
23E4
102
}
330
23E4
100
AcDbXrecord
340
23E5
  0
XRECORD
  5
23E8
102
{ACAD_REACTORS
330
23E4
102
}
330
23E4
100
AcDbXrecord
340
23E7
  0
DICTIONARY
  5
23E9
330
23A4
100
AcDbDictionary
280
     1
281
     1
  3
ACAD_XREC_ROUNDTRIP
360
23EA
  0
DICTIONARY
  5
23EB
330
23A6
100
AcDbDictionary
280
     1
281
     1
  3
ACAD_XREC_ROUNDTRIP
360
23EC
  0
XRECORD
  5
23EA
102
{ACAD_REACTORS
330
23E9
102
}
330
23E9
100
AcDbXrecord
102
SHADEPLOT
 70
     0
102
SHADEPLOTRESLEVEL
 70
     0
102
SHADEPLOTCUSTOMDPI
 70
     0
  0
XRECORD
  5
23EC
102
{ACAD_REACTORS
330
23EB
102
}
330
23EB
100
AcDbXrecord
102
SHADEPLOT
 70
     0
102
SHADEPLOTRESLEVEL
 70
     0
102
SHADEPLOTCUSTOMDPI
 70
     0
  0
ENDSEC
  0
EOF
