  0
SECTION
  2
HEADER
  9
$ACADVER
  1
AC1015
  9
$ACADMAINTVER
 70
     6
  9
$DWGCODEPAGE
  3
ANSI_1252
  9
$INSBASE
 10
0.0
 20
0.0
 30
0.0
  9
$EXTMIN
 10
1.116
 20
0.347
 30
0.0
  9
$EXTMAX
 10
3.354
 20
4.467
 30
0.0
  9
$LIMMIN
 10
0.0
 20
0.0
  9
$LIMMAX
 10
17.0
 20
11.0
  9
$ORTHOMODE
 70
     0
  9
$REGENMODE
 70
     0
  9
$FILLMODE
 70
     1
  9
$QTEXTMODE
 70
     0
  9
$MIRRTEXT
 70
     1
  9
$LTSCALE
 40
0.25
  9
$ATTMODE
 70
     1
  9
$TEXTSIZE
 40
0.125
  9
$TRACEWID
 40
0.05
  9
$TEXTSTYLE
  7
STANDARD
  9
$CLAYER
  8
0
  9
$CELTYPE
  6
ByLayer
  9
$CECOLOR
 62
   256
  9
$CELTSCALE
 40
1.0
  9
$DISPSILH
 70
     0
  9
$DIMSCALE
 40
1.0
  9
$DIMASZ
 40
0.125
  9
$DIMEXO
 40
0.063
  9
$DIMDLI
 40
0.38
  9
$DIMRND
 40
0.0
  9
$DIMDLE
 40
0.0
  9
$DIMEXE
 40
0.18
  9
$DIMTP
 40
0.0
  9
$DIMTM
 40
0.0
  9
$DIMTXT
 40
0.125
  9
$DIMCEN
 40
0.09
  9
$DIMTSZ
 40
0.0
  9
$DIMTOL
 70
     0
  9
$DIMLIM
 70
     0
  9
$DIMTIH
 70
     1
  9
$DIMTOH
 70
     1
  9
$DIMSE1
 70
     0
  9
$DIMSE2
 70
     0
  9
$DIMTAD
 70
     0
  9
$DIMZIN
 70
     0
  9
$DIMBLK
  1

  9
$DIMASO
 70
     0
  9
$DIMSHO
 70
     0
  9
$DIMPOST
  1

  9
$DIMAPOST
  1

  9
$DIMALT
 70
     0
  9
$DIMALTD
 70
     2
  9
$DIMALTF
 40
25.4
  9
$DIMLFAC
 40
1.0
  9
$DIMTOFL
 70
     0
  9
$DIMTVP
 40
0.0
  9
$DIMTIX
 70
     0
  9
$DIMSOXD
 70
     0
  9
$DIMSAH
 70
     0
  9
$DIMBLK1
  1

  9
$DIMBLK2
  1

  9
$DIMSTYLE
  2
Standard
  9
$DIMCLRD
 70
     0
  9
$DIMCLRE
 70
     0
  9
$DIMCLRT
 70
     0
  9
$DIMTFAC
 40
1.0
  9
$DIMGAP
 40
0.09
  9
$DIMJUST
 70
     0
  9
$DIMSD1
 70
     0
  9
$DIMSD2
 70
     0
  9
$DIMTOLJ
 70
     1
  9
$DIMTZIN
 70
     0
  9
$DIMALTZ
 70
     0
  9
$DIMALTTZ
 70
     0
  9
$DIMUPT
 70
     0
  9
$DIMDEC
 70
     4
  9
$DIMTDEC
 70
     4
  9
$DIMALTU
 70
     2
  9
$DIMALTTD
 70
     2
  9
$DIMTXSTY
  7
STANDARD
  9
$DIMAUNIT
 70
     0
  9
$DIMADEC
 70
     0
  9
$DIMALTRND
 40
0.0
  9
$DIMAZIN
 70
     0
  9
$DIMDSEP
 70
    46
  9
$DIMATFIT
 70
     3
  9
$DIMFRAC
 70
     0
  9
$DIMLDRBLK
  1

  9
$DIMLUNIT
 70
     2
  9
$DIMLWD
 70
    -2
  9
$DIMLWE
 70
    -2
  9
$DIMTMOVE
 70
     0
  9
$LUNITS
 70
     2
  9
$LUPREC
 70
     4
  9
$SKETCHINC
 40
0.1
  9
$FILLETRAD
 40
0.02
  9
$AUNITS
 70
     0
  9
$AUPREC
 70
     0
  9
$MENU
  1
acad
  9
$ELEVATION
 40
0.0
  9
$PELEVATION
 40
0.0
  9
$THICKNESS
 40
0.0
  9
$LIMCHECK
 70
     0
  9
$CHAMFERA
 40
0.0
  9
$CHAMFERB
 40
0.0
  9
$CHAMFERC
 40
1.0
  9
$CHAMFERD
 40
0.0
  9
$SKPOLY
 70
     0
  9
$TDCREATE
 40
2453955.561647269
  9
$TDUCREATE
 40
2453955.894980602
  9
$TDUPDATE
 40
2453955.603313947
  9
$TDUUPDATE
 40
2453955.894980614
  9
$TDINDWG
 40
0.0000000116
  9
$TDUSRTIMER
 40
0.0000000116
  9
$USRTIMER
 70
     1
  9
$ANGBASE
 50
0.0
  9
$ANGDIR
 70
     0
  9
$PDMODE
 70
     0
  9
$PDSIZE
 40
0.0
  9
$PLINEWID
 40
0.0
  9
$SPLFRAME
 70
     0
  9
$SPLINETYPE
 70
     6
  9
$SPLINESEGS
 70
     8
  9
$HANDSEED
  5
1D5
  9
$SURFTAB1
 70
     6
  9
$SURFTAB2
 70
     6
  9
$SURFTYPE
 70
     6
  9
$SURFU
 70
     6
  9
$SURFV
 70
     6
  9
$UCSBASE
  2

  9
$UCSNAME
  2

  9
$UCSORG
 10
0.0
 20
0.0
 30
0.0
  9
$UCSXDIR
 10
1.0
 20
0.0
 30
0.0
  9
$UCSYDIR
 10
0.0
 20
1.0
 30
0.0
  9
$UCSORTHOREF
  2

  9
$UCSORTHOVIEW
 70
     0
  9
$UCSORGTOP
 10
0.0
 20
0.0
 30
0.0
  9
$UCSORGBOTTOM
 10
0.0
 20
0.0
 30
0.0
  9
$UCSORGLEFT
 10
0.0
 20
0.0
 30
0.0
  9
$UCSORGRIGHT
 10
0.0
 20
0.0
 30
0.0
  9
$UCSORGFRONT
 10
0.0
 20
0.0
 30
0.0
  9
$UCSORGBACK
 10
0.0
 20
0.0
 30
0.0
  9
$PUCSBASE
  2

  9
$PUCSNAME
  2

  9
$PUCSORG
 10
0.0
 20
0.0
 30
0.0
  9
$PUCSXDIR
 10
1.0
 20
0.0
 30
0.0
  9
$PUCSYDIR
 10
0.0
 20
1.0
 30
0.0
  9
$PUCSORTHOREF
  2

  9
$PUCSORTHOVIEW
 70
     0
  9
$PUCSORGTOP
 10
0.0
 20
0.0
 30
0.0
  9
$PUCSORGBOTTOM
 10
0.0
 20
0.0
 30
0.0
  9
$PUCSORGLEFT
 10
0.0
 20
0.0
 30
0.0
  9
$PUCSORGRIGHT
 10
0.0
 20
0.0
 30
0.0
  9
$PUCSORGFRONT
 10
0.0
 20
0.0
 30
0.0
  9
$PUCSORGBACK
 10
0.0
 20
0.0
 30
0.0
  9
$USERI1
 70
     0
  9
$USERI2
 70
     0
  9
$USERI3
 70
     0
  9
$USERI4
 70
     0
  9
$USERI5
 70
     0
  9
$USERR1
 40
0.0
  9
$USERR2
 40
0.0
  9
$USERR3
 40
0.0
  9
$USERR4
 40
0.0
  9
$USERR5
 40
0.0
  9
$WORLDVIEW
 70
     1
  9
$SHADEDGE
 70
     3
  9
$SHADEDIF
 70
    70
  9
$TILEMODE
 70
     1
  9
$MAXACTVP
 70
    16
  9
$PINSBASE
 10
0.0
 20
0.0
 30
0.0
  9
$PLIMCHECK
 70
     0
  9
$PEXTMIN
 10
1.000000000000000E+20
 20
1.000000000000000E+20
 30
1.000000000000000E+20
  9
$PEXTMAX
 10
-1.000000000000000E+20
 20
-1.000000000000000E+20
 30
-1.000000000000000E+20
  9
$PLIMMIN
 10
0.0
 20
0.0
  9
$PLIMMAX
 10
12.0
 20
9.0
  9
$UNITMODE
 70
     0
  9
$VISRETAIN
 70
     0
  9
$PLINEGEN
 70
     0
  9
$PSLTSCALE
 70
     0
  9
$TREEDEPTH
 70
  3020
  9
$CMLSTYLE
  2
Standard
  9
$CMLJUST
 70
     0
  9
$CMLSCALE
 40
1.0
  9
$PROXYGRAPHICS
 70
     1
  9
$MEASUREMENT
 70
     0
  9
$CELWEIGHT
370
    -1
  9
$ENDCAPS
280
     0
  9
$JOINSTYLE
280
     0
  9
$LWDISPLAY
290
     0
  9
$INSUNITS
 70
     1
  9
$HYPERLINKBASE
  1

  9
$STYLESHEET
  1

  9
$XEDIT
290
     1
  9
$CEPSNTYPE
380
     0
  9
$PSTYLEMODE
290
     0
  9
$FINGERPRINTGUID
  2
{FAEB1C30-E019-11D5-929B-00C0DF256EC4}
  9
$VERSIONGUID
  2
{FAEB1C32-E019-11D5-929B-00C0DF256EC4}
  9
$EXTNAMES
290
     1
  9
$PSVPSCALE
 40
0.0
  9
$OLESTARTUP
290
     0
  0
ENDSEC
  0
SECTION
  2
CLASSES
  0
CLASS
  1
ACDBDICTIONARYWDFLT
  2
AcDbDictionaryWithDefault
  3
AutoCAD 2000
 90
        0
280
     0
281
     0
  0
CLASS
  1
ACDBPLACEHOLDER
  2
AcDbPlaceHolder
  3
ObjectDBX Classes
 90
        0
280
     0
281
     0
  0
CLASS
  1
LAYOUT
  2
AcDbLayout
  3
ObjectDBX Classes
 90
        0
280
     0
281
     0
  0
ENDSEC
  0
SECTION
  2
TABLES
  0
TABLE
  2
VPORT
  5
8
330
0
100
AcDbSymbolTable
 70
     2
  0
VPORT
  5
1E
330
8
100
AcDbSymbolTableRecord
100
AcDbViewportTableRecord
  2
*ACTIVE
 70
     0
 10
0.0
 20
0.0
 11
1.0
 21
1.0
 12
8.5
 22
6.12652705061082
 13
0.0
 23
0.0
 14
1.0
 24
1.0
 15
0.0
 25
0.0
 16
0.0
 26
0.0
 36
1.0
 17
0.0
 27
0.0
 37
0.0
 40
12.25305410122164
 41
0.7207678883071553
 42
50.0
 43
0.0
 44
0.0
 50
0.0
 51
0.0
 71
     0
 72
  2000
 73
     1
 74
     0
 75
     0
 76
     0
 77
     0
 78
     0
281
     0
 65
     1
110
0.0
120
0.0
130
0.0
111
1.0
121
0.0
131
0.0
112
0.0
122
1.0
132
0.0
 79
     0
146
0.0
  0
ENDTAB
  0
TABLE
  2
LTYPE
  5
5
330
0
100
AcDbSymbolTable
 70
     1
  0
LTYPE
  5
10
330
5
100
AcDbSymbolTableRecord
100
AcDbLinetypeTableRecord
  2
ByBlock
 70
     0
  3

 72
    65
 73
     0
 40
0.0
  0
LTYPE
  5
11
330
5
100
AcDbSymbolTableRecord
100
AcDbLinetypeTableRecord
  2
ByLayer
 70
     0
  3

 72
    65
 73
     0
 40
0.0
  0
LTYPE
  5
1B
330
5
100
AcDbSymbolTableRecord
100
AcDbLinetypeTableRecord
  2
CONTINUOUS
 70
     0
  3
Solid line
 72
    65
 73
     0
 40
0.0
  0
ENDTAB
  0
TABLE
  2
LAYER
  5
2
330
0
100
AcDbSymbolTable
 70
     1
  0
LAYER
  5
1C
330
2
100
AcDbSymbolTableRecord
100
AcDbLayerTableRecord
  2
0
 70
     0
 62
     7
  6
CONTINUOUS
370
    -3
390
F
  0
ENDTAB
  0
TABLE
  2
STYLE
  5
3
330
0
100
AcDbSymbolTable
 70
     1
  0
STYLE
  5
20
330
3
100
AcDbSymbolTableRecord
100
AcDbTextStyleTableRecord
  2
STANDARD
 70
     0
 40
0.0
 41
1.0
 50
0.0
 71
     0
 42
0.125
  3
ROMANS
  4

  0
ENDTAB
  0
TABLE
  2
VIEW
  5
6
330
0
100
AcDbSymbolTable
 70
     0
  0
ENDTAB
  0
TABLE
  2
UCS
  5
7
330
0
100
AcDbSymbolTable
 70
     0
  0
ENDTAB
  0
TABLE
  2
APPID
  5
9
330
0
100
AcDbSymbolTable
 70
     1
  0
APPID
  5
1F
330
9
100
AcDbSymbolTableRecord
100
AcDbRegAppTableRecord
  2
ACAD
 70
     0
  0
ENDTAB
  0
TABLE
  2
DIMSTYLE
  5
A
330
0
100
AcDbSymbolTable
 70
     1
100
AcDbDimStyleTable
  0
DIMSTYLE
105
21
330
A
100
AcDbSymbolTableRecord
100
AcDbDimStyleTableRecord
  2
Standard
 70
     0
  3

  4

340
20
  0
ENDTAB
  0
TABLE
  2
BLOCK_RECORD
  5
1
330
0
100
AcDbSymbolTable
 70
     0
  0
BLOCK_RECORD
  5
18
330
1
100
AcDbSymbolTableRecord
100
AcDbBlockTableRecord
  2
*Model_Space
340
19
  0
BLOCK_RECORD
  5
16
330
1
100
AcDbSymbolTableRecord
100
AcDbBlockTableRecord
  2
*Paper_Space
340
17
  0
ENDTAB
  0
ENDSEC
  0
SECTION
  2
BLOCKS
  0
BLOCK
  5
1CA
330
18
100
AcDbEntity
  8
0
100
AcDbBlockBegin
  2
*Model_Space
 70
     0
 10
0.0
 20
0.0
 30
0.0
  3
*Model_Space
  1

  4

  0
ENDBLK
  5
1CB
330
18
100
AcDbEntity
  8
0
100
AcDbBlockEnd
  0
BLOCK
  5
1C8
330
16
100
AcDbEntity
 67
     1
  8
0
100
AcDbBlockBegin
  2
*Paper_Space
 70
     0
 10
0.0
 20
0.0
 30
0.0
  3
*Paper_Space
  1

  4

  0
ENDBLK
  5
1C9
330
16
100
AcDbEntity
 67
     1
  8
0
100
AcDbBlockEnd
  0
ENDSEC
  0
SECTION
  2
ENTITIES
  0
LINE
  5
22
330
18
100
AcDbEntity
  8
0
100
AcDbLine
 10
2.562
 20
1.946
 30
0.0
 11
2.529
 21
1.956
 31
0.0
  0
LINE
  5
23
330
18
100
AcDbEntity
  8
0
100
AcDbLine
 10
3.354
 20
4.367
 30
0.0
 11
3.354
 21
1.139
 31
0.0
  0
LINE
  5
24
330
18
100
AcDbEntity
  8
0
100
AcDbLine
 10
2.861
 20
4.253
 30
0.0
 11
2.861
 21
2.665
 31
0.0
  0
LINE
  5
25
330
18
100
AcDbEntity
  8
0
100
AcDbLine
 10
2.274
 20
4.356
 30
0.0
 11
2.274
 21
3.446
 31
0.0
  0
LINE
  5
26
330
18
100
AcDbEntity
  8
0
100
AcDbLine
 10
1.787
 20
3.034
 30
0.0
 11
1.787
 21
2.766
 31
0.0
  0
LINE
  5
27
330
18
100
AcDbEntity
  8
0
100
AcDbLine
 10
1.161
 20
3.196
 30
0.0
 11
1.161
 21
2.928
 31
0.0
  0
LINE
  5
28
330
18
100
AcDbEntity
  8
0
100
AcDbLine
 10
3.169
 20
2.753
 30
0.0
 11
3.169
 21
2.215
 31
0.0
  0
LINE
  5
29
330
18
100
AcDbEntity
  8
0
100
AcDbLine
 10
3.354
 20
4.367
 30
0.0
 11
2.861
 21
4.253
 31
0.0
  0
LINE
  5
2A
330
18
100
AcDbEntity
  8
0
100
AcDbLine
 10
2.861
 20
4.253
 30
0.0
 11
2.274
 21
4.356
 31
0.0
  0
LINE
  5
2B
330
18
100
AcDbEntity
  8
0
100
AcDbLine
 10
2.274
 20
4.356
 30
0.0
 11
2.791
 21
4.467
 31
0.0
  0
LINE
  5
2C
330
18
100
AcDbEntity
  8
0
100
AcDbLine
 10
2.791
 20
4.467
 30
0.0
 11
3.354
 21
4.367
 31
0.0
  0
LINE
  5
2D
330
18
100
AcDbEntity
  8
0
100
AcDbLine
 10
3.169
 20
2.215
 30
0.0
 11
2.58
 21
1.949
 31
0.0
  0
LINE
  5
2E
330
18
100
AcDbEntity
  8
0
100
AcDbLine
 10
3.354
 20
1.139
 30
0.0
 11
2.861
 21
0.897
 31
0.0
  0
LINE
  5
2F
330
18
100
AcDbEntity
  8
0
100
AcDbLine
 10
2.861
 20
0.897
 30
0.0
 11
2.648
 21
0.977
 31
0.0
  0
LINE
  5
30
330
18
100
AcDbEntity
  8
0
100
AcDbLine
 10
1.787
 20
1.638
 30
0.0
 11
1.161
 21
1.866
 31
0.0
  0
LINE
  5
31
330
18
100
AcDbEntity
  8
0
100
AcDbLine
 10
1.161
 20
3.196
 30
0.0
 11
1.787
 21
3.034
 31
0.0
  0
LINE
  5
32
330
18
100
AcDbEntity
  8
0
100
AcDbLine
 10
1.787
 20
3.034
 30
0.0
 11
2.861
 21
3.33
 31
0.0
  0
LINE
  5
33
330
18
100
AcDbEntity
  8
0
100
AcDbLine
 10
2.861
 20
3.33
 30
0.0
 11
2.274
 21
3.446
 31
0.0
  0
LINE
  5
34
330
18
100
AcDbEntity
  8
0
100
AcDbLine
 10
2.274
 20
3.446
 30
0.0
 11
1.161
 21
3.196
 31
0.0
  0
LINE
  5
35
330
18
100
AcDbEntity
  8
0
100
AcDbLine
 10
2.274
 20
1.847
 30
0.0
 11
2.274
 21
1.117
 31
0.0
  0
LINE
  5
36
330
18
100
AcDbEntity
  8
0
100
AcDbLine
 10
2.589
 20
2.535
 30
0.0
 11
2.563
 21
2.553
 31
0.0
  0
LINE
  5
37
330
18
100
AcDbEntity
  8
0
100
AcDbLine
 10
3.169
 20
2.753
 30
0.0
 11
2.589
 21
2.535
 31
0.0
  0
LINE
  5
38
330
18
100
AcDbEntity
  8
0
100
AcDbLine
 10
2.589
 20
2.535
 30
0.0
 11
2.589
 21
1.965
 31
0.0
  0
LINE
  5
39
330
18
100
AcDbEntity
  8
0
100
AcDbLine
 10
3.144
 20
2.771
 30
0.0
 11
2.563
 21
2.553
 31
0.0
  0
LINE
  5
3A
330
18
100
AcDbEntity
  8
0
100
AcDbLine
 10
2.563
 20
2.553
 30
0.0
 11
2.563
 21
1.991
 31
0.0
  0
LINE
  5
3B
330
18
100
AcDbEntity
  8
0
100
AcDbLine
 10
3.169
 20
2.753
 30
0.0
 11
3.144
 21
2.771
 31
0.0
  0
LINE
  5
3C
330
18
100
AcDbEntity
  8
0
100
AcDbLine
 10
2.861
 20
2.076
 30
0.0
 11
2.861
 21
0.897
 31
0.0
  0
ARC
  5
3D
330
18
100
AcDbEntity
  8
0
100
AcDbCircle
 10
2.533
 20
1.991
 30
0.0
 40
0.03
100
AcDbArc
 50
293.208
 51
0.0
  0
ARC
  5
3E
330
18
100
AcDbEntity
  8
0
100
AcDbCircle
 10
2.569
 20
1.965
 30
0.0
 40
0.02
100
AcDbArc
 50
250.484
 51
0.0
  0
LINE
  5
3F
330
18
100
AcDbEntity
  8
0
100
AcDbLine
 10
2.545
 20
1.963
 30
0.0
 11
1.787
 21
1.638
 31
0.0
  0
LINE
  5
40
330
18
100
AcDbEntity
  8
0
100
AcDbLine
 10
2.835
 20
2.064
 30
0.0
 11
2.835
 21
1.821
 31
0.0
  0
LINE
  5
41
330
18
100
AcDbEntity
  8
0
100
AcDbLine
 10
2.861
 20
1.814
 30
0.0
 11
2.447
 21
1.921
 31
0.0
  0
LWPOLYLINE
  5
42
330
18
100
AcDbEntity
  8
0
100
AcDbPolyline
 90
       16
 70
     1
 43
0.0
 10
3.036
 20
2.646
 42
0.12
 10
3.027
 20
2.644
 42
0.105
 10
3.018
 20
2.637
 42
0.089
 10
3.013
 20
2.627
 42
0.081
 10
3.011
 20
2.615
 42
0.081
 10
3.013
 20
2.602
 42
0.089
 10
3.018
 20
2.592
 42
0.105
 10
3.027
 20
2.585
 42
0.12
 10
3.036
 20
2.583
 42
0.12
 10
3.045
 20
2.585
 42
0.105
 10
3.054
 20
2.592
 42
0.089
 10
3.059
 20
2.602
 42
0.081
 10
3.061
 20
2.615
 42
0.081
 10
3.059
 20
2.627
 42
0.089
 10
3.054
 20
2.637
 42
0.105
 10
3.045
 20
2.644
 42
0.12
  0
LWPOLYLINE
  5
55
330
18
100
AcDbEntity
  8
0
100
AcDbPolyline
 90
       10
 70
     0
 43
0.0
 10
3.025
 20
2.646
 42
0.12
 10
3.016
 20
2.644
 42
0.105
 10
3.007
 20
2.637
 42
0.089
 10
3.002
 20
2.627
 42
0.081
 10
3.0
 20
2.615
 42
0.081
 10
3.002
 20
2.602
 42
0.089
 10
3.007
 20
2.592
 42
0.105
 10
3.016
 20
2.585
 42
0.12
 10
3.025
 20
2.583
 42
0.067
 10
3.031
 20
2.584
 42
0.105
  0
LWPOLYLINE
  5
62
330
18
100
AcDbEntity
  8
0
100
AcDbPolyline
 90
        2
 70
     0
 43
0.0
 10
3.031
 20
2.645
 42
0.067
 10
3.025
 20
2.646
 42
0.12
  0
LWPOLYLINE
  5
67
330
18
100
AcDbEntity
  8
0
100
AcDbPolyline
 90
        2
 70
     0
 43
0.0
 10
3.031
 20
2.314
 42
0.067
 10
3.025
 20
2.315
 42
0.12
  0
LWPOLYLINE
  5
6C
330
18
100
AcDbEntity
  8
0
100
AcDbPolyline
 90
       10
 70
     0
 43
0.0
 10
3.025
 20
2.315
 42
0.12
 10
3.016
 20
2.313
 42
0.105
 10
3.007
 20
2.306
 42
0.089
 10
3.002
 20
2.296
 42
0.081
 10
3.0
 20
2.283
 42
0.081
 10
3.002
 20
2.271
 42
0.089
 10
3.007
 20
2.261
 42
0.105
 10
3.016
 20
2.254
 42
0.12
 10
3.025
 20
2.252
 42
0.067
 10
3.031
 20
2.253
 42
0.105
  0
LWPOLYLINE
  5
79
330
18
100
AcDbEntity
  8
0
100
AcDbPolyline
 90
       16
 70
     1
 43
0.0
 10
3.036
 20
2.315
 42
0.12
 10
3.027
 20
2.313
 42
0.105
 10
3.018
 20
2.306
 42
0.089
 10
3.013
 20
2.296
 42
0.081
 10
3.011
 20
2.283
 42
0.081
 10
3.013
 20
2.271
 42
0.089
 10
3.018
 20
2.261
 42
0.105
 10
3.027
 20
2.254
 42
0.12
 10
3.036
 20
2.252
 42
0.12
 10
3.045
 20
2.254
 42
0.105
 10
3.054
 20
2.261
 42
0.089
 10
3.059
 20
2.271
 42
0.081
 10
3.061
 20
2.283
 42
0.081
 10
3.059
 20
2.296
 42
0.089
 10
3.054
 20
2.306
 42
0.105
 10
3.045
 20
2.313
 42
0.12
  0
LWPOLYLINE
  5
8C
330
18
100
AcDbEntity
  8
0
100
AcDbPolyline
 90
       16
 70
     1
 43
0.0
 10
2.726
 20
2.183
 42
0.12
 10
2.716
 20
2.18
 42
0.105
 10
2.708
 20
2.173
 42
0.089
 10
2.702
 20
2.164
 42
0.081
 10
2.7
 20
2.151
 42
0.081
 10
2.702
 20
2.139
 42
0.089
 10
2.708
 20
2.129
 42
0.105
 10
2.716
 20
2.122
 42
0.12
 10
2.726
 20
2.12
 42
0.12
 10
2.735
 20
2.122
 42
0.105
 10
2.744
 20
2.129
 42
0.089
 10
2.749
 20
2.139
 42
0.081
 10
2.751
 20
2.151
 42
0.081
 10
2.749
 20
2.164
 42
0.089
 10
2.744
 20
2.173
 42
0.105
 10
2.735
 20
2.18
 42
0.12
  0
LWPOLYLINE
  5
9F
330
18
100
AcDbEntity
  8
0
100
AcDbPolyline
 90
       10
 70
     0
 43
0.0
 10
2.715
 20
2.183
 42
0.12
 10
2.706
 20
2.18
 42
0.105
 10
2.697
 20
2.173
 42
0.089
 10
2.692
 20
2.164
 42
0.081
 10
2.69
 20
2.151
 42
0.081
 10
2.692
 20
2.139
 42
0.089
 10
2.697
 20
2.129
 42
0.105
 10
2.706
 20
2.122
 42
0.12
 10
2.715
 20
2.12
 42
0.067
 10
2.72
 20
2.121
 42
0.105
  0
LWPOLYLINE
  5
AC
330
18
100
AcDbEntity
  8
0
100
AcDbPolyline
 90
        2
 70
     0
 43
0.0
 10
2.72
 20
2.182
 42
0.067
 10
2.715
 20
2.183
 42
0.12
  0
LWPOLYLINE
  5
B1
330
18
100
AcDbEntity
  8
0
100
AcDbPolyline
 90
        2
 70
     0
 43
0.0
 10
2.72
 20
2.513
 42
0.067
 10
2.715
 20
2.514
 42
0.12
  0
LWPOLYLINE
  5
B6
330
18
100
AcDbEntity
  8
0
100
AcDbPolyline
 90
       10
 70
     0
 43
0.0
 10
2.715
 20
2.514
 42
0.12
 10
2.706
 20
2.512
 42
0.105
 10
2.697
 20
2.505
 42
0.089
 10
2.692
 20
2.495
 42
0.081
 10
2.69
 20
2.482
 42
0.081
 10
2.692
 20
2.47
 42
0.089
 10
2.697
 20
2.46
 42
0.105
 10
2.706
 20
2.453
 42
0.12
 10
2.715
 20
2.451
 42
0.067
 10
2.72
 20
2.452
 42
0.105
  0
LWPOLYLINE
  5
C3
330
18
100
AcDbEntity
  8
0
100
AcDbPolyline
 90
       16
 70
     1
 43
0.0
 10
2.726
 20
2.514
 42
0.12
 10
2.716
 20
2.512
 42
0.105
 10
2.708
 20
2.505
 42
0.089
 10
2.702
 20
2.495
 42
0.081
 10
2.7
 20
2.482
 42
0.081
 10
2.702
 20
2.47
 42
0.089
 10
2.708
 20
2.46
 42
0.105
 10
2.716
 20
2.453
 42
0.12
 10
2.726
 20
2.451
 42
0.12
 10
2.735
 20
2.453
 42
0.105
 10
2.744
 20
2.46
 42
0.089
 10
2.749
 20
2.47
 42
0.081
 10
2.751
 20
2.482
 42
0.081
 10
2.749
 20
2.495
 42
0.089
 10
2.744
 20
2.505
 42
0.105
 10
2.735
 20
2.512
 42
0.12
  0
LWPOLYLINE
  5
D6
330
18
100
AcDbEntity
  8
0
100
AcDbPolyline
 90
       16
 70
     1
 43
0.0
 10
3.087
 20
2.517
 42
0.141
 10
3.078
 20
2.515
 42
0.107
 10
3.069
 20
2.506
 42
0.08
 10
3.064
 20
2.495
 42
0.067
 10
3.062
 20
2.48
 42
0.067
 10
3.063
 20
2.465
 42
0.08
 10
3.068
 20
2.453
 42
0.107
 10
3.077
 20
2.445
 42
0.141
 10
3.086
 20
2.442
 42
0.141
 10
3.095
 20
2.444
 42
0.107
 10
3.104
 20
2.453
 42
0.08
 10
3.109
 20
2.464
 42
0.067
 10
3.111
 20
2.479
 42
0.067
 10
3.11
 20
2.494
 42
0.08
 10
3.104
 20
2.506
 42
0.107
 10
3.096
 20
2.514
 42
0.141
  0
LWPOLYLINE
  5
E9
330
18
100
AcDbEntity
  8
0
100
AcDbPolyline
 90
       10
 70
     0
 43
0.0
 10
3.077
 20
2.518
 42
0.141
 10
3.068
 20
2.515
 42
0.107
 10
3.059
 20
2.507
 42
0.08
 10
3.054
 20
2.495
 42
0.067
 10
3.051
 20
2.48
 42
0.067
 10
3.053
 20
2.465
 42
0.08
 10
3.058
 20
2.454
 42
0.107
 10
3.067
 20
2.445
 42
0.141
 10
3.076
 20
2.442
 42
0.067
 10
3.08
 20
2.443
 42
0.107
  0
LWPOLYLINE
  5
F6
330
18
100
AcDbEntity
  8
0
100
AcDbPolyline
 90
        2
 70
     0
 43
0.0
 10
3.083
 20
2.517
 42
0.087
 10
3.077
 20
2.518
 42
0.141
  0
LWPOLYLINE
  5
FB
330
18
100
AcDbEntity
  8
0
100
AcDbPolyline
 90
       16
 70
     1
 43
0.0
 10
2.721
 20
2.002
 42
0.132
 10
2.712
 20
1.999
 42
0.107
 10
2.703
 20
1.991
 42
0.084
 10
2.697
 20
1.979
 42
0.072
 10
2.695
 20
1.965
 42
0.072
 10
2.697
 20
1.95
 42
0.084
 10
2.703
 20
1.939
 42
0.107
 10
2.712
 20
1.931
 42
0.132
 10
2.721
 20
1.928
 42
0.132
 10
2.731
 20
1.931
 42
0.107
 10
2.74
 20
1.939
 42
0.084
 10
2.746
 20
1.95
 42
0.072
 10
2.748
 20
1.965
 42
0.072
 10
2.746
 20
1.979
 42
0.084
 10
2.74
 20
1.991
 42
0.107
 10
2.731
 20
1.999
 42
0.132
  0
LWPOLYLINE
  5
10E
330
18
100
AcDbEntity
  8
0
100
AcDbPolyline
 90
        4
 70
     0
 43
0.0
 10
2.728
 20
2.011
 42
0.132
 10
2.719
 20
2.009
 42
0.107
 10
2.71
 20
2.0
 42
0.042
 10
2.707
 20
1.995
 42
0.072
  0
LWPOLYLINE
  5
115
330
18
100
AcDbEntity
  8
0
100
AcDbPolyline
 90
        8
 70
     0
 43
0.0
 10
2.743
 20
1.945
 42
0.049
 10
2.747
 20
1.949
 42
0.084
 10
2.753
 20
1.96
 42
0.072
 10
2.755
 20
1.975
 42
0.072
 10
2.753
 20
1.989
 42
0.084
 10
2.747
 20
2.0
 42
0.107
 10
2.738
 20
2.009
 42
0.132
 10
2.728
 20
2.011
 42
0.132
  0
LINE
  5
120
330
18
100
AcDbEntity
  8
0
100
AcDbLine
 10
1.161
 20
2.928
 30
0.0
 11
1.787
 21
2.766
 31
0.0
  0
LINE
  5
121
330
18
100
AcDbEntity
  8
0
100
AcDbLine
 10
1.161
 20
2.611
 30
0.0
 11
1.787
 21
2.449
 31
0.0
  0
LINE
  5
122
330
18
100
AcDbEntity
  8
0
100
AcDbLine
 10
1.259
 20
2.698
 30
0.0
 11
1.884
 21
2.536
 31
0.0
  0
LINE
  5
123
330
18
100
AcDbEntity
  8
0
100
AcDbLine
 10
1.116
 20
2.811
 30
0.0
 11
1.741
 21
2.649
 31
0.0
  0
LINE
  5
124
330
18
100
AcDbEntity
  8
0
100
AcDbLine
 10
1.787
 20
2.766
 30
0.0
 11
1.741
 21
2.649
 31
0.0
  0
LINE
  5
125
330
18
100
AcDbEntity
  8
0
100
AcDbLine
 10
1.741
 20
2.649
 30
0.0
 11
1.884
 21
2.536
 31
0.0
  0
LINE
  5
126
330
18
100
AcDbEntity
  8
0
100
AcDbLine
 10
1.884
 20
2.536
 30
0.0
 11
1.787
 21
2.449
 31
0.0
  0
LINE
  5
127
330
18
100
AcDbEntity
  8
0
100
AcDbLine
 10
1.161
 20
2.928
 30
0.0
 11
1.116
 21
2.811
 31
0.0
  0
LINE
  5
128
330
18
100
AcDbEntity
  8
0
100
AcDbLine
 10
1.116
 20
2.811
 30
0.0
 11
1.259
 21
2.698
 31
0.0
  0
LINE
  5
129
330
18
100
AcDbEntity
  8
0
100
AcDbLine
 10
1.259
 20
2.698
 30
0.0
 11
1.161
 21
2.611
 31
0.0
  0
LINE
  5
12A
330
18
100
AcDbEntity
  8
0
100
AcDbLine
 10
1.787
 20
2.449
 30
0.0
 11
1.787
 21
1.638
 31
0.0
  0
LINE
  5
12B
330
18
100
AcDbEntity
  8
0
100
AcDbLine
 10
1.161
 20
2.611
 30
0.0
 11
1.161
 21
1.866
 31
0.0
  0
LWPOLYLINE
  5
12C
330
18
100
AcDbEntity
  8
0
100
AcDbPolyline
 90
        3
 70
     0
 43
0.0
 10
1.161
 20
3.013
 10
1.2
 20
2.918
 10
1.116
 20
2.811
  0
LWPOLYLINE
  5
132
330
18
100
AcDbEntity
  8
0
100
AcDbPolyline
 90
        7
 70
     0
 43
0.0
 10
1.683
 20
3.06
 10
1.719
 20
2.932
 10
1.762
 20
2.772
 10
1.688
 20
2.663
 10
1.805
 20
2.556
 10
1.746
 20
2.459
 10
1.787
 20
2.332
  0
LWPOLYLINE
  5
13C
330
18
100
AcDbEntity
  8
0
100
AcDbPolyline
 90
       11
 70
     0
 43
0.0
 10
1.582
 20
3.087
 10
1.616
 20
2.954
 10
1.655
 20
2.84
 10
1.686
 20
2.792
 10
1.579
 20
2.691
 10
1.694
 20
2.585
 10
1.639
 20
2.487
 10
1.664
 20
2.369
 10
1.703
 20
2.276
 10
1.75
 20
2.118
 10
1.787
 20
2.013
  0
LWPOLYLINE
  5
14A
330
18
100
AcDbEntity
  8
0
100
AcDbPolyline
 90
       13
 70
     0
 43
0.0
 10
1.492
 20
3.11
 10
1.513
 20
3.027
 10
1.557
 20
2.897
 10
1.591
 20
2.817
 10
1.482
 20
2.716
 10
1.577
 20
2.615
 10
1.527
 20
2.516
 10
1.545
 20
2.401
 10
1.592
 20
2.214
 10
1.649
 20
2.053
 10
1.718
 20
1.895
 10
1.772
 20
1.774
 10
1.787
 20
1.745
  0
LWPOLYLINE
  5
15A
330
18
100
AcDbEntity
  8
0
100
AcDbPolyline
 90
       10
 70
     0
 43
0.0
 10
1.384
 20
3.138
 10
1.416
 20
3.029
 10
1.489
 20
2.843
 10
1.395
 20
2.739
 10
1.468
 20
2.644
 10
1.41
 20
2.546
 10
1.438
 20
2.388
 10
1.517
 20
2.141
 10
1.619
 20
1.832
 10
1.696
 20
1.671
  0
LWPOLYLINE
  5
167
330
18
100
AcDbEntity
  8
0
100
AcDbPolyline
 90
       11
 70
     0
 43
0.0
 10
1.283
 20
3.164
 10
1.309
 20
3.051
 10
1.381
 20
2.871
 10
1.311
 20
2.761
 10
1.351
 20
2.674
 10
1.302
 20
2.574
 10
1.333
 20
2.361
 10
1.401
 20
2.116
 10
1.45
 20
1.921
 10
1.497
 20
1.781
 10
1.519
 20
1.735
  0
LWPOLYLINE
  5
175
330
18
100
AcDbEntity
  8
0
100
AcDbPolyline
 90
       10
 70
     0
 43
0.0
 10
1.178
 20
3.191
 10
1.209
 20
3.062
 10
1.27
 20
2.9
 10
1.216
 20
2.785
 10
1.28
 20
2.692
 10
1.235
 20
2.591
 10
1.237
 20
2.383
 10
1.262
 20
2.203
 10
1.333
 20
1.884
 10
1.365
 20
1.791
  0
LWPOLYLINE
  5
182
330
18
100
AcDbEntity
  8
0
100
AcDbPolyline
 90
        2
 70
     0
 43
0.0
 10
1.161
 20
1.943
 10
1.196
 20
1.853
  0
LWPOLYLINE
  5
187
330
18
100
AcDbEntity
  8
0
100
AcDbPolyline
 90
        4
 70
     0
 43
0.0
 10
1.161
 20
2.409
 10
1.173
 20
2.313
 10
1.231
 20
1.966
 10
1.275
 20
1.824
  0
LWPOLYLINE
  5
18E
330
18
100
AcDbEntity
  8
0
100
AcDbPolyline
 90
        2
 70
     0
 43
0.0
 10
2.55
 20
4.415
 10
2.461
 20
4.323
  0
LWPOLYLINE
  5
193
330
18
100
AcDbEntity
  8
0
100
AcDbPolyline
 90
        2
 70
     0
 43
0.0
 10
2.372
 20
4.377
 10
2.347
 20
4.343
  0
LWPOLYLINE
  5
198
330
18
100
AcDbEntity
  8
0
100
AcDbPolyline
 90
        4
 70
     0
 43
0.0
 10
2.893
 20
4.449
 10
2.886
 20
4.444
 10
2.728
 20
4.332
 10
2.678
 20
4.285
  0
LWPOLYLINE
  5
19F
330
18
100
AcDbEntity
  8
0
100
AcDbPolyline
 90
        4
 70
     0
 43
0.0
 10
3.005
 20
4.428999999999999
 10
2.996
 20
4.422
 10
2.849
 20
4.294
 10
2.816
 20
4.26
  0
LWPOLYLINE
  5
1A6
330
18
100
AcDbEntity
  8
0
100
AcDbPolyline
 90
        4
 70
     0
 43
0.0
 10
3.099
 20
4.412
 10
3.092
 20
4.404
 10
3.019
 20
4.315
 10
2.999
 20
4.285
  0
LWPOLYLINE
  5
1AD
330
18
100
AcDbEntity
  8
0
100
AcDbPolyline
 90
        3
 70
     0
 43
0.0
 10
3.203
 20
4.394
 10
3.151
 20
4.325
 10
3.147
 20
4.319
  0
LWPOLYLINE
  5
1B3
330
18
100
AcDbEntity
  8
0
100
AcDbPolyline
 90
        3
 70
     0
 43
0.0
 10
3.279
 20
4.38
 10
3.256
 20
4.362
 10
3.237
 20
4.34
  0
LWPOLYLINE
  5
1B9
330
18
100
AcDbEntity
  8
0
100
AcDbPolyline
 90
        4
 70
     0
 43
0.0
 10
2.778
 20
4.464
 10
2.762
 20
4.452
 10
2.598
 20
4.314
 10
2.587
 20
4.301
  0
LINE
  5
1C0
330
18
100
AcDbEntity
  8
0
100
AcDbLine
 10
2.648
 20
0.977
 30
0.0
 11
2.599
 21
0.902
 31
0.0
  0
LINE
  5
1C1
330
18
100
AcDbEntity
  8
0
100
AcDbLine
 10
2.599
 20
0.902
 30
0.0
 11
2.517
 21
1.103
 31
0.0
  0
LINE
  5
1C2
330
18
100
AcDbEntity
  8
0
100
AcDbLine
 10
2.517
 20
1.103
 30
0.0
 11
2.462
 21
1.046
 31
0.0
  0
LINE
  5
1C3
330
18
100
AcDbEntity
  8
0
100
AcDbLine
 10
2.462
 20
1.046
 30
0.0
 11
2.274
 21
1.117
 31
0.0
  0
LINE
  5
1C4
330
18
100
AcDbEntity
  8
0
100
AcDbLine
 10
2.599
 20
0.902
 30
0.0
 11
2.688
 21
0.961
 31
0.0
  0
LINE
  5
1C5
330
18
100
AcDbEntity
  8
0
100
AcDbLine
 10
2.462
 20
1.046
 30
0.0
 11
2.526
 21
1.08
 31
0.0
  0
TEXT
  5
1C6
330
18
100
AcDbEntity
  8
0
100
AcDbText
 10
1.32
 20
0.347
 30
0.0
 40
0.125
  1
HH
100
AcDbText
  0
TEXT
  5
1C7
330
18
100
AcDbEntity
  8
0
100
AcDbText
 10
1.32
 20
0.534
 30
0.0
 40
0.125
  1
Simpson Strong-Tie
100
AcDbText
  0
ENDSEC
  0
SECTION
  2
OBJECTS
  0
DICTIONARY
  5
C
330
0
100
AcDbDictionary
281
     1
  3
ACAD_COLOR
350
1CD
  3
ACAD_GROUP
350
D
  3
ACAD_LAYOUT
350
15
  3
ACAD_MATERIAL
350
1CF
  3
ACAD_MLINESTYLE
350
12
  3
ACAD_PLOTSETTINGS
350
14
  3
ACAD_PLOTSTYLENAME
350
E
  3
ACDBHEADERROUNDTRIPXREC
350
1CC
  0
DICTIONARY
  5
1CD
102
{ACAD_REACTORS
330
C
102
}
330
C
100
AcDbDictionary
281
     1
  0
DICTIONARY
  5
D
102
{ACAD_REACTORS
330
C
102
}
330
C
100
AcDbDictionary
281
     1
  0
DICTIONARY
  5
15
102
{ACAD_REACTORS
330
C
102
}
330
C
100
AcDbDictionary
281
     1
  3
Layout1
350
17
  3
Model
350
19
  0
DICTIONARY
  5
1CF
102
{ACAD_REACTORS
330
C
102
}
330
C
100
AcDbDictionary
281
     1
  0
DICTIONARY
  5
12
102
{ACAD_REACTORS
330
C
102
}
330
C
100
AcDbDictionary
281
     1
  3
Standard
350
13
  0
DICTIONARY
  5
14
102
{ACAD_REACTORS
330
C
102
}
330
C
100
AcDbDictionary
281
     1
  0
ACDBDICTIONARYWDFLT
  5
E
102
{ACAD_REACTORS
330
C
102
}
330
C
100
AcDbDictionary
281
     1
  3
Normal
350
F
100
AcDbDictionaryWithDefault
340
F
  0
DICTIONARY
  5
1CC
102
{ACAD_REACTORS
330
C
102
}
330
C
100
AcDbDictionary
281
     1
  3
COLORDICT
350
1CE
  3
MATERIALDICT
350
1D0
  0
LAYOUT
  5
17
102
{ACAD_REACTORS
330
15
102
}
102
{ACAD_XDICTIONARY
360
1D1
102
}
330
15
100
AcDbPlotSettings
  1

  2

  4

  6

 40
0.0
 41
0.0
 42
0.0
 43
0.0
 44
0.0
 45
0.0
 46
0.0
 47
0.0
 48
0.0
 49
0.0
140
0.0
141
0.0
142
1.0
143
1.0
 70
   688
 72
     0
 73
     0
 74
     5
  7

 75
    16
147
1.0
148
0.0
149
0.0
100
AcDbLayout
  1
Layout1
 70
     1
 71
     1
 10
0.0
 20
0.0
 11
12.0
 21
9.0
 12
0.0
 22
0.0
 32
0.0
 14
1.000000000000000E+20
 24
1.000000000000000E+20
 34
1.000000000000000E+20
 15
-1.000000000000000E+20
 25
-1.000000000000000E+20
 35
-1.000000000000000E+20
146
0.0
 13
0.0
 23
0.0
 33
0.0
 16
1.0
 26
0.0
 36
0.0
 17
0.0
 27
1.0
 37
0.0
 76
     0
330
16
  0
LAYOUT
  5
19
102
{ACAD_REACTORS
330
15
102
}
102
{ACAD_XDICTIONARY
360
1D3
102
}
330
15
100
AcDbPlotSettings
  1

  2

  4

  6

 40
0.0
 41
0.0
 42
0.0
 43
0.0
 44
0.0
 45
0.0
 46
0.0
 47
0.0
 48
0.0
 49
0.0
140
0.0
141
0.0
142
1.0
143
1.0
 70
  1712
 72
     0
 73
     0
 74
     0
  7

 75
     0
147
1.0
148
0.0
149
0.0
100
AcDbLayout
  1
Model
 70
     1
 71
     0
 10
0.0
 20
0.0
 11
0.0
 21
0.0
 12
0.0
 22
0.0
 32
0.0
 14
0.0
 24
0.0
 34
0.0
 15
0.0
 25
0.0
 35
0.0
146
0.0
 13
0.0
 23
0.0
 33
0.0
 16
1.0
 26
0.0
 36
0.0
 17
0.0
 27
1.0
 37
0.0
 76
     0
330
18
  0
MLINESTYLE
  5
13
102
{ACAD_REACTORS
330
12
102
}
330
12
100
AcDbMlineStyle
  2
Standard
 70
     0
  3

 62
   256
 51
90.0
 52
90.0
 71
     2
 49
0.5
 62
   256
  6
BYLAYER
 49
-0.5
 62
   256
  6
BYLAYER
  0
ACDBPLACEHOLDER
  5
F
102
{ACAD_REACTORS
330
E
102
}
330
E
  0
XRECORD
  5
1CE
102
{ACAD_REACTORS
330
1CC
102
}
330
1CC
100
AcDbXrecord
340
1CD
  0
XRECORD
  5
1D0
102
{ACAD_REACTORS
330
1CC
102
}
330
1CC
100
AcDbXrecord
340
1CF
  0
DICTIONARY
  5
1D1
330
17
100
AcDbDictionary
280
     1
281
     1
  3
ACAD_XREC_ROUNDTRIP
360
1D2
  0
DICTIONARY
  5
1D3
330
19
100
AcDbDictionary
280
     1
281
     1
  3
ACAD_XREC_ROUNDTRIP
360
1D4
  0
XRECORD
  5
1D2
102
{ACAD_REACTORS
330
1D1
102
}
330
1D1
100
AcDbXrecord
102
SHADEPLOT
 70
     0
102
SHADEPLOTRESLEVEL
 70
     0
102
SHADEPLOTCUSTOMDPI
 70
     0
  0
XRECORD
  5
1D4
102
{ACAD_REACTORS
330
1D3
102
}
330
1D3
100
AcDbXrecord
102
SHADEPLOT
 70
     0
102
SHADEPLOTRESLEVEL
 70
     0
102
SHADEPLOTCUSTOMDPI
 70
     0
  0
ENDSEC
  0
EOF
