  0
SECTION
  2
HEADER
  9
$ACADVER
  1
AC1018
  9
$ACADMAINTVER
 70
     0
  9
$DWGCODEPAGE
  3
ANSI_1252
  9
$INSBASE
 10
0.0
 20
0.0
 30
0.0
  9
$EXTMIN
 10
-11.30919613433791
 20
34.82932945236526
 30
-0.0015258207003612
  9
$EXTMAX
 10
100.7643277922798
 20
132.9293159579099
 30
0.0000000349246008
  9
$LIMMIN
 10
-11.30576985677083
 20
34.83232693142361
  9
$LIMMAX
 10
100.9750596788194
 20
133.0612148708767
  9
$ORTHOMODE
 70
     0
  9
$REGENMODE
 70
     1
  9
$FILLMODE
 70
     1
  9
$QTEXTMODE
 70
     0
  9
$MIRRTEXT
 70
     1
  9
$LTSCALE
 40
1.0
  9
$ATTMODE
 70
     1
  9
$TEXTSIZE
 40
0.2
  9
$TRACEWID
 40
0.05
  9
$TEXTSTYLE
  7
STANDARD
  9
$CLAYER
  8
0
  9
$CELTYPE
  6
CONTINUOUS
  9
$CECOLOR
 62
   256
  9
$CELTSCALE
 40
1.0
  9
$DISPSILH
 70
     0
  9
$DIMSCALE
 40
1.0
  9
$DIMASZ
 40
0.18
  9
$DIMEXO
 40
0.0625
  9
$DIMDLI
 40
0.38
  9
$DIMRND
 40
0.0
  9
$DIMDLE
 40
0.0
  9
$DIMEXE
 40
0.18
  9
$DIMTP
 40
0.0
  9
$DIMTM
 40
0.0
  9
$DIMTXT
 40
0.18
  9
$DIMCEN
 40
0.09
  9
$DIMTSZ
 40
0.0
  9
$DIMTOL
 70
     0
  9
$DIMLIM
 70
     0
  9
$DIMTIH
 70
     1
  9
$DIMTOH
 70
     1
  9
$DIMSE1
 70
     0
  9
$DIMSE2
 70
     0
  9
$DIMTAD
 70
     0
  9
$DIMZIN
 70
     0
  9
$DIMBLK
  1

  9
$DIMASO
 70
     1
  9
$DIMSHO
 70
     1
  9
$DIMPOST
  1

  9
$DIMAPOST
  1

  9
$DIMALT
 70
     0
  9
$DIMALTD
 70
     2
  9
$DIMALTF
 40
25.4
  9
$DIMLFAC
 40
1.0
  9
$DIMTOFL
 70
     0
  9
$DIMTVP
 40
0.0
  9
$DIMTIX
 70
     0
  9
$DIMSOXD
 70
     0
  9
$DIMSAH
 70
     0
  9
$DIMBLK1
  1

  9
$DIMBLK2
  1

  9
$DIMSTYLE
  2
STANDARD
  9
$DIMCLRD
 70
     0
  9
$DIMCLRE
 70
     0
  9
$DIMCLRT
 70
     0
  9
$DIMTFAC
 40
1.0
  9
$DIMGAP
 40
0.09
  9
$DIMJUST
 70
     0
  9
$DIMSD1
 70
     0
  9
$DIMSD2
 70
     0
  9
$DIMTOLJ
 70
     1
  9
$DIMTZIN
 70
     0
  9
$DIMALTZ
 70
     0
  9
$DIMALTTZ
 70
     0
  9
$DIMUPT
 70
     0
  9
$DIMDEC
 70
     4
  9
$DIMTDEC
 70
     4
  9
$DIMALTU
 70
     2
  9
$DIMALTTD
 70
     2
  9
$DIMTXSTY
  7
STANDARD
  9
$DIMAUNIT
 70
     0
  9
$DIMADEC
 70
     0
  9
$DIMALTRND
 40
0.0
  9
$DIMAZIN
 70
     0
  9
$DIMDSEP
 70
    46
  9
$DIMATFIT
 70
     3
  9
$DIMFRAC
 70
     0
  9
$DIMLDRBLK
  1

  9
$DIMLUNIT
 70
     2
  9
$DIMLWD
 70
    -2
  9
$DIMLWE
 70
    -2
  9
$DIMTMOVE
 70
     0
  9
$LUNITS
 70
     2
  9
$LUPREC
 70
     4
  9
$SKETCHINC
 40
0.1
  9
$FILLETRAD
 40
0.0
  9
$AUNITS
 70
     0
  9
$AUPREC
 70
     0
  9
$MENU
  1
acad
  9
$ELEVATION
 40
0.0
  9
$PELEVATION
 40
0.0
  9
$THICKNESS
 40
0.0
  9
$LIMCHECK
 70
     0
  9
$CHAMFERA
 40
0.0
  9
$CHAMFERB
 40
0.0
  9
$CHAMFERC
 40
0.0
  9
$CHAMFERD
 40
0.0
  9
$SKPOLY
 70
     0
  9
$TDCREATE
 40
2444971.375
  9
$TDUCREATE
 40
2444971.666666667
  9
$TDUPDATE
 40
2452215.275729514
  9
$TDUUPDATE
 40
2452215.567396181
  9
$TDINDWG
 40
0.0077938657
  9
$TDUSRTIMER
 40
0.0077938657
  9
$USRTIMER
 70
     1
  9
$ANGBASE
 50
0.0
  9
$ANGDIR
 70
     0
  9
$PDMODE
 70
     0
  9
$PDSIZE
 40
0.0
  9
$PLINEWID
 40
0.0
  9
$SPLFRAME
 70
     0
  9
$SPLINETYPE
 70
     6
  9
$SPLINESEGS
 70
     8
  9
$HANDSEED
  5
CA
  9
$SURFTAB1
 70
     6
  9
$SURFTAB2
 70
     6
  9
$SURFTYPE
 70
     6
  9
$SURFU
 70
     6
  9
$SURFV
 70
     6
  9
$UCSBASE
  2

  9
$UCSNAME
  2

  9
$UCSORG
 10
0.0
 20
0.0
 30
0.0
  9
$UCSXDIR
 10
1.0
 20
0.0
 30
0.0
  9
$UCSYDIR
 10
0.0
 20
1.0
 30
0.0
  9
$UCSORTHOREF
  2

  9
$UCSORTHOVIEW
 70
     0
  9
$UCSORGTOP
 10
0.0
 20
0.0
 30
0.0
  9
$UCSORGBOTTOM
 10
0.0
 20
0.0
 30
0.0
  9
$UCSORGLEFT
 10
0.0
 20
0.0
 30
0.0
  9
$UCSORGRIGHT
 10
0.0
 20
0.0
 30
0.0
  9
$UCSORGFRONT
 10
0.0
 20
0.0
 30
0.0
  9
$UCSORGBACK
 10
0.0
 20
0.0
 30
0.0
  9
$PUCSBASE
  2

  9
$PUCSNAME
  2

  9
$PUCSORG
 10
0.0
 20
0.0
 30
0.0
  9
$PUCSXDIR
 10
1.0
 20
0.0
 30
0.0
  9
$PUCSYDIR
 10
0.0
 20
1.0
 30
0.0
  9
$PUCSORTHOREF
  2

  9
$PUCSORTHOVIEW
 70
     0
  9
$PUCSORGTOP
 10
0.0
 20
0.0
 30
0.0
  9
$PUCSORGBOTTOM
 10
0.0
 20
0.0
 30
0.0
  9
$PUCSORGLEFT
 10
0.0
 20
0.0
 30
0.0
  9
$PUCSORGRIGHT
 10
0.0
 20
0.0
 30
0.0
  9
$PUCSORGFRONT
 10
0.0
 20
0.0
 30
0.0
  9
$PUCSORGBACK
 10
0.0
 20
0.0
 30
0.0
  9
$USERI1
 70
     0
  9
$USERI2
 70
     0
  9
$USERI3
 70
     0
  9
$USERI4
 70
     0
  9
$USERI5
 70
     0
  9
$USERR1
 40
0.0
  9
$USERR2
 40
0.0
  9
$USERR3
 40
0.0
  9
$USERR4
 40
0.0
  9
$USERR5
 40
0.0
  9
$WORLDVIEW
 70
     1
  9
$SHADEDGE
 70
     3
  9
$SHADEDIF
 70
    70
  9
$TILEMODE
 70
     1
  9
$MAXACTVP
 70
    16
  9
$PINSBASE
 10
0.0
 20
0.0
 30
0.0
  9
$PLIMCHECK
 70
     0
  9
$PEXTMIN
 10
1.000000000000000E+20
 20
1.000000000000000E+20
 30
1.000000000000000E+20
  9
$PEXTMAX
 10
-1.000000000000000E+20
 20
-1.000000000000000E+20
 30
-1.000000000000000E+20
  9
$PLIMMIN
 10
0.0
 20
0.0
  9
$PLIMMAX
 10
12.0
 20
9.0
  9
$UNITMODE
 70
     0
  9
$VISRETAIN
 70
     0
  9
$PLINEGEN
 70
     1
  9
$PSLTSCALE
 70
     0
  9
$TREEDEPTH
 70
  3020
  9
$CMLSTYLE
  2
STANDARD
  9
$CMLJUST
 70
     0
  9
$CMLSCALE
 40
1.0
  9
$PROXYGRAPHICS
 70
     0
  9
$MEASUREMENT
 70
     0
  9
$CELWEIGHT
370
    -1
  9
$ENDCAPS
280
     0
  9
$JOINSTYLE
280
     0
  9
$LWDISPLAY
290
     0
  9
$INSUNITS
 70
     0
  9
$HYPERLINKBASE
  1

  9
$STYLESHEET
  1

  9
$XEDIT
290
     1
  9
$CEPSNTYPE
380
     0
  9
$PSTYLEMODE
290
     1
  9
$FINGERPRINTGUID
  2
{890B555D-CEC8-11D5-923F-00805F198AD5}
  9
$VERSIONGUID
  2
{890B5561-CEC8-11D5-923F-00805F198AD5}
  9
$EXTNAMES
290
     1
  9
$PSVPSCALE
 40
0.0
  9
$OLESTARTUP
290
     0
  9
$SORTENTS
280
   127
  9
$INDEXCTL
280
     0
  9
$HIDETEXT
280
     1
  9
$XCLIPFRAME
290
     0
  9
$HALOGAP
280
     0
  9
$OBSCOLOR
 70
   257
  9
$OBSLTYPE
280
     0
  9
$INTERSECTIONDISPLAY
280
     0
  9
$INTERSECTIONCOLOR
 70
   257
  9
$DIMASSOC
280
     2
  9
$PROJECTNAME
  1

  0
ENDSEC
  0
SECTION
  2
CLASSES
  0
CLASS
  1
LWPOLYLINE
  2
AcDbPolyline
  3
AutoCAD 2000
 90
        0
 91
        1
280
     0
281
     1
  0
CLASS
  1
IMAGE
  2
AcDbRasterImage
  3
ISM
 90
      127
 91
        4
280
     0
281
     1
  0
CLASS
  1
OLE2FRAME
  2
AcDbOle2Frame
  3
AutoCAD 2000
 90
        0
 91
        1
280
     0
281
     1
  0
CLASS
  1
HATCH
  2
AcDbHatch
  3
AutoCAD 2000
 90
        0
 91
        1
280
     0
281
     1
  0
CLASS
  1
DICTIONARYVAR
  2
AcDbDictionaryVar
  3
ObjectDBX Classes
 90
        0
 91
        3
280
     0
281
     0
  0
CLASS
  1
RASTERVARIABLES
  2
AcDbRasterVariables
  3
ISM
 90
        0
 91
        3
280
     0
281
     0
  0
CLASS
  1
IMAGEDEF
  2
AcDbRasterImageDef
  3
ISM
 90
        0
 91
        3
280
     0
281
     0
  0
CLASS
  1
IMAGEDEF_REACTOR
  2
AcDbRasterImageDefReactor
  3
ISM
 90
        1
 91
        3
280
     0
281
     0
  0
CLASS
  1
IDBUFFER
  2
AcDbIdBuffer
  3
ObjectDBX Classes
 90
        0
 91
        3
280
     0
281
     0
  0
CLASS
  1
SPATIAL_FILTER
  2
AcDbSpatialFilter
  3
ObjectDBX Classes
 90
        0
 91
        3
280
     0
281
     0
  0
CLASS
  1
XRECORD
  2
AcDbXrecord
  3
AutoCAD 2000
 90
        0
 91
        1
280
     0
281
     0
  0
CLASS
  1
SORTENTSTABLE
  2
AcDbSortentsTable
  3
ObjectDBX Classes
 90
        0
 91
        3
280
     0
281
     0
  0
CLASS
  1
LAYER_INDEX
  2
AcDbLayerIndex
  3
ObjectDBX Classes
 90
        0
 91
        3
280
     0
281
     0
  0
CLASS
  1
SPATIAL_INDEX
  2
AcDbSpatialIndex
  3
AutoCAD 2000
 90
        0
 91
        3
280
     0
281
     0
  0
CLASS
  1
OBJECT_PTR
  2
CAseDLPNTableRecord
  3
ASE-LPNTableRecord
 90
        1
 91
        3
280
     0
281
     0
  0
CLASS
  1
LAYOUT
  2
AcDbLayout
  3
ObjectDBX Classes
 90
        0
 91
        1
280
     0
281
     0
  0
CLASS
  1
PLOTSETTINGS
  2
AcDbPlotSettings
  3
ObjectDBX Classes
 90
        0
 91
        3
280
     0
281
     0
  0
CLASS
  1
ACDBDICTIONARYWDFLT
  2
AcDbDictionaryWithDefault
  3
ObjectDBX Classes
 90
        0
 91
        3
280
     0
281
     0
  0
CLASS
  1
ACDBPLACEHOLDER
  2
AcDbPlaceHolder
  3
ObjectDBX Classes
 90
        0
 91
        1
280
     0
281
     0
  0
CLASS
  1
VBA_PROJECT
  2
AcDbVbaProject
  3
ObjectDBX Classes
 90
        0
 91
        1
280
     0
281
     0
  0
CLASS
  1
WIPEOUT
  2
AcDbWipeout
  3
WipeOut|AutoCAD Express Tool|expresstools@autodesk.com
 90
      127
 91
        3
280
     0
281
     1
  0
CLASS
  1
WIPEOUTVARIABLES
  2
AcDbWipeoutVariables
  3
WipeOut|AutoCAD Express Tool|expresstools@autodesk.com
 90
        0
 91
        3
280
     0
281
     0
  0
CLASS
  1
RTEXT
  2
RText
  3
RText|AutoCAD Express Tool|expresstools@autodesk.com
 90
        0
 91
        3
280
     0
281
     1
  0
CLASS
  1
ARCALIGNEDTEXT
  2
AcDbArcAlignedText
  3
ATEXT|AutoCAD Express Tool|expresstools@autodesk.com
 90
        0
 91
        3
280
     0
281
     1
  0
CLASS
  1
DUMMY
  2
AcDbLongTransaction
  3
DUMMY
 90
        0
 91
        1
280
     0
281
     0
  0
CLASS
  1
LWPOLYLINE
  2
AcDbPolyline
  3
AutoCAD 2000
 90
        0
 91
        1
280
     0
281
     1
  0
CLASS
  1
HATCH
  2
AcDbHatch
  3
AutoCAD 2000
 90
        0
 91
        1
280
     0
281
     1
  0
CLASS
  1
XRECORD
  2
AcDbXrecord
  3
AutoCAD 2000
 90
        0
 91
        1
280
     0
281
     0
  0
ENDSEC
  0
SECTION
  2
TABLES
  0
TABLE
  2
VPORT
  5
7
330
0
100
AcDbSymbolTable
 70
     2
  0
VPORT
  5
9E
330
7
100
AcDbSymbolTableRecord
100
AcDbViewportTableRecord
  2
*Active
 70
     0
 10
0.0
 20
0.0
 11
1.0
 21
1.0
 12
44.72756582897096
 22
83.87932270513755
 13
0.0
 23
0.0
 14
1.0
 24
1.0
 15
0.0
 25
0.0
 16
0.0
 26
0.0
 36
1.0
 17
0.0
 27
0.0
 37
0.0
 40
99.66805558694418
 41
1.836842105263158
 42
50.0
 43
0.0
 44
0.0
 50
0.0
 51
0.0
 71
     0
 72
   100
 73
     1
 74
     1
 75
     0
 76
     0
 77
     0
 78
     0
281
     0
 65
     1
110
0.0
120
0.0
130
0.0
111
1.0
121
0.0
131
0.0
112
0.0
122
1.0
132
0.0
 79
     0
146
0.0
  0
ENDTAB
  0
TABLE
  2
LTYPE
  5
4
330
0
100
AcDbSymbolTable
 70
     3
  0
LTYPE
  5
11
330
4
100
AcDbSymbolTableRecord
100
AcDbLinetypeTableRecord
  2
BYBLOCK
 70
     0
  3

 72
    65
 73
     0
 40
0.0
  0
LTYPE
  5
12
330
4
100
AcDbSymbolTableRecord
100
AcDbLinetypeTableRecord
  2
BYLAYER
 70
     0
  3

 72
    65
 73
     0
 40
0.0
  0
LTYPE
  5
13
330
4
100
AcDbSymbolTableRecord
100
AcDbLinetypeTableRecord
  2
CONTINUOUS
 70
     0
  3
Solid line
 72
    65
 73
     0
 40
0.0
  0
LTYPE
  5
59
330
4
100
AcDbSymbolTableRecord
100
AcDbLinetypeTableRecord
  2
AI9-LTYPE1
 70
     0
  3
Illustrator Dash Style No.1
 72
    65
 73
     0
 40
0.0
  0
LTYPE
  5
78
330
4
100
AcDbSymbolTableRecord
100
AcDbLinetypeTableRecord
  2
AI9-LTYPE2
 70
     0
  3
Illustrator Dash Style No.2
 72
    65
 73
     6
 40
7.408333333333332
 49
1.234722222222222
 74
     0
 49
-1.234722222222222
 74
     0
 49
1.234722222222222
 74
     0
 49
-1.234722222222222
 74
     0
 49
1.234722222222222
 74
     0
 49
-1.234722222222222
 74
     0
  0
ENDTAB
  0
TABLE
  2
LAYER
  5
2
330
0
100
AcDbSymbolTable
 70
     2
  0
LAYER
  5
14
330
2
100
AcDbSymbolTableRecord
100
AcDbLayerTableRecord
  2
0
 70
     0
 62
     7
  6
CONTINUOUS
370
    -3
390
96
  0
LAYER
  5
21
330
2
100
AcDbSymbolTableRecord
100
AcDbLayerTableRecord
  2
LAYER_1
 70
     0
 62
     5
  6
CONTINUOUS
370
    -3
390
96
  0
ENDTAB
  0
TABLE
  2
STYLE
  5
3
330
0
100
AcDbSymbolTable
 70
     5
  0
STYLE
  5
17
330
3
100
AcDbSymbolTableRecord
100
AcDbTextStyleTableRecord
  2
STANDARD
 70
     0
 40
0.0
 41
1.0
 50
0.0
 71
     0
 42
0.2
  3
txt
  4

  0
STYLE
  5
1D
330
3
100
AcDbSymbolTableRecord
100
AcDbTextStyleTableRecord
  2
STD
 70
     0
 40
0.0
 41
1.0
 50
0.0
 71
     0
 42
0.2
  3
txt
  4

  0
STYLE
  5
1E
330
3
100
AcDbSymbolTableRecord
100
AcDbTextStyleTableRecord
  2
TATESTD
 70
     4
 40
0.0
 41
1.0
 50
0.0
 71
     0
 42
0.2
  3
txt
  4

  0
STYLE
  5
1F
330
3
100
AcDbSymbolTableRecord
100
AcDbTextStyleTableRecord
  2
KANJISTD
 70
     0
 40
0.0
 41
1.0
 50
0.0
 71
     0
 42
0.2
  3
txt
  4
extfont
  0
STYLE
  5
20
330
3
100
AcDbSymbolTableRecord
100
AcDbTextStyleTableRecord
  2
KANJITATE
 70
     4
 40
0.0
 41
1.0
 50
0.0
 71
     0
 42
0.2
  3
txt
  4
extfont
  0
ENDTAB
  0
TABLE
  2
VIEW
  5
5
330
0
100
AcDbSymbolTable
 70
     0
  0
ENDTAB
  0
TABLE
  2
UCS
  5
6
330
0
100
AcDbSymbolTable
 70
     0
  0
ENDTAB
  0
TABLE
  2
APPID
  5
8
330
0
100
AcDbSymbolTable
 70
     1
  0
APPID
  5
16
330
8
100
AcDbSymbolTableRecord
100
AcDbRegAppTableRecord
  2
ACAD
 70
     0
  0
ENDTAB
  0
TABLE
  2
DIMSTYLE
  5
9
330
0
100
AcDbSymbolTable
 70
     1
100
AcDbDimStyleTable
  0
DIMSTYLE
105
18
330
9
100
AcDbSymbolTableRecord
100
AcDbDimStyleTableRecord
  2
STANDARD
 70
     0
289
     0
340
17
  0
ENDTAB
  0
TABLE
  2
BLOCK_RECORD
  5
1
330
0
100
AcDbSymbolTable
 70
     2
  0
BLOCK_RECORD
  5
A
330
1
100
AcDbSymbolTableRecord
100
AcDbBlockTableRecord
  2
*MODEL_SPACE
340
99
  0
BLOCK_RECORD
  5
B
330
1
100
AcDbSymbolTableRecord
100
AcDbBlockTableRecord
  2
*PAPER_SPACE
340
9A
  0
BLOCK_RECORD
  5
28
330
1
100
AcDbSymbolTableRecord
100
AcDbBlockTableRecord
  2
AI9-BLK1
340
0
102
{BLKREFS
331
29
102
}
  0
BLOCK_RECORD
  5
2B
330
1
100
AcDbSymbolTableRecord
100
AcDbBlockTableRecord
  2
AI9-BLK2
340
0
102
{BLKREFS
331
2C
102
}
  0
ENDTAB
  0
ENDSEC
  0
SECTION
  2
BLOCKS
  0
BLOCK
  5
D
330
A
100
AcDbEntity
  8
0
100
AcDbBlockBegin
  2
*MODEL_SPACE
 70
     0
 71
     0
 10
0.0
 20
0.0
 30
0.0
  3
*MODEL_SPACE
  1

  0
ENDBLK
  5
E
330
A
100
AcDbEntity
  8
0
100
AcDbBlockEnd
  0
BLOCK
  5
F
330
B
100
AcDbEntity
 67
     1
  8
0
100
AcDbBlockBegin
  2
*PAPER_SPACE
 70
     0
 71
     0
 10
0.0
 20
0.0
 30
0.0
  3
*PAPER_SPACE
  1

  0
ENDBLK
  5
10
330
B
100
AcDbEntity
 67
     1
  8
0
100
AcDbBlockEnd
  0
BLOCK
  5
2A
330
28
100
AcDbEntity
  8
LAYER_1
 62
     7
100
AcDbBlockBegin
  2
AI9-BLK1
 70
     0
 71
     0
 10
0.0
 20
0.0
 30
0.0
  3
AI9-BLK1
  1

  0
INSERT
  5
2C
330
28
100
AcDbEntity
  8
LAYER_1
 62
     7
100
AcDbBlockReference
  2
AI9-BLK2
 10
0.0
 20
0.0
 30
0.0
  0
ENDBLK
  5
31
330
28
100
AcDbEntity
  8
LAYER_1
100
AcDbBlockEnd
  0
BLOCK
  5
2D
330
2B
100
AcDbEntity
  8
LAYER_1
 62
     7
100
AcDbBlockBegin
  2
AI9-BLK2
 70
     0
 71
     0
 10
0.0
 20
0.0
 30
0.0
  3
AI9-BLK2
  1

  0
ELLIPSE
  5
2F
330
2B
100
AcDbEntity
  8
LAYER_1
 62
     7
100
AcDbEllipse
 10
-0.0004306369357639
 20
0.0
 30
0.0
 11
1.528416612413194
 21
-0.0003445095486111111
 31
0.0
210
0.0
220
0.0
230
1.0
 40
0.928321851769814
 41
0.0
 42
6.283185307179586
  0
HATCH
  5
2E
330
2B
100
AcDbEntity
  8
LAYER_1
 62
     7
100
AcDbHatch
 10
0.0
 20
0.0
 30
0.0
210
0.0
220
0.0
230
1.0
  2
SOLID
 70
     1
 71
     0
 91
        1
 92
        1
 93
        1
 72
     4
 94
        3
 73
     0
 74
     0
 95
       17
 96
       13
 40
0.0
 40
0.0
 40
0.0
 40
0.0
 40
1.0
 40
1.0
 40
1.0
 40
2.0
 40
2.0
 40
2.0
 40
3.0
 40
3.0
 40
3.0
 40
4.0
 40
4.0
 40
4.0
 40
4.0
 10
-0.0004306369357639
 20
-1.418862575954861
 10
0.8436177571614583
 20
-1.418862575954861
 10
1.52798597547743
 20
-0.7835869683159722
 10
1.52798597547743
 20
-0.0003445095486111
 10
1.52798597547743
 20
0.7834147135416666
 10
0.8436177571614583
 20
1.418862575954861
 10
-0.0004306369357639
 20
1.418862575954861
 10
-0.8437900119357639
 20
1.418862575954861
 10
-1.52798597547743
 20
0.7834147135416666
 10
-1.52798597547743
 20
-0.0003445095486111
 10
-1.52798597547743
 20
-0.7835869683159722
 10
-0.8437900119357639
 20
-1.418862575954861
 10
-0.0004306369357639
 20
-1.418862575954861
 97
        0
 75
     0
 76
     1
 98
        1
 10
0.0
 20
0.0
  0
ENDBLK
  5
30
330
2B
100
AcDbEntity
  8
LAYER_1
100
AcDbBlockEnd
  0
ENDSEC
  0
SECTION
  2
ENTITIES
  0
LINE
  5
93
330
A
100
AcDbEntity
  8
LAYER_1
 62
     7
100
AcDbLine
 10
88.17618543836805
 20
54.40408664279514
 30
0.0
 11
91.26884765624999
 21
57.48899739583333
 31
0.0
  0
LINE
  5
92
330
A
100
AcDbEntity
  8
LAYER_1
 62
     7
100
AcDbLine
 10
71.2704128689236
 20
37.57135009765625
 30
0.0
 11
74.36324734157985
 21
40.65626085069444
 31
0.0
  0
HATCH
  5
91
330
A
100
AcDbEntity
  8
LAYER_1
 62
     7
100
AcDbHatch
 10
0.0
 20
0.0
 30
0.0
210
0.0
220
0.0
230
1.0
  2
SOLID
 70
     1
 71
     0
 91
        1
 92
        3
 72
     0
 73
     1
 93
        3
 10
79.5396755642361
 20
64.28548177083333
 10
82.38773600260416
 20
69.54579806857639
 10
84.93555636935763
 20
66.93510470920138
 97
        0
 75
     0
 76
     1
 98
        1
 10
0.0
 20
0.0
  0
HATCH
  5
90
330
A
100
AcDbEntity
  8
LAYER_1
 62
     7
100
AcDbHatch
 10
0.0
 20
0.0
 30
0.0
210
0.0
220
0.0
230
1.0
  2
SOLID
 70
     1
 71
     0
 91
        1
 92
        3
 72
     0
 73
     1
 93
        3
 10
59.98186848958333
 20
47.07826334635416
 10
64.9665771484375
 20
49.46089138454861
 10
62.32901204427083
 20
44.74145507812499
 97
        0
 75
     0
 76
     1
 98
        1
 10
0.0
 20
0.0
  0
LINE
  5
8F
330
A
100
AcDbEntity
  8
LAYER_1
 62
     7
100
AcDbLine
 10
82.57652723524305
 20
66.94716254340277
 30
0.0
 11
86.61349012586805
 21
70.9197021484375
 31
0.0
  0
LINE
  5
8E
330
A
100
AcDbEntity
  8
LAYER_1
 62
     7
100
AcDbLine
 10
58.71510687934028
 20
43.42784016927083
 30
0.0
 11
63.08917236328124
 21
47.74454481336805
 31
0.0
  0
LWPOLYLINE
  5
88
330
A
100
AcDbEntity
  8
LAYER_1
 62
     7
100
AcDbPolyline
 90
        4
 70
     1
 43
0.0
 10
46.61145290798611
 20
63.76578911675347
 10
47.50752224392361
 20
64.84134792751736
 10
49.58560384114583
 20
62.7589599609375
 10
48.62459445529513
 20
61.74489610460069
  0
SPLINE
  5
87
330
A
100
AcDbEntity
  8
LAYER_1
 62
     7
100
AcDbSpline
210
0.0
220
0.0
230
1.0
 70
     8
 71
     3
 72
     8
 73
     4
 74
     0
 42
0.0000000001
 43
0.0000000001
 40
0.0
 40
0.0
 40
0.0
 40
0.0
 40
1.0
 40
1.0
 40
1.0
 40
1.0
 10
22.80825466579861
 20
48.4065199110243
 30
0.0
 10
30.05604654947916
 20
51.38239339192708
 30
0.0
 10
32.67983127170139
 20
52.6171156141493
 30
0.0
 10
30.73800320095486
 20
59.77102864583333
 30
0.0
  0
HATCH
  5
86
330
A
100
AcDbEntity
  8
LAYER_1
 62
     7
100
AcDbHatch
 10
0.0
 20
0.0
 30
0.0
210
0.0
220
0.0
230
1.0
  2
SOLID
 70
     1
 71
     0
 91
        1
 92
        3
 72
     0
 73
     1
 93
        3
 10
25.82133517795139
 20
61.22830403645833
 10
26.12036946614583
 20
57.89844699435763
 10
20.70106201171875
 20
58.84739854600694
 97
        0
 75
     0
 76
     1
 98
        1
 10
0.0
 20
0.0
  0
HATCH
  5
85
330
A
100
AcDbEntity
  8
LAYER_1
 62
     7
100
AcDbHatch
 10
0.0
 20
0.0
 30
0.0
210
0.0
220
0.0
230
1.0
  2
SOLID
 70
     1
 71
     0
 91
        1
 92
        3
 72
     0
 73
     1
 93
        3
 10
33.51853976779513
 20
64.71301812065971
 10
35.93251817491319
 20
62.30730794270833
 10
38.50514322916666
 20
67.23172743055555
 97
        0
 75
     0
 76
     1
 98
        1
 10
0.0
 20
0.0
  0
SPLINE
  5
84
330
A
100
AcDbEntity
  8
LAYER_1
 62
     7
100
AcDbSpline
210
0.0
220
0.0
230
1.0
 70
     8
 71
     3
 72
     8
 73
     4
 74
     0
 42
0.0000000001
 43
0.0000000001
 40
0.0
 40
0.0
 40
0.0
 40
0.0
 40
1.0
 40
1.0
 40
1.0
 40
1.0
 10
24.15253092447917
 20
59.39654676649305
 30
0.0
 10
28.02206217447916
 20
59.34969346788194
 30
0.0
 10
33.97191433376736
 20
62.9422390407986
 30
0.0
 10
35.27708875868056
 20
64.21623535156249
 30
0.0
  0
LWPOLYLINE
  5
7F
330
A
100
AcDbEntity
  8
LAYER_1
 62
     7
100
AcDbPolyline
 90
        3
 70
     0
 43
0.0
 10
20.49607883029514
 20
53.33524576822916
 10
20.46903483072916
 20
85.64593505859374
 10
48.70176459418402
 20
57.26368815104166
  0
SPLINE
  5
7E
330
A
100
AcDbEntity
  8
LAYER_1
 62
     7
100
AcDbSpline
210
0.0
220
0.0
230
1.0
 70
    11
 71
     3
 72
    26
 73
    22
 74
     0
 42
0.0000000001
 43
0.0000000001
 40
0.0
 40
0.0
 40
0.0
 40
0.0
 40
1.0
 40
1.0
 40
1.0
 40
2.0
 40
2.0
 40
2.0
 40
3.0
 40
3.0
 40
3.0
 40
4.0
 40
4.0
 40
4.0
 40
5.0
 40
5.0
 40
5.0
 40
6.0
 40
6.0
 40
6.0
 40
7.0
 40
7.0
 40
7.0
 40
7.0
 10
82.34122721354166
 20
93.70177408854165
 30
0.0
 10
82.34122721354166
 20
93.70177408854165
 30
0.0
 10
82.34122721354166
 20
91.77803276909721
 30
0.0
 10
82.34122721354166
 20
91.77803276909721
 30
0.0
 10
82.34122721354166
 20
91.77803276909721
 30
0.0
 10
54.32433268229166
 20
91.80697157118055
 30
0.0
 10
54.32433268229166
 20
91.80697157118055
 30
0.0
 10
54.32433268229166
 20
91.80697157118055
 30
0.0
 10
67.42396375868054
 20
78.28290473090277
 30
0.0
 10
67.42396375868054
 20
78.28290473090277
 30
0.0
 10
67.42396375868054
 20
78.28290473090277
 30
0.0
 10
66.11517198350694
 20
76.73760715060763
 30
0.0
 10
66.11517198350694
 20
76.73760715060763
 30
0.0
 10
66.11517198350694
 20
76.73760715060763
 30
0.0
 10
52.07434082031249
 20
90.68490397135416
 30
0.0
 10
51.26887749565972
 20
91.44144694010416
 30
0.0
 10
50.46341417100694
 20
92.19816216362847
 30
0.0
 10
50.7751953125
 20
93.70108506944443
 30
0.0
 10
52.81228027343749
 20
93.74397650824652
 30
0.0
 10
54.84936523437499
 20
93.7868679470486
 30
0.0
 10
82.34122721354166
 20
93.70177408854165
 30
0.0
 10
82.34122721354166
 20
93.70177408854165
 30
0.0
  0
LWPOLYLINE
  5
79
330
A
100
AcDbEntity
  8
LAYER_1
  6
AI9-LTYPE2
 62
     7
100
AcDbPolyline
 90
        3
 70
     0
 43
0.0
 10
24.14047309027778
 20
91.7869900173611
 10
50.0341552734375
 20
91.80697157118055
 10
51.72707519531249
 20
93.72347819010416
  0
SPLINE
  5
77
330
A
100
AcDbEntity
  8
LAYER_1
 62
     7
100
AcDbSpline
210
0.0
220
0.0
230
1.0
 70
    11
 71
     3
 72
    26
 73
    22
 74
     0
 42
0.0000000001
 43
0.0000000001
 40
0.0
 40
0.0
 40
0.0
 40
0.0
 40
1.0
 40
1.0
 40
1.0
 40
2.0
 40
2.0
 40
2.0
 40
3.0
 40
3.0
 40
3.0
 40
4.0
 40
4.0
 40
4.0
 40
5.0
 40
5.0
 40
5.0
 40
6.0
 40
6.0
 40
6.0
 40
7.0
 40
7.0
 40
7.0
 40
7.0
 10
7.05882839626736
 20
93.75310601128471
 30
0.0
 10
7.05882839626736
 20
93.75310601128471
 30
0.0
 10
7.074503580729166
 20
91.78337266710069
 30
0.0
 10
7.074503580729166
 20
91.78337266710069
 30
0.0
 10
7.074503580729166
 20
91.78337266710069
 30
0.0
 10
19.52473415798611
 20
91.79543050130208
 30
0.0
 10
19.93177218967014
 20
91.79060736762152
 30
0.0
 10
20.33881022135417
 20
91.78578423394096
 30
0.0
 10
21.28758951822917
 20
91.54221598307291
 30
0.0
 10
21.68980441623264
 20
91.12983805338541
 30
0.0
 10
22.09253607855903
 20
90.71797688802083
 30
0.0
 10
50.59002143012152
 20
61.78882107204861
 30
0.0
 10
50.59002143012152
 20
61.78882107204861
 30
0.0
 10
50.59002143012152
 20
61.78882107204861
 30
0.0
 10
52.23712158203124
 20
63.26228841145833
 30
0.0
 10
52.23712158203124
 20
63.26228841145833
 30
0.0
 10
52.23712158203124
 20
63.26228841145833
 30
0.0
 10
22.05997992621528
 20
93.7806667751736
 30
0.0
 10
22.05997992621528
 20
93.7806667751736
 30
0.0
 10
22.05997992621528
 20
93.7806667751736
 30
0.0
 10
7.05882839626736
 20
93.75310601128471
 30
0.0
 10
7.05882839626736
 20
93.75310601128471
 30
0.0
  0
LINE
  5
76
330
A
100
AcDbEntity
  8
LAYER_1
 62
     7
100
AcDbLine
 10
-8.89316948784722
 20
93.7868679470486
 30
0.0
 11
-8.876288519965277
 21
90.39431016710068
 31
0.0
  0
LINE
  5
75
330
A
100
AcDbEntity
  8
LAYER_1
 62
     7
100
AcDbLine
 10
98.09065348307291
 20
93.74104817708333
 30
0.0
 11
98.0346706814236
 21
89.19283311631943
 31
0.0
  0
LINE
  5
74
330
A
100
AcDbEntity
  8
LAYER_1
 62
     7
100
AcDbLine
 10
98.31200086805555
 20
128.4958604600694
 30
0.0
 11
98.31734076605902
 21
132.8402981228298
 31
0.0
  0
LINE
  5
73
330
A
100
AcDbEntity
  8
LAYER_1
 62
     7
100
AcDbLine
 10
-8.578287760416666
 20
128.5175645616319
 30
0.0
 11
-8.572431098090277
 21
132.9289232042101
 31
0.0
  0
LWPOLYLINE
  5
6D
330
A
100
AcDbEntity
  8
LAYER_1
 62
     7
100
AcDbPolyline
 90
        4
 70
     1
 43
0.0
 10
13.46515570746528
 20
90.28044976128471
 10
13.46515570746528
 20
91.80697157118055
 10
9.885701497395832
 20
91.80697157118055
 10
9.885701497395832
 20
90.28044976128471
  0
LWPOLYLINE
  5
67
330
A
100
AcDbEntity
  8
LAYER_1
 62
     7
100
AcDbPolyline
 90
        4
 70
     1
 43
0.0
 10
18.37200520833333
 20
90.28044976128471
 10
18.37200520833333
 20
91.80697157118055
 10
14.79272325303819
 20
91.80697157118055
 10
14.79272325303819
 20
90.28044976128471
  0
LWPOLYLINE
  5
61
330
A
100
AcDbEntity
  8
LAYER_1
 62
     7
100
AcDbPolyline
 90
        4
 70
     1
 43
0.0
 10
74.79922417534722
 20
90.25977918836804
 10
74.79922417534722
 20
91.78630099826388
 10
71.21976996527778
 20
91.78630099826388
 10
71.21976996527778
 20
90.25977918836804
  0
LWPOLYLINE
  5
5B
330
A
100
AcDbEntity
  8
LAYER_1
 62
     7
100
AcDbPolyline
 90
        4
 70
     1
 43
0.0
 10
79.9551540798611
 20
90.25977918836804
 10
79.9551540798611
 20
91.78630099826388
 10
76.37569986979166
 20
91.78630099826388
 10
76.37569986979166
 20
90.25977918836804
  0
LINE
  5
5A
330
A
100
AcDbEntity
  8
LAYER_1
  6
AI9-LTYPE1
 62
     7
100
AcDbLine
 10
50.54299587673611
 20
65.02342122395832
 30
0.0
 11
64.4179456922743
 21
78.22743869357639
 31
0.0
  0
LWPOLYLINE
  5
4D
330
A
100
AcDbEntity
  8
LAYER_1
 62
     7
100
AcDbPolyline
 90
       10
 70
     0
 43
0.0
 10
50.95537380642361
 20
91.80697157118055
 10
64.4179456922743
 20
78.22743869357639
 10
88.31364474826388
 20
54.53861762152777
 10
83.56871473524305
 20
49.57251247829861
 10
83.81056043836804
 20
47.1259779188368
 10
79.89107530381943
 20
48.59944525824653
 10
79.92432047526042
 20
45.74776746961805
 10
74.43077121310763
 20
40.65574408637153
 10
50.54299587673611
 20
65.02342122395832
 10
24.00732014973958
 20
91.80697157118055
  0
LWPOLYLINE
  5
3F
330
A
100
AcDbEntity
  8
LAYER_1
 62
     7
100
AcDbPolyline
 90
       12
 70
     1
 43
0.0
 10
-8.578287760416666
 20
128.5175645616319
 10
98.31200086805555
 20
128.4958604600694
 10
98.20882025824652
 20
114.5123901367187
 10
100.7631863064236
 20
112.4444715711805
 10
96.44475911458332
 20
109.0351189507378
 10
98.25412326388889
 20
107.1124972873264
 10
98.09065348307291
 20
93.74104817708333
 10
-8.90867241753472
 20
93.75896267361111
 10
-8.817032877604166
 20
105.9108479817708
 10
-6.742568630642361
 20
109.0085917154948
 10
-11.11473931206597
 20
112.3202758789062
 10
-8.56571316189236
 20
115.3443806966146
  0
HATCH
  5
3E
330
A
100
AcDbEntity
  8
LAYER_1
 62
     7
100
AcDbHatch
 10
0.0
 20
0.0
 30
0.0
210
0.0
220
0.0
230
1.0
  2
SOLID
 70
     1
 71
     0
 91
        1
 92
        1
 93
        1
 72
     4
 94
        3
 73
     0
 74
     0
 95
       71
 96
       67
 40
0.0
 40
0.0
 40
0.0
 40
0.0
 40
1.0
 40
1.0
 40
1.0
 40
2.0
 40
2.0
 40
2.0
 40
3.0
 40
3.0
 40
3.0
 40
4.0
 40
4.0
 40
4.0
 40
5.0
 40
5.0
 40
5.0
 40
6.0
 40
6.0
 40
6.0
 40
7.0
 40
7.0
 40
7.0
 40
8.0
 40
8.0
 40
8.0
 40
9.0
 40
9.0
 40
9.0
 40
10.0
 40
10.0
 40
10.0
 40
11.0
 40
11.0
 40
11.0
 40
12.0
 40
12.0
 40
12.0
 40
13.0
 40
13.0
 40
13.0
 40
14.0
 40
14.0
 40
14.0
 40
15.0
 40
15.0
 40
15.0
 40
16.0
 40
16.0
 40
16.0
 40
17.0
 40
17.0
 40
17.0
 40
18.0
 40
18.0
 40
18.0
 40
19.0
 40
19.0
 40
19.0
 40
20.0
 40
20.0
 40
20.0
 40
21.0
 40
21.0
 40
21.0
 40
22.0
 40
22.0
 40
22.0
 40
22.0
 10
74.61766764322915
 20
52.09380560980902
 10
74.61766764322915
 20
52.09380560980902
 10
73.85199517144096
 20
51.42459581163194
 10
73.85199517144096
 20
51.42459581163194
 10
73.85199517144096
 20
51.42459581163194
 10
67.78879937065972
 20
55.9624755859375
 10
67.78879937065972
 20
55.9624755859375
 10
67.78879937065972
 20
55.9624755859375
 10
68.47299533420139
 20
56.56002739800347
 10
68.47299533420139
 20
56.56002739800347
 10
68.47299533420139
 20
56.56002739800347
 10
72.56129014756944
 20
53.3521267361111
 10
72.56129014756944
 20
53.3521267361111
 10
72.95919867621527
 20
53.03138834635416
 10
73.34918348524305
 20
52.68997938368055
 10
73.84906684027777
 20
52.20835503472222
 10
73.84906684027777
 20
52.20835503472222
 10
73.86353624131944
 20
52.22161865234374
 10
73.86353624131944
 20
52.22161865234374
 10
73.53900824652777
 20
52.69859212239583
 10
73.22619357638888
 20
53.14645453559027
 10
72.956787109375
 20
53.61912163628472
 10
72.956787109375
 20
53.61912163628472
 10
70.37692735460068
 20
58.22349175347222
 10
70.37692735460068
 20
58.22349175347222
 10
70.37692735460068
 20
58.22349175347222
 10
71.14259982638889
 20
58.892529296875
 10
71.14259982638889
 20
58.892529296875
 10
71.14259982638889
 20
58.892529296875
 10
75.23812934027777
 20
55.69134657118055
 10
75.23812934027777
 20
55.69134657118055
 10
75.6298366970486
 20
55.37784288194444
 10
75.99949544270832
 20
55.04504665798611
 10
76.5259060329861
 20
54.54757486979166
 10
76.5259060329861
 20
54.54757486979166
 10
76.54089219835069
 20
54.56083848741319
 10
76.54089219835069
 20
54.56083848741319
 10
76.2158474392361
 20
55.03781195746527
 10
75.90303276909721
 20
55.48567437065972
 10
75.63414306640624
 20
55.95834147135416
 10
75.63414306640624
 20
55.95834147135416
 10
73.04653184678818
 20
60.55599365234374
 10
73.04653184678818
 20
60.55599365234374
 10
73.04653184678818
 20
60.55599365234374
 10
73.73090006510417
 20
61.15406222873263
 10
73.73090006510417
 20
61.15406222873263
 10
73.73090006510417
 20
61.15406222873263
 10
77.29519585503472
 20
54.43302544487847
 10
77.29519585503472
 20
54.43302544487847
 10
77.29519585503472
 20
54.43302544487847
 10
76.5288343641493
 20
53.76381564670138
 10
76.5288343641493
 20
53.76381564670138
 10
76.5288343641493
 20
53.76381564670138
 10
72.47791883680554
 20
56.8988525390625
 10
72.47791883680554
 20
56.8988525390625
 10
72.0855224609375
 20
57.19857584635416
 10
71.71586371527778
 20
57.53137207031249
 10
71.13846571180555
 20
58.10222439236111
 10
71.13846571180555
 20
58.10222439236111
 10
71.12330729166666
 20
58.08896077473958
 10
71.12330729166666
 20
58.08896077473958
 10
71.53930257161457
 20
57.50828993055555
 10
71.85228949652777
 20
57.06042751736111
 10
72.12100694444443
 20
56.58707139756944
 10
72.12100694444443
 20
56.58707139756944
 10
74.61766764322915
 20
52.09380560980902
 10
74.61766764322915
 20
52.09380560980902
 97
        0
 75
     0
 76
     1
 98
        1
 10
0.0
 20
0.0
  0
HATCH
  5
3D
330
A
100
AcDbEntity
  8
LAYER_1
 62
     7
100
AcDbHatch
 10
0.0
 20
0.0
 30
0.0
210
0.0
220
0.0
230
1.0
  2
SOLID
 70
     1
 71
     0
 91
        1
 92
        1
 93
        1
 72
     4
 94
        3
 73
     0
 74
     0
 95
       56
 96
       52
 40
0.0
 40
0.0
 40
0.0
 40
0.0
 40
1.0
 40
1.0
 40
1.0
 40
2.0
 40
2.0
 40
2.0
 40
3.0
 40
3.0
 40
3.0
 40
4.0
 40
4.0
 40
4.0
 40
5.0
 40
5.0
 40
5.0
 40
6.0
 40
6.0
 40
6.0
 40
7.0
 40
7.0
 40
7.0
 40
8.0
 40
8.0
 40
8.0
 40
9.0
 40
9.0
 40
9.0
 40
10.0
 40
10.0
 40
10.0
 40
11.0
 40
11.0
 40
11.0
 40
12.0
 40
12.0
 40
12.0
 40
13.0
 40
13.0
 40
13.0
 40
14.0
 40
14.0
 40
14.0
 40
15.0
 40
15.0
 40
15.0
 40
16.0
 40
16.0
 40
16.0
 40
17.0
 40
17.0
 40
17.0
 40
17.0
 10
-7.85722927517361
 20
49.73288167317708
 10
-7.797629123263889
 20
50.50337727864583
 10
-8.213107638888888
 20
51.08628743489583
 10
-9.032351345486111
 20
51.08628743489583
 10
-10.22779947916667
 20
51.08628743489583
 10
-10.35630154079861
 20
50.33577338324653
 10
-10.35630154079861
 20
49.76302625868055
 10
-10.35630154079861
 20
49.24936252170139
 10
-10.12892523871528
 20
48.93275824652778
 10
-9.655224609374999
 20
48.75499131944444
 10
-9.259727647569443
 20
48.60719672309028
 10
-8.874393717447916
 20
48.4590576171875
 10
-8.479413519965277
 20
48.31057400173611
 10
-7.076570638020833
 20
47.78726399739583
 10
-6.819738769531249
 20
47.29289279513888
 10
-6.819738769531249
 20
46.31517469618055
 10
-6.819738769531249
 20
44.91267632378472
 10
-7.699443901909722
 20
44.09274359809027
 10
-9.121579318576389
 20
44.09274359809027
 10
-9.852284071180554
 20
44.09274359809027
 10
-10.72165391710069
 20
44.30013834635416
 10
-11.1466064453125
 20
45.26855468749999
 10
-11.304736328125
 20
45.63373480902777
 10
-11.29440104166667
 20
46.22646348741319
 10
-11.304736328125
 20
46.62144368489583
 10
-11.304736328125
 20
46.62144368489583
 10
-10.48480360243055
 20
46.62144368489583
 10
-10.48480360243055
 20
46.62144368489583
 10
-10.52390543619792
 20
45.52521430121527
 10
-10.31651068793403
 20
44.83378363715278
 10
-9.081788465711805
 20
44.83378363715278
 10
-8.252209472656249
 20
44.83378363715278
 10
-7.669127061631944
 20
45.25821940104166
 10
-7.669127061631944
 20
46.1275892469618
 10
-7.669127061631944
 20
47.25379096137152
 10
-8.12387966579861
 20
47.26343722873263
 10
-8.874393717447916
 20
47.54989691840277
 10
-9.279536946614583
 20
47.70768229166666
 10
-9.9311767578125
 20
47.91576605902777
 10
-10.32667371961806
 20
48.12316080729166
 10
-11.02792290581597
 20
48.47886691623263
 10
-11.20586208767361
 20
49.07159559461805
 10
-11.20586208767361
 20
49.80230034722221
 10
-11.20586208767361
 20
51.02737630208333
 10
-10.34596625434028
 20
51.82732747395833
 10
-9.141560872395832
 20
51.82732747395833
 10
-7.787982855902778
 20
51.82732747395833
 10
-6.958403862847222
 20
51.12625054253472
 10
-7.037296549479166
 20
49.73288167317708
 10
-7.037296549479166
 20
49.73288167317708
 10
-7.85722927517361
 20
49.73288167317708
 10
-7.85722927517361
 20
49.73288167317708
 97
        0
 75
     0
 76
     1
 98
        1
 10
0.0
 20
0.0
  0
HATCH
  5
3C
330
A
100
AcDbEntity
  8
LAYER_1
 62
     7
100
AcDbHatch
 10
0.0
 20
0.0
 30
0.0
210
0.0
220
0.0
230
1.0
  2
SOLID
 70
     1
 71
     0
 91
        2
 92
       16
 93
        1
 72
     4
 94
        3
 73
     0
 74
     0
 95
       20
 96
       16
 40
0.0
 40
0.0
 40
0.0
 40
0.0
 40
1.0
 40
1.0
 40
1.0
 40
2.0
 40
2.0
 40
2.0
 40
3.0
 40
3.0
 40
3.0
 40
4.0
 40
4.0
 40
4.0
 40
5.0
 40
5.0
 40
5.0
 40
5.0
 10
-4.647433810763888
 20
48.15278862847222
 10
-4.647433810763888
 20
48.15278862847222
 10
-3.847482638888889
 20
48.15278862847222
 10
-3.847482638888889
 20
48.15278862847222
 10
-2.721280924479166
 20
48.16243489583333
 10
-2.030367024739583
 20
48.32022026909722
 10
-2.040013292100694
 20
49.59490559895833
 10
-2.040013292100694
 20
50.78966471354166
 10
-2.800862630208333
 20
50.95795762803819
 10
-3.798045518663194
 20
50.93814832899305
 10
-3.798045518663194
 20
50.93814832899305
 10
-4.647433810763888
 20
50.93814832899305
 10
-4.647433810763888
 20
50.93814832899305
 10
-4.647433810763888
 20
50.93814832899305
 10
-4.647433810763888
 20
48.15278862847222
 10
-4.647433810763888
 20
48.15278862847222
 97
        0
 92
        1
 93
        1
 72
     4
 94
        3
 73
     0
 74
     0
 95
       32
 96
       28
 40
0.0
 40
0.0
 40
0.0
 40
0.0
 40
1.0
 40
1.0
 40
1.0
 40
2.0
 40
2.0
 40
2.0
 40
3.0
 40
3.0
 40
3.0
 40
4.0
 40
4.0
 40
4.0
 40
5.0
 40
5.0
 40
5.0
 40
6.0
 40
6.0
 40
6.0
 40
7.0
 40
7.0
 40
7.0
 40
8.0
 40
8.0
 40
8.0
 40
9.0
 40
9.0
 40
9.0
 40
9.0
 10
-5.467366536458333
 20
44.27068277994791
 10
-5.467366536458333
 20
44.27068277994791
 10
-5.467366536458333
 20
51.67901611328124
 10
-5.467366536458333
 20
51.67901611328124
 10
-5.467366536458333
 20
51.67901611328124
 10
-3.521921115451389
 20
51.67901611328124
 10
-3.521921115451389
 20
51.67901611328124
 10
-2.9486572265625
 20
51.67901611328124
 10
-2.227598741319444
 20
51.6095974392361
 10
-1.792827690972222
 20
51.19480794270833
 10
-1.348410373263889
 20
50.78001844618055
 10
-1.190625
 20
50.20744357638888
 10
-1.190625
 20
49.61471489800347
 10
-1.190625
 20
48.79478217230902
 10
-1.437638346354166
 20
47.99465874565972
 10
-2.237761773003472
 20
47.62878960503472
 10
-2.751425509982639
 20
47.41174858940972
 10
-3.590650770399305
 20
47.41174858940972
 10
-4.153751627604167
 20
47.41174858940972
 10
-4.153751627604167
 20
47.41174858940972
 10
-4.647433810763888
 20
47.41174858940972
 10
-4.647433810763888
 20
47.41174858940972
 10
-4.647433810763888
 20
47.41174858940972
 10
-4.647433810763888
 20
44.27068277994791
 10
-4.647433810763888
 20
44.27068277994791
 10
-4.647433810763888
 20
44.27068277994791
 10
-5.467366536458333
 20
44.27068277994791
 10
-5.467366536458333
 20
44.27068277994791
 97
        0
 75
     0
 76
     1
 98
        1
 10
0.0
 20
0.0
  0
HATCH
  5
3B
330
A
100
AcDbEntity
  8
LAYER_1
 62
     7
100
AcDbHatch
 10
0.0
 20
0.0
 30
0.0
210
0.0
220
0.0
230
1.0
  2
SOLID
 70
     1
 71
     0
 91
        1
 92
        1
 93
        1
 72
     4
 94
        3
 73
     0
 74
     0
 95
       41
 96
       37
 40
0.0
 40
0.0
 40
0.0
 40
0.0
 40
1.0
 40
1.0
 40
1.0
 40
2.0
 40
2.0
 40
2.0
 40
3.0
 40
3.0
 40
3.0
 40
4.0
 40
4.0
 40
4.0
 40
5.0
 40
5.0
 40
5.0
 40
6.0
 40
6.0
 40
6.0
 40
7.0
 40
7.0
 40
7.0
 40
8.0
 40
8.0
 40
8.0
 40
9.0
 40
9.0
 40
9.0
 40
10.0
 40
10.0
 40
10.0
 40
11.0
 40
11.0
 40
11.0
 40
12.0
 40
12.0
 40
12.0
 40
12.0
 10
-0.0950846354166667
 20
44.27068277994791
 10
-0.0950846354166667
 20
44.27068277994791
 10
-0.0950846354166667
 20
51.67901611328124
 10
-0.0950846354166667
 20
51.67901611328124
 10
-0.0950846354166667
 20
51.67901611328124
 10
3.60908203125
 20
51.67901611328124
 10
3.60908203125
 20
51.67901611328124
 10
3.60908203125
 20
51.67901611328124
 10
3.60908203125
 20
50.93814832899305
 10
3.60908203125
 20
50.93814832899305
 10
3.60908203125
 20
50.93814832899305
 10
0.7248480902777777
 20
50.93814832899305
 10
0.7248480902777777
 20
50.93814832899305
 10
0.7248480902777777
 20
50.93814832899305
 10
0.7248480902777777
 20
48.48851318359375
 10
0.7248480902777777
 20
48.48851318359375
 10
0.7248480902777777
 20
48.48851318359375
 10
3.431315104166667
 20
48.48851318359375
 10
3.431315104166667
 20
48.48851318359375
 10
3.431315104166667
 20
48.48851318359375
 10
3.431315104166667
 20
47.74764539930555
 10
3.431315104166667
 20
47.74764539930555
 10
3.431315104166667
 20
47.74764539930555
 10
0.7248480902777777
 20
47.74764539930555
 10
0.7248480902777777
 20
47.74764539930555
 10
0.7248480902777777
 20
47.74764539930555
 10
0.7248480902777777
 20
45.01155056423611
 10
0.7248480902777777
 20
45.01155056423611
 10
0.7248480902777777
 20
45.01155056423611
 10
3.629063585069444
 20
45.01155056423611
 10
3.629063585069444
 20
45.01155056423611
 10
3.629063585069444
 20
45.01155056423611
 10
3.629063585069444
 20
44.27068277994791
 10
3.629063585069444
 20
44.27068277994791
 10
3.629063585069444
 20
44.27068277994791
 10
-0.0950846354166667
 20
44.27068277994791
 10
-0.0950846354166667
 20
44.27068277994791
 97
        0
 75
     0
 76
     1
 98
        1
 10
0.0
 20
0.0
  0
HATCH
  5
3A
330
A
100
AcDbEntity
  8
LAYER_1
 62
     7
100
AcDbHatch
 10
0.0
 20
0.0
 30
0.0
210
0.0
220
0.0
230
1.0
  2
SOLID
 70
     1
 71
     0
 91
        1
 92
        1
 93
        1
 72
     4
 94
        3
 73
     0
 74
     0
 95
       44
 96
       40
 40
0.0
 40
0.0
 40
0.0
 40
0.0
 40
1.0
 40
1.0
 40
1.0
 40
2.0
 40
2.0
 40
2.0
 40
3.0
 40
3.0
 40
3.0
 40
4.0
 40
4.0
 40
4.0
 40
5.0
 40
5.0
 40
5.0
 40
6.0
 40
6.0
 40
6.0
 40
7.0
 40
7.0
 40
7.0
 40
8.0
 40
8.0
 40
8.0
 40
9.0
 40
9.0
 40
9.0
 40
10.0
 40
10.0
 40
10.0
 40
11.0
 40
11.0
 40
11.0
 40
12.0
 40
12.0
 40
12.0
 40
13.0
 40
13.0
 40
13.0
 40
13.0
 10
8.261683485243054
 20
49.45675726996527
 10
8.241701931423611
 20
50.33577338324653
 10
7.955414496527777
 20
51.08628743489583
 10
6.928087022569444
 20
51.08628743489583
 10
5.505779351128472
 20
51.08628743489583
 10
5.485970052083333
 20
49.06126030815972
 10
5.485970052083333
 20
48.08336995442708
 10
5.446006944444444
 20
47.07585177951388
 10
5.426714409722222
 20
44.83378363715278
 10
6.928087022569444
 20
44.83378363715278
 10
7.905805121527777
 20
44.83378363715278
 10
8.113199869791666
 20
45.63373480902777
 10
8.212074110243055
 20
46.44350450303819
 10
8.2320556640625
 20
46.61179741753472
 10
8.241701931423611
 20
46.77922905815972
 10
8.261683485243054
 20
46.94752197265625
 10
8.261683485243054
 20
46.94752197265625
 10
9.081616210937499
 20
46.94752197265625
 10
9.081616210937499
 20
46.94752197265625
 10
9.061634657118054
 20
46.79921061197916
 10
9.061634657118054
 20
46.64125298394097
 10
9.04165310329861
 20
46.49294162326388
 10
8.992905002170138
 20
45.89073893229166
 10
8.962760416666665
 20
45.435986328125
 10
8.60757107204861
 20
44.92232259114583
 10
8.222409396701389
 20
44.38884955512152
 10
7.708745659722221
 20
44.09274359809027
 10
6.997333441840278
 20
44.09274359809027
 10
4.715302191840277
 20
44.09274359809027
 10
4.636409505208333
 20
46.29588216145833
 10
4.636409505208333
 20
48.06356065538194
 10
4.636409505208333
 20
49.73288167317708
 10
4.883595106336805
 20
51.82732747395833
 10
6.986998155381944
 20
51.82732747395833
 10
8.390013292100694
 20
51.82732747395833
 10
9.121234809027778
 20
50.78001844618055
 10
9.081616210937499
 20
49.45675726996527
 10
9.081616210937499
 20
49.45675726996527
 10
8.261683485243054
 20
49.45675726996527
 10
8.261683485243054
 20
49.45675726996527
 97
        0
 75
     0
 76
     1
 98
        1
 10
0.0
 20
0.0
  0
HATCH
  5
39
330
A
100
AcDbEntity
  8
LAYER_1
 62
     7
100
AcDbHatch
 10
0.0
 20
0.0
 30
0.0
210
0.0
220
0.0
230
1.0
  2
SOLID
 70
     1
 71
     0
 91
        1
 92
        1
 93
        1
 72
     4
 94
        3
 73
     0
 74
     0
 95
       17
 96
       13
 40
0.0
 40
0.0
 40
0.0
 40
0.0
 40
1.0
 40
1.0
 40
1.0
 40
2.0
 40
2.0
 40
2.0
 40
3.0
 40
3.0
 40
3.0
 40
4.0
 40
4.0
 40
4.0
 40
4.0
 10
10.57196451822917
 20
44.27068277994791
 10
10.57196451822917
 20
44.27068277994791
 10
10.57196451822917
 20
51.67901611328124
 10
10.57196451822917
 20
51.67901611328124
 10
10.57196451822917
 20
51.67901611328124
 10
11.39189724392361
 20
51.67901611328124
 10
11.39189724392361
 20
51.67901611328124
 10
11.39189724392361
 20
51.67901611328124
 10
11.39189724392361
 20
44.27068277994791
 10
11.39189724392361
 20
44.27068277994791
 10
11.39189724392361
 20
44.27068277994791
 10
10.57196451822917
 20
44.27068277994791
 10
10.57196451822917
 20
44.27068277994791
 97
        0
 75
     0
 76
     1
 98
        1
 10
0.0
 20
0.0
  0
HATCH
  5
38
330
A
100
AcDbEntity
  8
LAYER_1
 62
     7
100
AcDbHatch
 10
0.0
 20
0.0
 30
0.0
210
0.0
220
0.0
230
1.0
  2
SOLID
 70
     1
 71
     0
 91
        1
 92
        1
 93
        1
 72
     4
 94
        3
 73
     0
 74
     0
 95
       35
 96
       31
 40
0.0
 40
0.0
 40
0.0
 40
0.0
 40
1.0
 40
1.0
 40
1.0
 40
2.0
 40
2.0
 40
2.0
 40
3.0
 40
3.0
 40
3.0
 40
4.0
 40
4.0
 40
4.0
 40
5.0
 40
5.0
 40
5.0
 40
6.0
 40
6.0
 40
6.0
 40
7.0
 40
7.0
 40
7.0
 40
8.0
 40
8.0
 40
8.0
 40
9.0
 40
9.0
 40
9.0
 40
10.0
 40
10.0
 40
10.0
 40
10.0
 10
13.07930501302083
 20
44.27068277994791
 10
13.07930501302083
 20
44.27068277994791
 10
13.07930501302083
 20
51.67901611328124
 10
13.07930501302083
 20
51.67901611328124
 10
13.07930501302083
 20
51.67901611328124
 10
16.55609537760417
 20
51.67901611328124
 10
16.55609537760417
 20
51.67901611328124
 10
16.55609537760417
 20
51.67901611328124
 10
16.55609537760417
 20
50.93814832899305
 10
16.55609537760417
 20
50.93814832899305
 10
16.55609537760417
 20
50.93814832899305
 10
13.89923773871528
 20
50.93814832899305
 10
13.89923773871528
 20
50.93814832899305
 10
13.89923773871528
 20
50.93814832899305
 10
13.89923773871528
 20
48.50832248263888
 10
13.89923773871528
 20
48.50832248263888
 10
13.89923773871528
 20
48.50832248263888
 10
16.36868218315972
 20
48.50832248263888
 10
16.36868218315972
 20
48.50832248263888
 10
16.36868218315972
 20
48.50832248263888
 10
16.36868218315972
 20
47.76745469835069
 10
16.36868218315972
 20
47.76745469835069
 10
16.36868218315972
 20
47.76745469835069
 10
13.89923773871528
 20
47.76745469835069
 10
13.89923773871528
 20
47.76745469835069
 10
13.89923773871528
 20
47.76745469835069
 10
13.89923773871528
 20
44.27068277994791
 10
13.89923773871528
 20
44.27068277994791
 10
13.89923773871528
 20
44.27068277994791
 10
13.07930501302083
 20
44.27068277994791
 10
13.07930501302083
 20
44.27068277994791
 97
        0
 75
     0
 76
     1
 98
        1
 10
0.0
 20
0.0
  0
HATCH
  5
37
330
A
100
AcDbEntity
  8
LAYER_1
 62
     7
100
AcDbHatch
 10
0.0
 20
0.0
 30
0.0
210
0.0
220
0.0
230
1.0
  2
SOLID
 70
     1
 71
     0
 91
        1
 92
        1
 93
        1
 72
     4
 94
        3
 73
     0
 74
     0
 95
       32
 96
       28
 40
0.0
 40
0.0
 40
0.0
 40
0.0
 40
1.0
 40
1.0
 40
1.0
 40
2.0
 40
2.0
 40
2.0
 40
3.0
 40
3.0
 40
3.0
 40
4.0
 40
4.0
 40
4.0
 40
5.0
 40
5.0
 40
5.0
 40
6.0
 40
6.0
 40
6.0
 40
7.0
 40
7.0
 40
7.0
 40
8.0
 40
8.0
 40
8.0
 40
9.0
 40
9.0
 40
9.0
 40
9.0
 10
19.47891438802083
 20
47.96520317925346
 10
19.47891438802083
 20
47.96520317925346
 10
21.21713731553819
 20
51.67901611328124
 10
21.21713731553819
 20
51.67901611328124
 10
21.21713731553819
 20
51.67901611328124
 10
22.12578125
 20
51.67901611328124
 10
22.12578125
 20
51.67901611328124
 10
22.12578125
 20
51.67901611328124
 10
19.88354085286458
 20
47.14527045355902
 10
19.88354085286458
 20
47.14527045355902
 10
19.88354085286458
 20
47.14527045355902
 10
19.88354085286458
 20
44.27068277994791
 10
19.88354085286458
 20
44.27068277994791
 10
19.88354085286458
 20
44.27068277994791
 10
19.06360812717014
 20
44.27068277994791
 10
19.06360812717014
 20
44.27068277994791
 10
19.06360812717014
 20
44.27068277994791
 10
19.06360812717014
 20
47.14527045355902
 10
19.06360812717014
 20
47.14527045355902
 10
19.06360812717014
 20
47.14527045355902
 10
16.84134928385416
 20
51.67901611328124
 10
16.84134928385416
 20
51.67901611328124
 10
16.84134928385416
 20
51.67901611328124
 10
17.74982096354167
 20
51.67901611328124
 10
17.74982096354167
 20
51.67901611328124
 10
17.74982096354167
 20
51.67901611328124
 10
19.47891438802083
 20
47.96520317925346
 10
19.47891438802083
 20
47.96520317925346
 97
        0
 75
     0
 76
     1
 98
        1
 10
0.0
 20
0.0
  0
HATCH
  5
36
330
A
100
AcDbEntity
  8
LAYER_1
 62
     7
100
AcDbHatch
 10
0.0
 20
0.0
 30
0.0
210
0.0
220
0.0
230
1.0
  2
SOLID
 70
     1
 71
     0
 91
        2
 92
       16
 93
        1
 72
     4
 94
        3
 73
     0
 74
     0
 95
       17
 96
       13
 40
0.0
 40
0.0
 40
0.0
 40
0.0
 40
1.0
 40
1.0
 40
1.0
 40
2.0
 40
2.0
 40
2.0
 40
3.0
 40
3.0
 40
3.0
 40
4.0
 40
4.0
 40
4.0
 40
4.0
 10
-2.456697591145833
 20
41.82587076822917
 10
-2.456697591145833
 20
41.82587076822917
 10
-2.476506890190972
 20
41.82587076822917
 10
-2.476506890190972
 20
41.82587076822917
 10
-2.476506890190972
 20
41.82587076822917
 10
-3.454397243923611
 20
37.88485378689236
 10
-3.454397243923611
 20
37.88485378689236
 10
-3.454397243923611
 20
37.88485378689236
 10
-1.498616536458333
 20
37.88485378689236
 10
-1.498616536458333
 20
37.88485378689236
 10
-1.498616536458333
 20
37.88485378689236
 10
-2.456697591145833
 20
41.82587076822917
 10
-2.456697591145833
 20
41.82587076822917
 97
        0
 92
        1
 93
        1
 72
     4
 94
        3
 73
     0
 74
     0
 95
       29
 96
       25
 40
0.0
 40
0.0
 40
0.0
 40
0.0
 40
1.0
 40
1.0
 40
1.0
 40
2.0
 40
2.0
 40
2.0
 40
3.0
 40
3.0
 40
3.0
 40
4.0
 40
4.0
 40
4.0
 40
5.0
 40
5.0
 40
5.0
 40
6.0
 40
6.0
 40
6.0
 40
7.0
 40
7.0
 40
7.0
 40
8.0
 40
8.0
 40
8.0
 40
8.0
 10
-2.990170627170138
 20
42.41859944661458
 10
-2.990170627170138
 20
42.41859944661458
 10
-1.903759765625
 20
42.41859944661458
 10
-1.903759765625
 20
42.41859944661458
 10
-1.903759765625
 20
42.41859944661458
 10
0.1805230034722222
 20
35.01026611328125
 10
0.1805230034722222
 20
35.01026611328125
 10
0.1805230034722222
 20
35.01026611328125
 10
-0.7281209309895833
 20
35.01026611328125
 10
-0.7281209309895833
 20
35.01026611328125
 10
-0.7281209309895833
 20
35.01026611328125
 10
-1.311203342013889
 20
37.14398600260417
 10
-1.311203342013889
 20
37.14398600260417
 10
-1.311203342013889
 20
37.14398600260417
 10
-3.652145724826389
 20
37.14398600260417
 10
-3.652145724826389
 20
37.14398600260417
 10
-3.652145724826389
 20
37.14398600260417
 10
-4.195437282986111
 20
35.01026611328125
 10
-4.195437282986111
 20
35.01026611328125
 10
-4.195437282986111
 20
35.01026611328125
 10
-5.103908962673611
 20
35.01026611328125
 10
-5.103908962673611
 20
35.01026611328125
 10
-5.103908962673611
 20
35.01026611328125
 10
-2.990170627170138
 20
42.41859944661458
 10
-2.990170627170138
 20
42.41859944661458
 97
        0
 75
     0
 76
     1
 98
        1
 10
0.0
 20
0.0
  0
HATCH
  5
35
330
A
100
AcDbEntity
  8
LAYER_1
 62
     7
100
AcDbHatch
 10
0.0
 20
0.0
 30
0.0
210
0.0
220
0.0
230
1.0
  2
SOLID
 70
     1
 71
     0
 91
        1
 92
        1
 93
        1
 72
     4
 94
        3
 73
     0
 74
     0
 95
       53
 96
       49
 40
0.0
 40
0.0
 40
0.0
 40
0.0
 40
1.0
 40
1.0
 40
1.0
 40
2.0
 40
2.0
 40
2.0
 40
3.0
 40
3.0
 40
3.0
 40
4.0
 40
4.0
 40
4.0
 40
5.0
 40
5.0
 40
5.0
 40
6.0
 40
6.0
 40
6.0
 40
7.0
 40
7.0
 40
7.0
 40
8.0
 40
8.0
 40
8.0
 40
9.0
 40
9.0
 40
9.0
 40
10.0
 40
10.0
 40
10.0
 40
11.0
 40
11.0
 40
11.0
 40
12.0
 40
12.0
 40
12.0
 40
13.0
 40
13.0
 40
13.0
 40
14.0
 40
14.0
 40
14.0
 40
15.0
 40
15.0
 40
15.0
 40
16.0
 40
16.0
 40
16.0
 40
16.0
 10
4.733561197916666
 20
42.41859944661458
 10
4.733561197916666
 20
42.41859944661458
 10
5.553493923611111
 20
42.41859944661458
 10
5.553493923611111
 20
42.41859944661458
 10
5.553493923611111
 20
42.41859944661458
 10
5.553493923611111
 20
35.01026611328125
 10
5.553493923611111
 20
35.01026611328125
 10
5.553493923611111
 20
35.01026611328125
 10
4.210251193576388
 20
35.01026611328125
 10
4.210251193576388
 20
35.01026611328125
 10
4.210251193576388
 20
35.01026611328125
 10
2.135614691840277
 20
40.93669162326388
 10
2.135614691840277
 20
40.93669162326388
 10
2.016758897569444
 20
41.27310519748264
 10
1.928219943576389
 20
41.60882975260417
 10
1.858973524305555
 20
42.05324707031249
 10
1.858973524305555
 20
42.05324707031249
 10
1.838991970486111
 20
42.05324707031249
 10
1.838991970486111
 20
42.05324707031249
 10
1.849327256944444
 20
41.67773166232639
 10
1.858973524305555
 20
41.29239773220485
 10
1.858973524305555
 20
40.91739908854166
 10
1.858973524305555
 20
40.91739908854166
 10
1.858973524305555
 20
35.01026611328125
 10
1.858973524305555
 20
35.01026611328125
 10
1.858973524305555
 20
35.01026611328125
 10
1.039040798611111
 20
35.01026611328125
 10
1.039040798611111
 20
35.01026611328125
 10
1.039040798611111
 20
35.01026611328125
 10
1.039040798611111
 20
42.41859944661458
 10
1.039040798611111
 20
42.41859944661458
 10
1.039040798611111
 20
42.41859944661458
 10
2.372637261284722
 20
42.41859944661458
 10
2.372637261284722
 20
42.41859944661458
 10
2.372637261284722
 20
42.41859944661458
 10
4.476557074652777
 20
36.35350884331597
 10
4.476557074652777
 20
36.35350884331597
 10
4.565268283420139
 20
36.12630479600694
 10
4.634686957465277
 20
35.8892822265625
 10
4.733561197916666
 20
35.54373914930555
 10
4.733561197916666
 20
35.54373914930555
 10
4.753370496961805
 20
35.54373914930555
 10
4.753370496961805
 20
35.54373914930555
 10
4.743207465277777
 20
35.81038953993055
 10
4.733561197916666
 20
36.09667697482639
 10
4.733561197916666
 20
36.37331814236111
 10
4.733561197916666
 20
36.37331814236111
 10
4.733561197916666
 20
42.41859944661458
 10
4.733561197916666
 20
42.41859944661458
 97
        0
 75
     0
 76
     1
 98
        1
 10
0.0
 20
0.0
  0
HATCH
  5
34
330
A
100
AcDbEntity
  8
LAYER_1
 62
     7
100
AcDbHatch
 10
0.0
 20
0.0
 30
0.0
210
0.0
220
0.0
230
1.0
  2
SOLID
 70
     1
 71
     0
 91
        1
 92
        1
 93
        1
 72
     4
 94
        3
 73
     0
 74
     0
 95
       53
 96
       49
 40
0.0
 40
0.0
 40
0.0
 40
0.0
 40
1.0
 40
1.0
 40
1.0
 40
2.0
 40
2.0
 40
2.0
 40
3.0
 40
3.0
 40
3.0
 40
4.0
 40
4.0
 40
4.0
 40
5.0
 40
5.0
 40
5.0
 40
6.0
 40
6.0
 40
6.0
 40
7.0
 40
7.0
 40
7.0
 40
8.0
 40
8.0
 40
8.0
 40
9.0
 40
9.0
 40
9.0
 40
10.0
 40
10.0
 40
10.0
 40
11.0
 40
11.0
 40
11.0
 40
12.0
 40
12.0
 40
12.0
 40
13.0
 40
13.0
 40
13.0
 40
14.0
 40
14.0
 40
14.0
 40
15.0
 40
15.0
 40
15.0
 40
16.0
 40
16.0
 40
16.0
 40
16.0
 10
11.56725260416667
 20
34.95118272569444
 10
11.56725260416667
 20
34.95118272569444
 10
10.93473307291667
 20
34.95118272569444
 10
10.93473307291667
 20
34.95118272569444
 10
10.93473307291667
 20
34.95118272569444
 10
10.93473307291667
 20
36.1063232421875
 10
10.93473307291667
 20
36.1063232421875
 10
10.93473307291667
 20
36.1063232421875
 10
10.91544053819444
 20
36.1063232421875
 10
10.91544053819444
 20
36.1063232421875
 10
10.69788275824653
 20
35.26709798177083
 10
10.03590766059028
 20
34.83232693142361
 10
9.216663953993054
 20
34.83232693142361
 10
7.013525390624999
 20
34.83232693142361
 10
6.845404730902777
 20
37.02513020833333
 10
6.845404730902777
 20
38.76386990017361
 10
6.845404730902777
 20
40.49227430555555
 10
7.151673719618055
 20
42.56691080729166
 10
9.295556640625
 20
42.56691080729166
 10
10.70804578993056
 20
42.56691080729166
 10
11.51781548394097
 20
41.64810384114583
 10
11.49800618489583
 20
40.26507025824652
 10
11.49800618489583
 20
40.26507025824652
 10
10.66842719184028
 20
40.26507025824652
 10
10.66842719184028
 20
40.26507025824652
 10
10.65878092447917
 20
41.17423095703125
 10
10.27344699435764
 20
41.80606146918402
 10
9.334830729166665
 20
41.82587076822917
 10
7.714774576822916
 20
41.85549858940972
 10
7.694965277777778
 20
39.99859212239583
 10
7.694965277777778
 20
38.73424207899305
 10
7.694965277777778
 20
37.60804036458333
 10
7.635709635416666
 20
35.64209662543402
 10
9.097808159722222
 20
35.57336697048611
 10
10.61881781684028
 20
35.50412055121527
 10
10.75765516493055
 20
36.89662814670139
 10
10.74731987847222
 20
38.07243923611111
 10
10.74731987847222
 20
38.07243923611111
 10
9.097808159722222
 20
38.07243923611111
 10
9.097808159722222
 20
38.07243923611111
 10
9.097808159722222
 20
38.07243923611111
 10
9.097808159722222
 20
38.8133070203993
 10
9.097808159722222
 20
38.8133070203993
 10
9.097808159722222
 20
38.8133070203993
 10
11.56725260416667
 20
38.8133070203993
 10
11.56725260416667
 20
38.8133070203993
 10
11.56725260416667
 20
38.8133070203993
 10
11.56725260416667
 20
34.95118272569444
 10
11.56725260416667
 20
34.95118272569444
 97
        0
 75
     0
 76
     1
 98
        1
 10
0.0
 20
0.0
  0
HATCH
  5
33
330
A
100
AcDbEntity
  8
LAYER_1
 62
     7
100
AcDbHatch
 10
0.0
 20
0.0
 30
0.0
210
0.0
220
0.0
230
1.0
  2
SOLID
 70
     1
 71
     0
 91
        1
 92
        1
 93
        1
 72
     4
 94
        3
 73
     0
 74
     0
 95
       23
 96
       19
 40
0.0
 40
0.0
 40
0.0
 40
0.0
 40
1.0
 40
1.0
 40
1.0
 40
2.0
 40
2.0
 40
2.0
 40
3.0
 40
3.0
 40
3.0
 40
4.0
 40
4.0
 40
4.0
 40
5.0
 40
5.0
 40
5.0
 40
6.0
 40
6.0
 40
6.0
 40
6.0
 10
13.16612141927083
 20
35.01026611328125
 10
13.16612141927083
 20
35.01026611328125
 10
13.16612141927083
 20
42.41859944661458
 10
13.16612141927083
 20
42.41859944661458
 10
13.16612141927083
 20
42.41859944661458
 10
13.98536512586805
 20
42.41859944661458
 10
13.98536512586805
 20
42.41859944661458
 10
13.98536512586805
 20
42.41859944661458
 10
13.98536512586805
 20
35.75113389756944
 10
13.98536512586805
 20
35.75113389756944
 10
13.98536512586805
 20
35.75113389756944
 10
17.00843641493055
 20
35.75113389756944
 10
17.00843641493055
 20
35.75113389756944
 10
17.00843641493055
 20
35.75113389756944
 10
17.00843641493055
 20
35.01026611328125
 10
17.00843641493055
 20
35.01026611328125
 10
17.00843641493055
 20
35.01026611328125
 10
13.16612141927083
 20
35.01026611328125
 10
13.16612141927083
 20
35.01026611328125
 97
        0
 75
     0
 76
     1
 98
        1
 10
0.0
 20
0.0
  0
HATCH
  5
32
330
A
100
AcDbEntity
  8
LAYER_1
 62
     7
100
AcDbHatch
 10
0.0
 20
0.0
 30
0.0
210
0.0
220
0.0
230
1.0
  2
SOLID
 70
     1
 71
     0
 91
        1
 92
        1
 93
        1
 72
     4
 94
        3
 73
     0
 74
     0
 95
       41
 96
       37
 40
0.0
 40
0.0
 40
0.0
 40
0.0
 40
1.0
 40
1.0
 40
1.0
 40
2.0
 40
2.0
 40
2.0
 40
3.0
 40
3.0
 40
3.0
 40
4.0
 40
4.0
 40
4.0
 40
5.0
 40
5.0
 40
5.0
 40
6.0
 40
6.0
 40
6.0
 40
7.0
 40
7.0
 40
7.0
 40
8.0
 40
8.0
 40
8.0
 40
9.0
 40
9.0
 40
9.0
 40
10.0
 40
10.0
 40
10.0
 40
11.0
 40
11.0
 40
11.0
 40
12.0
 40
12.0
 40
12.0
 40
12.0
 10
18.01578233506944
 20
35.01026611328125
 10
18.01578233506944
 20
35.01026611328125
 10
18.01578233506944
 20
42.41859944661458
 10
18.01578233506944
 20
42.41859944661458
 10
18.01578233506944
 20
42.41859944661458
 10
21.71994900173611
 20
42.41859944661458
 10
21.71994900173611
 20
42.41859944661458
 10
21.71994900173611
 20
42.41859944661458
 10
21.71994900173611
 20
41.67773166232639
 10
21.71994900173611
 20
41.67773166232639
 10
21.71994900173611
 20
41.67773166232639
 10
18.83571506076389
 20
41.67773166232639
 10
18.83571506076389
 20
41.67773166232639
 10
18.83571506076389
 20
41.67773166232639
 10
18.83571506076389
 20
39.22809651692708
 10
18.83571506076389
 20
39.22809651692708
 10
18.83571506076389
 20
39.22809651692708
 10
21.54218207465278
 20
39.22809651692708
 10
21.54218207465278
 20
39.22809651692708
 10
21.54218207465278
 20
39.22809651692708
 10
21.54218207465278
 20
38.48722873263888
 10
21.54218207465278
 20
38.48722873263888
 10
21.54218207465278
 20
38.48722873263888
 10
18.83571506076389
 20
38.48722873263888
 10
18.83571506076389
 20
38.48722873263888
 10
18.83571506076389
 20
38.48722873263888
 10
18.83571506076389
 20
35.75113389756944
 10
18.83571506076389
 20
35.75113389756944
 10
18.83571506076389
 20
35.75113389756944
 10
21.73993055555555
 20
35.75113389756944
 10
21.73993055555555
 20
35.75113389756944
 10
21.73993055555555
 20
35.75113389756944
 10
21.73993055555555
 20
35.01026611328125
 10
21.73993055555555
 20
35.01026611328125
 10
21.73993055555555
 20
35.01026611328125
 10
18.01578233506944
 20
35.01026611328125
 10
18.01578233506944
 20
35.01026611328125
 97
        0
 75
     0
 76
     1
 98
        1
 10
0.0
 20
0.0
  0
INSERT
  5
29
330
A
100
AcDbEntity
  8
LAYER_1
 62
     7
100
AcDbBlockReference
  2
AI9-BLK1
 10
30.36515774197049
 20
61.0290052625868
 30
0.0
  0
LWPOLYLINE
  5
22
330
A
100
AcDbEntity
  8
LAYER_1
 62
     7
100
AcDbPolyline
 90
        4
 70
     1
 43
0.0
 10
37.98183322482639
 20
72.51857096354166
 10
38.87755805121527
 20
73.59412977430554
 10
40.95632866753472
 20
71.51174180772568
 10
39.99480251736111
 20
70.49767795138888
  0
ENDSEC
  0
SECTION
  2
OBJECTS
  0
DICTIONARY
  5
19
330
0
100
AcDbDictionary
281
     1
  3
ACAD_GROUP
350
1A
  3
ACAD_LAYOUT
350
97
  3
ACAD_MLINESTYLE
350
1B
  3
ACAD_PLOTSETTINGS
350
98
  3
ACAD_PLOTSTYLENAME
350
95
  3
ACAD_TABLESTYLE
350
C9
  0
DICTIONARY
  5
1A
102
{ACAD_REACTORS
330
19
102
}
330
19
100
AcDbDictionary
281
     1
  0
DICTIONARY
  5
97
102
{ACAD_REACTORS
330
19
102
}
330
19
100
AcDbDictionary
281
     1
  3
Layout1
350
9A
  3
Model
350
99
  0
DICTIONARY
  5
1B
102
{ACAD_REACTORS
330
19
102
}
330
19
100
AcDbDictionary
281
     1
  3
STANDARD
350
1C
  0
DICTIONARY
  5
98
102
{ACAD_REACTORS
330
19
102
}
330
19
100
AcDbDictionary
281
     1
  0
ACDBDICTIONARYWDFLT
  5
95
102
{ACAD_REACTORS
330
19
102
}
330
19
100
AcDbDictionary
281
     1
  3
Normal
350
96
100
AcDbDictionaryWithDefault
340
96
  0
DICTIONARY
  5
C9
102
{ACAD_REACTORS
330
19
102
}
330
19
100
AcDbDictionary
281
     1
  0
LAYOUT
  5
9A
102
{ACAD_REACTORS
330
97
102
}
330
97
100
AcDbPlotSettings
  1

  2
Support Center HP LaserJet 4
  4

  6

 40
0.0
 41
0.0
 42
0.0
 43
0.0
 44
0.0
 45
0.0
 46
0.0
 47
0.0
 48
0.0
 49
0.0
140
0.0
141
0.0
142
1.0
143
1.0
 70
   688
 72
     0
 73
     0
 74
     5
  7

 75
    16
 76
     0
 77
     2
 78
   300
147
1.0
148
0.0
149
0.0
100
AcDbLayout
  1
Layout1
 70
     0
 71
     1
 10
0.0
 20
0.0
 11
12.0
 21
9.0
 12
0.0
 22
0.0
 32
0.0
 14
1.000000000000000E+20
 24
1.000000000000000E+20
 34
1.000000000000000E+20
 15
-1.000000000000000E+20
 25
-1.000000000000000E+20
 35
-1.000000000000000E+20
146
0.0
 13
0.0
 23
0.0
 33
0.0
 16
1.0
 26
0.0
 36
0.0
 17
0.0
 27
1.0
 37
0.0
 76
     0
330
B
  0
LAYOUT
  5
99
102
{ACAD_REACTORS
330
97
102
}
330
97
100
AcDbPlotSettings
  1

  2
Support Center HP LaserJet 4
  4

  6

 40
0.0
 41
0.0
 42
0.0
 43
0.0
 44
0.0
 45
0.0
 46
0.0
 47
0.0
 48
0.0
 49
0.0
140
0.0
141
0.0
142
1.0
143
1.0
 70
  1712
 72
     0
 73
     0
 74
     0
  7

 75
     0
 76
     0
 77
     2
 78
   300
147
1.0
148
0.0
149
0.0
100
AcDbLayout
  1
Model
 70
     1
 71
     0
 10
0.0
 20
0.0
 11
12.0
 21
9.0
 12
0.0
 22
0.0
 32
0.0
 14
0.0
 24
0.0
 34
0.0
 15
0.0
 25
0.0
 35
0.0
146
0.0
 13
0.0
 23
0.0
 33
0.0
 16
1.0
 26
0.0
 36
0.0
 17
0.0
 27
1.0
 37
0.0
 76
     0
330
A
331
9E
  0
MLINESTYLE
  5
1C
102
{ACAD_REACTORS
330
1B
102
}
330
1B
100
AcDbMlineStyle
  2
STANDARD
 70
     0
  3

 62
     0
 51
90.0000000000002
 52
90.0000000000002
 71
     2
 49
0.5
 62
   256
  6
BYLAYER
 49
-0.5
 62
   256
  6
BYLAYER
  0
ACDBPLACEHOLDER
  5
96
102
{ACAD_REACTORS
330
95
102
}
330
95
  0
ENDSEC
  0
EOF
