  0
SECTION
  2
HEADER
  9
$ACADVER
  1
AC1015
  9
$ACADMAINTVER
 70
     6
  9
$DWGCODEPAGE
  3
ANSI_1252
  9
$INSBASE
 10
0.0
 20
0.0
 30
0.0
  9
$EXTMIN
 10
50.84017699032165
 20
107.1622026446146
 30
-0.0015258207003612
  9
$EXTMAX
 10
161.9218569749006
 20
169.1943316504066
 30
0.0000000349246008
  9
$LIMMIN
 10
50.66512451171874
 20
106.9545396592882
  9
$LIMMAX
 10
162.0459228515625
 20
169.3829427083333
  9
$ORTHOMODE
 70
     1
  9
$REGENMODE
 70
     1
  9
$FILLMODE
 70
     1
  9
$QTEXTMODE
 70
     0
  9
$MIRRTEXT
 70
     1
  9
$LTSCALE
 40
1.0
  9
$ATTMODE
 70
     1
  9
$TEXTSIZE
 40
0.2
  9
$TRACEWID
 40
0.05
  9
$TEXTSTYLE
  7
Standard
  9
$CLAYER
  8
0
  9
$CELTYPE
  6
Continuous
  9
$CECOLOR
 62
   256
  9
$CELTSCALE
 40
1.0
  9
$DISPSILH
 70
     0
  9
$DIMSCALE
 40
1.0
  9
$DIMASZ
 40
0.18
  9
$DIMEXO
 40
0.0625
  9
$DIMDLI
 40
0.38
  9
$DIMRND
 40
0.0
  9
$DIMDLE
 40
0.0
  9
$DIMEXE
 40
0.18
  9
$DIMTP
 40
0.0
  9
$DIMTM
 40
0.0
  9
$DIMTXT
 40
0.18
  9
$DIMCEN
 40
0.09
  9
$DIMTSZ
 40
0.0
  9
$DIMTOL
 70
     0
  9
$DIMLIM
 70
     0
  9
$DIMTIH
 70
     1
  9
$DIMTOH
 70
     1
  9
$DIMSE1
 70
     0
  9
$DIMSE2
 70
     0
  9
$DIMTAD
 70
     0
  9
$DIMZIN
 70
     0
  9
$DIMBLK
  1

  9
$DIMASO
 70
     1
  9
$DIMSHO
 70
     1
  9
$DIMPOST
  1

  9
$DIMAPOST
  1

  9
$DIMALT
 70
     0
  9
$DIMALTD
 70
     2
  9
$DIMALTF
 40
25.4
  9
$DIMLFAC
 40
1.0
  9
$DIMTOFL
 70
     0
  9
$DIMTVP
 40
0.0
  9
$DIMTIX
 70
     0
  9
$DIMSOXD
 70
     0
  9
$DIMSAH
 70
     0
  9
$DIMBLK1
  1

  9
$DIMBLK2
  1

  9
$DIMSTYLE
  2
Standard
  9
$DIMCLRD
 70
     0
  9
$DIMCLRE
 70
     0
  9
$DIMCLRT
 70
     0
  9
$DIMTFAC
 40
1.0
  9
$DIMGAP
 40
0.09
  9
$DIMJUST
 70
     0
  9
$DIMSD1
 70
     0
  9
$DIMSD2
 70
     0
  9
$DIMTOLJ
 70
     1
  9
$DIMTZIN
 70
     0
  9
$DIMALTZ
 70
     0
  9
$DIMALTTZ
 70
     0
  9
$DIMUPT
 70
     0
  9
$DIMDEC
 70
     4
  9
$DIMTDEC
 70
     4
  9
$DIMALTU
 70
     2
  9
$DIMALTTD
 70
     2
  9
$DIMTXSTY
  7
Standard
  9
$DIMAUNIT
 70
     0
  9
$DIMADEC
 70
     0
  9
$DIMALTRND
 40
0.0
  9
$DIMAZIN
 70
     0
  9
$DIMDSEP
 70
     0
  9
$DIMATFIT
 70
     3
  9
$DIMFRAC
 70
     0
  9
$DIMLDRBLK
  1

  9
$DIMLUNIT
 70
     2
  9
$DIMLWD
 70
     0
  9
$DIMLWE
 70
     0
  9
$DIMTMOVE
 70
     0
  9
$LUNITS
 70
     2
  9
$LUPREC
 70
     4
  9
$SKETCHINC
 40
0.1
  9
$FILLETRAD
 40
0.0
  9
$AUNITS
 70
     0
  9
$AUPREC
 70
     0
  9
$MENU
  1
acad
  9
$ELEVATION
 40
0.0
  9
$PELEVATION
 40
0.0
  9
$THICKNESS
 40
0.0
  9
$LIMCHECK
 70
     0
  9
$CHAMFERA
 40
0.0
  9
$CHAMFERB
 40
0.0
  9
$CHAMFERC
 40
0.0
  9
$CHAMFERD
 40
0.0
  9
$SKPOLY
 70
     0
  9
$TDCREATE
 40
2452986.620744826
  9
$TDUCREATE
 40
2452986.95407816
  9
$TDUPDATE
 40
2452986.621486042
  9
$TDUUPDATE
 40
2452986.954819375
  9
$TDINDWG
 40
0.0007412153
  9
$TDUSRTIMER
 40
0.0007412153
  9
$USRTIMER
 70
     1
  9
$ANGBASE
 50
0.0
  9
$ANGDIR
 70
     0
  9
$PDMODE
 70
     0
  9
$PDSIZE
 40
0.0
  9
$PLINEWID
 40
0.0
  9
$SPLFRAME
 70
     0
  9
$SPLINETYPE
 70
     6
  9
$SPLINESEGS
 70
     8
  9
$HANDSEED
  5
1A1
  9
$SURFTAB1
 70
     6
  9
$SURFTAB2
 70
     6
  9
$SURFTYPE
 70
     6
  9
$SURFU
 70
     6
  9
$SURFV
 70
     6
  9
$UCSBASE
  2

  9
$UCSNAME
  2

  9
$UCSORG
 10
0.0
 20
0.0
 30
0.0
  9
$UCSXDIR
 10
1.0
 20
0.0
 30
0.0
  9
$UCSYDIR
 10
0.0
 20
1.0
 30
0.0
  9
$UCSORTHOREF
  2

  9
$UCSORTHOVIEW
 70
     0
  9
$UCSORGTOP
 10
0.0
 20
0.0
 30
0.0
  9
$UCSORGBOTTOM
 10
0.0
 20
0.0
 30
0.0
  9
$UCSORGLEFT
 10
0.0
 20
0.0
 30
0.0
  9
$UCSORGRIGHT
 10
0.0
 20
0.0
 30
0.0
  9
$UCSORGFRONT
 10
0.0
 20
0.0
 30
0.0
  9
$UCSORGBACK
 10
0.0
 20
0.0
 30
0.0
  9
$PUCSBASE
  2

  9
$PUCSNAME
  2

  9
$PUCSORG
 10
0.0
 20
0.0
 30
0.0
  9
$PUCSXDIR
 10
1.0
 20
0.0
 30
0.0
  9
$PUCSYDIR
 10
0.0
 20
1.0
 30
0.0
  9
$PUCSORTHOREF
  2

  9
$PUCSORTHOVIEW
 70
     0
  9
$PUCSORGTOP
 10
0.0
 20
0.0
 30
0.0
  9
$PUCSORGBOTTOM
 10
0.0
 20
0.0
 30
0.0
  9
$PUCSORGLEFT
 10
0.0
 20
0.0
 30
0.0
  9
$PUCSORGRIGHT
 10
0.0
 20
0.0
 30
0.0
  9
$PUCSORGFRONT
 10
0.0
 20
0.0
 30
0.0
  9
$PUCSORGBACK
 10
0.0
 20
0.0
 30
0.0
  9
$USERI1
 70
     0
  9
$USERI2
 70
     0
  9
$USERI3
 70
     0
  9
$USERI4
 70
     0
  9
$USERI5
 70
     0
  9
$USERR1
 40
0.0
  9
$USERR2
 40
0.0
  9
$USERR3
 40
0.0
  9
$USERR4
 40
0.0
  9
$USERR5
 40
0.0
  9
$WORLDVIEW
 70
     1
  9
$SHADEDGE
 70
     3
  9
$SHADEDIF
 70
    70
  9
$TILEMODE
 70
     1
  9
$MAXACTVP
 70
    16
  9
$PINSBASE
 10
0.0
 20
0.0
 30
0.0
  9
$PLIMCHECK
 70
     0
  9
$PEXTMIN
 10
1.000000000000000E+20
 20
1.000000000000000E+20
 30
1.000000000000000E+20
  9
$PEXTMAX
 10
-1.000000000000000E+20
 20
-1.000000000000000E+20
 30
-1.000000000000000E+20
  9
$PLIMMIN
 10
0.0
 20
0.0
  9
$PLIMMAX
 10
12.0
 20
9.0
  9
$UNITMODE
 70
     0
  9
$VISRETAIN
 70
     0
  9
$PLINEGEN
 70
     1
  9
$PSLTSCALE
 70
     0
  9
$TREEDEPTH
 70
  3020
  9
$CMLSTYLE
  2
Standard
  9
$CMLJUST
 70
     0
  9
$CMLSCALE
 40
1.0
  9
$PROXYGRAPHICS
 70
     0
  9
$MEASUREMENT
 70
     0
  9
$CELWEIGHT
370
     0
  9
$ENDCAPS
280
     0
  9
$JOINSTYLE
280
     0
  9
$LWDISPLAY
290
     0
  9
$INSUNITS
 70
     0
  9
$HYPERLINKBASE
  1

  9
$STYLESHEET
  1

  9
$XEDIT
290
     1
  9
$CEPSNTYPE
380
     0
  9
$PSTYLEMODE
290
     1
  9
$FINGERPRINTGUID
  2

  9
$VERSIONGUID
  2
{B05F2E6D-B3EC-48F9-A2E7-9E1621C30302}
  9
$EXTNAMES
290
     1
  9
$PSVPSCALE
 40
0.0
  9
$OLESTARTUP
290
     0
  0
ENDSEC
  0
SECTION
  2
CLASSES
  0
CLASS
  1
LWPOLYLINE
  2
AcDbPolyline
  3
AutoCAD 2000
 90
        0
280
     0
281
     1
  0
CLASS
  1
IMAGE
  2
AcDbRasterImage
  3
ISM
 90
      127
280
     0
281
     1
  0
CLASS
  1
OLE2FRAME
  2
AcDbOle2Frame
  3
AutoCAD 2000
 90
        0
280
     0
281
     1
  0
CLASS
  1
HATCH
  2
AcDbHatch
  3
AutoCAD 2000
 90
        0
280
     0
281
     1
  0
CLASS
  1
DICTIONARYVAR
  2
AcDbDictionaryVar
  3
AutoCAD 2000
 90
        0
280
     0
281
     0
  0
CLASS
  1
RASTERVARIABLES
  2
AcDbRasterVariables
  3
ISM
 90
        0
280
     0
281
     0
  0
CLASS
  1
IMAGEDEF
  2
AcDbRasterImageDef
  3
ISM
 90
        0
280
     0
281
     0
  0
CLASS
  1
IMAGEDEF_REACTOR
  2
AcDbRasterImageDefReactor
  3
ISM
 90
        1
280
     0
281
     0
  0
CLASS
  1
IDBUFFER
  2
AcDbIdBuffer
  3
AutoCAD 2000
 90
        0
280
     0
281
     0
  0
CLASS
  1
SPATIAL_FILTER
  2
AcDbSpatialFilter
  3
AutoCAD 2000
 90
        0
280
     0
281
     0
  0
CLASS
  1
XRECORD
  2
AcDbXrecord
  3
AutoCAD 2000
 90
        0
280
     0
281
     0
  0
CLASS
  1
SORTENTSTABLE
  2
AcDbSortentsTable
  3
AutoCAD 2000
 90
        0
280
     0
281
     0
  0
CLASS
  1
LAYER_INDEX
  2
AcDbLayerIndex
  3
AutoCAD 2000
 90
        0
280
     0
281
     0
  0
CLASS
  1
SPATIAL_INDEX
  2
AcDbSpatialIndex
  3
AutoCAD 2000
 90
        0
280
     0
281
     0
  0
CLASS
  1
OBJECT_PTR
  2
CAseDLPNTableRecord
  3
ASE-LPNTableRecord
 90
        1
280
     1
281
     0
  0
CLASS
  1
LAYOUT
  2
AcDbLayout
  3
ObjectDBX Classes
 90
        0
280
     0
281
     0
  0
CLASS
  1
PLOTSETTINGS
  2
AcDbPlotSettings
  3
AutoCAD 2000
 90
        0
280
     0
281
     0
  0
CLASS
  1
ACDBDICTIONARYWDFLT
  2
AcDbDictionaryWithDefault
  3
AutoCAD 2000
 90
        0
280
     0
281
     0
  0
CLASS
  1
ACDBPLACEHOLDER
  2
AcDbPlaceHolder
  3
ObjectDBX Classes
 90
        0
280
     0
281
     0
  0
CLASS
  1
VBAPROJECT
  2
AcDbVbaProject
  3
ObjectDBX Classes
 90
        0
280
     0
281
     0
  0
CLASS
  1
WIPEOUT
  2
AcDbWipeout
  3
WipeOut|AutoCAD Express Tool|expresstools@autodesk.com
 90
      127
280
     0
281
     1
  0
CLASS
  1
WIPEOUTVARIABLES
  2
AcDbWipeoutVariables
  3
WipeOut|AutoCAD Express Tool|expresstools@autodesk.com
 90
        0
280
     0
281
     0
  0
CLASS
  1
RTEXT
  2
RText
  3
RText|AutoCAD Express Tool|expresstools@autodesk.com
 90
        0
280
     0
281
     1
  0
CLASS
  1
ARCALIGNEDTEXT
  2
AcDbArcAlignedText
  3
ATEXT|AutoCAD Express Tool|expresstools@autodesk.com
 90
        0
280
     0
281
     1
  0
CLASS
  1
LONG_TRANSACTION
  2
AcDbLongTransaction
  3
AutoCAD 2000
 90
        0
280
     1
281
     0
  0
CLASS
  1
LWPOLYLINE
  2
AcDbPolyline
  3
AutoCAD 2000
 90
        0
280
     0
281
     1
  0
CLASS
  1
HATCH
  2
AcDbHatch
  3
AutoCAD 2000
 90
        0
280
     0
281
     1
  0
CLASS
  1
XRECORD
  2
AcDbXrecord
  3
AutoCAD 2000
 90
        0
280
     0
281
     0
  0
ENDSEC
  0
SECTION
  2
TABLES
  0
TABLE
  2
VPORT
  5
7
330
0
100
AcDbSymbolTable
 70
     3
  0
VPORT
  5
162
330
7
100
AcDbSymbolTableRecord
100
AcDbViewportTableRecord
  2
*Active
 70
     0
 10
0.0
 20
0.0
 11
1.0
 21
1.0
 12
113.9778314718092
 22
144.7664160698716
 13
0.0
 23
0.0
 14
1.0
 24
1.0
 15
0.0
 25
0.0
 16
0.0
 26
0.0
 36
1.0
 17
0.0
 27
0.0
 37
0.0
 40
83.71058403443199
 41
1.714673913043478
 42
50.0
 43
0.0
 44
0.0
 50
0.0
 51
0.0
 71
     0
 72
   100
 73
     1
 74
     1
 75
     0
 76
     0
 77
     0
 78
     0
281
     0
 65
     1
110
0.0
120
0.0
130
0.0
111
1.0
121
0.0
131
0.0
112
0.0
122
1.0
132
0.0
 79
     0
146
0.0
  0
ENDTAB
  0
TABLE
  2
LTYPE
  5
4
330
0
100
AcDbSymbolTable
 70
     1
  0
LTYPE
  5
11
330
4
100
AcDbSymbolTableRecord
100
AcDbLinetypeTableRecord
  2
ByBlock
 70
     0
  3

 72
    65
 73
     0
 40
0.0
  0
LTYPE
  5
12
330
4
100
AcDbSymbolTableRecord
100
AcDbLinetypeTableRecord
  2
ByLayer
 70
     0
  3

 72
    65
 73
     0
 40
0.0
  0
LTYPE
  5
13
330
4
100
AcDbSymbolTableRecord
100
AcDbLinetypeTableRecord
  2
Continuous
 70
     0
  3
Solid line
 72
    65
 73
     0
 40
0.0
  0
ENDTAB
  0
TABLE
  2
LAYER
  5
2
330
0
100
AcDbSymbolTable
 70
     3
  0
LAYER
  5
14
330
2
100
AcDbSymbolTableRecord
100
AcDbLayerTableRecord
  2
0
 70
     0
 62
     7
  6
Continuous
370
    -3
390
0
  0
LAYER
  5
28
330
2
100
AcDbSymbolTableRecord
100
AcDbLayerTableRecord
  2
HRS8
 70
     0
 62
     3
  6
Continuous
370
    -3
390
0
  0
LAYER
  5
A1
330
2
100
AcDbSymbolTableRecord
100
AcDbLayerTableRecord
  2
WOOD
 70
     0
 62
   160
  6
Continuous
370
    -3
390
0
  0
ENDTAB
  0
TABLE
  2
STYLE
  5
3
330
0
100
AcDbSymbolTable
 70
     5
  0
STYLE
  5
17
330
3
100
AcDbSymbolTableRecord
100
AcDbTextStyleTableRecord
  2
Standard
 70
     0
 40
0.0
 41
1.0
 50
0.0
 71
     0
 42
0.2
  3
txt
  4

  0
ENDTAB
  0
TABLE
  2
VIEW
  5
5
330
0
100
AcDbSymbolTable
 70
     0
  0
ENDTAB
  0
TABLE
  2
UCS
  5
6
330
0
100
AcDbSymbolTable
 70
     0
  0
ENDTAB
  0
TABLE
  2
APPID
  5
8
330
0
100
AcDbSymbolTable
 70
     1
  0
APPID
  5
16
330
8
100
AcDbSymbolTableRecord
100
AcDbRegAppTableRecord
  2
ACAD
 70
     0
  0
ENDTAB
  0
TABLE
  2
DIMSTYLE
  5
9
330
0
100
AcDbSymbolTable
 70
     1
100
AcDbDimStyleTable
  0
DIMSTYLE
105
18
330
9
100
AcDbSymbolTableRecord
100
AcDbDimStyleTableRecord
  2
Standard
 70
     0
  3

  4

289
     0
340
17
  0
ENDTAB
  0
TABLE
  2
BLOCK_RECORD
  5
1
330
0
100
AcDbSymbolTable
 70
    13
  0
BLOCK_RECORD
  5
A
330
1
100
AcDbSymbolTableRecord
100
AcDbBlockTableRecord
  2
*MODEL_SPACE
340
20
  0
BLOCK_RECORD
  5
B
330
1
100
AcDbSymbolTableRecord
100
AcDbBlockTableRecord
  2
*PAPER_SPACE
340
21
  0
BLOCK_RECORD
  5
29
330
1
100
AcDbSymbolTableRecord
100
AcDbBlockTableRecord
  2
AI9-BLK1
340
0
102
{BLKREFS
331
2A
102
}
  0
BLOCK_RECORD
  5
3F
330
1
100
AcDbSymbolTableRecord
100
AcDbBlockTableRecord
  2
AI9-BLK2
340
0
102
{BLKREFS
331
40
102
}
  0
BLOCK_RECORD
  5
45
330
1
100
AcDbSymbolTableRecord
100
AcDbBlockTableRecord
  2
AI9-BLK3
340
0
102
{BLKREFS
331
46
102
}
  0
BLOCK_RECORD
  5
4B
330
1
100
AcDbSymbolTableRecord
100
AcDbBlockTableRecord
  2
AI9-BLK4
340
0
102
{BLKREFS
331
4C
102
}
  0
BLOCK_RECORD
  5
51
330
1
100
AcDbSymbolTableRecord
100
AcDbBlockTableRecord
  2
AI9-BLK5
340
0
102
{BLKREFS
331
52
102
}
  0
BLOCK_RECORD
  5
57
330
1
100
AcDbSymbolTableRecord
100
AcDbBlockTableRecord
  2
AI9-BLK6
340
0
102
{BLKREFS
331
58
102
}
  0
BLOCK_RECORD
  5
5D
330
1
100
AcDbSymbolTableRecord
100
AcDbBlockTableRecord
  2
AI9-BLK7
340
0
102
{BLKREFS
331
5E
102
}
  0
BLOCK_RECORD
  5
63
330
1
100
AcDbSymbolTableRecord
100
AcDbBlockTableRecord
  2
AI9-BLK8
340
0
102
{BLKREFS
331
64
102
}
  0
BLOCK_RECORD
  5
69
330
1
100
AcDbSymbolTableRecord
100
AcDbBlockTableRecord
  2
AI9-BLK9
340
0
102
{BLKREFS
331
6A
102
}
  0
BLOCK_RECORD
  5
6F
330
1
100
AcDbSymbolTableRecord
100
AcDbBlockTableRecord
  2
AI9-BLK10
340
0
102
{BLKREFS
331
70
102
}
  0
BLOCK_RECORD
  5
75
330
1
100
AcDbSymbolTableRecord
100
AcDbBlockTableRecord
  2
AI9-BLK11
340
0
102
{BLKREFS
331
76
102
}
  0
BLOCK_RECORD
  5
92
330
1
100
AcDbSymbolTableRecord
100
AcDbBlockTableRecord
  2
AI9-BLK13
340
0
102
{BLKREFS
331
93
102
}
  0
ENDTAB
  0
ENDSEC
  0
SECTION
  2
BLOCKS
  0
BLOCK
  5
D
330
A
100
AcDbEntity
  8
0
100
AcDbBlockBegin
  2
*MODEL_SPACE
 70
     0
 10
0.0
 20
0.0
 30
0.0
  3
*MODEL_SPACE
  1

  4

  0
ENDBLK
  5
E
330
A
100
AcDbEntity
  8
0
100
AcDbBlockEnd
  0
BLOCK
  5
F
330
B
100
AcDbEntity
 67
     1
  8
0
100
AcDbBlockBegin
  2
*PAPER_SPACE
 70
     0
 10
0.0
 20
0.0
 30
0.0
  3
*PAPER_SPACE
  1

  4

  0
ENDBLK
  5
10
330
B
100
AcDbEntity
 67
     1
  8
0
100
AcDbBlockEnd
  0
BLOCK
  5
2B
330
29
100
AcDbEntity
  8
HRS8
 62
     7
100
AcDbBlockBegin
  2
AI9-BLK1
 70
     0
 10
0.0
 20
0.0
 30
0.0
  3
AI9-BLK1
  1

  4

  0
HATCH
  5
3D
330
29
100
AcDbEntity
  8
HRS8
 62
     7
100
AcDbHatch
 10
0.0
 20
0.0
 30
0.0
210
0.0
220
0.0
230
1.0
  2
SOLID
 70
     1
 71
     0
 91
        1
 92
        1
 93
        1
 72
     4
 94
        3
 73
     0
 74
     0
 95
       56
 96
       52
 40
0.0
 40
0.0
 40
0.0
 40
0.0
 40
1.0
 40
1.0
 40
1.0
 40
2.0
 40
2.0
 40
2.0
 40
3.0
 40
3.0
 40
3.0
 40
4.0
 40
4.0
 40
4.0
 40
5.0
 40
5.0
 40
5.0
 40
6.0
 40
6.0
 40
6.0
 40
7.0
 40
7.0
 40
7.0
 40
8.0
 40
8.0
 40
8.0
 40
9.0
 40
9.0
 40
9.0
 40
10.0
 40
10.0
 40
10.0
 40
11.0
 40
11.0
 40
11.0
 40
12.0
 40
12.0
 40
12.0
 40
13.0
 40
13.0
 40
13.0
 40
14.0
 40
14.0
 40
14.0
 40
15.0
 40
15.0
 40
15.0
 40
16.0
 40
16.0
 40
16.0
 40
17.0
 40
17.0
 40
17.0
 40
17.0
 10
-3.594957139756944
 20
2.180228678385416
 10
-3.604603407118055
 20
2.39830322265625
 10
-3.785643174913194
 20
2.520259602864583
 10
-3.945151095920139
 20
2.567801920572916
 10
-4.065040418836805
 20
2.603975423177083
 10
-4.26795654296875
 20
2.631880696614583
 10
-4.26795654296875
 20
2.420351833767361
 10
-4.26795654296875
 20
2.301840549045139
 10
-4.183207194010416
 20
2.237761773003472
 10
-4.100697157118055
 20
2.193320041232639
 10
-4.100697157118055
 20
2.193320041232639
 10
-3.697104220920139
 20
1.981446668836805
 10
-3.697104220920139
 20
1.981446668836805
 10
-3.513997395833333
 20
1.884639485677083
 10
-3.376365831163194
 20
1.734433322482639
 10
-3.376365831163194
 20
1.513258192274305
 10
-3.376365831163194
 20
1.183562554253472
 10
-3.687285698784722
 20
1.185285101996528
 10
-3.929303656684028
 20
1.257632107204861
 10
-4.191303168402778
 20
1.335835774739583
 10
-4.293450249565971
 20
1.443667263454861
 10
-4.356495496961805
 20
1.519459364149306
 10
-4.476384819878472
 20
1.661397298177083
 10
-4.500155978732638
 20
1.785420735677083
 10
-4.500155978732638
 20
1.915645345052083
 10
-4.500155978732638
 20
1.915645345052083
 10
-4.321355523003472
 20
1.86190185546875
 10
-4.321355523003472
 20
1.86190185546875
 10
-4.321355523003472
 20
1.609376356336805
 10
-4.112410481770833
 20
1.473295084635417
 10
-3.931370713975694
 20
1.419207085503472
 10
-3.79356689453125
 20
1.377865939670139
 10
-3.561367458767361
 20
1.343759494357639
 10
-3.561367458767361
 20
1.543575032552083
 10
-3.561367458767361
 20
1.688958062065972
 10
-3.630269368489583
 20
1.756137424045139
 10
-3.862468804253472
 20
1.879816351996528
 10
-3.862468804253472
 20
1.879816351996528
 10
-4.15202907986111
 20
2.03243408203125
 10
-4.15202907986111
 20
2.03243408203125
 10
-4.244185384114583
 20
2.081354437934027
 10
-4.452958170572916
 20
2.207789442274305
 10
-4.452958170572916
 20
2.450324164496528
 10
-4.452958170572916
 20
2.667709689670139
 10
-4.309297688802083
 20
2.837897406684028
 10
-3.966682942708333
 20
2.735922580295139
 10
-3.472828504774305
 20
2.587783474392361
 10
-3.423563639322917
 20
2.282203504774305
 10
-3.415639919704861
 20
2.126485188802083
 10
-3.415639919704861
 20
2.126485188802083
 10
-3.594957139756944
 20
2.180228678385416
 10
-3.594957139756944
 20
2.180228678385416
 97
        0
 75
     0
 76
     1
 98
        1
 10
0.0
 20
0.0
  0
HATCH
  5
3C
330
29
100
AcDbEntity
  8
HRS8
 62
     7
100
AcDbHatch
 10
0.0
 20
0.0
 30
0.0
210
0.0
220
0.0
230
1.0
  2
SOLID
 70
     1
 71
     0
 91
        1
 92
       16
 93
        1
 72
     4
 94
        3
 73
     0
 74
     0
 95
       17
 96
       13
 40
0.0
 40
0.0
 40
0.0
 40
0.0
 40
1.0
 40
1.0
 40
1.0
 40
2.0
 40
2.0
 40
2.0
 40
3.0
 40
3.0
 40
3.0
 40
4.0
 40
4.0
 40
4.0
 40
4.0
 10
-2.913689507378472
 20
2.384178331163194
 10
-2.913689507378472
 20
2.384178331163194
 10
-3.104720052083333
 20
2.441022406684028
 10
-3.104720052083333
 20
2.441022406684028
 10
-3.104720052083333
 20
2.441022406684028
 10
-3.104720052083333
 20
1.047825792100694
 10
-3.104720052083333
 20
1.047825792100694
 10
-3.104720052083333
 20
1.047825792100694
 10
-2.913689507378472
 20
0.990981716579861
 10
-2.913689507378472
 20
0.990981716579861
 10
-2.913689507378472
 20
0.990981716579861
 10
-2.913689507378472
 20
2.384178331163194
 10
-2.913689507378472
 20
2.384178331163194
 97
        0
 75
     0
 76
     1
 98
        1
 10
0.0
 20
0.0
  0
HATCH
  5
3B
330
29
100
AcDbEntity
  8
HRS8
 62
     7
100
AcDbHatch
 10
0.0
 20
0.0
 30
0.0
210
0.0
220
0.0
230
1.0
  2
SOLID
 70
     1
 71
     0
 91
        1
 92
        1
 93
        1
 72
     4
 94
        3
 73
     0
 74
     0
 95
       59
 96
       55
 40
0.0
 40
0.0
 40
0.0
 40
0.0
 40
1.0
 40
1.0
 40
1.0
 40
2.0
 40
2.0
 40
2.0
 40
3.0
 40
3.0
 40
3.0
 40
4.0
 40
4.0
 40
4.0
 40
5.0
 40
5.0
 40
5.0
 40
6.0
 40
6.0
 40
6.0
 40
7.0
 40
7.0
 40
7.0
 40
8.0
 40
8.0
 40
8.0
 40
9.0
 40
9.0
 40
9.0
 40
10.0
 40
10.0
 40
10.0
 40
11.0
 40
11.0
 40
11.0
 40
12.0
 40
12.0
 40
12.0
 40
13.0
 40
13.0
 40
13.0
 40
14.0
 40
14.0
 40
14.0
 40
15.0
 40
15.0
 40
15.0
 40
16.0
 40
16.0
 40
16.0
 40
17.0
 40
17.0
 40
17.0
 40
18.0
 40
18.0
 40
18.0
 40
18.0
 10
-1.423857964409722
 20
0.5455308702256944
 10
-1.423857964409722
 20
0.5455308702256944
 10
-1.423857964409722
 20
1.368219672309028
 10
-1.423857964409722
 20
1.368219672309028
 10
-1.423857964409722
 20
1.408871799045139
 10
-1.419723849826389
 20
1.584227159288194
 10
-1.419723849826389
 20
1.714451768663194
 10
-1.419723849826389
 20
1.714451768663194
 10
-1.423857964409722
 20
1.715485297309028
 10
-1.423857964409722
 20
1.715485297309028
 10
-1.423857964409722
 20
1.715485297309028
 10
-1.821421983506944
 20
0.6643866644965277
 10
-1.821421983506944
 20
0.6643866644965277
 10
-1.821421983506944
 20
0.6643866644965277
 10
-2.010385470920139
 20
0.7208862304687499
 10
-2.010385470920139
 20
0.7208862304687499
 10
-2.010385470920139
 20
0.7208862304687499
 10
-2.407949490017361
 20
2.00762939453125
 10
-2.407949490017361
 20
2.00762939453125
 10
-2.407949490017361
 20
2.00762939453125
 10
-2.411739095052083
 20
2.008662923177083
 10
-2.411739095052083
 20
2.008662923177083
 10
-2.411739095052083
 20
1.880849880642361
 10
-2.407949490017361
 20
1.703082953559028
 10
-2.407949490017361
 20
1.662430826822916
 10
-2.407949490017361
 20
1.662430826822916
 10
-2.407949490017361
 20
0.8397420247395833
 10
-2.407949490017361
 20
0.8397420247395833
 10
-2.407949490017361
 20
0.8397420247395833
 10
-2.592951117621527
 20
0.8952080620659721
 10
-2.592951117621527
 20
0.8952080620659721
 10
-2.592951117621527
 20
0.8952080620659721
 10
-2.592951117621527
 20
2.288404676649305
 10
-2.592951117621527
 20
2.288404676649305
 10
-2.592951117621527
 20
2.288404676649305
 10
-2.319410536024305
 20
2.206411404079861
 10
-2.319410536024305
 20
2.206411404079861
 10
-2.319410536024305
 20
2.206411404079861
 10
-1.915817599826389
 20
0.9079549153645833
 10
-1.915817599826389
 20
0.9079549153645833
 10
-1.915817599826389
 20
0.9079549153645833
 10
-1.912027994791667
 20
0.9065768771701388
 10
-1.912027994791667
 20
0.9065768771701388
 10
-1.912027994791667
 20
0.9065768771701388
 10
-1.510329861111111
 20
1.964565700954861
 10
-1.510329861111111
 20
1.964565700954861
 10
-1.510329861111111
 20
1.964565700954861
 10
-1.238856336805555
 20
1.88360595703125
 10
-1.238856336805555
 20
1.88360595703125
 10
-1.238856336805555
 20
1.88360595703125
 10
-1.238856336805555
 20
0.4904093424479166
 10
-1.238856336805555
 20
0.4904093424479166
 10
-1.238856336805555
 20
0.4904093424479166
 10
-1.423857964409722
 20
0.5455308702256944
 10
-1.423857964409722
 20
0.5455308702256944
 97
        0
 75
     0
 76
     1
 98
        1
 10
0.0
 20
0.0
  0
HATCH
  5
3A
330
29
100
AcDbEntity
  8
HRS8
 62
     7
100
AcDbHatch
 10
0.0
 20
0.0
 30
0.0
210
0.0
220
0.0
230
1.0
  2
SOLID
 70
     1
 71
     0
 91
        2
 92
        1
 93
        1
 72
     4
 94
        3
 73
     0
 74
     0
 95
       20
 96
       16
 40
0.0
 40
0.0
 40
0.0
 40
0.0
 40
1.0
 40
1.0
 40
1.0
 40
2.0
 40
2.0
 40
2.0
 40
3.0
 40
3.0
 40
3.0
 40
4.0
 40
4.0
 40
4.0
 40
5.0
 40
5.0
 40
5.0
 40
5.0
 10
-0.7369059244791666
 20
1.572169325086805
 10
-0.7369059244791666
 20
1.572169325086805
 10
-0.3491604275173611
 20
1.456414116753472
 10
-0.3491604275173611
 20
1.456414116753472
 10
-0.1915473090277778
 20
1.40921630859375
 10
-0.06976318359375
 20
1.316543240017361
 10
-0.06976318359375
 20
1.139809841579861
 10
-0.06976318359375
 20
0.9517076280381943
 10
-0.1858629014756944
 20
0.9244913736979166
 10
-0.3569118923611111
 20
0.975478786892361
 10
-0.3569118923611111
 20
0.975478786892361
 10
-0.7369059244791666
 20
1.089166937934028
 10
-0.7369059244791666
 20
1.089166937934028
 10
-0.7369059244791666
 20
1.089166937934028
 10
-0.7369059244791666
 20
1.572169325086805
 10
-0.7369059244791666
 20
1.572169325086805
 97
        0
 92
       16
 93
        1
 72
     4
 94
        3
 73
     0
 74
     0
 95
       26
 96
       22
 40
0.0
 40
0.0
 40
0.0
 40
0.0
 40
1.0
 40
1.0
 40
1.0
 40
2.0
 40
2.0
 40
2.0
 40
3.0
 40
3.0
 40
3.0
 40
4.0
 40
4.0
 40
4.0
 40
5.0
 40
5.0
 40
5.0
 40
6.0
 40
6.0
 40
6.0
 40
7.0
 40
7.0
 40
7.0
 40
7.0
 10
-0.7369059244791666
 20
0.9279364691840277
 10
-0.7369059244791666
 20
0.9279364691840277
 10
-0.2919718424479166
 20
0.7946112738715278
 10
-0.2919718424479166
 20
0.7946112738715278
 10
0.0149861653645833
 20
0.7029717339409721
 10
0.1272962782118055
 20
0.8890068901909721
 10
0.1272962782118055
 20
1.082965766059028
 10
0.1272962782118055
 20
1.307930501302083
 10
-0.0303168402777778
 20
1.522215440538194
 10
-0.2919718424479166
 20
1.600074598524305
 10
-0.2919718424479166
 20
1.600074598524305
 10
-0.9279364691840277
 20
1.79058837890625
 10
-0.9279364691840277
 20
1.79058837890625
 10
-0.9279364691840277
 20
1.79058837890625
 10
-0.9279364691840277
 20
0.3973917643229166
 10
-0.9279364691840277
 20
0.3973917643229166
 10
-0.9279364691840277
 20
0.3973917643229166
 10
-0.7369059244791666
 20
0.3402031792534722
 10
-0.7369059244791666
 20
0.3402031792534722
 10
-0.7369059244791666
 20
0.3402031792534722
 10
-0.7369059244791666
 20
0.9279364691840277
 10
-0.7369059244791666
 20
0.9279364691840277
 97
        0
 75
     0
 76
     1
 98
        1
 10
0.0
 20
0.0
  0
HATCH
  5
39
330
29
100
AcDbEntity
  8
HRS8
 62
     7
100
AcDbHatch
 10
0.0
 20
0.0
 30
0.0
210
0.0
220
0.0
230
1.0
  2
SOLID
 70
     1
 71
     0
 91
        1
 92
        1
 93
        1
 72
     4
 94
        3
 73
     0
 74
     0
 95
       56
 96
       52
 40
0.0
 40
0.0
 40
0.0
 40
0.0
 40
1.0
 40
1.0
 40
1.0
 40
2.0
 40
2.0
 40
2.0
 40
3.0
 40
3.0
 40
3.0
 40
4.0
 40
4.0
 40
4.0
 40
5.0
 40
5.0
 40
5.0
 40
6.0
 40
6.0
 40
6.0
 40
7.0
 40
7.0
 40
7.0
 40
8.0
 40
8.0
 40
8.0
 40
9.0
 40
9.0
 40
9.0
 40
10.0
 40
10.0
 40
10.0
 40
11.0
 40
11.0
 40
11.0
 40
12.0
 40
12.0
 40
12.0
 40
13.0
 40
13.0
 40
13.0
 40
14.0
 40
14.0
 40
14.0
 40
15.0
 40
15.0
 40
15.0
 40
16.0
 40
16.0
 40
16.0
 40
17.0
 40
17.0
 40
17.0
 40
17.0
 10
1.217668999565972
 20
0.7415568033854166
 10
1.207850477430555
 20
0.9596313476562499
 10
1.026466200086805
 20
1.081932237413194
 10
0.8673027886284721
 20
1.129474555121528
 10
0.7470689561631944
 20
1.165303548177083
 10
0.5444973415798611
 20
1.193208821614583
 10
0.5444973415798611
 20
0.981679958767361
 10
0.5444973415798611
 20
0.8631686740451389
 10
0.6290744357638889
 20
0.7990898980034722
 10
0.7115844726562499
 20
0.75499267578125
 10
0.7115844726562499
 20
0.75499267578125
 10
1.115349663628472
 20
0.5431193033854166
 10
1.115349663628472
 20
0.5431193033854166
 10
1.298111979166667
 20
0.4459676106770833
 10
1.436088053385417
 20
0.2957614474826389
 10
1.436088053385417
 20
0.0745863172743056
 10
1.436088053385417
 20
-0.2551093207465278
 10
1.125168185763889
 20
-0.2533867730034722
 10
0.8829779730902777
 20
-0.1810397677951389
 10
0.6211507161458333
 20
-0.1024915907118056
 10
0.5188313802083333
 20
0.0056844075520833
 10
0.4559583875868055
 20
0.0807874891493055
 10
0.3360690646701389
 20
0.2230699327256944
 10
0.3122979058159722
 20
0.3467488606770833
 10
0.3122979058159722
 20
0.4769734700520833
 10
0.3122979058159722
 20
0.4769734700520833
 10
0.49144287109375
 20
0.42322998046875
 10
0.49144287109375
 20
0.42322998046875
 10
0.49144287109375
 20
0.1707044813368056
 10
0.7000434027777778
 20
0.0346232096354167
 10
0.880910915798611
 20
-0.0194647894965278
 10
1.018886990017361
 20
-0.06046142578125
 10
1.250914171006944
 20
-0.0949123806423611
 10
1.250914171006944
 20
0.1049031575520833
 10
1.250914171006944
 20
0.2502861870659722
 10
1.182184516059028
 20
0.3174655490451389
 10
0.9499850802951388
 20
0.4411444769965278
 10
0.9499850802951388
 20
0.4411444769965278
 10
0.6605970594618055
 20
0.5937622070312499
 10
0.6605970594618055
 20
0.5937622070312499
 10
0.5679239908854166
 20
0.6430270724826388
 10
0.3594957139756944
 20
0.7691175672743055
 10
0.3594957139756944
 20
1.011652289496528
 10
0.3594957139756944
 20
1.229037814670139
 10
0.5031561957465277
 20
1.399570041232639
 10
0.8455986870659722
 20
1.297250705295139
 10
1.339625379774305
 20
1.149456108940972
 10
1.388717990451389
 20
0.8438761393229166
 10
1.396641710069444
 20
0.6881578233506944
 10
1.396641710069444
 20
0.6881578233506944
 10
1.217668999565972
 20
0.7415568033854166
 10
1.217668999565972
 20
0.7415568033854166
 97
        0
 75
     0
 76
     1
 98
        1
 10
0.0
 20
0.0
  0
HATCH
  5
38
330
29
100
AcDbEntity
  8
HRS8
 62
     7
100
AcDbHatch
 10
0.0
 20
0.0
 30
0.0
210
0.0
220
0.0
230
1.0
  2
SOLID
 70
     1
 71
     0
 91
        2
 92
       16
 93
        1
 72
     4
 94
        3
 73
     0
 74
     0
 95
       17
 96
       13
 40
0.0
 40
0.0
 40
0.0
 40
0.0
 40
1.0
 40
1.0
 40
1.0
 40
2.0
 40
2.0
 40
2.0
 40
3.0
 40
3.0
 40
3.0
 40
4.0
 40
4.0
 40
4.0
 40
4.0
 10
2.294261338975694
 20
0.6971150716145833
 10
1.986958821614583
 20
0.7890991210937499
 10
1.801957194010416
 20
0.6058200412326389
 10
1.801957194010416
 20
0.2778469509548611
 10
1.801957194010416
 20
-0.0501261393229167
 10
1.986958821614583
 20
-0.3439927842881944
 10
2.294261338975694
 20
-0.4359768337673611
 10
2.6013916015625
 20
-0.5276163736979166
 10
2.786048719618055
 20
-0.3443372938368055
 10
2.786048719618055
 20
-0.0163642035590278
 10
2.786048719618055
 20
0.31160888671875
 10
2.6013916015625
 20
0.6054755316840277
 10
2.294261338975694
 20
0.6971150716145833
 97
        0
 92
        1
 93
        1
 72
     4
 94
        3
 73
     0
 74
     0
 95
       17
 96
       13
 40
0.0
 40
0.0
 40
0.0
 40
0.0
 40
1.0
 40
1.0
 40
1.0
 40
2.0
 40
2.0
 40
2.0
 40
3.0
 40
3.0
 40
3.0
 40
4.0
 40
4.0
 40
4.0
 40
4.0
 10
2.294261338975694
 20
-0.6027194552951388
 10
1.766817220052083
 20
-0.44493408203125
 10
1.605414496527778
 20
0.0360012478298611
 10
1.605414496527778
 20
0.3367580837673611
 10
1.605414496527778
 20
0.6375149197048611
 10
1.766817220052083
 20
1.021987575954861
 10
2.294261338975694
 20
0.8642022026909721
 10
2.821705457899305
 20
0.7064168294270833
 10
2.983280436197917
 20
0.2254814995659722
 10
2.983280436197917
 20
-0.0752753363715278
 10
2.983280436197917
 20
-0.3760321723090278
 10
2.821705457899305
 20
-0.7605048285590277
 10
2.294261338975694
 20
-0.6027194552951388
 97
        0
 75
     0
 76
     1
 98
        1
 10
0.0
 20
0.0
  0
HATCH
  5
37
330
29
100
AcDbEntity
  8
HRS8
 62
     7
100
AcDbHatch
 10
0.0
 20
0.0
 30
0.0
210
0.0
220
0.0
230
1.0
  2
SOLID
 70
     1
 71
     0
 91
        1
 92
        1
 93
        1
 72
     4
 94
        3
 73
     0
 74
     0
 95
       41
 96
       37
 40
0.0
 40
0.0
 40
0.0
 40
0.0
 40
1.0
 40
1.0
 40
1.0
 40
2.0
 40
2.0
 40
2.0
 40
3.0
 40
3.0
 40
3.0
 40
4.0
 40
4.0
 40
4.0
 40
5.0
 40
5.0
 40
5.0
 40
6.0
 40
6.0
 40
6.0
 40
7.0
 40
7.0
 40
7.0
 40
8.0
 40
8.0
 40
8.0
 40
9.0
 40
9.0
 40
9.0
 40
10.0
 40
10.0
 40
10.0
 40
11.0
 40
11.0
 40
11.0
 40
12.0
 40
12.0
 40
12.0
 40
12.0
 10
4.146344672309027
 20
0.2733683268229166
 10
4.146344672309027
 20
0.2733683268229166
 10
4.331346299913194
 20
0.2182467990451389
 10
4.331346299913194
 20
0.2182467990451389
 10
4.331346299913194
 20
0.2182467990451389
 10
4.331346299913194
 20
-1.174949815538194
 10
4.331346299913194
 20
-1.174949815538194
 10
4.331346299913194
 20
-1.174949815538194
 10
4.116889105902778
 20
-1.110526529947917
 10
4.116889105902778
 20
-1.110526529947917
 10
4.116889105902778
 20
-1.110526529947917
 10
3.3982421875
 20
0.2296156141493055
 10
3.3982421875
 20
0.2296156141493055
 10
3.3982421875
 20
0.2296156141493055
 10
3.394452582465278
 20
0.2306491427951389
 10
3.394452582465278
 20
0.2306491427951389
 10
3.394452582465278
 20
0.2306491427951389
 10
3.394452582465278
 20
-0.8948635525173611
 10
3.394452582465278
 20
-0.8948635525173611
 10
3.394452582465278
 20
-0.8948635525173611
 10
3.209278700086805
 20
-0.8397420247395833
 10
3.209278700086805
 20
-0.8397420247395833
 10
3.209278700086805
 20
-0.8397420247395833
 10
3.209278700086805
 20
0.55345458984375
 10
3.209278700086805
 20
0.55345458984375
 10
3.209278700086805
 20
0.55345458984375
 10
3.435621473524305
 20
0.4859307183159722
 10
3.435621473524305
 20
0.4859307183159722
 10
3.435621473524305
 20
0.4859307183159722
 10
4.142382812499999
 20
-0.8507663302951388
 10
4.142382812499999
 20
-0.8507663302951388
 10
4.142382812499999
 20
-0.8507663302951388
 10
4.146344672309027
 20
-0.8521443684895833
 10
4.146344672309027
 20
-0.8521443684895833
 10
4.146344672309027
 20
-0.8521443684895833
 10
4.146344672309027
 20
0.2733683268229166
 10
4.146344672309027
 20
0.2733683268229166
 97
        0
 75
     0
 76
     1
 98
        1
 10
0.0
 20
0.0
  0
HATCH
  5
36
330
29
100
AcDbEntity
  8
HRS8
 62
     7
100
AcDbHatch
 10
0.0
 20
0.0
 30
0.0
210
0.0
220
0.0
230
1.0
  2
SOLID
 70
     1
 71
     0
 91
        1
 92
        1
 93
        1
 72
     4
 94
        3
 73
     0
 74
     0
 95
       56
 96
       52
 40
0.0
 40
0.0
 40
0.0
 40
0.0
 40
1.0
 40
1.0
 40
1.0
 40
2.0
 40
2.0
 40
2.0
 40
3.0
 40
3.0
 40
3.0
 40
4.0
 40
4.0
 40
4.0
 40
5.0
 40
5.0
 40
5.0
 40
6.0
 40
6.0
 40
6.0
 40
7.0
 40
7.0
 40
7.0
 40
8.0
 40
8.0
 40
8.0
 40
9.0
 40
9.0
 40
9.0
 40
10.0
 40
10.0
 40
10.0
 40
11.0
 40
11.0
 40
11.0
 40
12.0
 40
12.0
 40
12.0
 40
13.0
 40
13.0
 40
13.0
 40
14.0
 40
14.0
 40
14.0
 40
15.0
 40
15.0
 40
15.0
 40
16.0
 40
16.0
 40
16.0
 40
17.0
 40
17.0
 40
17.0
 40
17.0
 10
-4.121367730034722
 20
0.5734361436631944
 10
-4.131186252170139
 20
0.7918551974826388
 10
-4.312398274739583
 20
0.9138115776909721
 10
-4.471733940972221
 20
0.9613538953993055
 10
-4.591967773437499
 20
0.9975273980034721
 10
-4.794539388020833
 20
1.025088161892361
 10
-4.794539388020833
 20
0.8135592990451388
 10
-4.794539388020833
 20
0.6950480143229166
 10
-4.7097900390625
 20
0.6313137478298611
 10
-4.627280002170139
 20
0.5872165256076388
 10
-4.627280002170139
 20
0.5872165256076388
 10
-4.223687065972221
 20
0.3749986436631944
 10
-4.223687065972221
 20
0.3749986436631944
 10
-4.040580240885416
 20
0.2778469509548611
 10
-3.902776421440972
 20
0.1279852973090278
 10
-3.902776421440972
 20
-0.0931898328993055
 10
-3.902776421440972
 20
-0.4228854709201388
 10
-4.2136962890625
 20
-0.4215074327256944
 10
-4.455886501736111
 20
-0.3491604275173611
 10
-4.717713758680556
 20
-0.2706122504340278
 10
-4.820033094618055
 20
-0.1624362521701389
 10
-4.883078342013889
 20
-0.0873331705729167
 10
-5.003312174479166
 20
0.0549492730034722
 10
-5.026738823784722
 20
0.1786282009548611
 10
-5.026738823784722
 20
0.3088528103298611
 10
-5.026738823784722
 20
0.3088528103298611
 10
-4.847593858506944
 20
0.2551093207465278
 10
-4.847593858506944
 20
0.2551093207465278
 10
-4.847593858506944
 20
0.0029283311631944
 10
-4.638993326822916
 20
-0.1331529405381944
 10
-4.457953559027778
 20
-0.18758544921875
 10
-4.320149739583333
 20
-0.2285820855034722
 10
-4.087778049045139
 20
-0.2630330403645833
 10
-4.087778049045139
 20
-0.0632175021701389
 10
-4.087778049045139
 20
0.08216552734375
 10
-4.156679958767361
 20
0.1493448893229167
 10
-4.38887939453125
 20
0.2733683268229166
 10
-4.38887939453125
 20
0.2733683268229166
 10
-4.678267415364583
 20
0.4259860568576389
 10
-4.678267415364583
 20
0.4259860568576389
 10
-4.770940483940972
 20
0.4749064127604166
 10
-4.979541015624999
 20
0.6009969075520832
 10
-4.979541015624999
 20
0.8435316297743055
 10
-4.979541015624999
 20
1.060917154947917
 10
-4.835880533854167
 20
1.231449381510417
 10
-4.493265787760416
 20
1.129130045572917
 10
-3.999411349826389
 20
0.981679958767361
 10
-3.950146484375
 20
0.6757554796006944
 10
-3.94239501953125
 20
0.5200371636284722
 10
-3.94239501953125
 20
0.5200371636284722
 10
-4.121367730034722
 20
0.5734361436631944
 10
-4.121367730034722
 20
0.5734361436631944
 97
        0
 75
     0
 76
     1
 98
        1
 10
0.0
 20
0.0
  0
HATCH
  5
35
330
29
100
AcDbEntity
  8
HRS8
 62
     7
100
AcDbHatch
 10
0.0
 20
0.0
 30
0.0
210
0.0
220
0.0
230
1.0
  2
SOLID
 70
     1
 71
     0
 91
        1
 92
       16
 93
        1
 72
     4
 94
        3
 73
     0
 74
     0
 95
       53
 96
       49
 40
0.0
 40
0.0
 40
0.0
 40
0.0
 40
1.0
 40
1.0
 40
1.0
 40
2.0
 40
2.0
 40
2.0
 40
3.0
 40
3.0
 40
3.0
 40
4.0
 40
4.0
 40
4.0
 40
5.0
 40
5.0
 40
5.0
 40
6.0
 40
6.0
 40
6.0
 40
7.0
 40
7.0
 40
7.0
 40
8.0
 40
8.0
 40
8.0
 40
9.0
 40
9.0
 40
9.0
 40
10.0
 40
10.0
 40
10.0
 40
11.0
 40
11.0
 40
11.0
 40
12.0
 40
12.0
 40
12.0
 40
13.0
 40
13.0
 40
13.0
 40
14.0
 40
14.0
 40
14.0
 40
15.0
 40
15.0
 40
15.0
 40
16.0
 40
16.0
 40
16.0
 40
16.0
 10
-3.304707845052083
 20
0.2168687608506944
 10
-3.304707845052083
 20
0.2168687608506944
 10
-3.304707845052083
 20
0.3588066948784722
 10
-3.304707845052083
 20
0.3588066948784722
 10
-3.304707845052083
 20
0.3588066948784722
 10
-3.469727918836805
 20
0.4080715603298611
 10
-3.469727918836805
 20
0.4080715603298611
 10
-3.469727918836805
 20
0.4080715603298611
 10
-3.469727918836805
 20
0.6912584092881944
 10
-3.469727918836805
 20
0.6912584092881944
 10
-3.469727918836805
 20
0.6912584092881944
 10
-3.643360731336805
 20
0.7432793511284722
 10
-3.643360731336805
 20
0.7432793511284722
 10
-3.643360731336805
 20
0.7432793511284722
 10
-3.643360731336805
 20
0.4600925021701389
 10
-3.643360731336805
 20
0.4600925021701389
 10
-3.643360731336805
 20
0.4600925021701389
 10
-3.78271484375
 20
0.5017781575520833
 10
-3.78271484375
 20
0.5017781575520833
 10
-3.78271484375
 20
0.5017781575520833
 10
-3.78271484375
 20
0.3598402235243055
 10
-3.78271484375
 20
0.3598402235243055
 10
-3.78271484375
 20
0.3598402235243055
 10
-3.643360731336805
 20
0.3181545681423611
 10
-3.643360731336805
 20
0.3181545681423611
 10
-3.643360731336805
 20
0.3181545681423611
 10
-3.643360731336805
 20
-0.3512274848090278
 10
-3.643360731336805
 20
-0.3512274848090278
 10
-3.643360731336805
 20
-0.4731838650173611
 10
-3.605809190538194
 20
-0.5796373155381944
 10
-3.434415690104166
 20
-0.6306247287326389
 10
-3.416845703125
 20
-0.6361368815104166
 10
-3.367580837673611
 20
-0.6430270724826388
 10
-3.304707845052083
 20
-0.656118435329861
 10
-3.304707845052083
 20
-0.656118435329861
 10
-3.304707845052083
 20
-0.5221042209201389
 10
-3.304707845052083
 20
-0.5221042209201389
 10
-3.304707845052083
 20
-0.5221042209201389
 10
-3.365513780381944
 20
-0.50384521484375
 10
-3.365513780381944
 20
-0.50384521484375
 10
-3.400998263888889
 20
-0.4931654188368055
 10
-3.469727918836805
 20
-0.4728393554687499
 10
-3.469727918836805
 20
-0.3932576497395833
 10
-3.469727918836805
 20
-0.3932576497395833
 10
-3.469727918836805
 20
0.2661336263020833
 10
-3.469727918836805
 20
0.2661336263020833
 10
-3.469727918836805
 20
0.2661336263020833
 10
-3.304707845052083
 20
0.2168687608506944
 10
-3.304707845052083
 20
0.2168687608506944
 97
        0
 75
     0
 76
     1
 98
        1
 10
0.0
 20
0.0
  0
HATCH
  5
34
330
29
100
AcDbEntity
  8
HRS8
 62
     7
100
AcDbHatch
 10
0.0
 20
0.0
 30
0.0
210
0.0
220
0.0
230
1.0
  2
SOLID
 70
     1
 71
     0
 91
        1
 92
        1
 93
        1
 72
     4
 94
        3
 73
     0
 74
     0
 95
       38
 96
       34
 40
0.0
 40
0.0
 40
0.0
 40
0.0
 40
1.0
 40
1.0
 40
1.0
 40
2.0
 40
2.0
 40
2.0
 40
3.0
 40
3.0
 40
3.0
 40
4.0
 40
4.0
 40
4.0
 40
5.0
 40
5.0
 40
5.0
 40
6.0
 40
6.0
 40
6.0
 40
7.0
 40
7.0
 40
7.0
 40
8.0
 40
8.0
 40
8.0
 40
9.0
 40
9.0
 40
9.0
 40
10.0
 40
10.0
 40
10.0
 40
11.0
 40
11.0
 40
11.0
 40
11.0
 10
-2.938321940104166
 20
-0.7656724717881944
 10
-2.938321940104166
 20
-0.7656724717881944
 10
-3.111610243055555
 20
-0.7136515299479166
 10
-3.111610243055555
 20
-0.7136515299479166
 10
-3.111610243055555
 20
-0.7136515299479166
 10
-3.111610243055555
 20
0.3012736002604167
 10
-3.111610243055555
 20
0.3012736002604167
 10
-3.111610243055555
 20
0.3012736002604167
 10
-2.948312717013889
 20
0.2523532443576388
 10
-2.948312717013889
 20
0.2523532443576388
 10
-2.948312717013889
 20
0.2523532443576388
 10
-2.948312717013889
 20
0.0835435655381944
 10
-2.948312717013889
 20
0.0835435655381944
 10
-2.948312717013889
 20
0.0835435655381944
 10
-2.944178602430555
 20
0.08216552734375
 10
-2.944178602430555
 20
0.08216552734375
 10
-2.875621202256944
 20
0.1796617296006944
 10
-2.784842936197916
 20
0.2323716905381944
 10
-2.654962836371527
 20
0.1934421115451389
 10
-2.633430989583333
 20
0.1868964301215278
 10
-2.623440212673611
 20
0.1820732964409722
 10
-2.609832085503472
 20
0.1741495768229167
 10
-2.609832085503472
 20
0.1741495768229167
 10
-2.609832085503472
 20
-0.0022393120659722
 10
-2.609832085503472
 20
-0.0022393120659722
 10
-2.609832085503472
 20
-0.0022393120659722
 10
-2.674772135416666
 20
0.01705322265625
 10
-2.674772135416666
 20
0.01705322265625
 10
-2.836174858940972
 20
0.0652845594618055
 10
-2.938321940104166
 20
-0.0284220377604167
 10
-2.938321940104166
 20
-0.1758721245659722
 10
-2.938321940104166
 20
-0.1758721245659722
 10
-2.938321940104166
 20
-0.7656724717881944
 10
-2.938321940104166
 20
-0.7656724717881944
 97
        0
 75
     0
 76
     1
 98
        1
 10
0.0
 20
0.0
  0
HATCH
  5
33
330
29
100
AcDbEntity
  8
HRS8
 62
     7
100
AcDbHatch
 10
0.0
 20
0.0
 30
0.0
210
0.0
220
0.0
230
1.0
  2
SOLID
 70
     1
 71
     0
 91
        2
 92
        1
 93
        1
 72
     4
 94
        3
 73
     0
 74
     0
 95
       17
 96
       13
 40
0.0
 40
0.0
 40
0.0
 40
0.0
 40
1.0
 40
1.0
 40
1.0
 40
2.0
 40
2.0
 40
2.0
 40
3.0
 40
3.0
 40
3.0
 40
4.0
 40
4.0
 40
4.0
 40
4.0
 10
-2.359718153211805
 20
-0.4301201714409722
 10
-2.359718153211805
 20
-0.2943834092881944
 10
-2.308558485243055
 20
-0.0577053493923611
 10
-2.060511610243055
 20
-0.1314303927951389
 10
-1.812636990017361
 20
-0.2058444552951389
 10
-1.761477322048611
 20
-0.4735283745659722
 10
-1.761477322048611
 20
-0.6092651367187499
 10
-1.761477322048611
 20
-0.7450018988715277
 10
-1.812636990017361
 20
-0.9820244683159721
 10
-2.060511610243055
 20
-0.9076104058159722
 10
-2.308558485243055
 20
-0.8338853624131943
 10
-2.359718153211805
 20
-0.5662014431423611
 10
-2.359718153211805
 20
-0.4301201714409722
 97
        0
 92
       16
 93
        1
 72
     4
 94
        3
 73
     0
 74
     0
 95
       17
 96
       13
 40
0.0
 40
0.0
 40
0.0
 40
0.0
 40
1.0
 40
1.0
 40
1.0
 40
2.0
 40
2.0
 40
2.0
 40
3.0
 40
3.0
 40
3.0
 40
4.0
 40
4.0
 40
4.0
 40
4.0
 10
-2.538863118489583
 20
-0.37672119140625
 10
-2.538863118489583
 20
-0.6388929578993055
 10
-2.389173719618055
 20
-0.9572197808159721
 10
-2.060511610243055
 20
-1.055060492621528
 10
-1.731849500868055
 20
-1.153590223524305
 10
-1.582160101996528
 20
-0.9248358832465277
 10
-1.582160101996528
 20
-0.6626641167534721
 10
-1.582160101996528
 20
-0.4008368598090277
 10
-1.731849500868055
 20
-0.0825100368923611
 10
-2.060511610243055
 20
0.0160196940104167
 10
-2.389173719618055
 20
0.1138604058159722
 10
-2.538863118489583
 20
-0.1148939344618055
 10
-2.538863118489583
 20
-0.37672119140625
 97
        0
 75
     0
 76
     1
 98
        1
 10
0.0
 20
0.0
  0
HATCH
  5
32
330
29
100
AcDbEntity
  8
HRS8
 62
     7
100
AcDbHatch
 10
0.0
 20
0.0
 30
0.0
210
0.0
220
0.0
230
1.0
  2
SOLID
 70
     1
 71
     0
 91
        1
 92
        1
 93
        1
 72
     4
 94
        3
 73
     0
 74
     0
 95
       44
 96
       40
 40
0.0
 40
0.0
 40
0.0
 40
0.0
 40
1.0
 40
1.0
 40
1.0
 40
2.0
 40
2.0
 40
2.0
 40
3.0
 40
3.0
 40
3.0
 40
4.0
 40
4.0
 40
4.0
 40
5.0
 40
5.0
 40
5.0
 40
6.0
 40
6.0
 40
6.0
 40
7.0
 40
7.0
 40
7.0
 40
8.0
 40
8.0
 40
8.0
 40
9.0
 40
9.0
 40
9.0
 40
10.0
 40
10.0
 40
10.0
 40
11.0
 40
11.0
 40
11.0
 40
12.0
 40
12.0
 40
12.0
 40
13.0
 40
13.0
 40
13.0
 40
13.0
 10
-0.5470811631944444
 20
-1.48052978515625
 10
-0.5470811631944444
 20
-1.48052978515625
 10
-0.7201972113715277
 20
-1.428508843315972
 10
-0.7201972113715277
 20
-1.428508843315972
 10
-0.7201972113715277
 20
-1.428508843315972
 10
-0.7201972113715277
 20
-0.8035685221354166
 10
-0.7201972113715277
 20
-0.8035685221354166
 10
-0.7201972113715277
 20
-0.6271796332465277
 10
-0.7711846245659721
 20
-0.5227932400173611
 10
-0.9406833224826388
 20
-0.4724948459201389
 10
-1.039040798611111
 20
-0.4428670247395833
 10
-1.212501356336805
 20
-0.4532023111979167
 10
-1.212501356336805
 20
-0.7288099500868055
 10
-1.212501356336805
 20
-0.7288099500868055
 10
-1.212501356336805
 20
-1.281747775607639
 10
-1.212501356336805
 20
-1.281747775607639
 10
-1.212501356336805
 20
-1.281747775607639
 10
-1.385617404513889
 20
-1.229726833767361
 10
-1.385617404513889
 20
-1.229726833767361
 10
-1.385617404513889
 20
-1.229726833767361
 10
-1.385617404513889
 20
-0.2148017035590278
 10
-1.385617404513889
 20
-0.2148017035590278
 10
-1.385617404513889
 20
-0.2148017035590278
 10
-1.222147623697917
 20
-0.2637220594618056
 10
-1.222147623697917
 20
-0.2637220594618056
 10
-1.222147623697917
 20
-0.2637220594618056
 10
-1.222147623697917
 20
-0.4073825412326388
 10
-1.222147623697917
 20
-0.4073825412326388
 10
-1.222147623697917
 20
-0.4073825412326388
 10
-1.218185763888889
 20
-0.4087605794270833
 10
-1.218185763888889
 20
-0.4087605794270833
 10
-1.180806477864583
 20
-0.3656968858506944
 10
-1.084343804253472
 20
-0.2761244032118055
 10
-0.907265896267361
 20
-0.3291788736979167
 10
-0.7477579752604167
 20
-0.37672119140625
 10
-0.5470811631944444
 20
-0.5007446289062499
 10
-0.5470811631944444
 20
-0.7897881401909721
 10
-0.5470811631944444
 20
-0.7897881401909721
 10
-0.5470811631944444
 20
-1.48052978515625
 10
-0.5470811631944444
 20
-1.48052978515625
 97
        0
 75
     0
 76
     1
 98
        1
 10
0.0
 20
0.0
  0
HATCH
  5
31
330
29
100
AcDbEntity
  8
HRS8
 62
     7
100
AcDbHatch
 10
0.0
 20
0.0
 30
0.0
210
0.0
220
0.0
230
1.0
  2
SOLID
 70
     1
 71
     0
 91
        2
 92
       16
 93
        1
 72
     4
 94
        3
 73
     0
 74
     0
 95
       17
 96
       13
 40
0.0
 40
0.0
 40
0.0
 40
0.0
 40
1.0
 40
1.0
 40
1.0
 40
2.0
 40
2.0
 40
2.0
 40
3.0
 40
3.0
 40
3.0
 40
4.0
 40
4.0
 40
4.0
 40
4.0
 10
0.1164442274305556
 20
-1.560111490885417
 10
0.2265150282118055
 20
-1.593184407552083
 10
0.3977362738715278
 20
-1.572858344184028
 10
0.3977362738715278
 20
-1.303107367621528
 10
0.3977362738715278
 20
-1.138087293836805
 10
0.3703477647569444
 20
-0.8642022026909721
 10
0.1202338324652778
 20
-0.789443630642361
 10
-0.1476223415798611
 20
-0.7095174153645832
 10
-0.16123046875
 20
-0.9554972330729166
 10
-0.16123046875
 20
-1.085721842447917
 10
-0.16123046875
 20
-1.308275010850694
 10
-0.0725192599826389
 20
-1.503611924913194
 10
0.1164442274305556
 20
-1.560111490885417
 97
        0
 92
        1
 93
        1
 72
     4
 94
        3
 73
     0
 74
     0
 95
       53
 96
       49
 40
0.0
 40
0.0
 40
0.0
 40
0.0
 40
1.0
 40
1.0
 40
1.0
 40
2.0
 40
2.0
 40
2.0
 40
3.0
 40
3.0
 40
3.0
 40
4.0
 40
4.0
 40
4.0
 40
5.0
 40
5.0
 40
5.0
 40
6.0
 40
6.0
 40
6.0
 40
7.0
 40
7.0
 40
7.0
 40
8.0
 40
8.0
 40
8.0
 40
9.0
 40
9.0
 40
9.0
 40
10.0
 40
10.0
 40
10.0
 40
11.0
 40
11.0
 40
11.0
 40
12.0
 40
12.0
 40
12.0
 40
13.0
 40
13.0
 40
13.0
 40
14.0
 40
14.0
 40
14.0
 40
15.0
 40
15.0
 40
15.0
 40
16.0
 40
16.0
 40
16.0
 40
16.0
 10
0.5632731119791666
 20
-1.728921169704861
 10
0.5632731119791666
 20
-1.87430419921875
 10
0.5612060546875
 20
-2.238795301649305
 10
0.0847493489583333
 20
-2.096168348524305
 10
-0.0373792860243056
 20
-2.059650336371528
 10
-0.2754353841145833
 20
-1.955608452690972
 10
-0.3086805555555555
 20
-1.67586669921875
 10
-0.3086805555555555
 20
-1.67586669921875
 10
-0.1357367621527778
 20
-1.727543131510417
 10
-0.1357367621527778
 20
-1.727543131510417
 10
-0.1042141384548611
 20
-1.898075358072916
 10
0.0552937825520833
 20
-1.94561767578125
 10
0.0968071831597222
 20
-1.95802001953125
 10
0.3958414713541666
 20
-2.047592502170139
 10
0.3898125542534722
 20
-1.808847384982639
 10
0.3898125542534722
 20
-1.688613552517361
 10
0.3898125542534722
 20
-1.688613552517361
 10
0.3898125542534722
 20
-1.645894368489583
 10
0.3898125542534722
 20
-1.645894368489583
 10
0.3898125542534722
 20
-1.645894368489583
 10
0.38602294921875
 20
-1.645205349392361
 10
0.38602294921875
 20
-1.645205349392361
 10
0.38602294921875
 20
-1.645205349392361
 10
0.38602294921875
 20
-1.652784559461805
 10
0.38602294921875
 20
-1.652784559461805
 10
0.3408921983506944
 20
-1.711006673177083
 10
0.2502861870659722
 20
-1.747869194878472
 10
0.1123101128472222
 20
-1.706528049045139
 10
-0.2380560980902778
 20
-1.601797146267361
 10
-0.3403754340277778
 20
-1.247641330295139
 10
-0.3403754340277778
 20
-1.005106608072917
 10
-0.3403754340277778
 20
-0.7198527018229166
 10
-0.1848293728298611
 20
-0.5448418511284722
 10
0.0885389539930555
 20
-0.6264906141493055
 10
0.2756076388888888
 20
-0.6823011610243055
 10
0.3543280707465277
 20
-0.8207939995659721
 10
0.3958414713541666
 20
-0.8910739474826388
 10
0.3958414713541666
 20
-0.8910739474826388
 10
0.3998033311631944
 20
-0.8924519856770833
 10
0.3998033311631944
 20
-0.8924519856770833
 10
0.3998033311631944
 20
-0.8924519856770833
 10
0.3998033311631944
 20
-0.7487915039062499
 10
0.3998033311631944
 20
-0.7487915039062499
 10
0.3998033311631944
 20
-0.7487915039062499
 10
0.5632731119791666
 20
-0.7973673502604166
 10
0.5632731119791666
 20
-0.7973673502604166
 10
0.5632731119791666
 20
-0.7973673502604166
 10
0.5632731119791666
 20
-1.728921169704861
 10
0.5632731119791666
 20
-1.728921169704861
 97
        0
 75
     0
 76
     1
 98
        1
 10
0.0
 20
0.0
  0
HATCH
  5
30
330
29
100
AcDbEntity
  8
HRS8
 62
     7
100
AcDbHatch
 10
0.0
 20
0.0
 30
0.0
210
0.0
220
0.0
230
1.0
  2
SOLID
 70
     1
 71
     0
 91
        1
 92
        1
 93
        1
 72
     4
 94
        3
 73
     0
 74
     0
 95
       17
 96
       13
 40
0.0
 40
0.0
 40
0.0
 40
0.0
 40
1.0
 40
1.0
 40
1.0
 40
2.0
 40
2.0
 40
2.0
 40
3.0
 40
3.0
 40
3.0
 40
4.0
 40
4.0
 40
4.0
 40
4.0
 10
1.244023980034722
 20
-1.565623643663194
 10
1.244023980034722
 20
-1.565623643663194
 10
0.7618828667534722
 20
-1.421274142795139
 10
0.7618828667534722
 20
-1.421274142795139
 10
0.7618828667534722
 20
-1.421274142795139
 10
0.7618828667534722
 20
-1.246607801649305
 10
0.7618828667534722
 20
-1.246607801649305
 10
0.7618828667534722
 20
-1.246607801649305
 10
1.244023980034722
 20
-1.390957302517361
 10
1.244023980034722
 20
-1.390957302517361
 10
1.244023980034722
 20
-1.390957302517361
 10
1.244023980034722
 20
-1.565623643663194
 10
1.244023980034722
 20
-1.565623643663194
 97
        0
 75
     0
 76
     1
 98
        1
 10
0.0
 20
0.0
  0
HATCH
  5
2F
330
29
100
AcDbEntity
  8
HRS8
 62
     7
100
AcDbHatch
 10
0.0
 20
0.0
 30
0.0
210
0.0
220
0.0
230
1.0
  2
SOLID
 70
     1
 71
     0
 91
        1
 92
       16
 93
        1
 72
     4
 94
        3
 73
     0
 74
     0
 95
       29
 96
       25
 40
0.0
 40
0.0
 40
0.0
 40
0.0
 40
1.0
 40
1.0
 40
1.0
 40
2.0
 40
2.0
 40
2.0
 40
3.0
 40
3.0
 40
3.0
 40
4.0
 40
4.0
 40
4.0
 40
5.0
 40
5.0
 40
5.0
 40
6.0
 40
6.0
 40
6.0
 40
7.0
 40
7.0
 40
7.0
 40
8.0
 40
8.0
 40
8.0
 40
8.0
 10
1.358228895399305
 20
-0.8238945855034722
 10
1.358228895399305
 20
-0.8238945855034722
 10
1.836580403645833
 20
-0.9668660481770832
 10
1.836580403645833
 20
-0.9668660481770832
 10
1.836580403645833
 20
-0.9668660481770832
 10
1.836580403645833
 20
-2.192975531684028
 10
1.836580403645833
 20
-2.192975531684028
 10
1.836580403645833
 20
-2.192975531684028
 10
2.027610948350694
 20
-2.250164116753472
 10
2.027610948350694
 20
-2.250164116753472
 10
2.027610948350694
 20
-2.250164116753472
 10
2.027610948350694
 20
-1.024054633246528
 10
2.027610948350694
 20
-1.024054633246528
 10
2.027610948350694
 20
-1.024054633246528
 10
2.505962456597222
 20
-1.166681586371528
 10
2.505962456597222
 20
-1.166681586371528
 10
2.505962456597222
 20
-1.166681586371528
 10
2.505962456597222
 20
-0.9995944552951388
 10
2.505962456597222
 20
-0.9995944552951388
 10
2.505962456597222
 20
-0.9995944552951388
 10
1.358228895399305
 20
-0.6568074544270833
 10
1.358228895399305
 20
-0.6568074544270833
 10
1.358228895399305
 20
-0.6568074544270833
 10
1.358228895399305
 20
-0.8238945855034722
 10
1.358228895399305
 20
-0.8238945855034722
 97
        0
 75
     0
 76
     1
 98
        1
 10
0.0
 20
0.0
  0
HATCH
  5
2E
330
29
100
AcDbEntity
  8
HRS8
 62
     7
100
AcDbHatch
 10
0.0
 20
0.0
 30
0.0
210
0.0
220
0.0
230
1.0
  2
SOLID
 70
     1
 71
     0
 91
        2
 92
       16
 93
        1
 72
     4
 94
        3
 73
     0
 74
     0
 95
       17
 96
       13
 40
0.0
 40
0.0
 40
0.0
 40
0.0
 40
1.0
 40
1.0
 40
1.0
 40
2.0
 40
2.0
 40
2.0
 40
3.0
 40
3.0
 40
3.0
 40
4.0
 40
4.0
 40
4.0
 40
4.0
 10
2.838414171006944
 20
-1.477773708767361
 10
2.838414171006944
 20
-1.477773708767361
 10
2.66495361328125
 20
-1.425752766927083
 10
2.66495361328125
 20
-1.425752766927083
 10
2.66495361328125
 20
-1.425752766927083
 10
2.66495361328125
 20
-2.440677897135417
 10
2.66495361328125
 20
-2.440677897135417
 10
2.66495361328125
 20
-2.440677897135417
 10
2.838414171006944
 20
-2.492698838975694
 10
2.838414171006944
 20
-2.492698838975694
 10
2.838414171006944
 20
-2.492698838975694
 10
2.838414171006944
 20
-1.477773708767361
 10
2.838414171006944
 20
-1.477773708767361
 97
        0
 92
       16
 93
        1
 72
     4
 94
        3
 73
     0
 74
     0
 95
       17
 96
       13
 40
0.0
 40
0.0
 40
0.0
 40
0.0
 40
1.0
 40
1.0
 40
1.0
 40
2.0
 40
2.0
 40
2.0
 40
3.0
 40
3.0
 40
3.0
 40
4.0
 40
4.0
 40
4.0
 40
4.0
 10
2.838414171006944
 20
-1.293461100260417
 10
2.838414171006944
 20
-1.293461100260417
 10
2.838414171006944
 20
-1.099502224392361
 10
2.838414171006944
 20
-1.099502224392361
 10
2.838414171006944
 20
-1.099502224392361
 10
2.66495361328125
 20
-1.047481282552083
 10
2.66495361328125
 20
-1.047481282552083
 10
2.66495361328125
 20
-1.047481282552083
 10
2.66495361328125
 20
-1.241440158420139
 10
2.66495361328125
 20
-1.241440158420139
 10
2.66495361328125
 20
-1.241440158420139
 10
2.838414171006944
 20
-1.293461100260417
 10
2.838414171006944
 20
-1.293461100260417
 97
        0
 75
     0
 76
     1
 98
        1
 10
0.0
 20
0.0
  0
HATCH
  5
2D
330
29
100
AcDbEntity
  8
HRS8
 62
     7
100
AcDbHatch
 10
0.0
 20
0.0
 30
0.0
210
0.0
220
0.0
230
1.0
  2
SOLID
 70
     1
 71
     0
 91
        2
 92
        1
 93
        1
 72
     4
 94
        3
 73
     0
 74
     0
 95
       14
 96
       10
 40
0.0
 40
0.0
 40
0.0
 40
0.0
 40
1.0
 40
1.0
 40
1.0
 40
2.0
 40
2.0
 40
2.0
 40
3.0
 40
3.0
 40
3.0
 40
3.0
 10
3.233738878038194
 20
-2.022787814670139
 10
3.233738878038194
 20
-1.865346950954861
 10
3.359829372829861
 20
-1.757859971788194
 10
3.519337293836805
 20
-1.805402289496528
 10
3.729832628038194
 20
-1.86810302734375
 10
3.796839735243055
 20
-2.033812120225695
 10
3.806830512152777
 20
-2.194353569878472
 10
3.806830512152777
 20
-2.194353569878472
 10
3.233738878038194
 20
-2.022787814670139
 10
3.233738878038194
 20
-2.022787814670139
 97
        0
 92
       16
 93
        1
 72
     4
 94
        3
 73
     0
 74
     0
 95
       32
 96
       28
 40
0.0
 40
0.0
 40
0.0
 40
0.0
 40
1.0
 40
1.0
 40
1.0
 40
2.0
 40
2.0
 40
2.0
 40
3.0
 40
3.0
 40
3.0
 40
4.0
 40
4.0
 40
4.0
 40
5.0
 40
5.0
 40
5.0
 40
6.0
 40
6.0
 40
6.0
 40
7.0
 40
7.0
 40
7.0
 40
8.0
 40
8.0
 40
8.0
 40
9.0
 40
9.0
 40
9.0
 40
9.0
 10
3.798734537760416
 20
-2.461003960503472
 10
3.792877875434027
 20
-2.535073513454861
 10
3.696587456597222
 20
-2.630502658420139
 10
3.533289930555555
 20
-2.581926812065972
 10
3.334335666232639
 20
-2.52232666015625
 10
3.233738878038194
 20
-2.370053439670139
 10
3.233738878038194
 20
-2.158524576822916
 10
3.233738878038194
 20
-2.158524576822916
 10
3.98580322265625
 20
-2.383144802517361
 10
3.98580322265625
 20
-2.383144802517361
 10
3.98580322265625
 20
-2.024165852864583
 10
3.840247938368055
 20
-1.748213704427083
 10
3.542936197916666
 20
-1.659330240885417
 10
3.202388509114583
 20
-1.557355414496528
 10
3.049081759982639
 20
-1.761994086371528
 10
3.049081759982639
 20
-2.076186794704861
 10
3.049081759982639
 20
-2.369019911024306
 10
3.220303005642361
 20
-2.635670301649305
 10
3.509518771701389
 20
-2.721797688802083
 10
3.675055609809027
 20
-2.771407063802083
 10
3.741718207465278
 20
-2.753148057725694
 10
3.789088270399305
 20
-2.735922580295139
 10
3.918796115451388
 20
-2.689413791232639
 10
3.966166178385417
 20
-2.559878200954861
 10
3.9718505859375
 20
-2.512680392795139
 10
3.9718505859375
 20
-2.512680392795139
 10
3.798734537760416
 20
-2.461003960503472
 10
3.798734537760416
 20
-2.461003960503472
 97
        0
 75
     0
 76
     1
 98
        1
 10
0.0
 20
0.0
  0
HATCH
  5
2C
330
29
100
AcDbEntity
  8
HRS8
 62
     7
100
AcDbHatch
 10
0.0
 20
0.0
 30
0.0
210
0.0
220
0.0
230
1.0
  2
SOLID
 70
     1
 71
     0
 91
        4
 92
       16
 93
        1
 72
     4
 94
        3
 73
     0
 74
     0
 95
       20
 96
       16
 40
0.0
 40
0.0
 40
0.0
 40
0.0
 40
1.0
 40
1.0
 40
1.0
 40
2.0
 40
2.0
 40
2.0
 40
3.0
 40
3.0
 40
3.0
 40
4.0
 40
4.0
 40
4.0
 40
5.0
 40
5.0
 40
5.0
 40
5.0
 10
4.536846245659722
 20
-1.807813856336805
 10
4.608331976996527
 20
-1.829173448350694
 10
4.672410753038194
 20
-1.84329833984375
 10
4.672410753038194
 20
-1.758893500434028
 10
4.672410753038194
 20
-1.690680609809028
 10
4.609710015190972
 20
-1.659330240885417
 10
4.550798882378472
 20
-1.64176025390625
 10
4.550798882378472
 20
-1.64176025390625
 10
4.435560438368055
 20
-1.607309299045139
 10
4.435560438368055
 20
-1.607309299045139
 10
4.435560438368055
 20
-1.607309299045139
 10
4.435560438368055
 20
-1.777497016059028
 10
4.435560438368055
 20
-1.777497016059028
 10
4.435560438368055
 20
-1.777497016059028
 10
4.536846245659722
 20
-1.807813856336805
 10
4.536846245659722
 20
-1.807813856336805
 97
        0
 92
        1
 93
        1
 72
     4
 94
        3
 73
     0
 74
     0
 95
       35
 96
       31
 40
0.0
 40
0.0
 40
0.0
 40
0.0
 40
1.0
 40
1.0
 40
1.0
 40
2.0
 40
2.0
 40
2.0
 40
3.0
 40
3.0
 40
3.0
 40
4.0
 40
4.0
 40
4.0
 40
5.0
 40
5.0
 40
5.0
 40
6.0
 40
6.0
 40
6.0
 40
7.0
 40
7.0
 40
7.0
 40
8.0
 40
8.0
 40
8.0
 40
9.0
 40
9.0
 40
9.0
 40
10.0
 40
10.0
 40
10.0
 40
10.0
 10
4.435560438368055
 20
-2.086522081163194
 10
4.435560438368055
 20
-2.086522081163194
 10
4.351327853732639
 20
-2.061372884114583
 10
4.351327853732639
 20
-2.061372884114583
 10
4.351327853732639
 20
-2.061372884114583
 10
4.351327853732639
 20
-1.51153564453125
 10
4.351327853732639
 20
-1.51153564453125
 10
4.351327853732639
 20
-1.51153564453125
 10
4.563545735677083
 20
-1.574925401475694
 10
4.563545735677083
 20
-1.574925401475694
 10
4.695320638020833
 20
-1.614543999565972
 10
4.760605197482638
 20
-1.681723361545139
 10
4.760605197482638
 20
-1.79058837890625
 10
4.760605197482638
 20
-1.888429090711805
 10
4.697732204861111
 20
-1.912544759114583
 10
4.616255696614583
 20
-1.898075358072916
 10
4.616255696614583
 20
-1.898075358072916
 10
4.774730088975694
 20
-2.188152398003472
 10
4.774730088975694
 20
-2.188152398003472
 10
4.774730088975694
 20
-2.188152398003472
 10
4.679989963107638
 20
-2.159902615017361
 10
4.679989963107638
 20
-2.159902615017361
 10
4.679989963107638
 20
-2.159902615017361
 10
4.532884385850694
 20
-1.87740478515625
 10
4.532884385850694
 20
-1.87740478515625
 10
4.532884385850694
 20
-1.87740478515625
 10
4.435560438368055
 20
-1.848121473524305
 10
4.435560438368055
 20
-1.848121473524305
 10
4.435560438368055
 20
-1.848121473524305
 10
4.435560438368055
 20
-2.086522081163194
 10
4.435560438368055
 20
-2.086522081163194
 97
        0
 92
       16
 93
        1
 72
     4
 94
        3
 73
     0
 74
     0
 95
       17
 96
       13
 40
0.0
 40
0.0
 40
0.0
 40
0.0
 40
1.0
 40
1.0
 40
1.0
 40
2.0
 40
2.0
 40
2.0
 40
3.0
 40
3.0
 40
3.0
 40
4.0
 40
4.0
 40
4.0
 40
4.0
 10
4.538052029079861
 20
-2.239484320746528
 10
4.756987847222222
 20
-2.304941134982639
 10
4.929414876302083
 20
-2.18746337890625
 10
4.929414876302083
 20
-1.95802001953125
 10
4.929414876302083
 20
-1.732366265190972
 10
4.756987847222222
 20
-1.510502115885417
 10
4.538052029079861
 20
-1.445045301649305
 10
4.316532389322917
 20
-1.378899468315972
 10
4.14393310546875
 20
-1.497410753038194
 10
4.14393310546875
 20
-1.723064507378472
 10
4.14393310546875
 20
-1.952507866753472
 10
4.316532389322917
 20
-2.173338487413195
 10
4.538052029079861
 20
-2.239484320746528
 97
        0
 92
        1
 93
        1
 72
     4
 94
        3
 73
     0
 74
     0
 95
       17
 96
       13
 40
0.0
 40
0.0
 40
0.0
 40
0.0
 40
1.0
 40
1.0
 40
1.0
 40
2.0
 40
2.0
 40
2.0
 40
3.0
 40
3.0
 40
3.0
 40
4.0
 40
4.0
 40
4.0
 40
4.0
 10
4.046609157986111
 20
-1.694125705295139
 10
4.046609157986111
 20
-1.420585123697917
 10
4.271918402777778
 20
-1.285881890190972
 10
4.538052029079861
 20
-1.365463595920139
 10
4.801429578993055
 20
-1.444356282552083
 10
5.026738823784722
 20
-1.713418240017361
 10
5.026738823784722
 20
-1.986958821614583
 10
5.026738823784722
 20
-2.263255479600694
 10
4.801429578993055
 20
-2.397958713107639
 10
4.538052029079861
 20
-2.319066026475694
 10
4.271918402777778
 20
-2.239484320746528
 10
4.046609157986111
 20
-1.97042236328125
 10
4.046609157986111
 20
-1.694125705295139
 97
        0
 75
     0
 76
     1
 98
        1
 10
0.0
 20
0.0
  0
ENDBLK
  5
3E
330
29
100
AcDbEntity
  8
HRS8
100
AcDbBlockEnd
  0
BLOCK
  5
41
330
3F
100
AcDbEntity
  8
HRS8
 62
     7
100
AcDbBlockBegin
  2
AI9-BLK2
 70
     0
 10
0.0
 20
0.0
 30
0.0
  3
AI9-BLK2
  1

  4

  0
ELLIPSE
  5
43
330
3F
100
AcDbEntity
  8
HRS8
 62
     7
100
AcDbEllipse
 10
-0.1301384819878472
 20
-0.1133436414930556
 30
0.0
 11
0.4687913682725694
 21
-0.9725504557291665
 31
0.0
210
0.0
220
0.0
230
1.0
 40
0.82455211383297
 41
0.0
 42
6.283185307179586
  0
SPLINE
  5
42
330
3F
100
AcDbEntity
  8
HRS8
 62
     7
100
AcDbSpline
210
0.0
220
0.0
230
1.0
 70
    11
 71
     3
 72
    23
 73
    19
 74
     0
 42
0.0000000001
 43
0.0000000001
 40
0.0
 40
0.0
 40
0.0
 40
0.0
 40
1.0
 40
1.0
 40
1.0
 40
2.0
 40
2.0
 40
2.0
 40
3.0
 40
3.0
 40
3.0
 40
4.0
 40
4.0
 40
4.0
 40
5.0
 40
5.0
 40
5.0
 40
6.0
 40
6.0
 40
6.0
 40
6.0
 10
0.9238023546006944
 20
0.4981608072916666
 30
0.0
 10
0.6649034288194444
 20
1.034562174479167
 30
0.0
 10
0.0954291449652778
 20
1.295700412326389
 30
0.0
 10
-0.3474378797743055
 20
1.083138020833333
 30
0.0
 10
-0.4650878906249999
 20
1.0262939453125
 30
0.0
 10
-0.5600002712673611
 20
0.9405110677083333
 30
0.0
 10
-0.6338975694444444
 20
0.8364691840277777
 30
0.0
 10
-1.047825792100694
 20
0.60771484375
 30
0.0
 10
-1.183390299479167
 20
0.0213595920138889
 30
0.0
 10
-0.9317260742187499
 20
-0.5005723741319444
 30
0.0
 10
-0.6724826388888888
 20
-1.037662760416667
 30
0.0
 10
-0.1035251193576389
 20
-1.299490017361111
 30
0.0
 10
0.3386528862847222
 20
-1.085894097222222
 30
0.0
 10
0.4566474066840278
 20
-1.02939453125
 30
0.0
 10
0.5515597873263889
 20
-0.9432671440972221
 30
0.0
 10
0.6256293402777777
 20
-0.8392252604166666
 30
0.0
 10
1.039213053385417
 20
-0.6108154296874999
 30
0.0
 10
1.175638834635417
 20
-0.0241156684027778
 30
0.0
 10
0.9238023546006944
 20
0.4981608072916666
 30
0.0
  0
ENDBLK
  5
44
330
3F
100
AcDbEntity
  8
HRS8
100
AcDbBlockEnd
  0
BLOCK
  5
47
330
45
100
AcDbEntity
  8
HRS8
 62
     7
100
AcDbBlockBegin
  2
AI9-BLK3
 70
     0
 10
0.0
 20
0.0
 30
0.0
  3
AI9-BLK3
  1

  4

  0
ELLIPSE
  5
49
330
45
100
AcDbEntity
  8
HRS8
 62
     7
100
AcDbEllipse
 10
-0.1266072591145833
 20
-0.1136020236545139
 30
0.0
 11
0.4812798394097222
 21
-0.9806464301215278
 31
0.0
210
0.0
220
0.0
230
1.0
 40
0.8245364223058516
 41
0.0
 42
6.283185307179586
  0
SPLINE
  5
48
330
45
100
AcDbEntity
  8
HRS8
 62
     7
100
AcDbSpline
210
0.0
220
0.0
230
1.0
 70
    11
 71
     3
 72
    23
 73
    19
 74
     0
 42
0.0000000001
 43
0.0000000001
 40
0.0
 40
0.0
 40
0.0
 40
0.0
 40
1.0
 40
1.0
 40
1.0
 40
2.0
 40
2.0
 40
2.0
 40
3.0
 40
3.0
 40
3.0
 40
4.0
 40
4.0
 40
4.0
 40
5.0
 40
5.0
 40
5.0
 40
6.0
 40
6.0
 40
6.0
 40
6.0
 10
0.9353434244791666
 20
0.512716335720486
 30
0.0
 10
0.6693820529513889
 20
1.053424072265625
 30
0.0
 10
0.09146728515625
 20
1.313701036241319
 30
0.0
 10
-0.3551893446180555
 20
1.095281982421875
 30
0.0
 10
-0.4737006293402777
 20
1.037059868706597
 30
0.0
 10
-0.5691297743055556
 20
0.9495544433593749
 30
0.0
 10
-0.6431993272569444
 20
0.8437900119357639
 30
0.0
 10
-1.060400390625
 20
0.6093512641059027
 30
0.0
 10
-1.193381076388889
 20
0.0150722927517361
 30
0.0
 10
-0.9348266601562499
 20
-0.5111660427517361
 30
0.0
 10
-0.6686930338541666
 20
-1.052735053168403
 30
0.0
 10
-0.0911227756076389
 20
-1.313528781467014
 30
0.0
 10
0.3546725802951389
 20
-1.094248453776042
 30
0.0
 10
0.4737006293402777
 20
-1.036198594835069
 30
0.0
 10
0.5691297743055556
 20
-0.948348659939236
 30
0.0
 10
0.6431993272569444
 20
-0.8427564832899305
 30
0.0
 10
1.060055881076389
 20
-0.6086622450086805
 30
0.0
 10
1.193897840711806
 20
-0.0140387641059028
 30
0.0
 10
0.9353434244791666
 20
0.512716335720486
 30
0.0
  0
ENDBLK
  5
4A
330
45
100
AcDbEntity
  8
HRS8
100
AcDbBlockEnd
  0
BLOCK
  5
4D
330
4B
100
AcDbEntity
  8
HRS8
 62
     7
100
AcDbBlockBegin
  2
AI9-BLK4
 70
     0
 10
0.0
 20
0.0
 30
0.0
  3
AI9-BLK4
  1

  4

  0
ELLIPSE
  5
4F
330
4B
100
AcDbEntity
  8
HRS8
 62
     7
100
AcDbEllipse
 10
-0.1225592719184028
 20
-0.1159274631076389
 30
0.0
 11
0.4940266927083333
 21
-0.988656277126736
 31
0.0
210
0.0
220
0.0
230
1.0
 40
0.8245975583365862
 41
0.0
 42
6.283185307179586
  0
SPLINE
  5
4E
330
4B
100
AcDbEntity
  8
HRS8
 62
     7
100
AcDbSpline
210
0.0
220
0.0
230
1.0
 70
    11
 71
     3
 72
    23
 73
    19
 74
     0
 42
0.0000000001
 43
0.0000000001
 40
0.0
 40
0.0
 40
0.0
 40
0.0
 40
1.0
 40
1.0
 40
1.0
 40
2.0
 40
2.0
 40
2.0
 40
3.0
 40
3.0
 40
3.0
 40
4.0
 40
4.0
 40
4.0
 40
5.0
 40
5.0
 40
5.0
 40
6.0
 40
6.0
 40
6.0
 40
6.0
 10
0.9474873860677082
 20
0.5252909342447917
 30
0.0
 10
0.6746358235677082
 20
1.070477294921875
 30
0.0
 10
0.0879360622829861
 20
1.329548475477431
 30
0.0
 10
-0.3621656629774305
 20
1.105617268880208
 30
0.0
 10
-0.4817104763454861
 20
1.04584486219618
 30
0.0
 10
-0.5778286404079861
 20
0.9566168891059027
 30
0.0
 10
-0.6518981933593749
 20
0.8489576551649305
 30
0.0
 10
-1.072372097439236
 20
0.6088344997829861
 30
0.0
 10
-1.202596706814236
 20
0.0068040635850694
 30
0.0
 10
-0.9374966091579861
 20
-0.5239128960503472
 30
0.0
 10
-0.664300537109375
 20
-1.069788275824653
 30
0.0
 10
-0.0781175401475694
 20
-1.329720730251736
 30
0.0
 10
0.3714674207899305
 20
-1.104583740234375
 30
0.0
 10
0.4911844889322916
 20
-1.044983588324653
 30
0.0
 10
0.5871303982204861
 20
-0.9555833604600693
 30
0.0
 10
0.661544460720486
 20
-0.8480963812934027
 30
0.0
 10
1.081501600477431
 20
-0.6083177354600694
 30
0.0
 10
1.212759738498264
 20
-0.0057705349392361
 30
0.0
 10
0.9474873860677082
 20
0.5252909342447917
 30
0.0
  0
ENDBLK
  5
50
330
4B
100
AcDbEntity
  8
HRS8
100
AcDbBlockEnd
  0
BLOCK
  5
53
330
51
100
AcDbEntity
  8
HRS8
 62
     7
100
AcDbBlockBegin
  2
AI9-BLK5
 70
     0
 10
0.0
 20
0.0
 30
0.0
  3
AI9-BLK5
  1

  4

  0
ELLIPSE
  5
55
330
51
100
AcDbEntity
  8
HRS8
 62
     7
100
AcDbEllipse
 10
-0.1223008897569444
 20
-0.1182529025607639
 30
0.0
 11
0.5066012912326389
 21
-0.9970106336805554
 31
0.0
210
0.0
220
0.0
230
1.0
 40
0.8242794939879293
 41
0.0
 42
6.283185307179586
  0
SPLINE
  5
54
330
51
100
AcDbEntity
  8
HRS8
 62
     7
100
AcDbSpline
210
0.0
220
0.0
230
1.0
 70
    11
 71
     3
 72
    23
 73
    19
 74
     0
 42
0.0000000001
 43
0.0000000001
 40
0.0
 40
0.0
 40
0.0
 40
0.0
 40
1.0
 40
1.0
 40
1.0
 40
2.0
 40
2.0
 40
2.0
 40
3.0
 40
3.0
 40
3.0
 40
4.0
 40
4.0
 40
4.0
 40
5.0
 40
5.0
 40
5.0
 40
6.0
 40
6.0
 40
6.0
 40
6.0
 10
0.9556694878472222
 20
0.5376932779947916
 30
0.0
 10
0.675927734375
 20
1.087186008029514
 30
0.0
 10
0.0807874891493055
 20
1.345395914713542
 30
0.0
 10
-0.3731038411458333
 20
1.115780300564236
 30
0.0
 10
-0.4936821831597222
 20
1.054457600911458
 30
0.0
 10
-0.5901448567708333
 20
0.9635070800781249
 30
0.0
 10
-0.6643866644965277
 20
0.8541252983940971
 30
0.0
 10
-1.088133409288194
 20
0.6079732259114583
 30
0.0
 10
-1.215774197048611
 20
-0.0018086751302083
 30
0.0
 10
-0.9437839084201388
 20
-0.5364874945746527
 30
0.0
 10
-0.6636976453993055
 20
-1.087013753255208
 30
0.0
 10
-0.0689019097222222
 20
-1.346084933810764
 30
0.0
 10
0.3843004014756944
 20
-1.115263536241319
 30
0.0
 10
0.5050509982638889
 20
-1.053940836588542
 30
0.0
 10
0.6015136718749999
 20
-0.9629903157552082
 30
0.0
 10
0.675927734375
 20
-0.8541252983940971
 30
0.0
 10
1.099329969618055
 20
-0.6081454806857638
 30
0.0
 10
1.22783203125
 20
0.002325439453125
 30
0.0
 10
0.9556694878472222
 20
0.5376932779947916
 30
0.0
  0
ENDBLK
  5
56
330
51
100
AcDbEntity
  8
HRS8
100
AcDbBlockEnd
  0
BLOCK
  5
59
330
57
100
AcDbEntity
  8
HRS8
 62
     7
100
AcDbBlockBegin
  2
AI9-BLK6
 70
     0
 10
0.0
 20
0.0
 30
0.0
  3
AI9-BLK6
  1

  4

  0
ELLIPSE
  5
5B
330
57
100
AcDbEntity
  8
HRS8
 62
     7
100
AcDbEllipse
 10
-0.1287604437934028
 20
-0.1206644694010417
 30
0.0
 11
0.5190036349826388
 21
-1.004762098524306
 31
0.0
210
0.0
220
0.0
230
1.0
 40
0.8245874828072657
 41
0.0
 42
6.283185307179586
  0
SPLINE
  5
5A
330
57
100
AcDbEntity
  8
HRS8
 62
     7
100
AcDbSpline
210
0.0
220
0.0
230
1.0
 70
    11
 71
     3
 72
    23
 73
    19
 74
     0
 42
0.0000000001
 43
0.0000000001
 40
0.0
 40
0.0
 40
0.0
 40
0.0
 40
1.0
 40
1.0
 40
1.0
 40
2.0
 40
2.0
 40
2.0
 40
3.0
 40
3.0
 40
3.0
 40
4.0
 40
4.0
 40
4.0
 40
5.0
 40
5.0
 40
5.0
 40
6.0
 40
6.0
 40
6.0
 40
6.0
 10
0.9571336534288194
 20
0.5500956217447917
 30
0.0
 10
0.6705017089843749
 20
1.104239230685764
 30
0.0
 10
0.0667487250434028
 20
1.361243353949653
 30
0.0
 10
-0.3909322102864583
 20
1.125943332248264
 30
0.0
 10
-0.5123718261718749
 20
1.063070339626736
 30
0.0
 10
-0.6093512641059027
 20
0.9703972710503471
 30
0.0
 10
-0.6837653266059027
 20
0.8592929416232639
 30
0.0
 10
-1.110612657335069
 20
0.6079732259114583
 30
0.0
 10
-1.235669623480903
 20
-0.0099046495225694
 30
0.0
 10
-0.9569613986545138
 20
-0.5492343478732639
 30
0.0
 10
-0.6699849446614583
 20
-1.104066975911458
 30
0.0
 10
-0.0665764702690972
 20
-1.36210462782118
 30
0.0
 10
0.3902431911892361
 20
-1.125426567925347
 30
0.0
 10
0.5120273166232638
 20
-1.062725830078125
 30
0.0
 10
0.6090067545572916
 20
-0.970052761501736
 30
0.0
 10
0.6835930718315971
 20
-0.8591206868489583
 30
0.0
 10
1.110095893012153
 20
-0.6079732259114583
 30
0.0
 10
1.236014133029514
 20
0.0104214138454861
 30
0.0
 10
0.9571336534288194
 20
0.5500956217447917
 30
0.0
  0
ENDBLK
  5
5C
330
57
100
AcDbEntity
  8
HRS8
100
AcDbBlockEnd
  0
BLOCK
  5
5F
330
5D
100
AcDbEntity
  8
HRS8
 62
     7
100
AcDbBlockBegin
  2
AI9-BLK7
 70
     0
 10
0.0
 20
0.0
 30
0.0
  3
AI9-BLK7
  1

  4

  0
ELLIPSE
  5
61
330
5D
100
AcDbEntity
  8
HRS8
 62
     7
100
AcDbEllipse
 10
-0.1297078450520833
 20
-0.12247314453125
 30
0.0
 11
0.5318366156684027
 21
-1.013202582465278
 31
0.0
210
0.0
220
0.0
230
1.0
 40
0.8242373102470728
 41
0.0
 42
6.283185307179586
  0
SPLINE
  5
60
330
5D
100
AcDbEntity
  8
HRS8
 62
     7
100
AcDbSpline
210
0.0
220
0.0
230
1.0
 70
    11
 71
     3
 72
    23
 73
    19
 74
     0
 42
0.0000000001
 43
0.0000000001
 40
0.0
 40
0.0
 40
0.0
 40
0.0
 40
1.0
 40
1.0
 40
1.0
 40
2.0
 40
2.0
 40
2.0
 40
3.0
 40
3.0
 40
3.0
 40
4.0
 40
4.0
 40
4.0
 40
5.0
 40
5.0
 40
5.0
 40
6.0
 40
6.0
 40
6.0
 40
6.0
 10
0.9641960991753471
 20
0.563100857204861
 30
0.0
 10
0.6706739637586805
 20
1.121206325954861
 30
0.0
 10
0.0583082411024305
 20
1.377349175347222
 30
0.0
 10
-0.4029900444878472
 20
1.136192491319444
 30
0.0
 10
-0.5252909342447917
 20
1.071941460503472
 30
0.0
 10
-0.622787136501736
 20
0.9778903537326388
 30
0.0
 10
-0.6973734537760417
 20
0.8648912217881943
 30
0.0
 10
-1.127493625217014
 20
0.6078870985243055
 30
0.0
 10
-1.249794514973958
 20
-0.0180867513020833
 30
0.0
 10
-0.9645406087239582
 20
-0.5613783094618056
 30
0.0
 10
-0.6705017089843749
 20
-1.12086181640625
 30
0.0
 10
-0.0584804958767361
 20
-1.377865939670139
 30
0.0
 10
0.4021287706163194
 20
-1.135675726996528
 30
0.0
 10
0.524774169921875
 20
-1.071596950954861
 30
0.0
 10
0.6222703721788194
 20
-0.9768568250868055
 30
0.0
 10
0.696856689453125
 20
-0.8645467122395832
 30
0.0
 10
1.126632351345486
 20
-0.6075425889756944
 30
0.0
 10
1.249794514973958
 20
0.0187757703993056
 30
0.0
 10
0.9641960991753471
 20
0.563100857204861
 30
0.0
  0
ENDBLK
  5
62
330
5D
100
AcDbEntity
  8
HRS8
100
AcDbBlockEnd
  0
BLOCK
  5
65
330
63
100
AcDbEntity
  8
HRS8
 62
     7
100
AcDbBlockBegin
  2
AI9-BLK8
 70
     0
 10
0.0
 20
0.0
 30
0.0
  3
AI9-BLK8
  1

  4

  0
ELLIPSE
  5
67
330
63
100
AcDbEntity
  8
HRS8
 62
     7
100
AcDbEllipse
 10
-0.1221286349826389
 20
-0.1251430935329861
 30
0.0
 11
0.5444973415798611
 21
-1.020954047309028
 31
0.0
210
0.0
220
0.0
230
1.0
 40
0.8244552298450066
 41
0.0
 42
6.283185307179586
  0
SPLINE
  5
66
330
63
100
AcDbEntity
  8
HRS8
 62
     7
100
AcDbSpline
210
0.0
220
0.0
230
1.0
 70
    11
 71
     3
 72
    23
 73
    19
 74
     0
 42
0.0000000001
 43
0.0000000001
 40
0.0
 40
0.0
 40
0.0
 40
0.0
 40
1.0
 40
1.0
 40
1.0
 40
2.0
 40
2.0
 40
2.0
 40
3.0
 40
3.0
 40
3.0
 40
4.0
 40
4.0
 40
4.0
 40
5.0
 40
5.0
 40
5.0
 40
6.0
 40
6.0
 40
6.0
 40
6.0
 10
0.9801296657986111
 20
0.5754170735677083
 30
0.0
 10
0.679372829861111
 20
1.138001166449653
 30
0.0
 10
0.0585666232638889
 20
1.393282741970486
 30
0.0
 10
-0.4065212673611111
 20
1.14661390516493
 30
0.0
 10
-0.5298556857638889
 20
1.080812581380208
 30
0.0
 10
-0.6276963975694444
 20
0.9846944173177082
 30
0.0
 10
-0.7024549696180555
 20
0.8699727376302082
 30
0.0
 10
-1.135847981770833
 20
0.6071119520399305
 30
0.0
 10
-1.255565049913194
 20
-0.0264411078559028
 30
0.0
 10
-0.9635932074652777
 20
-0.5745557996961805
 30
0.0
 10
-0.6624918619791667
 20
-1.138173421223958
 30
0.0
 10
-0.0420301649305556
 20
-1.394144015842014
 30
0.0
 10
0.4223687065972222
 20
-1.146097140842014
 30
0.0
 10
0.5460476345486111
 20
-1.080295817057292
 30
0.0
 10
0.6438883463541666
 20
-0.9841776529947915
 30
0.0
 10
0.7186469184027777
 20
-0.8701449924045138
 30
0.0
 10
1.151695421006944
 20
-0.607284206814236
 30
0.0
 10
1.272273763020833
 20
0.0266133626302083
 30
0.0
 10
0.9801296657986111
 20
0.5754170735677083
 30
0.0
  0
ENDBLK
  5
68
330
63
100
AcDbEntity
  8
HRS8
100
AcDbBlockEnd
  0
BLOCK
  5
6B
330
69
100
AcDbEntity
  8
HRS8
 62
     7
100
AcDbBlockBegin
  2
AI9-BLK9
 70
     0
 10
0.0
 20
0.0
 30
0.0
  3
AI9-BLK9
  1

  4

  0
ELLIPSE
  5
6D
330
69
100
AcDbEntity
  8
HRS8
 62
     7
100
AcDbEllipse
 10
-0.1397847493489583
 20
-0.1269517686631944
 30
0.0
 11
0.5570719401041666
 21
-1.029050021701389
 31
0.0
210
0.0
220
0.0
230
1.0
 40
0.8244075365082985
 41
0.0
 42
6.283185307179586
  0
SPLINE
  5
6C
330
69
100
AcDbEntity
  8
HRS8
 62
     7
100
AcDbSpline
210
0.0
220
0.0
230
1.0
 70
    11
 71
     3
 72
    23
 73
    19
 74
     0
 42
0.0000000001
 43
0.0000000001
 40
0.0
 40
0.0
 40
0.0
 40
0.0
 40
1.0
 40
1.0
 40
1.0
 40
2.0
 40
2.0
 40
2.0
 40
3.0
 40
3.0
 40
3.0
 40
4.0
 40
4.0
 40
4.0
 40
5.0
 40
5.0
 40
5.0
 40
6.0
 40
6.0
 40
6.0
 40
6.0
 10
0.9702250162760416
 20
0.5882500542534722
 30
0.0
 10
0.6629224989149305
 20
1.155657280815972
 30
0.0
 10
0.0331590440538194
 20
1.409560818142361
 30
0.0
 10
-0.4353739420572916
 20
1.157035319010417
 30
0.0
 10
-0.5597418891059027
 20
1.08985595703125
 30
0.0
 10
-0.6582716200086805
 20
0.9920152452256944
 30
0.0
 10
-0.7330301920572916
 20
0.8755710177951388
 30
0.0
 10
-1.169523790147569
 20
0.6071980794270833
 30
0.0
 10
-1.287001546223958
 20
-0.0342787000868056
 30
0.0
 10
-0.9879672580295138
 20
-0.5865275065104166
 30
0.0
 10
-0.6799757215711805
 20
-1.15496826171875
 30
0.0
 10
-0.0509012858072917
 20
-1.409905327690972
 30
0.0
 10
0.4172871907552083
 20
-1.156001790364583
 30
0.0
 10
0.5416551378038194
 20
-1.088822428385417
 30
0.0
 10
0.6401848687065972
 20
-0.990981716579861
 30
0.0
 10
0.7152879503038194
 20
-0.8748819986979166
 30
0.0
 10
1.151437038845486
 20
-0.6065090603298611
 30
0.0
 10
1.269259304470486
 20
0.03565673828125
 30
0.0
 10
0.9702250162760416
 20
0.5882500542534722
 30
0.0
  0
ENDBLK
  5
6E
330
69
100
AcDbEntity
  8
HRS8
100
AcDbBlockEnd
  0
BLOCK
  5
71
330
6F
100
AcDbEntity
  8
HRS8
 62
     7
100
AcDbBlockBegin
  2
AI9-BLK10
 70
     0
 10
0.0
 20
0.0
 30
0.0
  3
AI9-BLK10
  1

  4

  0
ELLIPSE
  5
73
330
6F
100
AcDbEntity
  8
HRS8
 62
     7
100
AcDbEllipse
 10
-0.1313442654079861
 20
-0.1303107367621528
 30
0.0
 11
0.5693020290798611
 21
-1.036973741319444
 31
0.0
210
0.0
220
0.0
230
1.0
 40
0.8246497166581338
 41
0.0
 42
6.283185307179586
  0
SPLINE
  5
72
330
6F
100
AcDbEntity
  8
HRS8
 62
     7
100
AcDbSpline
210
0.0
220
0.0
230
1.0
 70
    11
 71
     3
 72
    23
 73
    19
 74
     0
 42
0.0000000001
 43
0.0000000001
 40
0.0
 40
0.0
 40
0.0
 40
0.0
 40
1.0
 40
1.0
 40
1.0
 40
2.0
 40
2.0
 40
2.0
 40
3.0
 40
3.0
 40
3.0
 40
4.0
 40
4.0
 40
4.0
 40
5.0
 40
5.0
 40
5.0
 40
6.0
 40
6.0
 40
6.0
 40
6.0
 10
0.9864169650607638
 20
0.5997049967447916
 30
0.0
 10
0.6718797471788194
 20
1.171590847439236
 30
0.0
 10
0.0341925726996528
 20
1.424460856119792
 30
0.0
 10
-0.4384745279947916
 20
1.166423204210069
 30
0.0
 10
-0.563531494140625
 20
1.097521294487847
 30
0.0
 10
-0.6627502441406249
 20
0.9979580349392361
 30
0.0
 10
-0.737508816189236
 20
0.8797912597656249
 30
0.0
 10
-1.177447509765625
 20
0.6059061686197916
 30
0.0
 10
-1.291824679904514
 20
-0.0434943305121528
 30
0.0
 10
-0.9862447102864582
 20
-0.6002217610677083
 30
0.0
 10
-0.6713629828559027
 20
-1.173141140407986
 30
0.0
 10
-0.0336758083767361
 20
-1.427044677734375
 30
0.0
 10
0.4379577636718749
 20
-1.167284478081597
 30
0.0
 10
0.5633592393663194
 20
-1.098727077907986
 30
0.0
 10
0.6625779893663194
 20
-0.999163818359375
 30
0.0
 10
0.7376810709635416
 20
-0.8816860622829861
 30
0.0
 10
1.176930745442708
 20
-0.6074564615885416
 30
0.0
 10
1.29234144422743
 20
0.042633056640625
 30
0.0
 10
0.9864169650607638
 20
0.5997049967447916
 30
0.0
  0
ENDBLK
  5
74
330
6F
100
AcDbEntity
  8
HRS8
100
AcDbBlockEnd
  0
BLOCK
  5
77
330
75
100
AcDbEntity
  8
HRS8
 62
     7
100
AcDbBlockBegin
  2
AI9-BLK11
 70
     0
 10
0.0
 20
0.0
 30
0.0
  3
AI9-BLK11
  1

  4

  0
ELLIPSE
  5
79
330
75
100
AcDbEntity
  8
HRS8
 62
     7
100
AcDbEllipse
 10
-0.1217841254340278
 20
-0.130224609375
 30
0.0
 11
0.5820488823784722
 21
-1.045241970486111
 31
0.0
210
0.0
220
0.0
230
1.0
 40
0.8243813212901755
 41
0.0
 42
6.283185307179586
  0
SPLINE
  5
78
330
75
100
AcDbEntity
  8
HRS8
 62
     7
100
AcDbSpline
210
0.0
220
0.0
230
1.0
 70
    11
 71
     3
 72
    23
 73
    19
 74
     0
 42
0.0000000001
 43
0.0000000001
 40
0.0
 40
0.0
 40
0.0
 40
0.0
 40
1.0
 40
1.0
 40
1.0
 40
2.0
 40
2.0
 40
2.0
 40
3.0
 40
3.0
 40
3.0
 40
4.0
 40
4.0
 40
4.0
 40
5.0
 40
5.0
 40
5.0
 40
6.0
 40
6.0
 40
6.0
 40
6.0
 10
1.004245334201389
 20
0.6146050347222222
 30
0.0
 10
0.6828179253472222
 20
1.190625
 30
0.0
 10
0.0361735026041667
 20
1.442805989583333
 30
0.0
 10
-0.4399386935763889
 20
1.178911675347222
 30
0.0
 10
-0.5660291883680555
 20
1.108631727430556
 30
0.0
 10
-0.6655924479166666
 20
1.007345920138889
 30
0.0
 10
-0.7406955295138888
 20
0.8874565972222221
 30
0.0
 10
-1.183734809027778
 20
0.60771484375
 30
0.0
 10
-1.295700412326389
 20
-0.049609375
 30
0.0
 10
-0.983230251736111
 20
-0.6104709201388888
 30
0.0
 10
-0.6614583333333333
 20
-1.187868923611111
 30
0.0
 10
-0.0151584201388889
 20
-1.440738932291667
 30
0.0
 10
0.4602647569444444
 20
-1.175466579861111
 30
0.0
 10
0.5866997612847221
 20
-1.105186631944444
 30
0.0
 10
0.6862630208333332
 20
-1.003900824652778
 30
0.0
 10
0.7613661024305555
 20
-0.8847005208333333
 30
0.0
 10
1.204060872395833
 20
-0.6049587673611111
 30
0.0
 10
1.316715494791667
 20
0.0530544704861111
 30
0.0
 10
1.004245334201389
 20
0.6146050347222222
 30
0.0
  0
ENDBLK
  5
7A
330
75
100
AcDbEntity
  8
HRS8
100
AcDbBlockEnd
  0
BLOCK
  5
94
330
92
100
AcDbEntity
  8
HRS8
 62
     7
100
AcDbBlockBegin
  2
AI9-BLK13
 70
     0
 10
0.0
 20
0.0
 30
0.0
  3
AI9-BLK13
  1

  4

  0
LWPOLYLINE
  5
95
330
92
100
AcDbEntity
  8
HRS8
 62
     7
100
AcDbPolyline
 90
        9
 70
     1
 43
0.0
 10
-28.20267130533854
 20
13.36412828233507
 10
-30.41287231445312
 20
11.6844719780816
 10
-30.41287231445312
 20
5.495874701605902
 10
-29.26358846028646
 20
3.992779541015625
 10
28.85224405924479
 20
-13.36412828233507
 10
29.88232760959201
 20
-12.53971693250868
 10
30.41287231445312
 20
-11.92063327365451
 10
30.41287231445312
 20
-4.671118842230903
 10
29.13439737955729
 20
-2.780794949001736
  0
ENDBLK
  5
A0
330
92
100
AcDbEntity
  8
HRS8
100
AcDbBlockEnd
  0
ENDSEC
  0
SECTION
  2
ENTITIES
  0
LWPOLYLINE
  5
109
330
A
100
AcDbEntity
  8
WOOD
 62
     7
100
AcDbPolyline
 90
       14
 70
     1
 43
0.0
 10
161.8695339626736
 20
125.2550591362847
 10
160.7498779296875
 20
122.9926649305556
 10
160.7705485026042
 20
117.1470269097222
 10
156.5268798828125
 20
116.8817545572917
 10
156.575111219618
 20
114.5621717664931
 10
152.9136637369792
 20
107.1662407769097
 10
50.84151340060763
 20
137.6908203125
 10
50.84151340060763
 20
157.0784396701389
 10
55.80021158854166
 20
160.7970757378472
 10
55.74078369140624
 20
163.2653143988715
 10
60.69155815972222
 20
163.2653143988715
 10
60.65486789279513
 20
164.4378526475694
 10
66.99384358723958
 20
169.1912231445312
 10
161.8695339626736
 20
145.1267144097222
  0
LWPOLYLINE
  5
F4
330
A
100
AcDbEntity
  8
WOOD
 62
     7
100
AcDbPolyline
 90
        3
 70
     0
 43
0.0
 10
156.5671875
 20
135.3956976996528
 10
152.7248725043403
 20
128.3435872395833
 10
152.7248725043403
 20
107.2454779730903
  0
LINE
  5
F3
330
A
100
AcDbEntity
  8
WOOD
 62
     7
100
AcDbLine
 10
153.8745008680556
 20
137.0961968315972
 30
0.0
 11
156.5671875
 21
135.3956976996528
 31
0.0
  0
LINE
  5
F2
330
A
100
AcDbEntity
  8
WOOD
 62
     7
100
AcDbLine
 10
160.6820095486111
 20
137.3611246744792
 30
0.0
 11
153.8745008680556
 21
137.0961968315972
 31
0.0
  0
LINE
  5
F1
330
A
100
AcDbEntity
  8
WOOD
 62
     7
100
AcDbLine
 10
158.4778374565972
 20
138.9031494140625
 30
0.0
 11
160.6820095486111
 21
137.3611246744792
 31
0.0
  0
LINE
  5
F0
330
A
100
AcDbEntity
  8
WOOD
 62
     7
100
AcDbLine
 10
161.8695339626736
 20
145.1267144097222
 30
0.0
 11
158.4778374565972
 21
138.9031494140625
 31
0.0
  0
LINE
  5
EF
330
A
100
AcDbEntity
  8
WOOD
 62
     7
100
AcDbLine
 10
152.7248725043403
 20
128.3435872395833
 30
0.0
 11
50.84151340060763
 21
157.0784396701389
 31
0.0
  0
LINE
  5
EE
330
A
100
AcDbEntity
  8
WOOD
 62
     7
100
AcDbLine
 10
60.33809136284722
 20
163.2651421440972
 30
0.0
 11
62.28302001953124
 21
163.2653143988715
 31
0.0
  0
LINE
  5
ED
330
A
100
AcDbEntity
  8
WOOD
 62
     7
100
AcDbLine
 10
55.6524169921875
 20
160.7013020833333
 30
0.0
 11
57.50880669487847
 21
162.0274915907118
 31
0.0
  0
LINE
  5
EC
330
A
100
AcDbEntity
  8
WOOD
 62
     7
100
AcDbLine
 10
55.74078369140624
 20
163.2653143988715
 30
0.0
 11
57.59734564887152
 21
161.939124891493
 31
0.0
  0
LINE
  5
EB
330
A
100
AcDbEntity
  8
WOOD
 62
     7
100
AcDbLine
 10
55.74078369140624
 20
162.1160305447048
 30
0.0
 11
56.71316189236111
 21
161.3202134874132
 31
0.0
  0
LINE
  5
EA
330
A
100
AcDbEntity
  8
WOOD
 62
     7
100
AcDbLine
 10
60.60336371527777
 20
164.4145982530382
 30
0.0
 11
62.37138671875
 21
163.1767754448784
 31
0.0
  0
LINE
  5
E9
330
A
100
AcDbEntity
  8
WOOD
 62
     7
100
AcDbLine
 10
156.5268798828125
 20
135.2396348741319
 30
0.0
 11
156.5268798828125
 21
114.4064534505208
 31
0.0
  0
LINE
  5
E8
330
A
100
AcDbEntity
  8
WOOD
 62
     7
100
AcDbLine
 10
160.6823540581597
 20
137.3618136935764
 30
0.0
 11
160.6823540581597
 21
117.0591769748264
 31
0.0
  0
LINE
  5
E7
330
A
100
AcDbEntity
  8
WOOD
 62
     7
100
AcDbLine
 10
152.7252170138889
 20
127.0175699869792
 30
0.0
 11
153.7863064236111
 21
130.2886881510417
 31
0.0
  0
LWPOLYLINE
  5
E2
330
A
100
AcDbEntity
  8
WOOD
 62
     7
100
AcDbPolyline
 90
        3
 70
     0
 43
0.0
 10
152.8137559678819
 20
124.8957356770833
 10
155.2890570746528
 20
131.5261664496528
 10
156.5268798828125
 20
133.7365397135417
  0
LWPOLYLINE
  5
DD
330
A
100
AcDbEntity
  8
WOOD
 62
     7
100
AcDbPolyline
 90
        3
 70
     0
 43
0.0
 10
152.8137559678819
 20
122.6853624131944
 10
155.8196017795139
 20
130.9959662543403
 10
156.6150743272569
 20
131.7914388020833
  0
LWPOLYLINE
  5
D8
330
A
100
AcDbEntity
  8
WOOD
 62
     7
100
AcDbPolyline
 90
        3
 70
     0
 43
0.0
 10
152.7252170138889
 20
120.4753336588542
 10
155.6428683810764
 20
128.5203206380208
 10
156.5268798828125
 20
129.5814100477431
  0
LWPOLYLINE
  5
D3
330
A
100
AcDbEntity
  8
WOOD
 62
     7
100
AcDbPolyline
 90
        3
 70
     0
 43
0.0
 10
152.8137559678819
 20
118.6187717013889
 10
156.0848741319444
 20
126.840492078993
 10
156.4383409288194
 20
127.1943033854167
  0
LWPOLYLINE
  5
CE
330
A
100
AcDbEntity
  8
WOOD
 62
     7
100
AcDbPolyline
 90
        3
 70
     0
 43
0.0
 10
152.8137559678819
 20
113.4249457465278
 10
155.8196017795139
 20
121.7355495876736
 10
156.6150743272569
 20
122.5310221354167
  0
LWPOLYLINE
  5
C9
330
A
100
AcDbEntity
  8
WOOD
 62
     7
100
AcDbPolyline
 90
        3
 70
     0
 43
0.0
 10
152.7252170138889
 20
110.8593831380208
 10
155.6428683810764
 20
118.9043701171875
 10
156.5268798828125
 20
119.9654595269097
  0
LINE
  5
C8
330
A
100
AcDbEntity
  8
WOOD
 62
     7
100
AcDbLine
 10
152.7527777777778
 20
116.5048611111111
 30
0.0
 11
156.5268798828125
 21
125.7797471788194
 31
0.0
  0
LWPOLYLINE
  5
C3
330
A
100
AcDbEntity
  8
WOOD
 62
     7
100
AcDbPolyline
 90
        3
 70
     0
 43
0.0
 10
152.8137559678819
 20
109.3583550347222
 10
156.0848741319444
 20
117.5800754123264
 10
156.4383409288194
 20
117.93388671875
  0
LINE
  5
C2
330
A
100
AcDbEntity
  8
WOOD
 62
     7
100
AcDbLine
 10
152.7527777777778
 20
107.2444444444444
 30
0.0
 11
156.5268798828125
 21
116.5193305121528
 31
0.0
  0
LINE
  5
C1
330
A
100
AcDbEntity
  8
WOOD
 62
     7
100
AcDbLine
 10
154.9355902777778
 20
136.477113172743
 30
0.0
 11
160.5052761501736
 21
136.5656521267361
 31
0.0
  0
LINE
  5
C0
330
A
100
AcDbEntity
  8
WOOD
 62
     7
100
AcDbLine
 10
156.5268798828125
 20
135.0625569661458
 30
0.0
 11
160.5934705946181
 21
135.5045627170139
 31
0.0
  0
LINE
  5
BF
330
A
100
AcDbEntity
  8
WOOD
 62
     7
100
AcDbLine
 10
156.5268798828125
 20
134.0018120659722
 30
0.0
 11
160.6820095486111
 21
134.2670844184028
 31
0.0
  0
LINE
  5
BE
330
A
100
AcDbEntity
  8
WOOD
 62
     7
100
AcDbLine
 10
156.5268798828125
 20
132.675794813368
 30
0.0
 11
160.5934705946181
 21
132.94072265625
 31
0.0
  0
LINE
  5
BD
330
A
100
AcDbEntity
  8
WOOD
 62
     7
100
AcDbLine
 10
156.70361328125
 20
131.2612386067708
 30
0.0
 11
160.5934705946181
 21
131.7032443576389
 31
0.0
  0
LINE
  5
BC
330
A
100
AcDbEntity
  8
WOOD
 62
     7
100
AcDbLine
 10
156.5268798828125
 20
130.2886881510417
 30
0.0
 11
160.6820095486111
 21
130.6421549479167
 31
0.0
  0
LINE
  5
BB
330
A
100
AcDbEntity
  8
WOOD
 62
     7
100
AcDbLine
 10
156.4383409288194
 20
128.7855929904514
 30
0.0
 11
160.6820095486111
 21
129.2275987413194
 31
0.0
  0
LINE
  5
BA
330
A
100
AcDbEntity
  8
WOOD
 62
     7
100
AcDbLine
 10
156.5268798828125
 20
127.4754231770833
 30
0.0
 11
160.6820095486111
 21
127.7406955295139
 31
0.0
  0
LINE
  5
B9
330
A
100
AcDbEntity
  8
WOOD
 62
     7
100
AcDbLine
 10
156.5268798828125
 20
126.1494059244792
 30
0.0
 11
160.5934705946181
 21
126.4143337673611
 31
0.0
  0
LINE
  5
B8
330
A
100
AcDbEntity
  8
WOOD
 62
     7
100
AcDbLine
 10
156.70361328125
 20
124.7348497178819
 30
0.0
 11
160.5934705946181
 21
125.17685546875
 31
0.0
  0
LINE
  5
B7
330
A
100
AcDbEntity
  8
WOOD
 62
     7
100
AcDbLine
 10
156.5268798828125
 20
123.7622992621528
 30
0.0
 11
160.6820095486111
 21
124.1157660590278
 31
0.0
  0
LINE
  5
B6
330
A
100
AcDbEntity
  8
WOOD
 62
     7
100
AcDbLine
 10
156.4383409288194
 20
122.2592041015625
 30
0.0
 11
160.6820095486111
 21
122.7012098524306
 31
0.0
  0
LINE
  5
B5
330
A
100
AcDbEntity
  8
WOOD
 62
     7
100
AcDbLine
 10
159.0907199435764
 20
138.5107530381944
 30
0.0
 11
161.7430989583333
 21
143.5498942057292
 31
0.0
  0
LINE
  5
B4
330
A
100
AcDbEntity
  8
WOOD
 62
     7
100
AcDbLine
 10
159.797998046875
 20
138.0684027777778
 30
0.0
 11
161.8312934027778
 21
141.8700656467014
 31
0.0
  0
LINE
  5
B3
330
A
100
AcDbEntity
  8
WOOD
 62
     7
100
AcDbLine
 10
160.4167371961806
 20
137.6263970269097
 30
0.0
 11
161.9198323567708
 21
140.5440483940972
 31
0.0
  0
LINE
  5
B2
330
A
100
AcDbEntity
  8
WOOD
 62
     7
100
AcDbLine
 10
160.6820095486111
 20
136.2118408203125
 30
0.0
 11
161.8312934027778
 21
138.8642198350694
 31
0.0
  0
LINE
  5
B1
330
A
100
AcDbEntity
  8
WOOD
 62
     7
100
AcDbLine
 10
160.7705485026042
 20
134.7090901692708
 30
0.0
 11
161.7430989583333
 21
137.1843912760417
 31
0.0
  0
LINE
  5
B0
330
A
100
AcDbEntity
  8
WOOD
 62
     7
100
AcDbLine
 10
160.7784722222222
 20
132.9972222222222
 30
0.0
 11
161.8312934027778
 21
135.0790934244792
 31
0.0
  0
LINE
  5
AF
330
A
100
AcDbEntity
  8
WOOD
 62
     7
100
AcDbLine
 10
160.7784722222222
 20
131.4097222222222
 30
0.0
 11
161.9198323567708
 21
133.753076171875
 31
0.0
  0
LINE
  5
AE
330
A
100
AcDbEntity
  8
WOOD
 62
     7
100
AcDbLine
 10
160.6820095486111
 20
129.4208685980903
 30
0.0
 11
161.8312934027778
 21
132.0732476128472
 31
0.0
  0
LINE
  5
AD
330
A
100
AcDbEntity
  8
WOOD
 62
     7
100
AcDbLine
 10
160.7705485026042
 20
127.9181179470486
 30
0.0
 11
161.7430989583333
 21
130.3934190538194
 31
0.0
  0
LINE
  5
AC
330
A
100
AcDbEntity
  8
WOOD
 62
     7
100
AcDbLine
 10
160.7784722222222
 20
126.20625
 30
0.0
 11
161.9198323567708
 21
128.5496039496528
 31
0.0
  0
LINE
  5
AB
330
A
100
AcDbEntity
  8
WOOD
 62
     7
100
AcDbLine
 10
160.6820095486111
 20
124.2173963758681
 30
0.0
 11
161.8312934027778
 21
126.869775390625
 31
0.0
  0
LINE
  5
A5
330
A
100
AcDbEntity
  8
WOOD
 62
     7
100
AcDbLine
 10
156.5268798828125
 20
121.3869059244792
 30
0.0
 11
160.5934705946181
 21
121.6518337673611
 31
0.0
  0
LINE
  5
A4
330
A
100
AcDbEntity
  8
WOOD
 62
     7
100
AcDbLine
 10
156.5268798828125
 20
120.1463270399305
 30
0.0
 11
160.6820095486111
 21
120.4997938368056
 31
0.0
  0
LINE
  5
A3
330
A
100
AcDbEntity
  8
WOOD
 62
     7
100
AcDbLine
 10
156.4383409288194
 20
118.6432318793403
 30
0.0
 11
160.6820095486111
 21
119.0852376302083
 31
0.0
  0
LINE
  5
A2
330
A
100
AcDbEntity
  8
WOOD
 62
     7
100
AcDbLine
 10
156.5268798828125
 20
117.7709337022569
 30
0.0
 11
160.5934705946181
 21
118.0358615451389
 31
0.0
  0
INSERT
  5
93
330
A
100
AcDbEntity
  8
HRS8
 62
     7
100
AcDbBlockReference
  2
AI9-BLK13
 10
100.4762959798177
 20
132.2791781955295
 30
0.0
  0
LWPOLYLINE
  5
7D
330
A
100
AcDbEntity
  8
HRS8
 62
     7
100
AcDbPolyline
 90
        4
 70
     0
 43
0.0
 10
130.4103000217014
 20
119.8590060763889
 10
130.4103000217014
 20
127.1643310546875
 10
129.234144422743
 20
128.9578477647569
 10
71.49623887803818
 20
145.1854532877604
  0
LINE
  5
7C
330
A
100
AcDbEntity
  8
HRS8
 62
     7
100
AcDbLine
 10
129.3516221788194
 20
128.9578477647569
 30
0.0
 11
129.7340277777778
 21
129.4281032986111
 31
0.0
  0
LINE
  5
7B
330
A
100
AcDbEntity
  8
HRS8
 62
     7
100
AcDbLine
 10
130.4099555121528
 20
127.0175699869792
 30
0.0
 11
130.7923611111111
 21
127.4878255208333
 31
0.0
  0
INSERT
  5
76
330
A
100
AcDbEntity
  8
HRS8
 62
     7
100
AcDbBlockReference
  2
AI9-BLK11
 10
128.1575520833333
 20
125.7997287326389
 30
0.0
  0
INSERT
  5
70
330
A
100
AcDbEntity
  8
HRS8
 62
     7
100
AcDbBlockReference
  2
AI9-BLK10
 10
121.9879889594184
 20
123.9060458713108
 30
0.0
  0
INSERT
  5
6A
330
A
100
AcDbEntity
  8
HRS8
 62
     7
100
AcDbBlockReference
  2
AI9-BLK9
 10
115.171523030599
 20
130.5940958658854
 30
0.0
  0
INSERT
  5
64
330
A
100
AcDbEntity
  8
HRS8
 62
     7
100
AcDbBlockReference
  2
AI9-BLK8
 10
109.1850667317708
 20
126.9327345106337
 30
0.0
  0
INSERT
  5
5E
330
A
100
AcDbEntity
  8
HRS8
 62
     7
100
AcDbBlockReference
  2
AI9-BLK7
 10
103.6037536621094
 20
133.0294338650174
 30
0.0
  0
INSERT
  5
58
330
A
100
AcDbEntity
  8
HRS8
 62
     7
100
AcDbBlockReference
  2
AI9-BLK6
 10
93.01232435438367
 20
136.1807488335503
 30
0.0
  0
INSERT
  5
52
330
A
100
AcDbEntity
  8
HRS8
 62
     7
100
AcDbBlockReference
  2
AI9-BLK5
 10
87.59017469618055
 20
133.3115010579427
 30
0.0
  0
INSERT
  5
4C
330
A
100
AcDbEntity
  8
HRS8
 62
     7
100
AcDbBlockReference
  2
AI9-BLK4
 10
82.06415540907118
 20
139.9278069390191
 30
0.0
  0
INSERT
  5
46
330
A
100
AcDbEntity
  8
HRS8
 62
     7
100
AcDbBlockReference
  2
AI9-BLK3
 10
76.7243435329861
 20
137.2938591851128
 30
0.0
  0
INSERT
  5
40
330
A
100
AcDbEntity
  8
HRS8
 62
     7
100
AcDbBlockReference
  2
AI9-BLK2
 10
71.99216037326389
 20
141.9434461805556
 30
0.0
  0
INSERT
  5
2A
330
A
100
AcDbEntity
  8
HRS8
 62
     7
100
AcDbBlockReference
  2
AI9-BLK1
 10
97.67293565538193
 20
131.1201619466146
 30
0.0
  0
LWPOLYLINE
  5
126
330
A
100
AcDbEntity
  8
WOOD
 62
     7
100
AcDbPolyline
 90
        3
 70
     0
 43
0.0
 10
111.8305555555556
 20
157.8093166775174
 10
98.77777777777777
 20
143.6982055664062
 10
98.77777777777777
 20
138.1802894981166
  0
LINE
  5
12B
330
A
100
AcDbEntity
  8
0
  6
Continuous
370
     0
100
AcDbLine
 10
98.77777777777777
 20
128.0393580666397
 30
0.0
 11
98.77777777777777
 21
123.3555260152992
 31
0.0
  0
ENDSEC
  0
SECTION
  2
OBJECTS
  0
DICTIONARY
  5
19
330
0
100
AcDbDictionary
281
     1
  3
ACAD_COLOR
350
199
  3
ACAD_GROUP
350
1A
  3
ACAD_LAYOUT
350
1E
  3
ACAD_MATERIAL
350
19B
  3
ACAD_MLINESTYLE
350
1B
  3
ACAD_PLOTSETTINGS
350
22
  3
ACAD_PLOTSTYLENAME
350
1F
  3
ACAD_WIPEOUT_VARS
350
23
  3
ACDBHEADERROUNDTRIPXREC
350
198
  0
DICTIONARY
  5
199
102
{ACAD_REACTORS
330
19
102
}
330
19
100
AcDbDictionary
281
     1
  0
DICTIONARY
  5
1A
102
{ACAD_REACTORS
330
19
102
}
330
19
100
AcDbDictionary
281
     1
  0
DICTIONARY
  5
1E
102
{ACAD_REACTORS
330
19
102
}
330
19
100
AcDbDictionary
281
     1
  3
Layout1
350
21
  3
Model
350
20
  0
DICTIONARY
  5
19B
102
{ACAD_REACTORS
330
19
102
}
330
19
100
AcDbDictionary
281
     1
  0
DICTIONARY
  5
1B
102
{ACAD_REACTORS
330
19
102
}
330
19
100
AcDbDictionary
281
     1
  3
Standard
350
1C
  0
DICTIONARY
  5
22
102
{ACAD_REACTORS
330
19
102
}
330
19
100
AcDbDictionary
281
     1
  0
ACDBDICTIONARYWDFLT
  5
1F
102
{ACAD_REACTORS
330
19
102
}
330
19
100
AcDbDictionary
281
     1
  3
Normal
350
1D
100
AcDbDictionaryWithDefault
340
1D
  0
WIPEOUTVARIABLES
  5
23
330
19
100
AcDbWipeoutVariables
 70
     1
  0
DICTIONARY
  5
198
102
{ACAD_REACTORS
330
19
102
}
330
19
100
AcDbDictionary
281
     1
  3
COLORDICT
350
19A
  3
MATERIALDICT
350
19C
  0
LAYOUT
  5
21
102
{ACAD_REACTORS
330
1E
102
}
102
{ACAD_XDICTIONARY
360
19D
102
}
330
1E
100
AcDbPlotSettings
  1

  2

  4

  6

 40
0.0
 41
0.0
 42
0.0
 43
0.0
 44
0.0
 45
0.0
 46
0.0
 47
0.0
 48
0.0
 49
0.0
140
0.0
141
0.0
142
1.0
143
1.0
 70
     0
 72
     0
 73
     0
 74
     0
  7

 75
     0
147
1.0
148
0.0
149
0.0
100
AcDbLayout
  1
Layout1
 70
     0
 71
     1
 10
0.0
 20
0.0
 11
12.0
 21
9.0
 12
0.0
 22
0.0
 32
0.0
 14
1.000000000000000E+20
 24
1.000000000000000E+20
 34
1.000000000000000E+20
 15
-1.000000000000000E+20
 25
-1.000000000000000E+20
 35
-1.000000000000000E+20
146
0.0
 13
0.0
 23
0.0
 33
0.0
 16
1.0
 26
0.0
 36
0.0
 17
0.0
 27
1.0
 37
0.0
 76
     0
330
B
  0
LAYOUT
  5
20
102
{ACAD_REACTORS
330
1E
102
}
102
{ACAD_XDICTIONARY
360
19F
102
}
330
1E
100
AcDbPlotSettings
  1

  2

  4

  6

 40
0.0
 41
0.0
 42
0.0
 43
0.0
 44
0.0
 45
0.0
 46
0.0
 47
0.0
 48
0.0
 49
0.0
140
0.0
141
0.0
142
1.0
143
1.0
 70
  1024
 72
     0
 73
     0
 74
     0
  7

 75
     0
147
1.0
148
0.0
149
0.0
100
AcDbLayout
  1
Model
 70
     0
 71
     0
 10
0.0
 20
0.0
 11
0.0
 21
0.0
 12
0.0
 22
0.0
 32
0.0
 14
0.0
 24
0.0
 34
0.0
 15
0.0
 25
0.0
 35
0.0
146
0.0
 13
0.0
 23
0.0
 33
0.0
 16
0.0
 26
0.0
 36
0.0
 17
0.0
 27
0.0
 37
0.0
 76
     0
330
A
  0
MLINESTYLE
  5
1C
102
{ACAD_REACTORS
330
1B
102
}
330
1B
100
AcDbMlineStyle
  2
STANDARD
 70
     0
  3

 62
     0
 51
90.0000000000002
 52
90.0000000000002
 71
     2
 49
0.5
 62
   256
  6
BYLAYER
 49
-0.5
 62
   256
  6
BYLAYER
  0
ACDBPLACEHOLDER
  5
1D
102
{ACAD_REACTORS
330
1F
102
}
330
1F
  0
XRECORD
  5
19A
102
{ACAD_REACTORS
330
198
102
}
330
198
100
AcDbXrecord
340
199
  0
XRECORD
  5
19C
102
{ACAD_REACTORS
330
198
102
}
330
198
100
AcDbXrecord
340
19B
  0
DICTIONARY
  5
19D
330
21
100
AcDbDictionary
280
     1
281
     1
  3
ACAD_XREC_ROUNDTRIP
360
19E
  0
DICTIONARY
  5
19F
330
20
100
AcDbDictionary
280
     1
281
     1
  3
ACAD_XREC_ROUNDTRIP
360
1A0
  0
XRECORD
  5
19E
102
{ACAD_REACTORS
330
19D
102
}
330
19D
100
AcDbXrecord
102
SHADEPLOT
 70
 27424
102
SHADEPLOTRESLEVEL
 70
 25504
102
SHADEPLOTCUSTOMDPI
 70
 16888
  0
XRECORD
  5
1A0
102
{ACAD_REACTORS
330
19F
102
}
330
19F
100
AcDbXrecord
102
SHADEPLOT
 70
     0
102
SHADEPLOTRESLEVEL
 70
     0
102
SHADEPLOTCUSTOMDPI
 70
     0
  0
ENDSEC
  0
EOF
