  0
SECTION
  2
HEADER
  9
$ACADVER
  1
AC1015
  9
$ACADMAINTVER
 70
     6
  9
$DWGCODEPAGE
  3
ANSI_1252
  9
$INSBASE
 10
0.0
 20
0.0
 30
0.0
  9
$EXTMIN
 10
48.04307117990285
 20
120.8842311312899
 30
-0.0015258207003612
  9
$EXTMAX
 10
161.0072643383492
 20
222.4701774375758
 30
0.0000000349246008
  9
$LIMMIN
 10
47.96882052951388
 20
120.7552476671007
  9
$LIMMAX
 10
161.1333170572917
 20
222.5991604275174
  9
$ORTHOMODE
 70
     0
  9
$REGENMODE
 70
     1
  9
$FILLMODE
 70
     1
  9
$QTEXTMODE
 70
     0
  9
$MIRRTEXT
 70
     1
  9
$LTSCALE
 40
1.0
  9
$ATTMODE
 70
     1
  9
$TEXTSIZE
 40
0.2
  9
$TRACEWID
 40
0.05
  9
$TEXTSTYLE
  7
STANDARD
  9
$CLAYER
  8
0
  9
$CELTYPE
  6
CONTINUOUS
  9
$CECOLOR
 62
   256
  9
$CELTSCALE
 40
1.0
  9
$DISPSILH
 70
     0
  9
$DIMSCALE
 40
1.0
  9
$DIMASZ
 40
0.18
  9
$DIMEXO
 40
0.0625
  9
$DIMDLI
 40
0.38
  9
$DIMRND
 40
0.0
  9
$DIMDLE
 40
0.0
  9
$DIMEXE
 40
0.18
  9
$DIMTP
 40
0.0
  9
$DIMTM
 40
0.0
  9
$DIMTXT
 40
0.18
  9
$DIMCEN
 40
0.09
  9
$DIMTSZ
 40
0.0
  9
$DIMTOL
 70
     0
  9
$DIMLIM
 70
     0
  9
$DIMTIH
 70
     1
  9
$DIMTOH
 70
     1
  9
$DIMSE1
 70
     0
  9
$DIMSE2
 70
     0
  9
$DIMTAD
 70
     0
  9
$DIMZIN
 70
     0
  9
$DIMBLK
  1

  9
$DIMASO
 70
     1
  9
$DIMSHO
 70
     1
  9
$DIMPOST
  1

  9
$DIMAPOST
  1

  9
$DIMALT
 70
     0
  9
$DIMALTD
 70
     2
  9
$DIMALTF
 40
25.4
  9
$DIMLFAC
 40
1.0
  9
$DIMTOFL
 70
     0
  9
$DIMTVP
 40
0.0
  9
$DIMTIX
 70
     0
  9
$DIMSOXD
 70
     0
  9
$DIMSAH
 70
     0
  9
$DIMBLK1
  1

  9
$DIMBLK2
  1

  9
$DIMSTYLE
  2
STANDARD
  9
$DIMCLRD
 70
     0
  9
$DIMCLRE
 70
     0
  9
$DIMCLRT
 70
     0
  9
$DIMTFAC
 40
1.0
  9
$DIMGAP
 40
0.09
  9
$DIMJUST
 70
     0
  9
$DIMSD1
 70
     0
  9
$DIMSD2
 70
     0
  9
$DIMTOLJ
 70
     1
  9
$DIMTZIN
 70
     0
  9
$DIMALTZ
 70
     0
  9
$DIMALTTZ
 70
     0
  9
$DIMUPT
 70
     0
  9
$DIMDEC
 70
     4
  9
$DIMTDEC
 70
     4
  9
$DIMALTU
 70
     2
  9
$DIMALTTD
 70
     2
  9
$DIMTXSTY
  7
STANDARD
  9
$DIMAUNIT
 70
     0
  9
$DIMADEC
 70
     0
  9
$DIMALTRND
 40
0.0
  9
$DIMAZIN
 70
     0
  9
$DIMDSEP
 70
    46
  9
$DIMATFIT
 70
     3
  9
$DIMFRAC
 70
     0
  9
$DIMLDRBLK
  1

  9
$DIMLUNIT
 70
     2
  9
$DIMLWD
 70
    -2
  9
$DIMLWE
 70
    -2
  9
$DIMTMOVE
 70
     0
  9
$LUNITS
 70
     2
  9
$LUPREC
 70
     4
  9
$SKETCHINC
 40
0.1
  9
$FILLETRAD
 40
0.0
  9
$AUNITS
 70
     0
  9
$AUPREC
 70
     0
  9
$MENU
  1
acad
  9
$ELEVATION
 40
0.0
  9
$PELEVATION
 40
0.0
  9
$THICKNESS
 40
0.0
  9
$LIMCHECK
 70
     0
  9
$CHAMFERA
 40
0.0
  9
$CHAMFERB
 40
0.0
  9
$CHAMFERC
 40
0.0
  9
$CHAMFERD
 40
0.0
  9
$SKPOLY
 70
     0
  9
$TDCREATE
 40
2444971.666666667
  9
$TDUCREATE
 40
2444972.0
  9
$TDUPDATE
 40
2452215.573966204
  9
$TDUUPDATE
 40
2452215.907299537
  9
$TDINDWG
 40
0.0006947917
  9
$TDUSRTIMER
 40
0.0006947917
  9
$USRTIMER
 70
     1
  9
$ANGBASE
 50
0.0
  9
$ANGDIR
 70
     0
  9
$PDMODE
 70
     0
  9
$PDSIZE
 40
0.0
  9
$PLINEWID
 40
0.0
  9
$SPLFRAME
 70
     0
  9
$SPLINETYPE
 70
     6
  9
$SPLINESEGS
 70
     8
  9
$HANDSEED
  5
1AA
  9
$SURFTAB1
 70
     6
  9
$SURFTAB2
 70
     6
  9
$SURFTYPE
 70
     6
  9
$SURFU
 70
     6
  9
$SURFV
 70
     6
  9
$UCSBASE
  2

  9
$UCSNAME
  2

  9
$UCSORG
 10
0.0
 20
0.0
 30
0.0
  9
$UCSXDIR
 10
1.0
 20
0.0
 30
0.0
  9
$UCSYDIR
 10
0.0
 20
1.0
 30
0.0
  9
$UCSORTHOREF
  2

  9
$UCSORTHOVIEW
 70
     0
  9
$UCSORGTOP
 10
0.0
 20
0.0
 30
0.0
  9
$UCSORGBOTTOM
 10
0.0
 20
0.0
 30
0.0
  9
$UCSORGLEFT
 10
0.0
 20
0.0
 30
0.0
  9
$UCSORGRIGHT
 10
0.0
 20
0.0
 30
0.0
  9
$UCSORGFRONT
 10
0.0
 20
0.0
 30
0.0
  9
$UCSORGBACK
 10
0.0
 20
0.0
 30
0.0
  9
$PUCSBASE
  2

  9
$PUCSNAME
  2

  9
$PUCSORG
 10
0.0
 20
0.0
 30
0.0
  9
$PUCSXDIR
 10
1.0
 20
0.0
 30
0.0
  9
$PUCSYDIR
 10
0.0
 20
1.0
 30
0.0
  9
$PUCSORTHOREF
  2

  9
$PUCSORTHOVIEW
 70
     0
  9
$PUCSORGTOP
 10
0.0
 20
0.0
 30
0.0
  9
$PUCSORGBOTTOM
 10
0.0
 20
0.0
 30
0.0
  9
$PUCSORGLEFT
 10
0.0
 20
0.0
 30
0.0
  9
$PUCSORGRIGHT
 10
0.0
 20
0.0
 30
0.0
  9
$PUCSORGFRONT
 10
0.0
 20
0.0
 30
0.0
  9
$PUCSORGBACK
 10
0.0
 20
0.0
 30
0.0
  9
$USERI1
 70
     0
  9
$USERI2
 70
     0
  9
$USERI3
 70
     0
  9
$USERI4
 70
     0
  9
$USERI5
 70
     0
  9
$USERR1
 40
0.0
  9
$USERR2
 40
0.0
  9
$USERR3
 40
0.0
  9
$USERR4
 40
0.0
  9
$USERR5
 40
0.0
  9
$WORLDVIEW
 70
     1
  9
$SHADEDGE
 70
     3
  9
$SHADEDIF
 70
    70
  9
$TILEMODE
 70
     1
  9
$MAXACTVP
 70
    16
  9
$PINSBASE
 10
0.0
 20
0.0
 30
0.0
  9
$PLIMCHECK
 70
     0
  9
$PEXTMIN
 10
1.000000000000000E+20
 20
1.000000000000000E+20
 30
1.000000000000000E+20
  9
$PEXTMAX
 10
-1.000000000000000E+20
 20
-1.000000000000000E+20
 30
-1.000000000000000E+20
  9
$PLIMMIN
 10
0.0
 20
0.0
  9
$PLIMMAX
 10
12.0
 20
9.0
  9
$UNITMODE
 70
     0
  9
$VISRETAIN
 70
     0
  9
$PLINEGEN
 70
     1
  9
$PSLTSCALE
 70
     0
  9
$TREEDEPTH
 70
  3020
  9
$CMLSTYLE
  2
STANDARD
  9
$CMLJUST
 70
     0
  9
$CMLSCALE
 40
1.0
  9
$PROXYGRAPHICS
 70
     0
  9
$MEASUREMENT
 70
     0
  9
$CELWEIGHT
370
    -1
  9
$ENDCAPS
280
     0
  9
$JOINSTYLE
280
     0
  9
$LWDISPLAY
290
     0
  9
$INSUNITS
 70
     0
  9
$HYPERLINKBASE
  1

  9
$STYLESHEET
  1

  9
$XEDIT
290
     1
  9
$CEPSNTYPE
380
     0
  9
$PSTYLEMODE
290
     1
  9
$FINGERPRINTGUID
  2
{890B5571-CEC8-11D5-923F-00805F198AD5}
  9
$VERSIONGUID
  2
{890B5573-CEC8-11D5-923F-00805F198AD5}
  9
$EXTNAMES
290
     1
  9
$PSVPSCALE
 40
0.0
  9
$OLESTARTUP
290
     0
  0
ENDSEC
  0
SECTION
  2
CLASSES
  0
CLASS
  1
LWPOLYLINE
  2
AcDbPolyline
  3
AutoCAD 2000
 90
        0
280
     0
281
     1
  0
CLASS
  1
IMAGE
  2
AcDbRasterImage
  3
ISM
 90
      127
280
     0
281
     1
  0
CLASS
  1
OLE2FRAME
  2
AcDbOle2Frame
  3
AutoCAD 2000
 90
        0
280
     0
281
     1
  0
CLASS
  1
HATCH
  2
AcDbHatch
  3
AutoCAD 2000
 90
        0
280
     0
281
     1
  0
CLASS
  1
DICTIONARYVAR
  2
AcDbDictionaryVar
  3
AutoCAD 2000
 90
        0
280
     0
281
     0
  0
CLASS
  1
RASTERVARIABLES
  2
AcDbRasterVariables
  3
ISM
 90
        0
280
     0
281
     0
  0
CLASS
  1
IMAGEDEF
  2
AcDbRasterImageDef
  3
ISM
 90
        0
280
     0
281
     0
  0
CLASS
  1
IMAGEDEF_REACTOR
  2
AcDbRasterImageDefReactor
  3
ISM
 90
        1
280
     0
281
     0
  0
CLASS
  1
IDBUFFER
  2
AcDbIdBuffer
  3
AutoCAD 2000
 90
        0
280
     0
281
     0
  0
CLASS
  1
SPATIAL_FILTER
  2
AcDbSpatialFilter
  3
AutoCAD 2000
 90
        0
280
     0
281
     0
  0
CLASS
  1
XRECORD
  2
AcDbXrecord
  3
AutoCAD 2000
 90
        0
280
     0
281
     0
  0
CLASS
  1
SORTENTSTABLE
  2
AcDbSortentsTable
  3
AutoCAD 2000
 90
        0
280
     0
281
     0
  0
CLASS
  1
LAYER_INDEX
  2
AcDbLayerIndex
  3
AutoCAD 2000
 90
        0
280
     0
281
     0
  0
CLASS
  1
SPATIAL_INDEX
  2
AcDbSpatialIndex
  3
AutoCAD 2000
 90
        0
280
     0
281
     0
  0
CLASS
  1
OBJECT_PTR
  2
CAseDLPNTableRecord
  3
ASE-LPNTableRecord
 90
        1
280
     1
281
     0
  0
CLASS
  1
LAYOUT
  2
AcDbLayout
  3
ObjectDBX Classes
 90
        0
280
     0
281
     0
  0
CLASS
  1
PLOTSETTINGS
  2
AcDbPlotSettings
  3
AutoCAD 2000
 90
        0
280
     0
281
     0
  0
CLASS
  1
ACDBDICTIONARYWDFLT
  2
AcDbDictionaryWithDefault
  3
AutoCAD 2000
 90
        0
280
     0
281
     0
  0
CLASS
  1
ACDBPLACEHOLDER
  2
AcDbPlaceHolder
  3
ObjectDBX Classes
 90
        0
280
     0
281
     0
  0
CLASS
  1
VBAPROJECT
  2
AcDbVbaProject
  3
ObjectDBX Classes
 90
        0
280
     0
281
     0
  0
CLASS
  1
WIPEOUT
  2
AcDbWipeout
  3
WipeOut|AutoCAD Express Tool|expresstools@autodesk.com
 90
      127
280
     0
281
     1
  0
CLASS
  1
WIPEOUTVARIABLES
  2
AcDbWipeoutVariables
  3
WipeOut|AutoCAD Express Tool|expresstools@autodesk.com
 90
        0
280
     0
281
     0
  0
CLASS
  1
RTEXT
  2
RText
  3
RText|AutoCAD Express Tool|expresstools@autodesk.com
 90
        0
280
     0
281
     1
  0
CLASS
  1
ARCALIGNEDTEXT
  2
AcDbArcAlignedText
  3
ATEXT|AutoCAD Express Tool|expresstools@autodesk.com
 90
        0
280
     0
281
     1
  0
CLASS
  1
LONG_TRANSACTION
  2
AcDbLongTransaction
  3
AutoCAD 2000
 90
        0
280
     1
281
     0
  0
CLASS
  1
LWPOLYLINE
  2
AcDbPolyline
  3
AutoCAD 2000
 90
        0
280
     0
281
     1
  0
CLASS
  1
HATCH
  2
AcDbHatch
  3
AutoCAD 2000
 90
        0
280
     0
281
     1
  0
CLASS
  1
XRECORD
  2
AcDbXrecord
  3
AutoCAD 2000
 90
        0
280
     0
281
     0
  0
ENDSEC
  0
SECTION
  2
TABLES
  0
TABLE
  2
VPORT
  5
7
330
0
100
AcDbSymbolTable
 70
     2
  0
VPORT
  5
176
330
7
100
AcDbSymbolTableRecord
100
AcDbViewportTableRecord
  2
*Active
 70
     0
 10
0.0
 20
0.0
 11
1.0
 21
1.0
 12
104.5251677591261
 22
171.6772042844329
 13
0.0
 23
0.0
 14
1.0
 24
1.0
 15
0.0
 25
0.0
 16
0.0
 26
0.0
 36
1.0
 17
0.0
 27
0.0
 37
0.0
 40
103.1857249882747
 41
1.836842105263158
 42
50.0
 43
0.0
 44
0.0
 50
0.0
 51
0.0
 71
     0
 72
   100
 73
     1
 74
     1
 75
     0
 76
     0
 77
     0
 78
     0
281
     0
 65
     1
110
0.0
120
0.0
130
0.0
111
1.0
121
0.0
131
0.0
112
0.0
122
1.0
132
0.0
 79
     0
146
0.0
  0
ENDTAB
  0
TABLE
  2
LTYPE
  5
4
330
0
100
AcDbSymbolTable
 70
     1
  0
LTYPE
  5
11
330
4
100
AcDbSymbolTableRecord
100
AcDbLinetypeTableRecord
  2
BYBLOCK
 70
     0
  3

 72
    65
 73
     0
 40
0.0
  0
LTYPE
  5
12
330
4
100
AcDbSymbolTableRecord
100
AcDbLinetypeTableRecord
  2
BYLAYER
 70
     0
  3

 72
    65
 73
     0
 40
0.0
  0
LTYPE
  5
13
330
4
100
AcDbSymbolTableRecord
100
AcDbLinetypeTableRecord
  2
CONTINUOUS
 70
     0
  3
Solid line
 72
    65
 73
     0
 40
0.0
  0
ENDTAB
  0
TABLE
  2
LAYER
  5
2
330
0
100
AcDbSymbolTable
 70
     2
  0
LAYER
  5
14
330
2
100
AcDbSymbolTableRecord
100
AcDbLayerTableRecord
  2
0
 70
     0
 62
     7
  6
CONTINUOUS
370
    -3
390
0
  0
LAYER
  5
21
330
2
100
AcDbSymbolTableRecord
100
AcDbLayerTableRecord
  2
LAYER_1
 70
     0
 62
     5
  6
CONTINUOUS
370
    -3
390
0
  0
ENDTAB
  0
TABLE
  2
STYLE
  5
3
330
0
100
AcDbSymbolTable
 70
     5
  0
STYLE
  5
17
330
3
100
AcDbSymbolTableRecord
100
AcDbTextStyleTableRecord
  2
STANDARD
 70
     0
 40
0.0
 41
1.0
 50
0.0
 71
     0
 42
0.2
  3
txt
  4

  0
STYLE
  5
1D
330
3
100
AcDbSymbolTableRecord
100
AcDbTextStyleTableRecord
  2
STD
 70
     0
 40
0.0
 41
1.0
 50
0.0
 71
     0
 42
0.2
  3
txt
  4

  0
STYLE
  5
1E
330
3
100
AcDbSymbolTableRecord
100
AcDbTextStyleTableRecord
  2
TATESTD
 70
     4
 40
0.0
 41
1.0
 50
0.0
 71
     0
 42
0.2
  3
txt
  4

  0
STYLE
  5
1F
330
3
100
AcDbSymbolTableRecord
100
AcDbTextStyleTableRecord
  2
KANJISTD
 70
     0
 40
0.0
 41
1.0
 50
0.0
 71
     0
 42
0.2
  3
txt
  4
extfont
  0
STYLE
  5
20
330
3
100
AcDbSymbolTableRecord
100
AcDbTextStyleTableRecord
  2
KANJITATE
 70
     4
 40
0.0
 41
1.0
 50
0.0
 71
     0
 42
0.2
  3
txt
  4
extfont
  0
ENDTAB
  0
TABLE
  2
VIEW
  5
5
330
0
100
AcDbSymbolTable
 70
     0
  0
ENDTAB
  0
TABLE
  2
UCS
  5
6
330
0
100
AcDbSymbolTable
 70
     0
  0
ENDTAB
  0
TABLE
  2
APPID
  5
8
330
0
100
AcDbSymbolTable
 70
     1
  0
APPID
  5
16
330
8
100
AcDbSymbolTableRecord
100
AcDbRegAppTableRecord
  2
ACAD
 70
     0
  0
ENDTAB
  0
TABLE
  2
DIMSTYLE
  5
9
330
0
100
AcDbSymbolTable
 70
     1
100
AcDbDimStyleTable
  0
DIMSTYLE
105
18
330
9
100
AcDbSymbolTableRecord
100
AcDbDimStyleTableRecord
  2
STANDARD
 70
     0
  3

  4

289
     0
340
17
  0
ENDTAB
  0
TABLE
  2
BLOCK_RECORD
  5
1
330
0
100
AcDbSymbolTable
 70
     0
  0
BLOCK_RECORD
  5
A
330
1
100
AcDbSymbolTableRecord
100
AcDbBlockTableRecord
  2
*MODEL_SPACE
340
171
  0
BLOCK_RECORD
  5
B
330
1
100
AcDbSymbolTableRecord
100
AcDbBlockTableRecord
  2
*PAPER_SPACE
340
172
  0
ENDTAB
  0
ENDSEC
  0
SECTION
  2
BLOCKS
  0
BLOCK
  5
D
330
A
100
AcDbEntity
  8
0
100
AcDbBlockBegin
  2
*MODEL_SPACE
 70
     0
 10
0.0
 20
0.0
 30
0.0
  3
*MODEL_SPACE
  1

  4

  0
ENDBLK
  5
E
330
A
100
AcDbEntity
  8
0
100
AcDbBlockEnd
  0
BLOCK
  5
F
330
B
100
AcDbEntity
 67
     1
  8
0
100
AcDbBlockBegin
  2
*PAPER_SPACE
 70
     0
 10
0.0
 20
0.0
 30
0.0
  3
*PAPER_SPACE
  1

  4

  0
ENDBLK
  5
10
330
B
100
AcDbEntity
 67
     1
  8
0
100
AcDbBlockEnd
  0
ENDSEC
  0
SECTION
  2
ENTITIES
  0
LWPOLYLINE
  5
161
330
A
100
AcDbEntity
  8
LAYER_1
 62
     7
100
AcDbPolyline
 90
        9
 70
     0
 43
0.0
 10
89.70494656032986
 20
165.2519287109375
 10
67.66236436631944
 20
173.727552625868
 10
67.66236436631944
 20
179.5351223415798
 10
65.79408908420139
 20
181.3382853190104
 10
69.16115315755208
 20
183.4440999348958
 10
67.66236436631944
 20
184.964592827691
 10
67.66236436631944
 20
190.5962904188368
 10
75.91078423394096
 20
191.5626397026909
 10
89.7342298719618
 20
187.5115519205729
  0
LWPOLYLINE
  5
156
330
A
100
AcDbEntity
  8
LAYER_1
 62
     7
100
AcDbPolyline
 90
        9
 70
     0
 43
0.0
 10
125.5739027235243
 20
140.9944946289062
 10
68.20496690538194
 20
126.9366102430555
 10
61.5561048719618
 20
131.1335978190104
 10
61.54887017144097
 20
133.5884006076389
 10
53.87578125
 20
133.5987358940972
 10
53.8697523328993
 20
136.0127143012153
 10
48.10111219618055
 20
139.6479790581597
 10
48.10111219618055
 20
148.5683648003472
 10
57.69243028428819
 20
150.4442192925347
  0
LWPOLYLINE
  5
150
330
A
100
AcDbEntity
  8
LAYER_1
 62
     7
100
AcDbPolyline
 90
        4
 70
     0
 43
0.0
 10
158.8631713867187
 20
158.4451090494792
 10
161.001025390625
 20
157.3841918945312
 10
161.001025390625
 20
149.6757907443576
 10
152.0422268337674
 20
147.4804036458333
  0
LWPOLYLINE
  5
145
330
A
100
AcDbEntity
  8
LAYER_1
 62
     7
100
AcDbPolyline
 90
        9
 70
     0
 43
0.0
 10
132.8323744032118
 20
172.2540852864583
 10
133.7098402235243
 20
172.4065307617187
 10
143.1338989257812
 20
169.7272800021701
 10
143.1414781358507
 20
168.4975531684028
 10
151.4269327799479
 20
168.661711968316
 10
151.4315836588542
 20
167.3698011610243
 10
158.8705783420139
 20
165.0281697591146
 10
158.8705783420139
 20
156.9461480034722
 10
148.5072143554687
 20
154.6515421549479
  0
LWPOLYLINE
  5
13A
330
A
100
AcDbEntity
  8
LAYER_1
 62
     7
100
AcDbPolyline
 90
        9
 70
     0
 43
0.0
 10
114.2219685872396
 20
147.0606187608507
 10
78.70441216362846
 20
139.1966715494792
 10
70.98274739583333
 20
143.4258707682292
 10
70.98274739583333
 20
144.8795288085937
 10
62.9048597547743
 20
144.8109714084201
 10
62.90365397135416
 20
147.8684936523437
 10
57.63575846354166
 20
150.7599622938368
 10
57.63575846354166
 20
159.1811537000868
 10
90.17813042534722
 20
164.8386895073785
  0
LWPOLYLINE
  5
12C
330
A
100
AcDbEntity
  8
LAYER_1
 62
     7
100
AcDbPolyline
 90
       12
 70
     0
 43
0.0
 10
115.1168321397569
 20
154.957122124566
 10
141.4892103407118
 20
120.8875393337674
 10
151.9204427083333
 20
123.9609090169271
 10
151.9204427083333
 20
150.690199110243
 10
89.02212863498264
 20
222.4668687608507
 10
79.67541232638888
 20
221.8468377007378
 10
78.25052083333333
 20
218.6248982747396
 10
78.79622395833333
 20
216.7771213107639
 10
74.96872287326389
 20
216.4903171115451
 10
75.83499213324652
 20
213.165283203125
 10
73.73486192491319
 20
208.416908094618
 10
89.78590630425346
 20
187.6810506184896
  0
LWPOLYLINE
  5
124
330
A
100
AcDbEntity
  8
LAYER_1
 62
     7
100
AcDbPolyline
 90
        6
 70
     0
 43
0.0
 10
89.75731201171874
 20
171.2994493272569
 10
87.52902425130208
 20
172.1397081163194
 10
87.52902425130208
 20
187.173932562934
 10
88.3422390407986
 20
187.5387681749132
 10
108.8591606987847
 20
181.5666951497396
 10
108.8591606987847
 20
172.6847222222222
  0
SPLINE
  5
123
330
A
100
AcDbEntity
  8
LAYER_1
 62
     7
100
AcDbSpline
210
0.0
220
0.0
230
1.0
 70
    11
 71
     3
 72
    59
 73
    55
 74
     0
 42
0.0000000001
 43
0.0000000001
 40
0.0
 40
0.0
 40
0.0
 40
0.0
 40
1.0
 40
1.0
 40
1.0
 40
2.0
 40
2.0
 40
2.0
 40
3.0
 40
3.0
 40
3.0
 40
4.0
 40
4.0
 40
4.0
 40
5.0
 40
5.0
 40
5.0
 40
6.0
 40
6.0
 40
6.0
 40
7.0
 40
7.0
 40
7.0
 40
8.0
 40
8.0
 40
8.0
 40
9.0
 40
9.0
 40
9.0
 40
10.0
 40
10.0
 40
10.0
 40
11.0
 40
11.0
 40
11.0
 40
12.0
 40
12.0
 40
12.0
 40
13.0
 40
13.0
 40
13.0
 40
14.0
 40
14.0
 40
14.0
 40
15.0
 40
15.0
 40
15.0
 40
16.0
 40
16.0
 40
16.0
 40
17.0
 40
17.0
 40
17.0
 40
18.0
 40
18.0
 40
18.0
 40
18.0
 10
115.1180379231771
 20
154.9538492838541
 30
0.0
 10
115.1180379231771
 20
154.9538492838541
 30
0.0
 10
122.6615912543403
 20
145.1794243706597
 30
0.0
 10
122.6615912543403
 20
145.1794243706597
 30
0.0
 10
122.6615912543403
 20
145.1794243706597
 30
0.0
 10
121.0670288085937
 20
141.8903917100694
 30
0.0
 10
121.0670288085937
 20
141.8903917100694
 30
0.0
 10
121.0670288085937
 20
141.8903917100694
 30
0.0
 10
118.0139851888021
 20
141.1207573784722
 30
0.0
 10
118.0139851888021
 20
141.1207573784722
 30
0.0
 10
118.0139851888021
 20
141.1207573784722
 30
0.0
 10
116.799072265625
 20
141.5951470269097
 30
0.0
 10
116.799072265625
 20
141.5951470269097
 30
0.0
 10
116.799072265625
 20
141.5951470269097
 30
0.0
 10
114.3380683051215
 20
145.1804578993055
 30
0.0
 10
114.3380683051215
 20
145.1804578993055
 30
0.0
 10
114.3380683051215
 20
145.1804578993055
 30
0.0
 10
114.3380683051215
 20
154.1914496527778
 30
0.0
 10
114.3380683051215
 20
154.5771280924479
 30
0.0
 10
114.3380683051215
 20
154.9626342773437
 30
0.0
 10
114.2782958984375
 20
155.2885403103298
 30
0.0
 10
113.863678656684
 20
155.5257351345486
 30
0.0
 10
113.4490614149305
 20
155.7629299587674
 30
0.0
 10
91.26316324869791
 20
164.3296766493056
 30
0.0
 10
90.97601453993055
 20
164.4445705837674
 30
0.0
 10
90.68955485026041
 20
164.5598090277778
 30
0.0
 10
89.84671223958333
 20
164.7518731011285
 30
0.0
 10
89.84671223958333
 20
165.6133192274305
 30
0.0
 10
89.84671223958333
 20
166.4751098632812
 30
0.0
 10
89.84671223958333
 20
172.8673122829861
 30
0.0
 10
89.84671223958333
 20
172.8673122829861
 30
0.0
 10
89.84671223958333
 20
172.8673122829861
 30
0.0
 10
98.67115207248263
 20
177.3784925672743
 30
0.0
 10
98.67115207248263
 20
177.3784925672743
 30
0.0
 10
98.67115207248263
 20
177.3784925672743
 30
0.0
 10
99.85729844835069
 20
177.7202460394965
 30
0.0
 10
99.85729844835069
 20
177.7202460394965
 30
0.0
 10
99.85729844835069
 20
177.7202460394965
 30
0.0
 10
106.4830783420139
 20
175.5200358072917
 30
0.0
 10
106.4830783420139
 20
175.5200358072917
 30
0.0
 10
106.4830783420139
 20
175.5200358072917
 30
0.0
 10
114.5640665690104
 20
165.4605292426215
 30
0.0
 10
114.5640665690104
 20
165.4605292426215
 30
0.0
 10
114.5640665690104
 20
165.4605292426215
 30
0.0
 10
114.5640665690104
 20
157.5209621853298
 30
0.0
 10
114.5640665690104
 20
157.1237426757812
 30
0.0
 10
114.5640665690104
 20
156.7263509114583
 30
0.0
 10
114.5344387478299
 20
156.304498969184
 30
0.0
 10
114.7792127821181
 20
156.2666029188368
 30
0.0
 10
115.0513753255208
 20
156.2211276584201
 30
0.0
 10
115.1149373372396
 20
156.0831515842014
 30
0.0
 10
115.1149373372396
 20
155.8065104166666
 30
0.0
 10
115.1149373372396
 20
155.5298692491319
 30
0.0
 10
115.1180379231771
 20
154.9538492838541
 30
0.0
 10
115.1180379231771
 20
154.9538492838541
 30
0.0
  0
LWPOLYLINE
  5
11E
330
A
100
AcDbEntity
  8
LAYER_1
 62
     7
100
AcDbPolyline
 90
        3
 70
     0
 43
0.0
 10
75.00196804470485
 20
216.4568996853298
 10
79.14934624565971
 20
215.583740234375
 10
78.80449218749999
 20
216.7521443684896
  0
LINE
  5
11D
330
A
100
AcDbEntity
  8
LAYER_1
 62
     7
100
AcDbLine
 10
141.4967895507812
 20
120.8875393337674
 30
0.0
 11
141.4967895507812
 21
148.1272203233507
 31
0.0
  0
LWPOLYLINE
  5
118
330
A
100
AcDbEntity
  8
LAYER_1
 62
     7
100
AcDbPolyline
 90
        3
 70
     0
 43
0.0
 10
79.67920193142361
 20
221.8438232421875
 10
141.4967895507812
 20
148.1347995334201
 10
151.9219930013021
 20
150.6860649956597
  0
LINE
  5
117
330
A
100
AcDbEntity
  8
LAYER_1
 62
     7
100
AcDbLine
 10
67.6766615125868
 20
190.5830268012153
 30
0.0
 11
87.51989474826388
 21
184.5689236111111
 31
0.0
  0
LWPOLYLINE
  5
112
330
A
100
AcDbEntity
  8
LAYER_1
 62
     7
100
AcDbPolyline
 90
        3
 70
     0
 43
0.0
 10
87.53574218749999
 20
187.167731391059
 10
108.2149278428819
 20
181.2085774739583
 10
108.2535129123264
 20
173.3258544921875
  0
LINE
  5
111
330
A
100
AcDbEntity
  8
LAYER_1
 62
     7
100
AcDbLine
 10
108.2118272569444
 20
181.2085774739583
 30
0.0
 11
108.8522705078125
 21
181.5580824110243
 31
0.0
  0
LWPOLYLINE
  5
10A
330
A
100
AcDbEntity
  8
LAYER_1
 62
     7
100
AcDbPolyline
 90
        5
 70
     0
 43
0.0
 10
89.77160915798611
 20
185.0986070421007
 10
92.09842664930555
 20
184.4423163519965
 10
92.09842664930555
 20
183.6799167209201
 10
89.77160915798611
 20
184.3520548502604
 10
90.60687255859374
 20
184.8292005750868
  0
LWPOLYLINE
  5
103
330
A
100
AcDbEntity
  8
LAYER_1
 62
     7
100
AcDbPolyline
 90
        5
 70
     0
 43
0.0
 10
92.93747965494791
 20
184.1672254774306
 10
95.26498616536458
 20
183.5107625325521
 10
95.26498616536458
 20
182.7483629014757
 10
92.93747965494791
 20
183.4206732855903
 10
93.77343207465277
 20
183.8981635199653
  0
LWPOLYLINE
  5
FC
330
A
100
AcDbEntity
  8
LAYER_1
 62
     7
100
AcDbPolyline
 90
        5
 70
     0
 43
0.0
 10
97.12878282335069
 20
182.909765625
 10
99.45560031467014
 20
182.2534749348958
 10
99.45560031467014
 20
181.4909030490451
 10
97.12878282335069
 20
182.1632134331597
 10
97.96404622395832
 20
182.6407036675347
  0
LWPOLYLINE
  5
F5
330
A
100
AcDbEntity
  8
LAYER_1
 62
     7
100
AcDbPolyline
 90
        5
 70
     0
 43
0.0
 10
100.8539645724826
 20
181.9320475260417
 10
103.1807820638021
 20
181.2757568359375
 10
103.1807820638021
 20
180.5131849500868
 10
100.8539645724826
 20
181.1854953342014
 10
101.6892279730903
 20
181.6629855685764
  0
LWPOLYLINE
  5
EE
330
A
100
AcDbEntity
  8
LAYER_1
 62
     7
100
AcDbPolyline
 90
        5
 70
     0
 43
0.0
 10
104.8588880750868
 20
180.6280788845486
 10
107.1857055664062
 20
179.9717881944444
 10
107.1857055664062
 20
179.2092163085937
 10
104.8588880750868
 20
179.8815266927083
 10
105.6939792209201
 20
180.3590169270833
  0
LWPOLYLINE
  5
E7
330
A
100
AcDbEntity
  8
LAYER_1
 62
     7
100
AcDbPolyline
 90
        5
 70
     0
 43
0.0
 10
91.35411376953124
 20
182.9564466688368
 10
93.68179253472222
 20
182.2999837239583
 10
93.68179253472222
 20
181.5375840928819
 10
91.35411376953124
 20
182.2098944769965
 10
92.1902384440104
 20
182.6873847113715
  0
LWPOLYLINE
  5
E0
330
A
100
AcDbEntity
  8
LAYER_1
 62
     7
100
AcDbPolyline
 90
        5
 70
     0
 43
0.0
 10
95.54541693793402
 20
181.6993313259549
 10
97.87223442925347
 20
181.0430406358507
 10
97.87223442925347
 20
180.2806410047743
 10
95.54541693793402
 20
180.9527791341146
 10
96.38068033854165
 20
181.429924858941
  0
LWPOLYLINE
  5
D9
330
A
100
AcDbEntity
  8
LAYER_1
 62
     7
100
AcDbPolyline
 90
        5
 70
     0
 43
0.0
 10
99.27059868706597
 20
180.7212687174479
 10
101.5974161783854
 20
180.0649780273437
 10
101.5974161783854
 20
179.302406141493
 10
99.27059868706597
 20
179.9747165256076
 10
100.1058620876736
 20
180.451862250434
  0
LWPOLYLINE
  5
D2
330
A
100
AcDbEntity
  8
LAYER_1
 62
     7
100
AcDbPolyline
 90
        5
 70
     0
 43
0.0
 10
103.2755221896701
 20
179.4173000759548
 10
105.6023396809896
 20
178.7610093858507
 10
105.6023396809896
 20
177.9984375
 10
103.2755221896701
 20
178.6707478841146
 10
104.1107855902778
 20
179.1482381184896
  0
LWPOLYLINE
  5
CB
330
A
100
AcDbEntity
  8
LAYER_1
 62
     7
100
AcDbPolyline
 90
        5
 70
     0
 43
0.0
 10
92.006787109375
 20
179.3241102430555
 10
94.33360460069444
 20
178.6183824327257
 10
94.33360460069444
 20
177.8559828016493
 10
92.006787109375
 20
178.5775580512153
 10
92.84205050998263
 20
179.0376505533854
  0
LWPOLYLINE
  5
C4
330
A
100
AcDbEntity
  8
LAYER_1
 62
     7
100
AcDbPolyline
 90
        5
 70
     0
 43
0.0
 10
95.17334662543402
 20
178.3258938259548
 10
97.50016411675347
 20
177.6217163085937
 10
97.50016411675347
 20
176.8593166775173
 10
95.17334662543402
 20
177.5793416341146
 10
96.00861002604165
 20
178.0394341362847
  0
LWPOLYLINE
  5
BD
330
A
100
AcDbEntity
  8
LAYER_1
 62
     7
100
AcDbPolyline
 90
        5
 70
     0
 43
0.0
 10
89.72458360460068
 20
178.300055609809
 10
92.05140109592013
 20
177.5938110351562
 10
92.05140109592013
 20
176.8312391493055
 10
89.72458360460068
 20
177.5535034179687
 10
90.55984700520833
 20
178.0129069010417
  0
LWPOLYLINE
  5
B6
330
A
100
AcDbEntity
  8
LAYER_1
 62
     7
100
AcDbPolyline
 90
        5
 70
     0
 43
0.0
 10
92.89131537543402
 20
177.3014946831597
 10
95.21813286675346
 20
176.5971449110243
 10
95.21813286675346
 20
175.8345730251736
 10
92.89131537543402
 20
176.5549424913194
 10
93.72640652126735
 20
177.014690483941
  0
LWPOLYLINE
  5
AF
330
A
100
AcDbEntity
  8
LAYER_1
 62
     7
100
AcDbPolyline
 90
        5
 70
     0
 43
0.0
 10
89.86410997178818
 20
181.559632703993
 10
92.19092746310763
 20
180.8535603841146
 10
92.19092746310763
 20
180.0911607530382
 10
89.86410997178818
 20
180.8130805121528
 10
90.69937337239583
 20
181.27265625
  0
LWPOLYLINE
  5
A8
330
A
100
AcDbEntity
  8
LAYER_1
 62
     7
100
AcDbPolyline
 90
        5
 70
     0
 43
0.0
 10
93.03066948784722
 20
180.5610717773437
 10
95.35748697916665
 20
179.8568942599826
 10
95.35748697916665
 20
179.0944946289062
 10
93.03066948784722
 20
179.8145195855035
 10
93.86593288845485
 20
180.2744398328993
  0
LWPOLYLINE
  5
A1
330
A
100
AcDbEntity
  8
LAYER_1
 62
     7
100
AcDbPolyline
 90
        5
 70
     0
 43
0.0
 10
97.22197265624999
 20
179.2164510091146
 10
99.54879014756943
 20
178.510895453559
 10
99.54879014756943
 20
177.7483235677083
 10
97.22197265624999
 20
178.4698988172743
 10
98.05723605685763
 20
178.9299913194444
  0
LWPOLYLINE
  5
9A
330
A
100
AcDbEntity
  8
LAYER_1
 62
     7
100
AcDbPolyline
 90
        5
 70
     0
 43
0.0
 10
100.9471544053819
 20
178.1598402235243
 10
103.2739718967014
 20
177.4558349609375
 10
103.2739718967014
 20
176.6932630750868
 10
100.9471544053819
 20
177.413288031684
 10
101.7824178059896
 20
177.8733805338542
  0
LWPOLYLINE
  5
93
330
A
100
AcDbEntity
  8
LAYER_1
 62
     7
100
AcDbPolyline
 90
        5
 70
     0
 43
0.0
 10
104.9520779079861
 20
176.7733615451389
 10
107.2788953993055
 20
176.0672892252604
 10
107.2788953993055
 20
175.304889594184
 10
104.9520779079861
 20
176.0268093532986
 10
105.7873413085937
 20
176.4848347981771
  0
LWPOLYLINE
  5
8C
330
A
100
AcDbEntity
  8
LAYER_1
 62
     7
100
AcDbPolyline
 90
        5
 70
     0
 43
0.0
 10
90.98204345703124
 20
176.5303100585937
 10
93.30886094835068
 20
175.8247545030382
 10
93.30886094835068
 20
175.0623548719618
 10
90.98204345703124
 20
175.7837578667535
 10
91.81730685763888
 20
176.2438503689236
  0
LWPOLYLINE
  5
85
330
A
100
AcDbEntity
  8
LAYER_1
 62
     7
100
AcDbPolyline
 90
        5
 70
     0
 43
0.0
 10
89.30548773871527
 20
175.5057386610243
 10
91.63230523003472
 20
174.8000108506944
 10
91.63230523003472
 20
174.037611219618
 10
89.30548773871527
 20
174.759186469184
 10
90.1407511393229
 20
175.2191067165799
  0
LINE
  5
84
330
A
100
AcDbEntity
  8
LAYER_1
 62
     7
100
AcDbLine
 10
68.21254611545139
 20
126.9324761284722
 30
0.0
 11
68.21254611545139
 21
136.8569349500868
 31
0.0
  0
LINE
  5
83
330
A
100
AcDbEntity
  8
LAYER_1
 62
     7
100
AcDbLine
 10
61.55352105034721
 20
133.5751369900173
 30
0.0
 11
61.55352105034721
 21
140.7323228624132
 31
0.0
  0
LINE
  5
82
330
A
100
AcDbEntity
  8
LAYER_1
 62
     7
100
AcDbLine
 10
53.8697523328993
 20
135.9777465820312
 30
0.0
 11
53.8697523328993
 21
142.2311116536458
 31
0.0
  0
LINE
  5
81
330
A
100
AcDbEntity
  8
LAYER_1
 62
     7
100
AcDbLine
 10
148.5127265082465
 20
154.6226033528646
 30
0.0
 11
160.9867282443576
 21
157.3810913085937
 31
0.0
  0
LWPOLYLINE
  5
78
330
A
100
AcDbEntity
  8
LAYER_1
 62
     7
100
AcDbPolyline
 90
        7
 70
     0
 43
0.0
 10
48.12161051432291
 20
148.5509670681423
 10
56.07151285807291
 20
143.9245483398437
 10
53.87113037109375
 20
142.2311116536458
 10
63.00270046657985
 20
141.8118435329861
 10
61.55886094835069
 20
140.7323228624132
 10
68.20806749131944
 20
136.8626193576389
 10
114.2267917209201
 20
147.0401204427083
  0
SPLINE
  5
77
330
A
100
AcDbEntity
  8
LAYER_1
 62
     7
100
AcDbSpline
210
0.0
220
0.0
230
1.0
 70
     8
 71
     3
 72
    11
 73
     7
 74
     0
 42
0.0000000001
 43
0.0000000001
 40
0.0
 40
0.0
 40
0.0
 40
0.0
 40
1.0
 40
1.0
 40
1.0
 40
2.0
 40
2.0
 40
2.0
 40
2.0
 10
48.68936225043402
 20
148.2076633029514
 30
0.0
 10
49.43729248046875
 20
147.7899454752604
 30
0.0
 10
51.1381361219618
 20
146.5819227430555
 30
0.0
 10
51.73499891493055
 20
146.2052015516493
 30
0.0
 10
53.19744194878471
 20
145.282777235243
 30
0.0
 10
54.5859876844618
 20
143.5335300021701
 30
0.0
 10
55.30291205512152
 20
143.315283203125
 30
0.0
  0
SPLINE
  5
76
330
A
100
AcDbEntity
  8
LAYER_1
 62
     7
100
AcDbSpline
210
0.0
220
0.0
230
1.0
 70
     8
 71
     3
 72
    11
 73
     7
 74
     0
 42
0.0000000001
 43
0.0000000001
 40
0.0
 40
0.0
 40
0.0
 40
0.0
 40
1.0
 40
1.0
 40
1.0
 40
2.0
 40
2.0
 40
2.0
 40
2.0
 10
48.11592610677083
 20
146.4844265407986
 30
0.0
 10
48.90002983940972
 20
146.589501953125
 30
0.0
 10
50.03088243272569
 20
145.8224514431423
 30
0.0
 10
50.72661946614583
 20
145.3873358832465
 30
0.0
 10
51.42235649956596
 20
144.952392578125
 30
0.0
 10
53.35316026475694
 20
142.6369439019097
 30
0.0
 10
53.91057671440971
 20
142.2715915256076
 30
0.0
  0
SPLINE
  5
75
330
A
100
AcDbEntity
  8
LAYER_1
 62
     7
100
AcDbSpline
210
0.0
220
0.0
230
1.0
 70
     8
 71
     3
 72
    11
 73
     7
 74
     0
 42
0.0000000001
 43
0.0000000001
 40
0.0
 40
0.0
 40
0.0
 40
0.0
 40
1.0
 40
1.0
 40
1.0
 40
2.0
 40
2.0
 40
2.0
 40
2.0
 10
48.11024169921875
 20
144.4240871853299
 30
0.0
 10
48.8931396484375
 20
144.3016140407986
 30
0.0
 10
49.54202338324652
 20
144.534674750434
 30
0.0
 10
50.4468777126736
 20
143.6468736436632
 30
0.0
 10
51.3522488064236
 20
142.7592447916667
 30
0.0
 10
53.16402452256944
 20
140.5821166992187
 30
0.0
 10
53.85976155598958
 20
140.2343343098958
 30
0.0
  0
SPLINE
  5
74
330
A
100
AcDbEntity
  8
LAYER_1
 62
     7
100
AcDbSpline
210
0.0
220
0.0
230
1.0
 70
     8
 71
     3
 72
    11
 73
     7
 74
     0
 42
0.0000000001
 43
0.0000000001
 40
0.0
 40
0.0
 40
0.0
 40
0.0
 40
1.0
 40
1.0
 40
1.0
 40
2.0
 40
2.0
 40
2.0
 40
2.0
 10
48.11334228515624
 20
143.2903062608507
 30
0.0
 10
49.20991617838541
 20
142.4898383246528
 30
0.0
 10
50.27255588107639
 20
141.678173828125
 30
0.0
 10
50.82962782118055
 20
141.1047376844618
 30
0.0
 10
51.38756103515625
 20
140.5314737955729
 30
0.0
 10
52.91925048828124
 20
138.8783447265625
 30
0.0
 10
53.85976155598958
 20
138.6161729600694
 30
0.0
  0
SPLINE
  5
73
330
A
100
AcDbEntity
  8
LAYER_1
 62
     7
100
AcDbSpline
210
0.0
220
0.0
230
1.0
 70
     8
 71
     3
 72
    11
 73
     7
 74
     0
 42
0.0000000001
 43
0.0000000001
 40
0.0
 40
0.0
 40
0.0
 40
0.0
 40
1.0
 40
1.0
 40
1.0
 40
2.0
 40
2.0
 40
2.0
 40
2.0
 10
48.13177354600694
 20
141.4818033854166
 30
0.0
 10
48.76360405815971
 20
141.0535780164931
 30
0.0
 10
49.44728325737847
 20
140.7640177408854
 30
0.0
 10
49.99436442057291
 20
140.1819688585069
 30
0.0
 10
50.54161783854166
 20
139.5999199761285
 30
0.0
 10
52.32118191189235
 20
137.5118476019965
 30
0.0
 10
53.87733154296875
 20
136.6243910047743
 30
0.0
  0
SPLINE
  5
72
330
A
100
AcDbEntity
  8
LAYER_1
 62
     7
100
AcDbSpline
210
0.0
220
0.0
230
1.0
 70
     8
 71
     3
 72
    11
 73
     7
 74
     0
 42
0.0000000001
 43
0.0000000001
 40
0.0
 40
0.0
 40
0.0
 40
0.0
 40
1.0
 40
1.0
 40
1.0
 40
2.0
 40
2.0
 40
2.0
 40
2.0
 10
53.89317898220486
 20
141.3272908528646
 30
0.0
 10
54.98768581814235
 20
141.0535780164931
 30
0.0
 10
56.73228217230902
 20
140.7974351671007
 30
0.0
 10
57.72291937934028
 20
140.7974351671007
 30
0.0
 10
58.71424560546875
 20
140.7974351671007
 30
0.0
 10
60.8865505642361
 20
140.7276719835069
 30
0.0
 10
61.55352105034721
 20
140.5226888020833
 30
0.0
  0
SPLINE
  5
71
330
A
100
AcDbEntity
  8
LAYER_1
 62
     7
100
AcDbSpline
210
0.0
220
0.0
230
1.0
 70
     8
 71
     3
 72
     8
 73
     4
 74
     0
 42
0.0000000001
 43
0.0000000001
 40
0.0
 40
0.0
 40
0.0
 40
0.0
 40
1.0
 40
1.0
 40
1.0
 40
1.0
 10
53.87578125
 20
139.6507351345486
 30
0.0
 10
55.62054985894097
 20
139.5491048177083
 30
0.0
 10
60.56357286241319
 20
138.8461330837673
 30
0.0
 10
61.5375013563368
 20
138.8128879123264
 30
0.0
  0
SPLINE
  5
70
330
A
100
AcDbEntity
  8
LAYER_1
 62
     7
100
AcDbSpline
210
0.0
220
0.0
230
1.0
 70
     8
 71
     3
 72
    14
 73
    10
 74
     0
 42
0.0000000001
 43
0.0000000001
 40
0.0
 40
0.0
 40
0.0
 40
0.0
 40
1.0
 40
1.0
 40
1.0
 40
2.0
 40
2.0
 40
2.0
 40
3.0
 40
3.0
 40
3.0
 40
3.0
 10
53.92659640842013
 20
137.548193359375
 30
0.0
 10
54.49124755859375
 20
137.4288208007812
 30
0.0
 10
56.19949815538194
 20
137.2074734157986
 30
0.0
 10
56.78154703776041
 20
137.2238376193576
 30
0.0
 10
57.36376817491319
 20
137.2396850585938
 30
0.0
 10
58.91940104166666
 20
137.4114230685764
 30
0.0
 10
59.41532253689235
 20
137.3254679361979
 30
0.0
 10
59.91176079644097
 20
137.2396850585938
 30
0.0
 10
61.10634765624999
 20
136.9327270507812
 30
0.0
 10
61.55197075737847
 20
137.0009399414062
 30
0.0
  0
SPLINE
  5
6F
330
A
100
AcDbEntity
  8
LAYER_1
 62
     7
100
AcDbSpline
210
0.0
220
0.0
230
1.0
 70
     8
 71
     3
 72
    14
 73
    10
 74
     0
 42
0.0000000001
 43
0.0000000001
 40
0.0
 40
0.0
 40
0.0
 40
0.0
 40
1.0
 40
1.0
 40
1.0
 40
2.0
 40
2.0
 40
2.0
 40
3.0
 40
3.0
 40
3.0
 40
3.0
 10
53.91522759331597
 20
136.1308810763889
 30
0.0
 10
54.40098605685763
 20
135.9925604926215
 30
0.0
 10
55.57645263671874
 20
135.7379679361979
 30
0.0
 10
56.31732042100694
 20
135.6912868923611
 30
0.0
 10
57.05818820529513
 20
135.6447781032986
 30
0.0
 10
59.13644205729166
 20
135.9694783528646
 30
0.0
 10
59.48405219184027
 20
135.8762885199653
 30
0.0
 10
59.83149007161458
 20
135.783098687066
 30
0.0
 10
61.01195203993055
 20
135.6447781032986
 30
0.0
 10
61.51975911458333
 20
135.6678602430555
 30
0.0
  0
SPLINE
  5
6E
330
A
100
AcDbEntity
  8
LAYER_1
 62
     7
100
AcDbSpline
210
0.0
220
0.0
230
1.0
 70
     8
 71
     3
 72
    14
 73
    10
 74
     0
 42
0.0000000001
 43
0.0000000001
 40
0.0
 40
0.0
 40
0.0
 40
0.0
 40
1.0
 40
1.0
 40
1.0
 40
2.0
 40
2.0
 40
2.0
 40
3.0
 40
3.0
 40
3.0
 40
3.0
 10
53.89162868923611
 20
134.9507636176215
 30
0.0
 10
54.7224134657118
 20
134.8356974283854
 30
0.0
 10
55.62347819010416
 20
134.534423828125
 30
0.0
 10
56.52540418836805
 20
134.6045315212674
 30
0.0
 10
57.42767469618055
 20
134.6741224500868
 30
0.0
 10
59.11456570095486
 20
134.65224609375
 30
0.0
 10
59.71556260850694
 20
134.5358018663195
 30
0.0
 10
60.31655951605902
 20
134.4195298936632
 30
0.0
 10
60.85020480685763
 20
134.2812093098958
 30
0.0
 10
61.49667697482639
 20
134.2581271701389
 30
0.0
  0
SPLINE
  5
6D
330
A
100
AcDbEntity
  8
LAYER_1
 62
     7
100
AcDbSpline
210
0.0
220
0.0
230
1.0
 70
     8
 71
     3
 72
    11
 73
     7
 74
     0
 42
0.0000000001
 43
0.0000000001
 40
0.0
 40
0.0
 40
0.0
 40
0.0
 40
1.0
 40
1.0
 40
1.0
 40
2.0
 40
2.0
 40
2.0
 40
2.0
 10
61.54284125434027
 20
139.6204182942708
 30
0.0
 10
63.06815728081597
 20
139.1095106336805
 30
0.0
 10
63.62264539930555
 20
138.0473876953125
 30
0.0
 10
64.43172607421874
 20
137.5626627604167
 30
0.0
 10
65.24080674913193
 20
137.0782823350695
 30
0.0
 10
67.43498806423611
 20
135.2752916124132
 30
0.0
 10
68.19773220486111
 20
135.0205268012153
 30
0.0
  0
SPLINE
  5
6C
330
A
100
AcDbEntity
  8
LAYER_1
 62
     7
100
AcDbSpline
210
0.0
220
0.0
230
1.0
 70
     8
 71
     3
 72
    11
 73
     7
 74
     0
 42
0.0000000001
 43
0.0000000001
 40
0.0
 40
0.0
 40
0.0
 40
0.0
 40
1.0
 40
1.0
 40
1.0
 40
2.0
 40
2.0
 40
2.0
 40
2.0
 10
61.56488986545138
 20
137.8623860677083
 30
0.0
 10
62.48869222005208
 20
137.2396850585938
 30
0.0
 10
63.87723795572916
 20
136.5470486111111
 30
0.0
 10
64.40864393446179
 20
136.0611178927951
 30
0.0
 10
64.93953314887152
 20
135.5750149197048
 30
0.0
 10
67.48046332465277
 20
133.1954874674479
 30
0.0
 10
68.22098659939236
 20
132.9643215603298
 30
0.0
  0
SPLINE
  5
6B
330
A
100
AcDbEntity
  8
LAYER_1
 62
     7
100
AcDbSpline
210
0.0
220
0.0
230
1.0
 70
     8
 71
     3
 72
    11
 73
     7
 74
     0
 42
0.0000000001
 43
0.0000000001
 40
0.0
 40
0.0
 40
0.0
 40
0.0
 40
1.0
 40
1.0
 40
1.0
 40
2.0
 40
2.0
 40
2.0
 40
2.0
 10
61.56488986545138
 20
136.0376912434896
 30
0.0
 10
62.48869222005208
 20
135.528333875868
 30
0.0
 10
63.69085828993055
 20
134.3961032443576
 30
0.0
 10
64.26877305772568
 20
134.003362358941
 30
0.0
 10
64.84668782552083
 20
133.61044921875
 30
0.0
 10
67.41225043402777
 20
131.2062893337674
 30
0.0
 10
68.19773220486111
 20
131.0218044704861
 30
0.0
  0
SPLINE
  5
6A
330
A
100
AcDbEntity
  8
LAYER_1
 62
     7
100
AcDbSpline
210
0.0
220
0.0
230
1.0
 70
     8
 71
     3
 72
    11
 73
     7
 74
     0
 42
0.0000000001
 43
0.0000000001
 40
0.0
 40
0.0
 40
0.0
 40
0.0
 40
1.0
 40
1.0
 40
1.0
 40
2.0
 40
2.0
 40
2.0
 40
2.0
 10
61.58831651475694
 20
134.1182562934028
 30
0.0
 10
62.28112521701388
 20
133.3789388020833
 30
0.0
 10
63.90083685980902
 20
132.0605007595486
 30
0.0
 10
64.57004665798611
 20
131.6228013780382
 30
0.0
 10
65.23925645616319
 20
131.1847574869792
 30
0.0
 10
67.52662760416666
 20
129.2201917860243
 30
0.0
 10
68.22098659939236
 20
129.0117635091146
 30
0.0
  0
SPLINE
  5
69
330
A
100
AcDbEntity
  8
LAYER_1
 62
     7
100
AcDbSpline
210
0.0
220
0.0
230
1.0
 70
     8
 71
     3
 72
    11
 73
     7
 74
     0
 42
0.0000000001
 43
0.0000000001
 40
0.0
 40
0.0
 40
0.0
 40
0.0
 40
1.0
 40
1.0
 40
1.0
 40
2.0
 40
2.0
 40
2.0
 40
2.0
 10
61.58831651475694
 20
132.1552408854167
 30
0.0
 10
62.23564995659721
 20
131.5542439778646
 30
0.0
 10
63.82952338324652
 20
130.1221177842882
 30
0.0
 10
64.29185519748263
 20
129.7977620442708
 30
0.0
 10
64.75487603081596
 20
129.4734063042535
 30
0.0
 10
66.60127495659722
 20
128.064362250434
 30
0.0
 10
67.1340589735243
 20
127.6251125759548
 30
0.0
  0
SPLINE
  5
68
330
A
100
AcDbEntity
  8
LAYER_1
 62
     7
100
AcDbSpline
210
0.0
220
0.0
230
1.0
 70
     8
 71
     3
 72
    17
 73
    13
 74
     0
 42
0.0000000001
 43
0.0000000001
 40
0.0
 40
0.0
 40
0.0
 40
0.0
 40
1.0
 40
1.0
 40
1.0
 40
2.0
 40
2.0
 40
2.0
 40
3.0
 40
3.0
 40
3.0
 40
4.0
 40
4.0
 40
4.0
 40
4.0
 10
141.5346856011285
 20
144.3991102430555
 30
0.0
 10
141.7415635850694
 20
143.4100233289931
 30
0.0
 10
142.1802964952257
 20
141.7985799153646
 30
0.0
 10
142.5251505533854
 20
140.9710679796007
 30
0.0
 10
142.8700046115451
 20
140.142522515191
 30
0.0
 10
143.0784328884548
 20
139.9113566080729
 30
0.0
 10
142.7556274414062
 20
138.9450073242188
 30
0.0
 10
142.4328219943576
 20
137.9786580403646
 30
0.0
 10
141.8809176974826
 20
136.4845201280382
 30
0.0
 10
141.8809176974826
 20
135.79326171875
 30
0.0
 10
141.8809176974826
 20
135.1020033094618
 30
0.0
 10
141.6278754340278
 20
133.1462226019965
 30
0.0
 10
141.5126369900173
 20
132.6399658203125
 30
0.0
  0
SPLINE
  5
67
330
A
100
AcDbEntity
  8
LAYER_1
 62
     7
100
AcDbSpline
210
0.0
220
0.0
230
1.0
 70
     8
 71
     3
 72
    26
 73
    22
 74
     0
 42
0.0000000001
 43
0.0000000001
 40
0.0
 40
0.0
 40
0.0
 40
0.0
 40
1.0
 40
1.0
 40
1.0
 40
2.0
 40
2.0
 40
2.0
 40
3.0
 40
3.0
 40
3.0
 40
4.0
 40
4.0
 40
4.0
 40
5.0
 40
5.0
 40
5.0
 40
6.0
 40
6.0
 40
6.0
 40
7.0
 40
7.0
 40
7.0
 40
7.0
 10
141.9045166015625
 20
148.1742458767361
 30
0.0
 10
142.1802964952257
 20
147.4829874674479
 30
0.0
 10
142.7776760525173
 20
144.5362250434028
 30
0.0
 10
142.96181640625
 20
143.8928534613715
 30
0.0
 10
143.1466457790799
 20
143.2496541341146
 30
0.0
 10
143.4468858506944
 20
139.9129069010417
 30
0.0
 10
143.8833794487847
 20
138.8533677842882
 30
0.0
 10
144.3200453016493
 20
137.7941731770833
 30
0.0
 10
144.4814480251736
 20
136.113483344184
 30
0.0
 10
144.3662095811632
 20
135.5851779513889
 30
0.0
 10
144.2518324110243
 20
135.0568725585937
 30
0.0
 10
143.4901217990451
 20
133.4213134765625
 30
0.0
 10
143.4453355577257
 20
132.9848198784722
 30
0.0
 10
143.399860297309
 20
132.5481540256076
 30
0.0
 10
142.4328219943576
 20
130.7523980034722
 30
0.0
 10
142.4328219943576
 20
130.1312472873264
 30
0.0
 10
142.4328219943576
 20
129.5097520616319
 30
0.0
 10
142.2038953993055
 20
126.6107042100694
 30
0.0
 10
142.2721082899305
 20
126.196086968316
 30
0.0
 10
142.3410101996528
 20
125.7814697265625
 30
0.0
 10
142.5471991644965
 20
121.7315877278646
 30
0.0
 10
142.6858642578125
 20
121.2484130859375
 30
0.0
  0
SPLINE
  5
66
330
A
100
AcDbEntity
  8
LAYER_1
 62
     7
100
AcDbSpline
210
0.0
220
0.0
230
1.0
 70
     8
 71
     3
 72
    32
 73
    28
 74
     0
 42
0.0000000001
 43
0.0000000001
 40
0.0
 40
0.0
 40
0.0
 40
0.0
 40
1.0
 40
1.0
 40
1.0
 40
2.0
 40
2.0
 40
2.0
 40
3.0
 40
3.0
 40
3.0
 40
4.0
 40
4.0
 40
4.0
 40
5.0
 40
5.0
 40
5.0
 40
6.0
 40
6.0
 40
6.0
 40
7.0
 40
7.0
 40
7.0
 40
8.0
 40
8.0
 40
8.0
 40
9.0
 40
9.0
 40
9.0
 40
9.0
 10
144.3896362304687
 20
121.7315877278646
 30
0.0
 10
144.3200453016493
 20
122.4914035373264
 30
0.0
 10
144.112995062934
 20
124.6998819986979
 30
0.0
 10
144.0895684136285
 20
125.2066555447048
 30
0.0
 10
144.0668307834201
 20
125.7129123263889
 30
0.0
 10
143.5848619249132
 20
127.2321994357639
 30
0.0
 10
143.7917399088541
 20
127.692291937934
 30
0.0
 10
143.9979288736979
 20
128.1518676757812
 30
0.0
 10
145.1491075303819
 20
130.6822903103299
 30
0.0
 10
145.4023220486111
 20
131.1203342013889
 30
0.0
 10
145.655364312066
 20
131.5583780924479
 30
0.0
 10
145.5857733832465
 20
132.1552408854167
 30
0.0
 10
145.7471761067708
 20
132.4780463324653
 30
0.0
 10
145.9085788302951
 20
132.8013685438368
 30
0.0
 10
146.1631713867187
 20
133.5362074110243
 30
0.0
 10
146.0472439236111
 20
134.2042114257812
 30
0.0
 10
145.9306274414062
 20
134.8720431857639
 30
0.0
 10
145.4955118815104
 20
136.2979682074653
 30
0.0
 10
145.2877726236979
 20
137.3109985351562
 30
0.0
 10
145.0793443467882
 20
138.3235120985243
 30
0.0
 10
144.3896362304687
 20
141.0172322591146
 30
0.0
 10
144.2518324110243
 20
141.7303670247396
 30
0.0
 10
144.112995062934
 20
142.4436740451389
 30
0.0
 10
143.5817613389757
 20
144.9985568576389
 30
0.0
 10
143.5605740017361
 20
145.8035034179687
 30
0.0
 10
143.538525390625
 20
146.6084499782986
 30
0.0
 10
143.3066704644097
 20
147.9222371419271
 30
0.0
 10
143.100481499566
 20
148.497223578559
 30
0.0
  0
SPLINE
  5
65
330
A
100
AcDbEntity
  8
LAYER_1
 62
     7
100
AcDbSpline
210
0.0
220
0.0
230
1.0
 70
     8
 71
     3
 72
    35
 73
    31
 74
     0
 42
0.0000000001
 43
0.0000000001
 40
0.0
 40
0.0
 40
0.0
 40
0.0
 40
1.0
 40
1.0
 40
1.0
 40
2.0
 40
2.0
 40
2.0
 40
3.0
 40
3.0
 40
3.0
 40
4.0
 40
4.0
 40
4.0
 40
5.0
 40
5.0
 40
5.0
 40
6.0
 40
6.0
 40
6.0
 40
7.0
 40
7.0
 40
7.0
 40
8.0
 40
8.0
 40
8.0
 40
9.0
 40
9.0
 40
9.0
 40
10.0
 40
10.0
 40
10.0
 40
10.0
 10
144.4578491210937
 20
148.772314453125
 30
0.0
 10
144.8724663628472
 20
147.782366265191
 30
0.0
 10
144.8724663628472
 20
145.2987969292535
 30
0.0
 10
145.2409193250868
 20
144.4692179361979
 30
0.0
 10
145.6092000325521
 20
143.6396389431424
 30
0.0
 10
145.6774129231771
 20
142.3735663519965
 30
0.0
 10
146.0692925347222
 20
141.0627075195312
 30
0.0
 10
146.4603108723958
 20
139.7515041775174
 30
0.0
 10
146.9438300238715
 20
137.0138590494792
 30
0.0
 10
147.1970445421007
 20
136.1611979166667
 30
0.0
 10
147.4502590603298
 20
135.3085367838542
 30
0.0
 10
147.7480875651042
 20
132.1347425672743
 30
0.0
 10
148.0717542860243
 20
131.4434841579861
 30
0.0
 10
148.3945597330729
 20
130.7523980034722
 30
0.0
 10
148.6712009006076
 20
130.4059936523437
 30
0.0
 10
148.4172973632813
 20
129.6013916015625
 30
0.0
 10
148.1640828450521
 20
128.7964450412326
 30
0.0
 10
147.9110405815972
 20
128.198548719618
 30
0.0
 10
147.5198499891493
 20
127.8070136176215
 30
0.0
 10
147.1281426323785
 20
127.4156507703993
 30
0.0
 10
146.6687391493055
 20
126.9309258355035
 30
0.0
 10
146.6217135959201
 20
126.3795383029514
 30
0.0
 10
146.5755493164062
 20
125.8278062608507
 30
0.0
 10
146.5300740559896
 20
125.3665079752604
 30
0.0
 10
146.4156968858507
 20
125.0447360568576
 30
0.0
 10
146.3004584418403
 20
124.7234809027778
 30
0.0
 10
146.1154568142361
 20
124.1238620334201
 30
0.0
 10
146.2534328884549
 20
123.7790079752604
 30
0.0
 10
146.3920979817708
 20
123.4341539171007
 30
0.0
 10
146.4141465928819
 20
122.9976603190104
 30
0.0
 10
146.5285237630208
 20
122.376165093316
 30
0.0
  0
SPLINE
  5
64
330
A
100
AcDbEntity
  8
LAYER_1
 62
     7
100
AcDbSpline
210
0.0
220
0.0
230
1.0
 70
     8
 71
     3
 72
    26
 73
    22
 74
     0
 42
0.0000000001
 43
0.0000000001
 40
0.0
 40
0.0
 40
0.0
 40
0.0
 40
1.0
 40
1.0
 40
1.0
 40
2.0
 40
2.0
 40
2.0
 40
3.0
 40
3.0
 40
3.0
 40
4.0
 40
4.0
 40
4.0
 40
5.0
 40
5.0
 40
5.0
 40
6.0
 40
6.0
 40
6.0
 40
7.0
 40
7.0
 40
7.0
 40
7.0
 10
149.4988850911458
 20
123.2958333333333
 30
0.0
 10
149.5443603515625
 20
123.9640096028646
 30
0.0
 10
149.5223117404514
 20
124.6998819986979
 30
0.0
 10
149.7285007052951
 20
125.0447360568576
 30
0.0
 10
149.9353786892361
 20
125.3895901150174
 30
0.0
 10
150.2340684678819
 20
125.5063788519965
 30
0.0
 10
150.0733547634549
 20
126.3344075520833
 30
0.0
 10
149.9135023328993
 20
127.1624362521701
 30
0.0
 10
149.9369289822049
 20
127.8755710177951
 30
0.0
 10
149.6368611653646
 20
129.1648980034722
 30
0.0
 10
149.3374823676215
 20
130.454052734375
 30
0.0
 10
148.8076266818576
 20
133.9511691623264
 30
0.0
 10
148.5780110677083
 20
135.2168972439236
 30
0.0
 10
148.3475341796875
 20
136.4829698350694
 30
0.0
 10
147.2182318793403
 20
141.7770480685764
 30
0.0
 10
147.0583794487847
 20
142.9966118706597
 30
0.0
 10
146.8983547634549
 20
144.2156589084201
 30
0.0
 10
146.5300740559896
 20
145.9869547526042
 30
0.0
 10
146.5300740559896
 20
146.8847466362847
 30
0.0
 10
146.5300740559896
 20
147.782366265191
 30
0.0
 10
146.4156968858507
 20
148.4956732855903
 30
0.0
 10
146.1154568142361
 20
149.2318901909722
 30
0.0
  0
SPLINE
  5
63
330
A
100
AcDbEntity
  8
LAYER_1
 62
     7
100
AcDbSpline
210
0.0
220
0.0
230
1.0
 70
     8
 71
     3
 72
    20
 73
    16
 74
     0
 42
0.0000000001
 43
0.0000000001
 40
0.0
 40
0.0
 40
0.0
 40
0.0
 40
1.0
 40
1.0
 40
1.0
 40
2.0
 40
2.0
 40
2.0
 40
3.0
 40
3.0
 40
3.0
 40
4.0
 40
4.0
 40
4.0
 40
5.0
 40
5.0
 40
5.0
 40
5.0
 10
147.6798746744792
 20
149.5782945421007
 30
0.0
 10
147.7730645073785
 20
148.772314453125
 30
0.0
 10
147.8428276909722
 20
146.3552354600694
 30
0.0
 10
148.0497056749132
 20
145.66552734375
 30
0.0
 10
148.2558946397569
 20
144.9754747178819
 30
0.0
 10
148.3945597330729
 20
142.6717393663194
 30
0.0
 10
148.8773898654514
 20
141.7754977756076
 30
0.0
 10
149.3609090169271
 20
140.8792561848958
 30
0.0
 10
149.7519273546007
 20
136.6674546983507
 30
0.0
 10
149.8671657986111
 20
135.770179578993
 30
0.0
 10
149.9817152235243
 20
134.8720431857639
 30
0.0
 10
150.6266370985243
 20
132.018470594618
 30
0.0
 10
150.6032104492188
 20
131.1203342013889
 30
0.0
 10
150.5758219401042
 20
130.0494262695312
 30
0.0
 10
151.3397718641493
 20
126.2734293619792
 30
0.0
 10
151.5695597330729
 20
123.895452202691
 30
0.0
  0
SPLINE
  5
62
330
A
100
AcDbEntity
  8
LAYER_1
 62
     7
100
AcDbSpline
210
0.0
220
0.0
230
1.0
 70
     8
 71
     3
 72
    20
 73
    16
 74
     0
 42
0.0000000001
 43
0.0000000001
 40
0.0
 40
0.0
 40
0.0
 40
0.0
 40
1.0
 40
1.0
 40
1.0
 40
2.0
 40
2.0
 40
2.0
 40
3.0
 40
3.0
 40
3.0
 40
4.0
 40
4.0
 40
4.0
 40
5.0
 40
5.0
 40
5.0
 40
5.0
 10
148.8992662217882
 20
149.9221150716146
 30
0.0
 10
149.2222439236111
 20
148.7487155490451
 30
0.0
 10
149.6837144639757
 20
146.3318088107639
 30
0.0
 10
149.7989529079861
 20
145.1358439127604
 30
0.0
 10
149.9135023328993
 20
143.939362250434
 30
0.0
 10
150.027190483941
 20
141.7319173177083
 30
0.0
 10
150.3272583007812
 20
140.7640177408854
 30
0.0
 10
150.6266370985243
 20
139.7962904188368
 30
0.0
 10
150.6743516710069
 20
138.7153917100694
 30
0.0
 10
150.8116387261285
 20
137.3344251844618
 30
0.0
 10
150.9480645073785
 20
135.9531141493056
 30
0.0
 10
150.8783013237847
 20
134.9185519748264
 30
0.0
 10
151.2011067708333
 20
133.9291205512153
 30
0.0
 10
151.5247734917535
 20
132.9393446180555
 30
0.0
 10
151.3178955078125
 20
131.280531141493
 30
0.0
 10
151.9157918294271
 20
130.0380574544271
 30
0.0
  0
SPLINE
  5
61
330
A
100
AcDbEntity
  8
LAYER_1
 62
     7
100
AcDbSpline
210
0.0
220
0.0
230
1.0
 70
     8
 71
     3
 72
    11
 73
     7
 74
     0
 42
0.0000000001
 43
0.0000000001
 40
0.0
 40
0.0
 40
0.0
 40
0.0
 40
1.0
 40
1.0
 40
1.0
 40
2.0
 40
2.0
 40
2.0
 40
2.0
 10
150.1649943033854
 20
150.1779134114583
 30
0.0
 10
150.672112358941
 20
148.9571438259549
 30
0.0
 10
150.5584242078993
 20
147.6907267252604
 30
0.0
 10
150.8798516167535
 20
146.0334635416667
 30
0.0
 10
151.2011067708333
 20
144.3760281032986
 30
0.0
 10
151.3890367296007
 20
140.9228366427951
 30
0.0
 10
151.8939154730903
 20
139.7962904188368
 30
0.0
  0
SPLINE
  5
60
330
A
100
AcDbEntity
  8
LAYER_1
 62
     7
100
AcDbSpline
210
0.0
220
0.0
230
1.0
 70
     8
 71
     3
 72
    17
 73
    13
 74
     0
 42
0.0000000001
 43
0.0000000001
 40
0.0
 40
0.0
 40
0.0
 40
0.0
 40
1.0
 40
1.0
 40
1.0
 40
2.0
 40
2.0
 40
2.0
 40
3.0
 40
3.0
 40
3.0
 40
4.0
 40
4.0
 40
4.0
 40
4.0
 10
98.68028157552082
 20
177.3390462239583
 30
0.0
 10
98.68028157552082
 20
177.3390462239583
 30
0.0
 10
105.9592515733507
 20
174.994831000434
 30
0.0
 10
105.9592515733507
 20
174.994831000434
 30
0.0
 10
105.9592515733507
 20
174.994831000434
 30
0.0
 10
113.6704087999132
 20
165.2407321506076
 30
0.0
 10
113.6704087999132
 20
165.2407321506076
 30
0.0
 10
113.6704087999132
 20
165.2407321506076
 30
0.0
 10
113.6704087999132
 20
156.4340345594618
 30
0.0
 10
113.6704087999132
 20
156.2533393012153
 30
0.0
 10
113.6704087999132
 20
155.8080607096354
 30
0.0
 10
113.8984741210937
 20
155.5083374023437
 30
0.0
 10
114.13876953125
 20
155.3176513671875
 30
0.0
  0
LINE
  5
5F
330
A
100
AcDbEntity
  8
LAYER_1
 62
     7
100
AcDbLine
 10
105.95322265625
 20
175.0008599175347
 30
0.0
 11
106.4815280490451
 21
175.5174519856771
 31
0.0
  0
LINE
  5
5E
330
A
100
AcDbEntity
  8
LAYER_1
 62
     7
100
AcDbLine
 10
113.6786770290799
 20
165.2391818576389
 30
0.0
 11
114.5594156901042
 21
165.4563951280382
 31
0.0
  0
SPLINE
  5
5D
330
A
100
AcDbEntity
  8
LAYER_1
 62
     7
100
AcDbSpline
210
0.0
220
0.0
230
1.0
 70
     8
 71
     3
 72
    11
 73
     7
 74
     0
 42
0.0000000001
 43
0.0000000001
 40
0.0
 40
0.0
 40
0.0
 40
0.0
 40
1.0
 40
1.0
 40
1.0
 40
2.0
 40
2.0
 40
2.0
 40
2.0
 10
94.87017822265624
 20
173.7909423828125
 30
0.0
 10
95.36248236762152
 20
174.0041937934028
 30
0.0
 10
96.06545410156249
 20
173.6062852647569
 30
0.0
 10
96.06545410156249
 20
172.7880750868056
 30
0.0
 10
96.06545410156249
 20
172.1731255425347
 30
0.0
 10
95.74540473090276
 20
171.8599663628472
 30
0.0
 10
95.38608127170139
 20
171.8144911024305
 30
0.0
  0
SPLINE
  5
5C
330
A
100
AcDbEntity
  8
LAYER_1
 62
     7
100
AcDbSpline
210
0.0
220
0.0
230
1.0
 70
     8
 71
     3
 72
    11
 73
     7
 74
     0
 42
0.0000000001
 43
0.0000000001
 40
0.0
 40
0.0
 40
0.0
 40
0.0
 40
1.0
 40
1.0
 40
1.0
 40
2.0
 40
2.0
 40
2.0
 40
2.0
 10
105.2640313042535
 20
173.0673000759549
 30
0.0
 10
105.7520290798611
 20
173.2287027994792
 30
0.0
 10
106.4034966362847
 20
172.830622016059
 30
0.0
 10
106.4034966362847
 20
172.043073187934
 30
0.0
 10
106.4034966362847
 20
171.451722547743
 30
0.0
 10
106.1073906792535
 20
171.1394246419271
 30
0.0
 10
105.764948187934
 20
171.0758626302083
 30
0.0
  0
SPLINE
  5
5B
330
A
100
AcDbEntity
  8
LAYER_1
 62
     7
100
AcDbSpline
210
0.0
220
0.0
230
1.0
 70
     8
 71
     3
 72
    11
 73
     7
 74
     0
 42
0.0000000001
 43
0.0000000001
 40
0.0
 40
0.0
 40
0.0
 40
0.0
 40
1.0
 40
1.0
 40
1.0
 40
2.0
 40
2.0
 40
2.0
 40
2.0
 10
103.5885091145833
 20
170.8095567491319
 30
0.0
 10
104.061865234375
 20
170.8955118815104
 30
0.0
 10
104.6337510850694
 20
170.4996704101562
 30
0.0
 10
104.6337510850694
 20
169.7617309570312
 30
0.0
 10
104.6337510850694
 20
169.1629733615451
 30
0.0
 10
104.3305826822917
 20
168.8503309461806
 30
0.0
 10
103.9829725477431
 20
168.7921088324653
 30
0.0
  0
SPLINE
  5
5A
330
A
100
AcDbEntity
  8
LAYER_1
 62
     7
100
AcDbSpline
210
0.0
220
0.0
230
1.0
 70
    11
 71
     3
 72
    11
 73
     7
 74
     0
 42
0.0000000001
 43
0.0000000001
 40
0.0
 40
0.0
 40
0.0
 40
0.0
 40
1.0
 40
1.0
 40
1.0
 40
2.0
 40
2.0
 40
2.0
 40
2.0
 10
95.87890218098957
 20
172.7551744249132
 30
0.0
 10
95.87890218098957
 20
171.3526760525174
 30
0.0
 10
94.21388753255208
 20
171.5197631835937
 30
0.0
 10
94.21388753255208
 20
172.85146484375
 30
0.0
 10
94.21388753255208
 20
174.2779066297743
 30
0.0
 10
95.87890218098957
 20
174.0140123155382
 30
0.0
 10
95.87890218098957
 20
172.7551744249132
 30
0.0
  0
SPLINE
  5
59
330
A
100
AcDbEntity
  8
LAYER_1
 62
     7
100
AcDbSpline
210
0.0
220
0.0
230
1.0
 70
     8
 71
     3
 72
    11
 73
     7
 74
     0
 42
0.0000000001
 43
0.0000000001
 40
0.0
 40
0.0
 40
0.0
 40
0.0
 40
1.0
 40
1.0
 40
1.0
 40
2.0
 40
2.0
 40
2.0
 40
2.0
 10
98.56159803602429
 20
176.1728814019097
 30
0.0
 10
99.04925130208332
 20
176.3332505967882
 30
0.0
 10
99.6996853298611
 20
175.9351698133681
 30
0.0
 10
99.6996853298611
 20
175.1483100043403
 30
0.0
 10
99.6996853298611
 20
174.5242309570312
 30
0.0
 10
99.37016194661457
 20
174.2108995225694
 30
0.0
 10
99.00429280598958
 20
174.1726589626736
 30
0.0
  0
SPLINE
  5
58
330
A
100
AcDbEntity
  8
LAYER_1
 62
     7
100
AcDbSpline
210
0.0
220
0.0
230
1.0
 70
    11
 71
     3
 72
    11
 73
     7
 74
     0
 42
0.0000000001
 43
0.0000000001
 40
0.0
 40
0.0
 40
0.0
 40
0.0
 40
1.0
 40
1.0
 40
1.0
 40
2.0
 40
2.0
 40
2.0
 40
2.0
 10
99.51278889973958
 20
175.114892578125
 30
0.0
 10
99.51278889973958
 20
173.7127387152778
 30
0.0
 10
97.84811876085068
 20
173.8794813368055
 30
0.0
 10
97.84811876085068
 20
175.2111829969618
 30
0.0
 10
97.84811876085068
 20
176.6376247829861
 30
0.0
 10
99.51278889973958
 20
176.3739027235243
 30
0.0
 10
99.51278889973958
 20
175.114892578125
 30
0.0
  0
SPLINE
  5
57
330
A
100
AcDbEntity
  8
LAYER_1
 62
     7
100
AcDbSpline
210
0.0
220
0.0
230
1.0
 70
    11
 71
     3
 72
    11
 73
     7
 74
     0
 42
0.0000000001
 43
0.0000000001
 40
0.0
 40
0.0
 40
0.0
 40
0.0
 40
1.0
 40
1.0
 40
1.0
 40
2.0
 40
2.0
 40
2.0
 40
2.0
 10
106.2162556966146
 20
172.0101725260417
 30
0.0
 10
106.2162556966146
 20
170.6076741536458
 30
0.0
 10
104.5519300672743
 20
170.7747612847222
 30
0.0
 10
104.5519300672743
 20
172.1064629448784
 30
0.0
 10
104.5519300672743
 20
173.5327324761284
 30
0.0
 10
106.2162556966146
 20
173.2690104166667
 30
0.0
 10
106.2162556966146
 20
172.0101725260417
 30
0.0
  0
SPLINE
  5
56
330
A
100
AcDbEntity
  8
LAYER_1
 62
     7
100
AcDbSpline
210
0.0
220
0.0
230
1.0
 70
    11
 71
     3
 72
    11
 73
     7
 74
     0
 42
0.0000000001
 43
0.0000000001
 40
0.0
 40
0.0
 40
0.0
 40
0.0
 40
1.0
 40
1.0
 40
1.0
 40
2.0
 40
2.0
 40
2.0
 40
2.0
 10
104.4471991644965
 20
169.7288302951389
 30
0.0
 10
104.4471991644965
 20
168.3258151584201
 30
0.0
 10
102.782184516059
 20
168.4934190538194
 30
0.0
 10
102.782184516059
 20
169.8246039496528
 30
0.0
 10
102.782184516059
 20
171.2507012261285
 30
0.0
 10
104.4471991644965
 20
170.9876681857639
 30
0.0
 10
104.4471991644965
 20
169.7288302951389
 30
0.0
  0
SPLINE
  5
55
330
A
100
AcDbEntity
  8
LAYER_1
 62
     7
100
AcDbSpline
210
0.0
220
0.0
230
1.0
 70
     8
 71
     3
 72
    11
 73
     7
 74
     0
 42
0.0000000001
 43
0.0000000001
 40
0.0
 40
0.0
 40
0.0
 40
0.0
 40
1.0
 40
1.0
 40
1.0
 40
2.0
 40
2.0
 40
2.0
 40
2.0
 10
104.6892171223958
 20
167.0106499565972
 30
0.0
 10
104.8234035915799
 20
166.5407389322917
 30
0.0
 10
104.2391153971354
 20
165.8072781032986
 30
0.0
 10
103.2520955403646
 20
165.8072781032986
 30
0.0
 10
102.6746975368924
 20
165.8072781032986
 30
0.0
 10
102.4514553493924
 20
166.0305202907986
 30
0.0
 10
102.4660970052083
 20
166.3095730251736
 30
0.0
  0
SPLINE
  5
54
330
A
100
AcDbEntity
  8
LAYER_1
 62
     7
100
AcDbSpline
210
0.0
220
0.0
230
1.0
 70
    11
 71
     3
 72
    11
 73
     7
 74
     0
 42
0.0000000001
 43
0.0000000001
 40
0.0
 40
0.0
 40
0.0
 40
0.0
 40
1.0
 40
1.0
 40
1.0
 40
2.0
 40
2.0
 40
2.0
 40
2.0
 10
103.9554117838542
 20
167.5489461263021
 30
0.0
 10
105.2521457248264
 20
167.5489461263021
 30
0.0
 10
104.6707858615451
 20
165.9611016167535
 30
0.0
 10
103.2186781141493
 20
165.9611016167535
 30
0.0
 10
101.6794094509549
 20
165.9611016167535
 30
0.0
 10
102.6585055881076
 20
167.5489461263021
 30
0.0
 10
103.9554117838542
 20
167.5489461263021
 30
0.0
  0
SPLINE
  5
53
330
A
100
AcDbEntity
  8
LAYER_1
 62
     7
100
AcDbSpline
210
0.0
220
0.0
230
1.0
 70
     8
 71
     3
 72
     8
 73
     4
 74
     0
 42
0.0000000001
 43
0.0000000001
 40
0.0
 40
0.0
 40
0.0
 40
0.0
 40
1.0
 40
1.0
 40
1.0
 40
1.0
 10
103.0443562825521
 20
165.6512152777778
 30
0.0
 10
102.5434393988715
 20
163.8177354600694
 30
0.0
 10
105.6402357313368
 20
163.1933119032118
 30
0.0
 10
106.0085164388021
 20
165.0615871853298
 30
0.0
  0
SPLINE
  5
52
330
A
100
AcDbEntity
  8
LAYER_1
 62
     7
100
AcDbSpline
210
0.0
220
0.0
230
1.0
 70
     8
 71
     3
 72
     8
 73
     4
 74
     0
 42
0.0000000001
 43
0.0000000001
 40
0.0
 40
0.0
 40
0.0
 40
0.0
 40
1.0
 40
1.0
 40
1.0
 40
1.0
 10
106.0434841579861
 20
165.5170288085937
 30
0.0
 10
106.0374552408854
 20
165.7020304361979
 30
0.0
 10
106.0116170247396
 20
165.9042575412326
 30
0.0
 10
105.9592515733507
 20
166.1256049262153
 30
0.0
  0
LWPOLYLINE
  5
4D
330
A
100
AcDbEntity
  8
LAYER_1
 62
     7
100
AcDbPolyline
 90
        3
 70
     0
 43
0.0
 10
115.1164876302083
 20
154.9569498697917
 10
115.1164876302083
 20
145.1077663845486
 10
118.0215643988715
 20
141.1293701171875
  0
LINE
  5
4C
330
A
100
AcDbEntity
  8
LAYER_1
 62
     7
100
AcDbLine
 10
114.3396185980903
 20
145.1763237847222
 30
0.0
 11
115.1120090060764
 21
145.1093166775173
 31
0.0
  0
SPLINE
  5
4B
330
A
100
AcDbEntity
  8
LAYER_1
 62
     7
100
AcDbSpline
210
0.0
220
0.0
230
1.0
 70
     8
 71
     3
 72
    11
 73
     7
 74
     0
 42
0.0000000001
 43
0.0000000001
 40
0.0
 40
0.0
 40
0.0
 40
0.0
 40
1.0
 40
1.0
 40
1.0
 40
2.0
 40
2.0
 40
2.0
 40
2.0
 10
116.9432495117187
 20
145.1062160915799
 30
0.0
 10
116.5766913519965
 20
145.1639214409722
 30
0.0
 10
116.253369140625
 20
145.4736355251736
 30
0.0
 10
116.253369140625
 20
146.0498277452257
 30
0.0
 10
116.253369140625
 20
146.7908677842882
 30
0.0
 10
116.7880479600694
 20
147.1470906575521
 30
0.0
 10
117.2615763346354
 20
147.087318250868
 30
0.0
  0
SPLINE
  5
4A
330
A
100
AcDbEntity
  8
LAYER_1
 62
     7
100
AcDbSpline
210
0.0
220
0.0
230
1.0
 70
     8
 71
     3
 72
    11
 73
     7
 74
     0
 42
0.0000000001
 43
0.0000000001
 40
0.0
 40
0.0
 40
0.0
 40
0.0
 40
1.0
 40
1.0
 40
1.0
 40
2.0
 40
2.0
 40
2.0
 40
2.0
 10
119.7137953016493
 20
144.3291748046875
 30
0.0
 10
119.3770372178819
 20
144.4135796440972
 30
0.0
 10
119.0940226236979
 20
144.7193318684896
 30
0.0
 10
119.0940226236979
 20
145.258489312066
 30
0.0
 10
119.0940226236979
 20
146.0896185980903
 30
0.0
 10
119.7670220269097
 20
146.4365397135417
 30
0.0
 10
120.271728515625
 20
146.2553276909722
 30
0.0
  0
SPLINE
  5
49
330
A
100
AcDbEntity
  8
LAYER_1
 62
     7
100
AcDbSpline
210
0.0
220
0.0
230
1.0
 70
    11
 71
     3
 72
    11
 73
     7
 74
     0
 42
0.0000000001
 43
0.0000000001
 40
0.0
 40
0.0
 40
0.0
 40
0.0
 40
1.0
 40
1.0
 40
1.0
 40
2.0
 40
2.0
 40
2.0
 40
2.0
 10
118.1740098741319
 20
146.0741156684028
 30
0.0
 10
118.1740098741319
 20
144.7439643012153
 30
0.0
 10
116.4512898763021
 20
144.6537027994792
 30
0.0
 10
116.4512898763021
 20
145.9838541666667
 30
0.0
 10
116.4512898763021
 20
147.3140055338542
 30
0.0
 10
118.1740098741319
 20
147.4042670355903
 30
0.0
 10
118.1740098741319
 20
146.0741156684028
 30
0.0
  0
SPLINE
  5
48
330
A
100
AcDbEntity
  8
LAYER_1
 62
     7
100
AcDbSpline
210
0.0
220
0.0
230
1.0
 70
    11
 71
     3
 72
    11
 73
     7
 74
     0
 42
0.0000000001
 43
0.0000000001
 40
0.0
 40
0.0
 40
0.0
 40
0.0
 40
1.0
 40
1.0
 40
1.0
 40
2.0
 40
2.0
 40
2.0
 40
2.0
 10
121.0146633572049
 20
145.282777235243
 30
0.0
 10
121.0146633572049
 20
143.9526258680556
 30
0.0
 10
119.291943359375
 20
143.8625366210937
 30
0.0
 10
119.291943359375
 20
145.1926879882813
 30
0.0
 10
119.291943359375
 20
146.5223225911458
 30
0.0
 10
121.0146633572049
 20
146.6125840928819
 30
0.0
 10
121.0146633572049
 20
145.282777235243
 30
0.0
  0
LINE
  5
47
330
A
100
AcDbEntity
  8
LAYER_1
 62
     7
100
AcDbLine
 10
78.70906304253471
 20
139.1966715494792
 30
0.0
 11
78.70906304253471
 21
148.9249321831597
 31
0.0
  0
LWPOLYLINE
  5
42
330
A
100
AcDbEntity
  8
LAYER_1
 62
     7
100
AcDbPolyline
 90
        3
 70
     0
 43
0.0
 10
143.1263197157118
 20
169.7128106011285
 10
140.4446573893229
 20
168.4334743923611
 10
143.1421671549479
 20
168.5032375759548
  0
LWPOLYLINE
  5
3D
330
A
100
AcDbEntity
  8
LAYER_1
 62
     7
100
AcDbPolyline
 90
        3
 70
     0
 43
0.0
 10
151.4186645507812
 20
168.6503431532118
 10
150.1475965711805
 20
167.7336032443576
 10
151.4284830729167
 20
167.3698011610243
  0
LINE
  5
3C
330
A
100
AcDbEntity
  8
LAYER_1
 62
     7
100
AcDbLine
 10
62.9048597547743
 20
147.856780327691
 30
0.0
 11
62.9048597547743
 21
153.9745808919271
 31
0.0
  0
LINE
  5
3B
330
A
100
AcDbEntity
  8
LAYER_1
 62
     7
100
AcDbLine
 10
70.98274739583333
 20
144.8693657769097
 30
0.0
 11
70.98274739583333
 21
152.7491604275174
 31
0.0
  0
LWPOLYLINE
  5
32
330
A
100
AcDbEntity
  8
LAYER_1
 62
     7
100
AcDbPolyline
 90
        7
 70
     0
 43
0.0
 10
58.52183702256944
 20
158.9496432834201
 10
65.3513943142361
 20
155.5548461914062
 10
62.89796956380208
 20
153.9732028537326
 10
73.279248046875
 20
154.4301947699653
 10
70.98429768880207
 20
152.7505384657118
 10
78.70906304253471
 20
148.9306165907118
 10
113.0254869249132
 20
155.8475070529514
  0
LINE
  5
31
330
A
100
AcDbEntity
  8
LAYER_1
 62
     7
100
AcDbLine
 10
142.2910563151042
 20
161.7077867296007
 30
0.0
 11
158.8659274631076
 21
165.0281697591146
 31
0.0
  0
SPLINE
  5
30
330
A
100
AcDbEntity
  8
LAYER_1
 62
     7
100
AcDbSpline
210
0.0
220
0.0
230
1.0
 70
     8
 71
     3
 72
    11
 73
     7
 74
     0
 42
0.0000000001
 43
0.0000000001
 40
0.0
 40
0.0
 40
0.0
 40
0.0
 40
1.0
 40
1.0
 40
1.0
 40
2.0
 40
2.0
 40
2.0
 40
2.0
 10
57.65177815755208
 20
157.4420694986979
 30
0.0
 10
58.5423353407118
 20
157.1859266493055
 30
0.0
 10
59.58137613932291
 20
156.8748345269097
 30
0.0
 10
60.2290540907118
 20
156.5110324435764
 30
0.0
 10
60.87673204210069
 20
156.147230360243
 30
0.0
 10
63.1436048719618
 20
155.2146430121528
 30
0.0
 10
64.2350111219618
 20
154.8375773111979
 30
0.0
  0
SPLINE
  5
2F
330
A
100
AcDbEntity
  8
LAYER_1
 62
     7
100
AcDbSpline
210
0.0
220
0.0
230
1.0
 70
     8
 71
     3
 72
    11
 73
     7
 74
     0
 42
0.0000000001
 43
0.0000000001
 40
0.0
 40
0.0
 40
0.0
 40
0.0
 40
1.0
 40
1.0
 40
1.0
 40
2.0
 40
2.0
 40
2.0
 40
2.0
 10
57.65315619574653
 20
155.5662150065104
 30
0.0
 10
58.39522976345486
 20
155.3510687934028
 30
0.0
 10
59.10836452907986
 20
155.2449598524306
 30
0.0
 10
59.71556260850694
 20
154.9206041124132
 30
0.0
 10
60.32189941406249
 20
154.5960761176215
 30
0.0
 10
62.04806450737847
 20
153.6252482096354
 30
0.0
 10
62.89796956380208
 20
153.4228488498264
 30
0.0
  0
SPLINE
  5
2E
330
A
100
AcDbEntity
  8
LAYER_1
 62
     7
100
AcDbSpline
210
0.0
220
0.0
230
1.0
 70
     8
 71
     3
 72
    11
 73
     7
 74
     0
 42
0.0000000001
 43
0.0000000001
 40
0.0
 40
0.0
 40
0.0
 40
0.0
 40
1.0
 40
1.0
 40
1.0
 40
2.0
 40
2.0
 40
2.0
 40
2.0
 10
57.65177815755208
 20
153.8405666775174
 30
0.0
 10
58.44793972439236
 20
153.6514309353298
 30
0.0
 10
58.78555908203124
 20
153.6397176106771
 30
0.0
 10
59.3517605251736
 20
153.274365234375
 30
0.0
 10
59.91796196831596
 20
152.9093573676215
 30
0.0
 10
62.22428114149305
 20
151.7478434244792
 30
0.0
 10
62.91243896484374
 20
151.66826171875
 30
0.0
  0
SPLINE
  5
2D
330
A
100
AcDbEntity
  8
LAYER_1
 62
     7
100
AcDbSpline
210
0.0
220
0.0
230
1.0
 70
     8
 71
     3
 72
    11
 73
     7
 74
     0
 42
0.0000000001
 43
0.0000000001
 40
0.0
 40
0.0
 40
0.0
 40
0.0
 40
1.0
 40
1.0
 40
1.0
 40
2.0
 40
2.0
 40
2.0
 40
2.0
 10
57.66607530381944
 20
152.3564195421007
 30
0.0
 10
58.40883789062499
 20
152.248932562934
 30
0.0
 10
58.98795844184027
 20
151.9912394205729
 30
0.0
 10
59.48663601345486
 20
151.6549981011285
 30
0.0
 10
59.98617485894097
 20
151.3189290364583
 30
0.0
 10
62.26510552300347
 20
150.1577596028646
 30
0.0
 10
62.91243896484374
 20
150.0630194769965
 30
0.0
  0
SPLINE
  5
2C
330
A
100
AcDbEntity
  8
LAYER_1
 62
     7
100
AcDbSpline
210
0.0
220
0.0
230
1.0
 70
     8
 71
     3
 72
    11
 73
     7
 74
     0
 42
0.0000000001
 43
0.0000000001
 40
0.0
 40
0.0
 40
0.0
 40
0.0
 40
1.0
 40
1.0
 40
1.0
 40
2.0
 40
2.0
 40
2.0
 40
2.0
 10
57.66504177517361
 20
151.0755330403646
 30
0.0
 10
58.40728759765624
 20
150.7789103190104
 30
0.0
 10
58.98640814887153
 20
150.6159573025174
 30
0.0
 10
59.76930609809028
 20
150.1982394748264
 30
0.0
 10
60.55220404730903
 20
149.7806939019097
 30
0.0
 10
62.23857828776041
 20
148.8358764648438
 30
0.0
 10
62.89951985677083
 20
148.6207302517361
 30
0.0
  0
SPLINE
  5
2B
330
A
100
AcDbEntity
  8
LAYER_1
 62
     7
100
AcDbSpline
210
0.0
220
0.0
230
1.0
 70
     8
 71
     3
 72
    11
 73
     7
 74
     0
 42
0.0000000001
 43
0.0000000001
 40
0.0
 40
0.0
 40
0.0
 40
0.0
 40
1.0
 40
1.0
 40
1.0
 40
2.0
 40
2.0
 40
2.0
 40
2.0
 10
62.93862169053819
 20
152.9779147677951
 30
0.0
 10
63.82952338324652
 20
152.8161675347222
 30
0.0
 10
65.20446099175346
 20
152.4928453233507
 30
0.0
 10
65.9463623046875
 20
152.5193725585937
 30
0.0
 10
66.68843587239583
 20
152.5455552842882
 30
0.0
 10
70.30526936848958
 20
152.2745985243055
 30
0.0
 10
70.96534966362847
 20
152.1002766927083
 30
0.0
  0
SPLINE
  5
2A
330
A
100
AcDbEntity
  8
LAYER_1
 62
     7
100
AcDbSpline
210
0.0
220
0.0
230
1.0
 70
     8
 71
     3
 72
    11
 73
     7
 74
     0
 42
0.0000000001
 43
0.0000000001
 40
0.0
 40
0.0
 40
0.0
 40
0.0
 40
1.0
 40
1.0
 40
1.0
 40
2.0
 40
2.0
 40
2.0
 40
2.0
 10
62.92690836588541
 20
150.8603868272569
 30
0.0
 10
63.55977240668402
 20
150.752727593316
 30
0.0
 10
65.85317247178818
 20
150.5215616861979
 30
0.0
 10
66.95939263237847
 20
150.4950344509549
 30
0.0
 10
68.06561279296875
 20
150.4688517252604
 30
0.0
 10
70.53488498263889
 20
150.4283718532986
 30
0.0
 10
70.96534966362847
 20
150.2926350911458
 30
0.0
  0
SPLINE
  5
29
330
A
100
AcDbEntity
  8
LAYER_1
 62
     7
100
AcDbSpline
210
0.0
220
0.0
230
1.0
 70
     8
 71
     3
 72
    11
 73
     7
 74
     0
 42
0.0000000001
 43
0.0000000001
 40
0.0
 40
0.0
 40
0.0
 40
0.0
 40
1.0
 40
1.0
 40
1.0
 40
2.0
 40
2.0
 40
2.0
 40
2.0
 10
62.9139892578125
 20
149.4968180338541
 30
0.0
 10
63.84399278428819
 20
149.1853814019097
 30
0.0
 10
66.43263753255208
 20
148.9716132269965
 30
0.0
 10
67.24171820746527
 20
149.0663533528646
 30
0.0
 10
68.05079888237847
 20
149.160748969184
 30
0.0
 10
70.39656439887152
 20
149.1345662434896
 30
0.0
 10
70.96379937065971
 20
148.7836832682291
 30
0.0
  0
SPLINE
  5
28
330
A
100
AcDbEntity
  8
LAYER_1
 62
     7
100
AcDbSpline
210
0.0
220
0.0
230
1.0
 70
     8
 71
     3
 72
    11
 73
     7
 74
     0
 42
0.0000000001
 43
0.0000000001
 40
0.0
 40
0.0
 40
0.0
 40
0.0
 40
1.0
 40
1.0
 40
1.0
 40
2.0
 40
2.0
 40
2.0
 40
2.0
 10
62.92535807291666
 20
147.5947808159722
 30
0.0
 10
64.05758870442708
 20
147.0420152452257
 30
0.0
 10
66.53909098307291
 20
147.0912801106771
 30
0.0
 10
67.41759033203124
 20
147.1234917534722
 30
0.0
 10
69.61659478081597
 20
147.2049682617187
 30
0.0
 10
70.58707817925347
 20
146.6637437608507
 30
0.0
 10
70.99187689887152
 20
146.6100002712674
 30
0.0
  0
SPLINE
  5
27
330
A
100
AcDbEntity
  8
LAYER_1
 62
     7
100
AcDbSpline
210
0.0
220
0.0
230
1.0
 70
     8
 71
     3
 72
    11
 73
     7
 74
     0
 42
0.0000000001
 43
0.0000000001
 40
0.0
 40
0.0
 40
0.0
 40
0.0
 40
1.0
 40
1.0
 40
1.0
 40
2.0
 40
2.0
 40
2.0
 40
2.0
 10
62.92690836588541
 20
146.1642049153646
 30
0.0
 10
64.0736083984375
 20
146.0567179361979
 30
0.0
 10
66.3527113172743
 20
145.7466593424479
 30
0.0
 10
67.33645833333333
 20
145.9898830837674
 30
0.0
 10
68.15277370876736
 20
146.1893541124132
 30
0.0
 10
70.37038167317708
 20
146.004352484809
 30
0.0
 10
70.97740749782986
 20
145.8284803602431
 30
0.0
  0
SPLINE
  5
26
330
A
100
AcDbEntity
  8
LAYER_1
 62
     7
100
AcDbSpline
210
0.0
220
0.0
230
1.0
 70
     8
 71
     3
 72
    11
 73
     7
 74
     0
 42
0.0000000001
 43
0.0000000001
 40
0.0
 40
0.0
 40
0.0
 40
0.0
 40
1.0
 40
1.0
 40
1.0
 40
2.0
 40
2.0
 40
2.0
 40
2.0
 10
70.98274739583333
 20
151.4780924479167
 30
0.0
 10
71.84453803168402
 20
151.3454562717014
 30
0.0
 10
72.90562744140624
 20
151.1749240451389
 30
0.0
 10
73.87886691623264
 20
150.4893500434028
 30
0.0
 10
74.85279541015625
 20
149.8037760416667
 30
0.0
 10
78.42105305989583
 20
148.3428833007812
 30
0.0
 10
78.70906304253471
 20
148.2322957356771
 30
0.0
  0
SPLINE
  5
25
330
A
100
AcDbEntity
  8
LAYER_1
 62
     7
100
AcDbSpline
210
0.0
220
0.0
230
1.0
 70
     8
 71
     3
 72
    11
 73
     7
 74
     0
 42
0.0000000001
 43
0.0000000001
 40
0.0
 40
0.0
 40
0.0
 40
0.0
 40
1.0
 40
1.0
 40
1.0
 40
2.0
 40
2.0
 40
2.0
 40
2.0
 10
71.05853949652777
 20
149.9303833007812
 30
0.0
 10
71.98544243706597
 20
149.756061469184
 30
0.0
 10
72.78746066623263
 20
149.582428656684
 30
0.0
 10
74.01288113064236
 20
148.8813517252604
 30
0.0
 10
75.23778483072915
 20
148.1799302842882
 30
0.0
 10
77.69189860026042
 20
146.8775119357639
 30
0.0
 10
78.6930433485243
 20
146.6782131618924
 30
0.0
  0
SPLINE
  5
24
330
A
100
AcDbEntity
  8
LAYER_1
 62
     7
100
AcDbSpline
210
0.0
220
0.0
230
1.0
 70
     8
 71
     3
 72
    11
 73
     7
 74
     0
 42
0.0000000001
 43
0.0000000001
 40
0.0
 40
0.0
 40
0.0
 40
0.0
 40
1.0
 40
1.0
 40
1.0
 40
2.0
 40
2.0
 40
2.0
 40
2.0
 10
71.00634629991319
 20
148.2527940538194
 30
0.0
 10
71.64213867187499
 20
148.0969034830729
 30
0.0
 10
72.97539062499999
 20
147.8643595377604
 30
0.0
 10
73.7817152235243
 20
147.3534518771701
 30
0.0
 10
74.58752305772569
 20
146.8425442165799
 30
0.0
 10
77.85709092881943
 20
145.2609008789062
 30
0.0
 10
78.71061333550347
 20
145.0903686523437
 30
0.0
  0
SPLINE
  5
23
330
A
100
AcDbEntity
  8
LAYER_1
 62
     7
100
AcDbSpline
210
0.0
220
0.0
230
1.0
 70
     8
 71
     3
 72
    11
 73
     7
 74
     0
 42
0.0000000001
 43
0.0000000001
 40
0.0
 40
0.0
 40
0.0
 40
0.0
 40
1.0
 40
1.0
 40
1.0
 40
2.0
 40
2.0
 40
2.0
 40
2.0
 10
70.99032660590277
 20
146.765374077691
 30
0.0
 10
71.65660807291665
 20
146.6416951497396
 30
0.0
 10
72.91544596354166
 20
146.0684312608507
 30
0.0
 10
73.65906982421875
 20
145.7261610243056
 30
0.0
 10
74.40252143012152
 20
145.3844075520833
 30
0.0
 10
77.76700168185764
 20
143.6658216688368
 30
0.0
 10
78.69683295355902
 20
143.5566121419271
 30
0.0
  0
SPLINE
  5
22
330
A
100
AcDbEntity
  8
LAYER_1
 62
     7
100
AcDbSpline
210
0.0
220
0.0
230
1.0
 70
     8
 71
     3
 72
    11
 73
     7
 74
     0
 42
0.0000000001
 43
0.0000000001
 40
0.0
 40
0.0
 40
0.0
 40
0.0
 40
1.0
 40
1.0
 40
1.0
 40
2.0
 40
2.0
 40
2.0
 40
2.0
 10
71.00634629991319
 20
145.1675387912326
 30
0.0
 10
72.06123453776041
 20
144.8273356119792
 30
0.0
 10
73.45512017144097
 20
144.2974799262153
 30
0.0
 10
74.18427463107638
 20
143.9731241861979
 30
0.0
 10
74.9134290907118
 20
143.6484239366319
 30
0.0
 10
77.12948676215277
 20
141.8497395833333
 30
0.0
 10
78.69545491536458
 20
141.7258884006076
 30
0.0
  0
ENDSEC
  0
SECTION
  2
OBJECTS
  0
DICTIONARY
  5
19
330
0
100
AcDbDictionary
281
     1
  3
ACAD_COLOR
350
1A2
  3
ACAD_GROUP
350
1A
  3
ACAD_LAYOUT
350
16F
  3
ACAD_MATERIAL
350
1A4
  3
ACAD_MLINESTYLE
350
1B
  3
ACAD_PLOTSETTINGS
350
170
  3
ACAD_PLOTSTYLENAME
350
16D
  3
ACDBHEADERROUNDTRIPXREC
350
1A1
  0
DICTIONARY
  5
1A2
102
{ACAD_REACTORS
330
19
102
}
330
19
100
AcDbDictionary
281
     1
  0
DICTIONARY
  5
1A
102
{ACAD_REACTORS
330
19
102
}
330
19
100
AcDbDictionary
281
     1
  0
DICTIONARY
  5
16F
102
{ACAD_REACTORS
330
19
102
}
330
19
100
AcDbDictionary
281
     1
  3
Layout1
350
172
  3
Model
350
171
  0
DICTIONARY
  5
1A4
102
{ACAD_REACTORS
330
19
102
}
330
19
100
AcDbDictionary
281
     1
  0
DICTIONARY
  5
1B
102
{ACAD_REACTORS
330
19
102
}
330
19
100
AcDbDictionary
281
     1
  3
STANDARD
350
1C
  0
DICTIONARY
  5
170
102
{ACAD_REACTORS
330
19
102
}
330
19
100
AcDbDictionary
281
     1
  0
ACDBDICTIONARYWDFLT
  5
16D
102
{ACAD_REACTORS
330
19
102
}
330
19
100
AcDbDictionary
281
     1
  3
Normal
350
16E
100
AcDbDictionaryWithDefault
340
16E
  0
DICTIONARY
  5
1A1
102
{ACAD_REACTORS
330
19
102
}
330
19
100
AcDbDictionary
281
     1
  3
COLORDICT
350
1A3
  3
MATERIALDICT
350
1A5
  0
LAYOUT
  5
172
102
{ACAD_REACTORS
330
16F
102
}
102
{ACAD_XDICTIONARY
360
1A6
102
}
330
16F
100
AcDbPlotSettings
  1

  2
Support Center HP LaserJet 4
  4

  6

 40
0.0
 41
0.0
 42
0.0
 43
0.0
 44
0.0
 45
0.0
 46
0.0
 47
0.0
 48
0.0
 49
0.0
140
0.0
141
0.0
142
1.0
143
1.0
 70
   688
 72
     0
 73
     0
 74
     5
  7

 75
    16
147
1.0
148
0.0
149
0.0
100
AcDbLayout
  1
Layout1
 70
     0
 71
     1
 10
0.0
 20
0.0
 11
12.0
 21
9.0
 12
0.0
 22
0.0
 32
0.0
 14
1.000000000000000E+20
 24
1.000000000000000E+20
 34
1.000000000000000E+20
 15
-1.000000000000000E+20
 25
-1.000000000000000E+20
 35
-1.000000000000000E+20
146
0.0
 13
0.0
 23
0.0
 33
0.0
 16
1.0
 26
0.0
 36
0.0
 17
0.0
 27
1.0
 37
0.0
 76
     0
330
B
  0
LAYOUT
  5
171
102
{ACAD_REACTORS
330
16F
102
}
102
{ACAD_XDICTIONARY
360
1A8
102
}
330
16F
100
AcDbPlotSettings
  1

  2
Support Center HP LaserJet 4
  4

  6

 40
0.0
 41
0.0
 42
0.0
 43
0.0
 44
0.0
 45
0.0
 46
0.0
 47
0.0
 48
0.0
 49
0.0
140
0.0
141
0.0
142
1.0
143
1.0
 70
  1712
 72
     0
 73
     0
 74
     0
  7

 75
     0
147
1.0
148
0.0
149
0.0
100
AcDbLayout
  1
Model
 70
     1
 71
     0
 10
0.0
 20
0.0
 11
12.0
 21
9.0
 12
0.0
 22
0.0
 32
0.0
 14
0.0
 24
0.0
 34
0.0
 15
0.0
 25
0.0
 35
0.0
146
0.0
 13
0.0
 23
0.0
 33
0.0
 16
1.0
 26
0.0
 36
0.0
 17
0.0
 27
1.0
 37
0.0
 76
     0
330
A
  0
MLINESTYLE
  5
1C
102
{ACAD_REACTORS
330
1B
102
}
330
1B
100
AcDbMlineStyle
  2
STANDARD
 70
     0
  3

 62
     0
 51
90.0000000000002
 52
90.0000000000002
 71
     2
 49
0.5
 62
   256
  6
BYLAYER
 49
-0.5
 62
   256
  6
BYLAYER
  0
ACDBPLACEHOLDER
  5
16E
102
{ACAD_REACTORS
330
16D
102
}
330
16D
  0
XRECORD
  5
1A3
102
{ACAD_REACTORS
330
1A1
102
}
330
1A1
100
AcDbXrecord
340
1A2
  0
XRECORD
  5
1A5
102
{ACAD_REACTORS
330
1A1
102
}
330
1A1
100
AcDbXrecord
340
1A4
  0
DICTIONARY
  5
1A6
330
172
100
AcDbDictionary
280
     1
281
     1
  3
ACAD_XREC_ROUNDTRIP
360
1A7
  0
DICTIONARY
  5
1A8
330
171
100
AcDbDictionary
280
     1
281
     1
  3
ACAD_XREC_ROUNDTRIP
360
1A9
  0
XRECORD
  5
1A7
102
{ACAD_REACTORS
330
1A6
102
}
330
1A6
100
AcDbXrecord
102
SHADEPLOT
 70
 27424
102
SHADEPLOTRESLEVEL
 70
 25504
102
SHADEPLOTCUSTOMDPI
 70
 16888
  0
XRECORD
  5
1A9
102
{ACAD_REACTORS
330
1A8
102
}
330
1A8
100
AcDbXrecord
102
SHADEPLOT
 70
     0
102
SHADEPLOTRESLEVEL
 70
     0
102
SHADEPLOTCUSTOMDPI
 70
     0
  0
ENDSEC
  0
EOF
