  0
SECTION
  2
HEADER
  9
$ACADVER
  1
AC1015
  9
$ACADMAINTVER
 70
     6
  9
$DWGCODEPAGE
  3
ANSI_1252
  9
$INSBASE
 10
0.0
 20
0.0
 30
0.0
  9
$EXTMIN
 10
0.0161133092084356
 20
0.0065918178374318
 30
-0.0015258207003583
  9
$EXTMAX
 10
1.951429236117923
 20
2.004043591911955
 30
0.0000000349246037
  9
$LIMMIN
 10
0.0
 20
0.0
  9
$LIMMAX
 10
12.0
 20
9.0
  9
$ORTHOMODE
 70
     0
  9
$REGENMODE
 70
     1
  9
$FILLMODE
 70
     1
  9
$QTEXTMODE
 70
     0
  9
$MIRRTEXT
 70
     1
  9
$LTSCALE
 40
1.0
  9
$ATTMODE
 70
     1
  9
$TEXTSIZE
 40
0.2
  9
$TRACEWID
 40
0.05
  9
$TEXTSTYLE
  7
Standard
  9
$CLAYER
  8
0
  9
$CELTYPE
  6
ByLayer
  9
$CECOLOR
 62
   256
  9
$CELTSCALE
 40
1.0
  9
$DISPSILH
 70
     0
  9
$DIMSCALE
 40
1.0
  9
$DIMASZ
 40
0.18
  9
$DIMEXO
 40
0.0625
  9
$DIMDLI
 40
0.38
  9
$DIMRND
 40
0.0
  9
$DIMDLE
 40
0.0
  9
$DIMEXE
 40
0.18
  9
$DIMTP
 40
0.0
  9
$DIMTM
 40
0.0
  9
$DIMTXT
 40
0.18
  9
$DIMCEN
 40
0.09
  9
$DIMTSZ
 40
0.0
  9
$DIMTOL
 70
     0
  9
$DIMLIM
 70
     0
  9
$DIMTIH
 70
     1
  9
$DIMTOH
 70
     1
  9
$DIMSE1
 70
     0
  9
$DIMSE2
 70
     0
  9
$DIMTAD
 70
     0
  9
$DIMZIN
 70
     0
  9
$DIMBLK
  1

  9
$DIMASO
 70
     1
  9
$DIMSHO
 70
     1
  9
$DIMPOST
  1

  9
$DIMAPOST
  1

  9
$DIMALT
 70
     0
  9
$DIMALTD
 70
     2
  9
$DIMALTF
 40
25.4
  9
$DIMLFAC
 40
1.0
  9
$DIMTOFL
 70
     0
  9
$DIMTVP
 40
0.0
  9
$DIMTIX
 70
     0
  9
$DIMSOXD
 70
     0
  9
$DIMSAH
 70
     0
  9
$DIMBLK1
  1

  9
$DIMBLK2
  1

  9
$DIMSTYLE
  2
Standard
  9
$DIMCLRD
 70
     0
  9
$DIMCLRE
 70
     0
  9
$DIMCLRT
 70
     0
  9
$DIMTFAC
 40
1.0
  9
$DIMGAP
 40
0.09
  9
$DIMJUST
 70
     0
  9
$DIMSD1
 70
     0
  9
$DIMSD2
 70
     0
  9
$DIMTOLJ
 70
     1
  9
$DIMTZIN
 70
     0
  9
$DIMALTZ
 70
     0
  9
$DIMALTTZ
 70
     0
  9
$DIMUPT
 70
     0
  9
$DIMDEC
 70
     4
  9
$DIMTDEC
 70
     4
  9
$DIMALTU
 70
     2
  9
$DIMALTTD
 70
     2
  9
$DIMTXSTY
  7
Standard
  9
$DIMAUNIT
 70
     0
  9
$DIMADEC
 70
     0
  9
$DIMALTRND
 40
0.0
  9
$DIMAZIN
 70
     0
  9
$DIMDSEP
 70
    46
  9
$DIMATFIT
 70
     3
  9
$DIMFRAC
 70
     0
  9
$DIMLDRBLK
  1

  9
$DIMLUNIT
 70
     2
  9
$DIMLWD
 70
    -2
  9
$DIMLWE
 70
    -2
  9
$DIMTMOVE
 70
     0
  9
$LUNITS
 70
     2
  9
$LUPREC
 70
     4
  9
$SKETCHINC
 40
0.1
  9
$FILLETRAD
 40
0.5
  9
$AUNITS
 70
     0
  9
$AUPREC
 70
     0
  9
$MENU
  1
.
  9
$ELEVATION
 40
0.0
  9
$PELEVATION
 40
0.0
  9
$THICKNESS
 40
0.0
  9
$LIMCHECK
 70
     0
  9
$CHAMFERA
 40
0.5
  9
$CHAMFERB
 40
0.5
  9
$CHAMFERC
 40
1.0
  9
$CHAMFERD
 40
0.0
  9
$SKPOLY
 70
     0
  9
$TDCREATE
 40
2454903.933658658
  9
$TDUCREATE
 40
2454904.266991991
  9
$TDUPDATE
 40
2454907.658168646
  9
$TDUUPDATE
 40
2454907.991501979
  9
$TDINDWG
 40
0.0003625579
  9
$TDUSRTIMER
 40
0.0003625579
  9
$USRTIMER
 70
     1
  9
$ANGBASE
 50
0.0
  9
$ANGDIR
 70
     0
  9
$PDMODE
 70
     0
  9
$PDSIZE
 40
0.0
  9
$PLINEWID
 40
0.0
  9
$SPLFRAME
 70
     0
  9
$SPLINETYPE
 70
     6
  9
$SPLINESEGS
 70
     8
  9
$HANDSEED
  5
E1
  9
$SURFTAB1
 70
     6
  9
$SURFTAB2
 70
     6
  9
$SURFTYPE
 70
     6
  9
$SURFU
 70
     6
  9
$SURFV
 70
     6
  9
$UCSBASE
  2

  9
$UCSNAME
  2

  9
$UCSORG
 10
0.0
 20
0.0
 30
0.0
  9
$UCSXDIR
 10
1.0
 20
0.0
 30
0.0
  9
$UCSYDIR
 10
0.0
 20
1.0
 30
0.0
  9
$UCSORTHOREF
  2

  9
$UCSORTHOVIEW
 70
     0
  9
$UCSORGTOP
 10
0.0
 20
0.0
 30
0.0
  9
$UCSORGBOTTOM
 10
0.0
 20
0.0
 30
0.0
  9
$UCSORGLEFT
 10
0.0
 20
0.0
 30
0.0
  9
$UCSORGRIGHT
 10
0.0
 20
0.0
 30
0.0
  9
$UCSORGFRONT
 10
0.0
 20
0.0
 30
0.0
  9
$UCSORGBACK
 10
0.0
 20
0.0
 30
0.0
  9
$PUCSBASE
  2

  9
$PUCSNAME
  2

  9
$PUCSORG
 10
0.0
 20
0.0
 30
0.0
  9
$PUCSXDIR
 10
1.0
 20
0.0
 30
0.0
  9
$PUCSYDIR
 10
0.0
 20
1.0
 30
0.0
  9
$PUCSORTHOREF
  2

  9
$PUCSORTHOVIEW
 70
     0
  9
$PUCSORGTOP
 10
0.0
 20
0.0
 30
0.0
  9
$PUCSORGBOTTOM
 10
0.0
 20
0.0
 30
0.0
  9
$PUCSORGLEFT
 10
0.0
 20
0.0
 30
0.0
  9
$PUCSORGRIGHT
 10
0.0
 20
0.0
 30
0.0
  9
$PUCSORGFRONT
 10
0.0
 20
0.0
 30
0.0
  9
$PUCSORGBACK
 10
0.0
 20
0.0
 30
0.0
  9
$USERI1
 70
     0
  9
$USERI2
 70
     0
  9
$USERI3
 70
     0
  9
$USERI4
 70
     0
  9
$USERI5
 70
     0
  9
$USERR1
 40
0.0
  9
$USERR2
 40
0.0
  9
$USERR3
 40
0.0
  9
$USERR4
 40
0.0
  9
$USERR5
 40
0.0
  9
$WORLDVIEW
 70
     1
  9
$SHADEDGE
 70
     3
  9
$SHADEDIF
 70
    70
  9
$TILEMODE
 70
     1
  9
$MAXACTVP
 70
    64
  9
$PINSBASE
 10
0.0
 20
0.0
 30
0.0
  9
$PLIMCHECK
 70
     0
  9
$PEXTMIN
 10
1.000000000000000E+20
 20
1.000000000000000E+20
 30
1.000000000000000E+20
  9
$PEXTMAX
 10
-1.000000000000000E+20
 20
-1.000000000000000E+20
 30
-1.000000000000000E+20
  9
$PLIMMIN
 10
0.0
 20
0.0
  9
$PLIMMAX
 10
12.0
 20
9.0
  9
$UNITMODE
 70
     0
  9
$VISRETAIN
 70
     1
  9
$PLINEGEN
 70
     0
  9
$PSLTSCALE
 70
     1
  9
$TREEDEPTH
 70
  3020
  9
$CMLSTYLE
  2
Standard
  9
$CMLJUST
 70
     0
  9
$CMLSCALE
 40
1.0
  9
$PROXYGRAPHICS
 70
     1
  9
$MEASUREMENT
 70
     0
  9
$CELWEIGHT
370
    -1
  9
$ENDCAPS
280
     0
  9
$JOINSTYLE
280
     0
  9
$LWDISPLAY
290
     1
  9
$INSUNITS
 70
     1
  9
$HYPERLINKBASE
  1

  9
$STYLESHEET
  1

  9
$XEDIT
290
     1
  9
$CEPSNTYPE
380
     0
  9
$PSTYLEMODE
290
     1
  9
$FINGERPRINTGUID
  2
{45F32172-4EB3-47A4-964D-CD6F343EB3C9}
  9
$VERSIONGUID
  2
{646D9861-6D84-4F92-89A7-E8526F6C733B}
  9
$EXTNAMES
290
     1
  9
$PSVPSCALE
 40
0.0
  9
$OLESTARTUP
290
     0
  0
ENDSEC
  0
SECTION
  2
CLASSES
  0
CLASS
  1
ACDBDICTIONARYWDFLT
  2
AcDbDictionaryWithDefault
  3
AutoCAD 2000
 90
        0
280
     0
281
     0
  0
CLASS
  1
VISUALSTYLE
  2
AcDbVisualStyle
  3
ObjectDBX Classes
 90
     4095
280
     1
281
     0
  0
CLASS
  1
ACDBPLACEHOLDER
  2
AcDbPlaceHolder
  3
ObjectDBX Classes
 90
        0
280
     0
281
     0
  0
CLASS
  1
LAYOUT
  2
AcDbLayout
  3
ObjectDBX Classes
 90
        0
280
     0
281
     0
  0
CLASS
  1
TABLESTYLE
  2
AcDbTableStyle
  3
ObjectDBX Classes
 90
     2047
280
     1
281
     0
  0
CLASS
  1
SORTENTSTABLE
  2
AcDbSortentsTable
  3
AutoCAD 2000
 90
        0
280
     0
281
     0
  0
CLASS
  1
DICTIONARYVAR
  2
AcDbDictionaryVar
  3
AutoCAD 2000
 90
        0
280
     0
281
     0
  0
ENDSEC
  0
SECTION
  2
TABLES
  0
TABLE
  2
VPORT
  5
8
330
0
100
AcDbSymbolTable
 70
     2
  0
VPORT
  5
CB
330
8
100
AcDbSymbolTableRecord
100
AcDbViewportTableRecord
  2
*Active
 70
     0
 10
0.0
 20
0.0
 11
1.0
 21
1.0
 12
-2.924403501868692
 22
-4.419561624325358
 13
0.0
 23
0.0
 14
0.5
 24
0.5
 15
0.5
 25
0.5
 16
0.0
 26
0.0
 36
1.0
 17
4.243058353616815
 27
5.50694807597076
 37
0.0
 40
3.94125033362311
 41
1.703065134099617
 42
50.0
 43
0.0
 44
0.0
 50
0.0
 51
0.0
 71
     0
 72
   100
 73
     1
 74
     3
 75
     0
 76
     0
 77
     0
 78
     0
281
     0
 65
     1
110
0.0
120
0.0
130
0.0
111
1.0
121
0.0
131
0.0
112
0.0
122
1.0
132
0.0
 79
     0
146
0.0
  0
ENDTAB
  0
TABLE
  2
LTYPE
  5
5
330
0
100
AcDbSymbolTable
 70
     1
  0
LTYPE
  5
14
330
5
100
AcDbSymbolTableRecord
100
AcDbLinetypeTableRecord
  2
ByBlock
 70
     0
  3

 72
    65
 73
     0
 40
0.0
  0
LTYPE
  5
15
330
5
100
AcDbSymbolTableRecord
100
AcDbLinetypeTableRecord
  2
ByLayer
 70
     0
  3

 72
    65
 73
     0
 40
0.0
  0
LTYPE
  5
16
330
5
100
AcDbSymbolTableRecord
100
AcDbLinetypeTableRecord
  2
Continuous
 70
     0
  3
Solid line
 72
    65
 73
     0
 40
0.0
  0
ENDTAB
  0
TABLE
  2
LAYER
  5
2
102
{ACAD_XDICTIONARY
360
BA
102
}
330
0
100
AcDbSymbolTable
 70
     3
  0
LAYER
  5
10
330
2
100
AcDbSymbolTableRecord
100
AcDbLayerTableRecord
  2
0
 70
     0
 62
     7
  6
Continuous
370
    -3
390
F
  0
LAYER
  5
3B
330
2
100
AcDbSymbolTableRecord
100
AcDbLayerTableRecord
  2
Layer 1
 70
     0
 62
     7
  6
Continuous
370
    -3
390
F
  0
LAYER
  5
B7
330
2
100
AcDbSymbolTableRecord
100
AcDbLayerTableRecord
  2
NOTE
 70
     0
 62
     7
  6
Continuous
370
    -3
390
F
  0
ENDTAB
  0
TABLE
  2
STYLE
  5
3
330
0
100
AcDbSymbolTable
 70
     2
  0
STYLE
  5
11
330
3
100
AcDbSymbolTableRecord
100
AcDbTextStyleTableRecord
  2
Standard
 70
     0
 40
0.0
 41
1.0
 50
0.0
 71
     0
 42
0.2
  3
txt
  4

  0
STYLE
  5
B8
330
3
100
AcDbSymbolTableRecord
100
AcDbTextStyleTableRecord
  2
HELVETICA
 70
     0
 40
0.0
 41
1.0
 50
0.0
 71
     0
 42
0.09
  3
G:\ACADWIN\FONTS\SIMPLEX.SHX
  4

  0
ENDTAB
  0
TABLE
  2
VIEW
  5
6
330
0
100
AcDbSymbolTable
 70
     0
  0
ENDTAB
  0
TABLE
  2
UCS
  5
7
330
0
100
AcDbSymbolTable
 70
     0
  0
ENDTAB
  0
TABLE
  2
APPID
  5
9
330
0
100
AcDbSymbolTable
 70
     2
  0
APPID
  5
12
330
9
100
AcDbSymbolTableRecord
100
AcDbRegAppTableRecord
  2
ACAD
 70
     0
  0
APPID
  5
B9
330
9
100
AcDbSymbolTableRecord
100
AcDbRegAppTableRecord
  2
ACAD_PSEXT
 70
     0
  0
ENDTAB
  0
TABLE
  2
DIMSTYLE
  5
A
330
0
100
AcDbSymbolTable
 70
     1
100
AcDbDimStyleTable
  0
DIMSTYLE
105
27
330
A
100
AcDbSymbolTableRecord
100
AcDbDimStyleTableRecord
  2
Standard
 70
     0
  3

  4

340
11
  0
ENDTAB
  0
TABLE
  2
BLOCK_RECORD
  5
1
330
0
100
AcDbSymbolTable
 70
     4
  0
BLOCK_RECORD
  5
1F
330
1
100
AcDbSymbolTableRecord
100
AcDbBlockTableRecord
  2
*Model_Space
340
22
  0
BLOCK_RECORD
  5
1B
330
1
100
AcDbSymbolTableRecord
100
AcDbBlockTableRecord
  2
*Paper_Space
340
1E
  0
BLOCK_RECORD
  5
23
330
1
100
AcDbSymbolTableRecord
100
AcDbBlockTableRecord
  2
*Paper_Space0
340
26
  0
BLOCK_RECORD
  5
6D
330
1
100
AcDbSymbolTableRecord
100
AcDbBlockTableRecord
  2
block 2
340
0
102
{BLKREFS
331
6E
102
}
  0
BLOCK_RECORD
  5
AD
102
{ACAD_XDICTIONARY
360
AE
102
}
330
1
100
AcDbSymbolTableRecord
100
AcDbBlockTableRecord
  2
sstmodel
340
0
102
{BLKREFS
331
C7
102
}
  0
ENDTAB
  0
ENDSEC
  0
SECTION
  2
BLOCKS
  0
BLOCK
  5
20
330
1F
100
AcDbEntity
  8
0
100
AcDbBlockBegin
  2
*Model_Space
 70
     0
 10
0.0
 20
0.0
 30
0.0
  3
*Model_Space
  1

  4

  0
ENDBLK
  5
21
330
1F
100
AcDbEntity
  8
0
100
AcDbBlockEnd
  0
BLOCK
  5
1C
330
1B
100
AcDbEntity
 67
     1
  8
0
100
AcDbBlockBegin
  2
*Paper_Space
 70
     0
 10
0.0
 20
0.0
 30
0.0
  3
*Paper_Space
  1

  4

  0
ENDBLK
  5
1D
330
1B
100
AcDbEntity
 67
     1
  8
0
100
AcDbBlockEnd
  0
BLOCK
  5
24
330
23
100
AcDbEntity
  8
0
100
AcDbBlockBegin
  2
*Paper_Space0
 70
     0
 10
0.0
 20
0.0
 30
0.0
  3
*Paper_Space0
  1

  4

  0
ENDBLK
  5
25
330
23
100
AcDbEntity
  8
0
100
AcDbBlockEnd
  0
BLOCK
  5
6F
330
6D
100
AcDbEntity
  8
0
100
AcDbBlockBegin
  2
block 2
 70
     0
 10
0.0
 20
0.0
 30
0.0
  3
block 2
  1

  4

  0
SPLINE
  5
71
330
6D
100
AcDbEntity
  8
Layer 1
 62
     7
370
     9
100
AcDbSpline
210
0.0
220
0.0
230
1.0
 70
    11
 71
     3
 72
    41
 73
    37
 74
     0
 42
0.0000000001
 43
0.0000000001
 40
0.0
 40
0.0
 40
0.0
 40
0.0
 40
1.0
 40
1.0
 40
1.0
 40
2.0
 40
2.0
 40
2.0
 40
3.0
 40
3.0
 40
3.0
 40
4.0
 40
4.0
 40
4.0
 40
5.0
 40
5.0
 40
5.0
 40
6.0
 40
6.0
 40
6.0
 40
7.0
 40
7.0
 40
7.0
 40
8.0
 40
8.0
 40
8.0
 40
9.0
 40
9.0
 40
9.0
 40
10.0
 40
10.0
 40
10.0
 40
11.0
 40
11.0
 40
11.0
 40
12.0
 40
12.0
 40
12.0
 40
12.0
 10
4.073353380594702
 20
6.155386003579548
 30
0.0
 10
4.073048204612205
 20
6.15532496838305
 30
0.0
 10
4.072424289270212
 20
6.154890940319054
 30
0.0
 10
4.072193711861215
 20
6.154782433303055
 30
0.0
 10
4.072098768222216
 20
6.15525715149805
 30
0.0
 10
4.071515543011222
 20
6.155216461367051
 30
0.0
 10
4.071305310667725
 20
6.155650489431046
 30
0.0
 10
4.070620360129232
 20
6.157162805966529
 30
0.0
 10
4.072566704728711
 20
6.160133185529496
 30
0.0
 10
4.07268199343321
 20
6.161808262588977
 30
0.0
 10
4.072749810318209
 20
6.162655973651468
 30
0.0
 10
4.072464979401212
 20
6.165205888527439
 30
0.0
 10
4.072037733025717
 20
6.165890839065932
 30
0.0
 10
4.07171899366622
 20
6.166433374145925
 30
0.0
 10
4.070735648833731
 20
6.166738550128422
 30
0.0
 10
4.070552543244233
 20
6.167335338716415
 30
0.0
 10
4.070450817916735
 20
6.167742240026411
 30
0.0
 10
4.070891627669229
 20
6.171160211030373
 30
0.0
 10
4.071081514947228
 20
6.17143147857037
 30
0.0
 10
4.072281873811714
 20
6.173038738744852
 30
0.0
 10
4.073326253840702
 20
6.17231309807536
 30
0.0
 10
4.074580866213188
 20
6.172068957289363
 30
0.0
 10
4.074953859080684
 20
6.171987577027364
 30
0.0
 10
4.075971112355672
 20
6.17229275300986
 30
0.0
 10
4.076330541846168
 20
6.172089302354863
 30
0.0
 10
4.078263323068647
 20
6.171024577260375
 30
0.0
 10
4.080826801321619
 20
6.164297142268449
 30
0.0
 10
4.080548752093122
 20
6.16338161432096
 30
0.0
 10
4.080230012733625
 20
6.162249072341473
 30
0.0
 10
4.079049998934639
 20
6.161686192195979
 30
0.0
 10
4.078249759691648
 20
6.160424798134993
 30
0.0
 10
4.07800561890565
 20
6.160017896824997
 30
0.0
 10
4.077571590841655
 20
6.158037643783019
 30
0.0
 10
4.07712399940066
 20
6.157488327014525
 30
0.0
 10
4.075652372996176
 20
6.155603017611546
 30
0.0
 10
4.074743626737186
 20
6.155623362677046
 30
0.0
 10
4.073353380594702
 20
6.155386003579548
 30
0.0
  0
SPLINE
  5
72
330
6D
100
AcDbEntity
  8
Layer 1
 62
     7
370
     9
100
AcDbSpline
210
0.0
220
0.0
230
1.0
 70
    11
 71
     3
 72
    47
 73
    43
 74
     0
 42
0.0000000001
 43
0.0000000001
 40
0.0
 40
0.0
 40
0.0
 40
0.0
 40
1.0
 40
1.0
 40
1.0
 40
2.0
 40
2.0
 40
2.0
 40
3.0
 40
3.0
 40
3.0
 40
4.0
 40
4.0
 40
4.0
 40
5.0
 40
5.0
 40
5.0
 40
6.0
 40
6.0
 40
6.0
 40
7.0
 40
7.0
 40
7.0
 40
8.0
 40
8.0
 40
8.0
 40
9.0
 40
9.0
 40
9.0
 40
10.0
 40
10.0
 40
10.0
 40
11.0
 40
11.0
 40
11.0
 40
12.0
 40
12.0
 40
12.0
 40
13.0
 40
13.0
 40
13.0
 40
14.0
 40
14.0
 40
14.0
 40
14.0
 10
4.081844054596608
 20
6.154633236156057
 30
0.0
 10
4.085492603009567
 20
6.160960551526486
 30
0.0
 10
4.086787905513052
 20
6.162052403374974
 30
0.0
 10
4.08427868076808
 20
6.168406845499404
 30
0.0
 10
4.084183737129082
 20
6.168657767973901
 30
0.0
 10
4.084136265309582
 20
6.170203992951883
 30
0.0
 10
4.083959941408584
 20
6.170448133737881
 30
0.0
 10
4.083295335935591
 20
6.17145182363587
 30
0.0
 10
4.082027160186105
 20
6.172068957289363
 30
0.0
 10
4.081287956139613
 20
6.173038738744852
 30
0.0
 10
4.080440245077123
 20
6.174184844101339
 30
0.0
 10
4.07984345648913
 20
6.176409237929315
 30
0.0
 10
4.077720787988653
 20
6.177080625090807
 30
0.0
 10
4.07622881651867
 20
6.177562124974302
 30
0.0
 10
4.073760281904697
 20
6.176104061946818
 30
0.0
 10
4.072180148484215
 20
6.176124407012318
 30
0.0
 10
4.067629635500766
 20
6.176185442208817
 30
0.0
 10
4.06715491730577
 20
6.178328455774794
 30
0.0
 10
4.063465678761812
 20
6.172489421976358
 30
0.0
 10
4.061336228572835
 20
6.169118922791895
 30
0.0
 10
4.059945982430351
 20
6.163605410041457
 30
0.0
 10
4.060719094919342
 20
6.160173875660496
 30
0.0
 10
4.06094289063984
 20
6.159217657582006
 30
0.0
 10
4.061668531309332
 20
6.158797192895011
 30
0.0
 10
4.061919453783829
 20
6.157854538193521
 30
0.0
 10
4.062027960799828
 20
6.157501890391525
 30
0.0
 10
4.061716003128831
 20
6.156477855428037
 30
0.0
 10
4.061946580537828
 20
6.156098080872041
 30
0.0
 10
4.063214756287315
 20
6.154070356010563
 30
0.0
 10
4.066517438586778
 20
6.151940905821586
 30
0.0
 10
4.067866994598263
 20
6.150923652546598
 30
0.0
 10
4.068660452152754
 20
6.150326863958605
 30
0.0
 10
4.069108043593749
 20
6.149390990945615
 30
0.0
 10
4.06994219127924
 20
6.148902709373621
 30
0.0
 10
4.070050698295239
 20
6.148855237554121
 30
0.0
 10
4.070694958702731
 20
6.149275702241116
 30
0.0
 10
4.070810247407231
 20
6.149207885356117
 30
0.0
 10
4.074302816984692
 20
6.147722695574633
 30
0.0
 10
4.078263323068647
 20
6.148631441833624
 30
0.0
 10
4.081572787056611
 20
6.153161609751574
 30
0.0
 10
4.081871181350607
 20
6.153561729373068
 30
0.0
 10
4.081728765892109
 20
6.154416222124059
 30
0.0
 10
4.081844054596608
 20
6.154633236156057
 30
0.0
  0
SPLINE
  5
73
330
6D
100
AcDbEntity
  8
Layer 1
 62
     7
370
     9
100
AcDbSpline
210
0.0
220
0.0
230
1.0
 70
    11
 71
     3
 72
    44
 73
    40
 74
     0
 42
0.0000000001
 43
0.0000000001
 40
0.0
 40
0.0
 40
0.0
 40
0.0
 40
1.0
 40
1.0
 40
1.0
 40
2.0
 40
2.0
 40
2.0
 40
3.0
 40
3.0
 40
3.0
 40
4.0
 40
4.0
 40
4.0
 40
5.0
 40
5.0
 40
5.0
 40
6.0
 40
6.0
 40
6.0
 40
7.0
 40
7.0
 40
7.0
 40
8.0
 40
8.0
 40
8.0
 40
9.0
 40
9.0
 40
9.0
 40
10.0
 40
10.0
 40
10.0
 40
11.0
 40
11.0
 40
11.0
 40
12.0
 40
12.0
 40
12.0
 40
13.0
 40
13.0
 40
13.0
 40
13.0
 10
4.209563594115688
 20
6.176917864566809
 30
0.0
 10
4.209163474494192
 20
6.177148441975806
 30
0.0
 10
4.208831171757695
 20
6.177901209399298
 30
0.0
 10
4.2083835803167
 20
6.178070751611796
 30
0.0
 10
4.209563594115688
 20
6.181475159238758
 30
0.0
 10
4.20931945332969
 20
6.182702644857245
 30
0.0
 10
4.209143129428692
 20
6.185971418714209
 30
0.0
 10
4.209116002674692
 20
6.1867174044492
 30
0.0
 10
4.209855206721184
 20
6.187537988757691
 30
0.0
 10
4.209692446197185
 20
6.188317882935182
 30
0.0
 10
4.209373706837689
 20
6.190020086748663
 30
0.0
 10
4.207115404567214
 20
6.192597128378635
 30
0.0
 10
4.206104932980725
 20
6.194116226602618
 30
0.0
 10
4.208919333708194
 20
6.196422000692592
 30
0.0
 10
4.209733136328185
 20
6.197344310328582
 30
0.0
 10
4.212500065236155
 20
6.196544071085591
 30
0.0
 10
4.213056163693149
 20
6.196388092250093
 30
0.0
 10
4.213666515658142
 20
6.196686486544089
 30
0.0
 10
4.214263304246135
 20
6.195981190940097
 30
0.0
 10
4.214263304246135
 20
6.195981190940097
 30
0.0
 10
4.214575261917132
 20
6.194529909601113
 30
0.0
 10
4.214575261917132
 20
6.194529909601113
 30
0.0
 10
4.21557895181512
 20
6.19301759306563
 30
0.0
 10
4.216569078336109
 20
6.192590346690134
 30
0.0
 10
4.216962416269105
 20
6.191057685089151
 30
0.0
 10
4.217342190825101
 20
6.189681002323667
 30
0.0
 10
4.216250338976613
 20
6.188616277229179
 30
0.0
 10
4.216141831960614
 20
6.187239594463694
 30
0.0
 10
4.216101141829615
 20
6.186507172105703
 30
0.0
 10
4.216636895221108
 20
6.186256249631205
 30
0.0
 10
4.216752183925607
 20
6.185496700519214
 30
0.0
 10
4.217043796531104
 20
6.183808060082733
 30
0.0
 10
4.216040106633115
 20
6.18315023629824
 30
0.0
 10
4.215056761800626
 20
6.181380215599759
 30
0.0
 10
4.215056761800626
 20
6.181380215599759
 30
0.0
 10
4.214785494260629
 20
6.179915370883776
 30
0.0
 10
4.214785494260629
 20
6.179915370883776
 30
0.0
 10
4.213449501626144
 20
6.178057188234797
 30
0.0
 10
4.210940276881172
 20
6.176158315454818
 30
0.0
 10
4.209563594115688
 20
6.176917864566809
 30
0.0
  0
SPLINE
  5
74
330
6D
100
AcDbEntity
  8
Layer 1
 62
     7
370
     9
100
AcDbSpline
210
0.0
220
0.0
230
1.0
 70
    11
 71
     3
 72
    50
 73
    46
 74
     0
 42
0.0000000001
 43
0.0000000001
 40
0.0
 40
0.0
 40
0.0
 40
0.0
 40
1.0
 40
1.0
 40
1.0
 40
2.0
 40
2.0
 40
2.0
 40
3.0
 40
3.0
 40
3.0
 40
4.0
 40
4.0
 40
4.0
 40
5.0
 40
5.0
 40
5.0
 40
6.0
 40
6.0
 40
6.0
 40
7.0
 40
7.0
 40
7.0
 40
8.0
 40
8.0
 40
8.0
 40
9.0
 40
9.0
 40
9.0
 40
10.0
 40
10.0
 40
10.0
 40
11.0
 40
11.0
 40
11.0
 40
12.0
 40
12.0
 40
12.0
 40
13.0
 40
13.0
 40
13.0
 40
14.0
 40
14.0
 40
14.0
 40
15.0
 40
15.0
 40
15.0
 40
15.0
 10
4.222570872658543
 20
6.187334538102693
 30
0.0
 10
4.222570872658543
 20
6.188345009689182
 30
0.0
 10
4.223052372542037
 20
6.189586058684668
 30
0.0
 10
4.22281501344454
 20
6.190555840140157
 30
0.0
 10
4.222604781101042
 20
6.191539184972647
 30
0.0
 10
4.22191983056255
 20
6.191891832774642
 30
0.0
 10
4.221614654580053
 20
6.192875177607132
 30
0.0
 10
4.221167063139058
 20
6.194407839208115
 30
0.0
 10
4.221648563022553
 20
6.195560726253102
 30
0.0
 10
4.219505549456577
 20
6.197229021624083
 30
0.0
 10
4.219505549456577
 20
6.197229021624083
 30
0.0
 10
4.218040704740593
 20
6.19750028916408
 30
0.0
 10
4.218040704740593
 20
6.19750028916408
 30
0.0
 10
4.213422374872144
 20
6.200050204040052
 30
0.0
 10
4.211001312077671
 20
6.199209274666061
 30
0.0
 10
4.20661355961822
 20
6.199385598567059
 30
0.0
 10
4.204660433330242
 20
6.199466978829058
 30
0.0
 10
4.202375004305767
 20
6.200565612366046
 30
0.0
 10
4.200489694902788
 20
6.19842259880007
 30
0.0
 10
4.200489694902788
 20
6.19842259880007
 30
0.0
 10
4.200218427362791
 20
6.196950972395587
 30
0.0
 10
4.200218427362791
 20
6.196950972395587
 30
0.0
 10
4.199119793825803
 20
6.194638416617112
 30
0.0
 10
4.197980470157816
 20
6.192536093182135
 30
0.0
 10
4.19768207586382
 20
6.190196410649661
 30
0.0
 10
4.197546442093821
 20
6.188955361654175
 30
0.0
 10
4.198495878483811
 20
6.183780933328733
 30
0.0
 10
4.198963814990306
 20
6.182607701218246
 30
0.0
 10
4.1994656599393
 20
6.181400560665259
 30
0.0
 10
4.200428659706288
 20
6.180858025585265
 30
0.0
 10
4.200754180754285
 20
6.179711920228778
 30
0.0
 10
4.200950849720783
 20
6.179094786575285
 30
0.0
 10
4.200476131525789
 20
6.178036843169297
 30
0.0
 10
4.200788089196784
 20
6.177372237696304
 30
0.0
 10
4.202239370535769
 20
6.174435766575837
 30
0.0
 10
4.20662712299522
 20
6.171092394145374
 30
0.0
 10
4.209075312543693
 20
6.17047526049188
 30
0.0
 10
4.210987748700672
 20
6.170000542296886
 30
0.0
 10
4.212628917317653
 20
6.171166992718873
 30
0.0
 10
4.214602388671131
 20
6.172021485469863
 30
0.0
 10
4.216040106633115
 20
6.172625055746357
 30
0.0
 10
4.217579549922598
 20
6.172855633155354
 30
0.0
 10
4.21924106360508
 20
6.17500542840983
 30
0.0
 10
4.222659034609041
 20
6.179393180869282
 30
0.0
 10
4.222618344478042
 20
6.183021384216741
 30
0.0
 10
4.222570872658543
 20
6.187334538102693
 30
0.0
  0
SPLINE
  5
75
330
6D
100
AcDbEntity
  8
Layer 1
 62
     7
370
     9
100
AcDbSpline
210
0.0
220
0.0
230
1.0
 70
    11
 71
     3
 72
    38
 73
    34
 74
     0
 42
0.0000000001
 43
0.0000000001
 40
0.0
 40
0.0
 40
0.0
 40
0.0
 40
1.0
 40
1.0
 40
1.0
 40
2.0
 40
2.0
 40
2.0
 40
3.0
 40
3.0
 40
3.0
 40
4.0
 40
4.0
 40
4.0
 40
5.0
 40
5.0
 40
5.0
 40
6.0
 40
6.0
 40
6.0
 40
7.0
 40
7.0
 40
7.0
 40
8.0
 40
8.0
 40
8.0
 40
9.0
 40
9.0
 40
9.0
 40
10.0
 40
10.0
 40
10.0
 40
11.0
 40
11.0
 40
11.0
 40
11.0
 10
4.128691958754087
 20
6.067597045948025
 30
0.0
 10
4.128691958754087
 20
6.067597045948025
 30
0.0
 10
4.128095170166093
 20
6.068173489470518
 30
0.0
 10
4.128095170166093
 20
6.068173489470518
 30
0.0
 10
4.127640797036598
 20
6.068132799339518
 30
0.0
 10
4.127423783004601
 20
6.067386813604527
 30
0.0
 10
4.126935501432606
 20
6.067576700882525
 30
0.0
 10
4.126494691680111
 20
6.067753024783523
 30
0.0
 10
4.126230205828614
 20
6.068587172469014
 30
0.0
 10
4.125748705945119
 20
6.068729587927512
 30
0.0
 10
4.132143838200548
 20
6.075301044083939
 30
0.0
 10
4.128752993950585
 20
6.077193135175418
 30
0.0
 10
4.127294930923102
 20
6.083364471710349
 30
0.0
 10
4.127749304052597
 20
6.083445851972349
 30
0.0
 10
4.127749304052597
 20
6.084056203937342
 30
0.0
 10
4.128162987051092
 20
6.084252872903839
 30
0.0
 10
4.128875064343585
 20
6.084585175640336
 30
0.0
 10
4.130014388011571
 20
6.083662866004346
 30
0.0
 10
4.130801063877563
 20
6.083418725218349
 30
0.0
 10
4.133947767341528
 20
6.082428598697359
 30
0.0
 10
4.135053182567016
 20
6.082693084548857
 30
0.0
 10
4.135833076744508
 20
6.079105571332397
 30
0.0
 10
4.136009400645505
 20
6.078373148974405
 30
0.0
 10
4.136599407544998
 20
6.078034064549408
 30
0.0
 10
4.136443428709501
 20
6.077355895699416
 30
0.0
 10
4.136348485070501
 20
6.076874395815922
 30
0.0
 10
4.135697442974508
 20
6.076365769178428
 30
0.0
 10
4.13558893595851
 20
6.075884269294932
 30
0.0
 10
4.135270196599014
 20
6.07429735418595
 30
0.0
 10
4.135114217763515
 20
6.071571115408981
 30
0.0
 10
4.133920640587529
 20
6.070011327053998
 30
0.0
 10
4.13286269718154
 20
6.068607517534513
 30
0.0
 10
4.129566796570577
 20
6.067203708015029
 30
0.0
 10
4.128691958754087
 20
6.067597045948025
 30
0.0
  0
SPLINE
  5
76
330
6D
100
AcDbEntity
  8
Layer 1
 62
     7
370
     9
100
AcDbSpline
210
0.0
220
0.0
230
1.0
 70
    11
 71
     3
 72
    53
 73
    49
 74
     0
 42
0.0000000001
 43
0.0000000001
 40
0.0
 40
0.0
 40
0.0
 40
0.0
 40
1.0
 40
1.0
 40
1.0
 40
2.0
 40
2.0
 40
2.0
 40
3.0
 40
3.0
 40
3.0
 40
4.0
 40
4.0
 40
4.0
 40
5.0
 40
5.0
 40
5.0
 40
6.0
 40
6.0
 40
6.0
 40
7.0
 40
7.0
 40
7.0
 40
8.0
 40
8.0
 40
8.0
 40
9.0
 40
9.0
 40
9.0
 40
10.0
 40
10.0
 40
10.0
 40
11.0
 40
11.0
 40
11.0
 40
12.0
 40
12.0
 40
12.0
 40
13.0
 40
13.0
 40
13.0
 40
14.0
 40
14.0
 40
14.0
 40
15.0
 40
15.0
 40
15.0
 40
16.0
 40
16.0
 40
16.0
 40
16.0
 10
4.137765857966985
 20
6.066851060213033
 30
0.0
 10
4.138572878898477
 20
6.068241306355517
 30
0.0
 10
4.139427371649467
 20
6.068458320387515
 30
0.0
 10
4.14005806867996
 20
6.069807876399
 30
0.0
 10
4.140132667253459
 20
6.069936728480498
 30
0.0
 10
4.139949561663961
 20
6.071320192934484
 30
0.0
 10
4.14003772361446
 20
6.071564333720481
 30
0.0
 10
4.14194337808294
 20
6.076582783210425
 30
0.0
 10
4.143096265127927
 20
6.082218366353862
 30
0.0
 10
4.137182632755992
 20
6.087013020123309
 30
0.0
 10
4.136239978054503
 20
6.0877861326123
 30
0.0
 10
4.134096964488527
 20
6.087955674824799
 30
0.0
 10
4.133364542130535
 20
6.088423611331293
 30
0.0
 10
4.13195395092255
 20
6.089325575901783
 30
0.0
 10
4.130719683615564
 20
6.090987089584265
 30
0.0
 10
4.129505761374078
 20
6.092167103383251
 30
0.0
 10
4.129139550195082
 20
6.091916180908754
 30
0.0
 10
4.128515634853089
 20
6.09223492026825
 30
0.0
 10
4.12833931095209
 20
6.092146758317751
 30
0.0
 10
4.127403437939101
 20
6.091672040122757
 30
0.0
 10
4.126969409875105
 20
6.090295357357272
 30
0.0
 10
4.126033536862116
 20
6.089779949031278
 30
0.0
 10
4.125843649584118
 20
6.08967144201528
 30
0.0
 10
4.12479926955513
 20
6.090098688390775
 30
0.0
 10
4.124568692146132
 20
6.090051216571275
 30
0.0
 10
4.123124192495649
 20
6.089691787080779
 30
0.0
 10
4.120194503063681
 20
6.086951984926809
 30
0.0
 10
4.119075524461193
 20
6.085588865538325
 30
0.0
 10
4.117814130400207
 20
6.084008732117842
 30
0.0
 10
4.116186525160225
 20
6.080109261230386
 30
0.0
 10
4.115969511128228
 20
6.078230733515906
 30
0.0
 10
4.115426976048234
 20
6.073225847402962
 30
0.0
 10
4.121415206993667
 20
6.061629160068091
 30
0.0
 10
4.128196895493592
 20
6.061161223561596
 30
0.0
 10
4.128196895493592
 20
6.061161223561596
 30
0.0
 10
4.128773339016085
 20
6.06175801214959
 30
0.0
 10
4.128773339016085
 20
6.06175801214959
 30
0.0
 10
4.128868282655085
 20
6.06166306851059
 30
0.0
 10
4.128970007982583
 20
6.061568124871592
 30
0.0
 10
4.129071733310083
 20
6.061466399544093
 30
0.0
 10
4.130041514765572
 20
6.061798702280589
 30
0.0
 10
4.13110623986006
 20
6.062083533197586
 30
0.0
 10
4.132272690282047
 20
6.062388709180083
 30
0.0
 10
4.133995239161028
 20
6.062843082309578
 30
0.0
 10
4.135358358549512
 20
6.062707448539579
 30
0.0
 10
4.137202977821492
 20
6.065087821203052
 30
0.0
 10
4.137474245361489
 20
6.065420123939549
 30
0.0
 10
4.137637005885487
 20
6.066613701115536
 30
0.0
 10
4.137765857966985
 20
6.066851060213033
 30
0.0
  0
SPLINE
  5
77
330
6D
100
AcDbEntity
  8
Layer 1
 62
     7
370
     9
100
AcDbSpline
210
0.0
220
0.0
230
1.0
 70
    11
 71
     3
 72
    35
 73
    31
 74
     0
 42
0.0000000001
 43
0.0000000001
 40
0.0
 40
0.0
 40
0.0
 40
0.0
 40
1.0
 40
1.0
 40
1.0
 40
2.0
 40
2.0
 40
2.0
 40
3.0
 40
3.0
 40
3.0
 40
4.0
 40
4.0
 40
4.0
 40
5.0
 40
5.0
 40
5.0
 40
6.0
 40
6.0
 40
6.0
 40
7.0
 40
7.0
 40
7.0
 40
8.0
 40
8.0
 40
8.0
 40
9.0
 40
9.0
 40
9.0
 40
10.0
 40
10.0
 40
10.0
 40
10.0
 10
4.07178002886272
 20
5.958628875131237
 30
0.0
 10
4.071135768455227
 20
5.959001867998732
 30
0.0
 10
4.070959444554228
 20
5.959693600225725
 30
0.0
 10
4.070301620769736
 20
5.96006659309322
 30
0.0
 10
4.070430472851235
 20
5.961199135072708
 30
0.0
 10
4.071251057159725
 20
5.964088134373676
 30
0.0
 10
4.071101860012727
 20
5.965044352452165
 30
0.0
 10
4.071000134685228
 20
5.965797119875657
 30
0.0
 10
4.070037134918239
 20
5.966549887299149
 30
0.0
 10
4.06990150114824
 20
5.967370471607639
 30
0.0
 10
4.069731958935742
 20
5.968564048783626
 30
0.0
 10
4.070667831948732
 20
5.969398196469117
 30
0.0
 10
4.070728867145231
 20
5.970598555333603
 30
0.0
 10
4.070789902341731
 20
5.971581900166092
 30
0.0
 10
4.070294839081236
 20
5.973107780078576
 30
0.0
 10
4.070098170114738
 20
5.974097906599565
 30
0.0
 10
4.070579669998232
 20
5.974199631927063
 30
0.0
 10
4.070532198178733
 20
5.974789638826556
 30
0.0
 10
4.070959444554228
 20
5.974986307793055
 30
0.0
 10
4.072837972268708
 20
5.975840800544045
 30
0.0
 10
4.07713078108916
 20
5.972232942262085
 30
0.0
 10
4.07805309072515
 20
5.969825442844612
 30
0.0
 10
4.078466773723645
 20
5.968767499438624
 30
0.0
 10
4.077469865514156
 20
5.966204021185653
 30
0.0
 10
4.077530900710656
 20
5.965139296091164
 30
0.0
 10
4.077659752792154
 20
5.963471000720182
 30
0.0
 10
4.079036435557638
 20
5.96288777550919
 30
0.0
 10
4.077591935907154
 20
5.96104993792571
 30
0.0
 10
4.076500084058667
 20
5.959625783340726
 30
0.0
 10
4.073048204612205
 20
5.957896452773245
 30
0.0
 10
4.07178002886272
 20
5.958628875131237
 30
0.0
  0
SPLINE
  5
78
330
6D
100
AcDbEntity
  8
Layer 1
 62
     7
370
     9
100
AcDbSpline
210
0.0
220
0.0
230
1.0
 70
    11
 71
     3
 72
    50
 73
    46
 74
     0
 42
0.0000000001
 43
0.0000000001
 40
0.0
 40
0.0
 40
0.0
 40
0.0
 40
1.0
 40
1.0
 40
1.0
 40
2.0
 40
2.0
 40
2.0
 40
3.0
 40
3.0
 40
3.0
 40
4.0
 40
4.0
 40
4.0
 40
5.0
 40
5.0
 40
5.0
 40
6.0
 40
6.0
 40
6.0
 40
7.0
 40
7.0
 40
7.0
 40
8.0
 40
8.0
 40
8.0
 40
9.0
 40
9.0
 40
9.0
 40
10.0
 40
10.0
 40
10.0
 40
11.0
 40
11.0
 40
11.0
 40
12.0
 40
12.0
 40
12.0
 40
13.0
 40
13.0
 40
13.0
 40
14.0
 40
14.0
 40
14.0
 40
15.0
 40
15.0
 40
15.0
 40
15.0
 10
4.08340384295159
 20
5.963471000720182
 30
0.0
 10
4.083451314771089
 20
5.964088134373676
 30
0.0
 10
4.084231208948581
 20
5.964318711782673
 30
0.0
 10
4.084258335702581
 20
5.964942627124667
 30
0.0
 10
4.084292244145081
 20
5.965234239730163
 30
0.0
 10
4.08345809645959
 20
5.966048042350154
 30
0.0
 10
4.08336315282059
 20
5.96639390846365
 30
0.0
 10
4.083180047231092
 20
5.967146675887141
 30
0.0
 10
4.083966723097084
 20
5.968001168638132
 30
0.0
 10
4.083912469589085
 20
5.968740372684624
 30
0.0
 10
4.083912469589085
 20
5.968740372684624
 30
0.0
 10
4.082379807988102
 20
5.973684223601069
 30
0.0
 10
4.082379807988102
 20
5.973684223601069
 30
0.0
 10
4.081172667435115
 20
5.975996779379543
 30
0.0
 10
4.077239288105159
 20
5.979997975594499
 30
0.0
 10
4.074967422457684
 20
5.980886376787989
 30
0.0
 10
4.074343507115691
 20
5.981137299262486
 30
0.0
 10
4.073210965136203
 20
5.980703271198491
 30
0.0
 10
4.07263452161371
 20
5.980852468345489
 30
0.0
 10
4.071312092356225
 20
5.981198334458986
 30
0.0
 10
4.070471162982234
 20
5.982378348257972
 30
0.0
 10
4.069101261905249
 20
5.98256145384747
 30
0.0
 10
4.066598818848777
 20
5.982900538272467
 30
0.0
 10
4.061451517277335
 20
5.97904175751601
 30
0.0
 10
4.059261031891858
 20
5.97539999079155
 30
0.0
 10
4.057124800014383
 20
5.97180569588659
 30
0.0
 10
4.06002058100385
 20
5.966597359118648
 30
0.0
 10
4.061485425719834
 20
5.962860648755189
 30
0.0
 10
4.06186520027583
 20
5.9619179940537
 30
0.0
 10
4.06188554534133
 20
5.959897050880723
 30
0.0
 10
4.062421298732824
 20
5.959076466572231
 30
0.0
 10
4.064482932036801
 20
5.955956889862266
 30
0.0
 10
4.068924938004251
 20
5.953440883428795
 30
0.0
 10
4.071278183913725
 20
5.952769496267302
 30
0.0
 10
4.071820718993719
 20
5.952620299120303
 30
0.0
 10
4.073767063593198
 20
5.953020418741799
 30
0.0
 10
4.074201091657193
 20
5.952816968086801
 30
0.0
 10
4.074201091657193
 20
5.952816968086801
 30
0.0
 10
4.074791098556686
 20
5.952233742875808
 30
0.0
 10
4.074791098556686
 20
5.952233742875808
 30
0.0
 10
4.076635717828665
 20
5.952593172366304
 30
0.0
 10
4.080664040797621
 20
5.955902636354267
 30
0.0
 10
4.082311991103103
 20
5.958188065378741
 30
0.0
 10
4.083634420360587
 20
5.960019121273721
 30
0.0
 10
4.083302117624092
 20
5.961714543398702
 30
0.0
 10
4.08340384295159
 20
5.963471000720182
 30
0.0
  0
SPLINE
  5
79
330
6D
100
AcDbEntity
  8
Layer 1
 62
     7
370
     9
100
AcDbSpline
210
0.0
220
0.0
230
1.0
 70
    11
 71
     3
 72
    38
 73
    34
 74
     0
 42
0.0000000001
 43
0.0000000001
 40
0.0
 40
0.0
 40
0.0
 40
0.0
 40
1.0
 40
1.0
 40
1.0
 40
2.0
 40
2.0
 40
2.0
 40
3.0
 40
3.0
 40
3.0
 40
4.0
 40
4.0
 40
4.0
 40
5.0
 40
5.0
 40
5.0
 40
6.0
 40
6.0
 40
6.0
 40
7.0
 40
7.0
 40
7.0
 40
8.0
 40
8.0
 40
8.0
 40
9.0
 40
9.0
 40
9.0
 40
10.0
 40
10.0
 40
10.0
 40
11.0
 40
11.0
 40
11.0
 40
11.0
 10
4.266645066219552
 20
6.090322484111272
 30
0.0
 10
4.266441615564554
 20
6.090397082684771
 30
0.0
 10
4.26593977061556
 20
6.090681913601768
 30
0.0
 10
4.265763446714562
 20
6.090607315028269
 30
0.0
 10
4.261775813876606
 20
6.088986491476787
 30
0.0
 10
4.261423166074611
 20
6.091482152844759
 30
0.0
 10
4.258683363920641
 20
6.094594947866225
 30
0.0
 10
4.261735123745607
 20
6.09774843301869
 30
0.0
 10
4.261721560368607
 20
6.098175679394185
 30
0.0
 10
4.262101334924603
 20
6.101078242072153
 30
0.0
 10
4.262209841940602
 20
6.101864917938143
 30
0.0
 10
4.262996517806593
 20
6.102685502246635
 30
0.0
 10
4.262643870004597
 20
6.103424706293127
 30
0.0
 10
4.262453982726599
 20
6.103865516045621
 30
0.0
 10
4.261897884269605
 20
6.103811262537622
 30
0.0
 10
4.261762250499607
 20
6.104285980732617
 30
0.0
 10
4.261640180106608
 20
6.104794607370111
 30
0.0
 10
4.262182715186602
 20
6.105167600237607
 30
0.0
 10
4.262033518039604
 20
6.105750825448601
 30
0.0
 10
4.26413584147458
 20
6.10666635339609
 30
0.0
 10
4.267662319494541
 20
6.107914184080077
 30
0.0
 10
4.269642572536519
 20
6.105276107253606
 30
0.0
 10
4.269981656961515
 20
6.10484207918961
 30
0.0
 10
4.269723952798518
 20
6.10313987537613
 30
0.0
 10
4.269968093584516
 20
6.102651593804135
 30
0.0
 10
4.270415685025511
 20
6.101797101053144
 30
0.0
 10
4.271609262201497
 20
6.101485143382148
 30
0.0
 10
4.272043290265493
 20
6.100630650631158
 30
0.0
 10
4.272518008460487
 20
6.099728686060668
 30
0.0
 10
4.271622825578497
 20
6.095673236337713
 30
0.0
 10
4.270958220105505
 20
6.094771271767223
 30
0.0
 10
4.26956119227452
 20
6.092797800413744
 30
0.0
 10
4.268204854574535
 20
6.092431589234749
 30
0.0
 10
4.266645066219552
 20
6.090322484111272
 30
0.0
  0
SPLINE
  5
7A
330
6D
100
AcDbEntity
  8
Layer 1
 62
     7
370
     9
100
AcDbSpline
210
0.0
220
0.0
230
1.0
 70
    11
 71
     3
 72
    50
 73
    46
 74
     0
 42
0.0000000001
 43
0.0000000001
 40
0.0
 40
0.0
 40
0.0
 40
0.0
 40
1.0
 40
1.0
 40
1.0
 40
2.0
 40
2.0
 40
2.0
 40
3.0
 40
3.0
 40
3.0
 40
4.0
 40
4.0
 40
4.0
 40
5.0
 40
5.0
 40
5.0
 40
6.0
 40
6.0
 40
6.0
 40
7.0
 40
7.0
 40
7.0
 40
8.0
 40
8.0
 40
8.0
 40
9.0
 40
9.0
 40
9.0
 40
10.0
 40
10.0
 40
10.0
 40
11.0
 40
11.0
 40
11.0
 40
12.0
 40
12.0
 40
12.0
 40
13.0
 40
13.0
 40
13.0
 40
14.0
 40
14.0
 40
14.0
 40
15.0
 40
15.0
 40
15.0
 40
15.0
 10
4.274796655796462
 20
6.091611004926258
 30
0.0
 10
4.275447697892455
 20
6.092607913135747
 30
0.0
 10
4.276831162346439
 20
6.09325895523174
 30
0.0
 10
4.277400824180432
 20
6.094276208506728
 30
0.0
 10
4.277753471982429
 20
6.094893342160221
 30
0.0
 10
4.277848415621428
 20
6.097999355493187
 30
0.0
 10
4.277631401589431
 20
6.098663960966179
 30
0.0
 10
4.277360134049434
 20
6.099518453717169
 30
0.0
 10
4.276654838445441
 20
6.099599833979169
 30
0.0
 10
4.276424261036444
 20
6.10040685491066
 30
0.0
 10
4.275732528809451
 20
6.103363671096627
 30
0.0
 10
4.27672265533044
 20
6.10394011461912
 30
0.0
 10
4.274579641764464
 20
6.107391994065583
 30
0.0
 10
4.274566078387465
 20
6.107446247573582
 30
0.0
 10
4.274009979930471
 20
6.109100979567563
 30
0.0
 10
4.273969289799471
 20
6.109141669698563
 30
0.0
 10
4.272829966131484
 20
6.110457317267549
 30
0.0
 10
4.271799149479495
 20
6.110430190513548
 30
0.0
 10
4.271026036990504
 20
6.110850655200544
 30
0.0
 10
4.270592008926508
 20
6.111081232609541
 30
0.0
 10
4.270266487878512
 20
6.111759401459533
 30
0.0
 10
4.269832459814517
 20
6.112003542245531
 30
0.0
 10
4.268964403686526
 20
6.112491823817526
 30
0.0
 10
4.267526685724542
 20
6.112186647835029
 30
0.0
 10
4.266617939465553
 20
6.112247683031528
 30
0.0
 10
4.261707996991607
 20
6.112573204079524
 30
0.0
 10
4.256703110878663
 20
6.11114904949454
 30
0.0
 10
4.252688351286707
 20
6.105031966467609
 30
0.0
 10
4.250104527968237
 20
6.101078242072153
 30
0.0
 10
4.251108217866225
 20
6.094289771883727
 30
0.0
 10
4.254065034052192
 20
6.090437772815771
 30
0.0
 10
4.255557005522176
 20
6.088518554970293
 30
0.0
 10
4.257611857137653
 20
6.0878132593663
 30
0.0
 10
4.25879187093664
 20
6.086999456746309
 30
0.0
 10
4.259280152508635
 20
6.086673935698313
 30
0.0
 10
4.259592110179631
 20
6.085588865538325
 30
0.0
 10
4.260867067617617
 20
6.084978513573332
 30
0.0
 10
4.262684560135597
 20
6.084130802510841
 30
0.0
 10
4.264854700455572
 20
6.084836098114833
 30
0.0
 10
4.266712883104551
 20
6.08506667552383
 30
0.0
 10
4.268855896670527
 20
6.085324379686828
 30
0.0
 10
4.271297304530501
 20
6.085154837474329
 30
0.0
 10
4.273399627965477
 20
6.0877929143008
 30
0.0
 10
4.274226993962468
 20
6.088837294329789
 30
0.0
 10
4.274172740454469
 20
6.090614096716768
 30
0.0
 10
4.274796655796462
 20
6.091611004926258
 30
0.0
  0
SPLINE
  5
7B
330
6D
100
AcDbEntity
  8
Layer 1
 62
     7
370
     9
100
AcDbSpline
210
0.0
220
0.0
230
1.0
 70
    11
 71
     3
 72
    44
 73
    40
 74
     0
 42
0.0000000001
 43
0.0000000001
 40
0.0
 40
0.0
 40
0.0
 40
0.0
 40
1.0
 40
1.0
 40
1.0
 40
2.0
 40
2.0
 40
2.0
 40
3.0
 40
3.0
 40
3.0
 40
4.0
 40
4.0
 40
4.0
 40
5.0
 40
5.0
 40
5.0
 40
6.0
 40
6.0
 40
6.0
 40
7.0
 40
7.0
 40
7.0
 40
8.0
 40
8.0
 40
8.0
 40
9.0
 40
9.0
 40
9.0
 40
10.0
 40
10.0
 40
10.0
 40
11.0
 40
11.0
 40
11.0
 40
12.0
 40
12.0
 40
12.0
 40
13.0
 40
13.0
 40
13.0
 40
13.0
 10
4.21118441766717
 20
5.98165948927698
 30
0.0
 10
4.21118441766717
 20
5.98165948927698
 30
0.0
 10
4.209692446197185
 20
5.982771686190968
 30
0.0
 10
4.209407615280189
 20
5.983388819844461
 30
0.0
 10
4.208600594348698
 20
5.985233439116441
 30
0.0
 10
4.21016716439218
 20
5.987674846976414
 30
0.0
 10
4.209611065935187
 20
5.989533029625393
 30
0.0
 10
4.209488995542188
 20
5.989980621066388
 30
0.0
 10
4.208648066168197
 20
5.990272233671885
 30
0.0
 10
4.2084242704477
 20
5.99068591667038
 30
0.0
 10
4.2083767986282
 20
5.990787641997879
 30
0.0
 10
4.208770136561196
 20
5.991431902405371
 30
0.0
 10
4.208702319676196
 20
5.991567536175371
 30
0.0
 10
4.207752883286207
 20
5.993663077921847
 30
0.0
 10
4.206165968177225
 20
5.994809183278334
 30
0.0
 10
4.204538362937243
 20
5.996769091254812
 30
0.0
 10
4.20487744736224
 20
5.997379443219805
 30
0.0
 10
4.205264003606735
 20
5.997020013729309
 30
0.0
 10
4.20481641216574
 20
5.997650710759802
 30
0.0
 10
4.206498270913722
 20
5.99879003442779
 30
0.0
 10
4.20751552418871
 20
5.999942921472777
 30
0.0
 10
4.209163474494192
 20
6.000343041094273
 30
0.0
 10
4.211876149894161
 20
6.001000864878765
 30
0.0
 10
4.216745402237107
 20
5.9978745064803
 30
0.0
 10
4.217728747069597
 20
5.99432768339484
 30
0.0
 10
4.218074613183092
 20
5.993106979464853
 30
0.0
 10
4.217464261218099
 20
5.991499719290371
 30
0.0
 10
4.217199775366602
 20
5.990224761852385
 30
0.0
 10
4.217199775366602
 20
5.990224761852385
 30
0.0
 10
4.217504951349099
 20
5.989356705724394
 30
0.0
 10
4.217504951349099
 20
5.989356705724394
 30
0.0
 10
4.217030233154104
 20
5.987918987762411
 30
0.0
 10
4.215789184158618
 20
5.986969551372422
 30
0.0
 10
4.214927909719128
 20
5.985518270033437
 30
0.0
 10
4.21472445906413
 20
5.985138495477441
 30
0.0
 10
4.214161578918636
 20
5.982948010091966
 30
0.0
 10
4.21380214942814
 20
5.982575017224471
 30
0.0
 10
4.21292052992315
 20
5.981652707588481
 30
0.0
 10
4.211923621713661
 20
5.981978228636477
 30
0.0
 10
4.21118441766717
 20
5.98165948927698
 30
0.0
  0
SPLINE
  5
7C
330
6D
100
AcDbEntity
  8
Layer 1
 62
     7
370
     9
100
AcDbSpline
210
0.0
220
0.0
230
1.0
 70
    11
 71
     3
 72
    53
 73
    49
 74
     0
 42
0.0000000001
 43
0.0000000001
 40
0.0
 40
0.0
 40
0.0
 40
0.0
 40
1.0
 40
1.0
 40
1.0
 40
2.0
 40
2.0
 40
2.0
 40
3.0
 40
3.0
 40
3.0
 40
4.0
 40
4.0
 40
4.0
 40
5.0
 40
5.0
 40
5.0
 40
6.0
 40
6.0
 40
6.0
 40
7.0
 40
7.0
 40
7.0
 40
8.0
 40
8.0
 40
8.0
 40
9.0
 40
9.0
 40
9.0
 40
10.0
 40
10.0
 40
10.0
 40
11.0
 40
11.0
 40
11.0
 40
12.0
 40
12.0
 40
12.0
 40
13.0
 40
13.0
 40
13.0
 40
14.0
 40
14.0
 40
14.0
 40
15.0
 40
15.0
 40
15.0
 40
16.0
 40
16.0
 40
16.0
 40
16.0
 10
4.22280823175604
 20
5.986508396554426
 30
0.0
 10
4.222930302149038
 20
5.98709162176542
 30
0.0
 10
4.222401330446044
 20
5.987946114516411
 30
0.0
 10
4.222489492396544
 20
5.988549684792904
 30
0.0
 10
4.222597999412542
 20
5.989180381823397
 30
0.0
 10
4.223221914754535
 20
5.989438085986394
 30
0.0
 10
4.223343985147534
 20
5.990021311197388
 30
0.0
 10
4.223655942818531
 20
5.991397993962872
 30
0.0
 10
4.223411802032533
 20
5.994822746655334
 30
0.0
 10
4.222964210591538
 20
5.996151957601319
 30
0.0
 10
4.222082591086548
 20
5.998844287935789
 30
0.0
 10
4.218562894755087
 20
6.001726505548257
 30
0.0
 10
4.219091866458081
 20
6.001068681763765
 30
0.0
 10
4.216921726138105
 20
6.004134004965731
 30
0.0
 10
4.217294719005602
 20
6.002960772855244
 30
0.0
 10
4.214365029573634
 20
6.004506997833226
 30
0.0
 10
4.213157889020647
 20
6.005158039929219
 30
0.0
 10
4.21289340316915
 20
6.006053222811209
 30
0.0
 10
4.211706607681664
 20
6.006521159317704
 30
0.0
 10
4.208186911350203
 20
6.007918187148689
 30
0.0
 10
4.20036762450979
 20
6.002838702462245
 30
0.0
 10
4.197505751962821
 20
5.997840598037801
 30
0.0
 10
4.196386773360334
 20
5.995846781618822
 30
0.0
 10
4.196542752195832
 20
5.991655698125869
 30
0.0
 10
4.197037815456326
 20
5.989648318329891
 30
0.0
 10
4.197193794291825
 20
5.989065093118899
 30
0.0
 10
4.197824491322318
 20
5.988827734021401
 30
0.0
 10
4.197932998338317
 20
5.988197036990908
 30
0.0
 10
4.198034723665815
 20
5.987722318795913
 30
0.0
 10
4.19758713222482
 20
5.986610121881926
 30
0.0
 10
4.197675294175319
 20
5.98614896706393
 30
0.0
 10
4.197926216649816
 20
5.984962171576444
 30
0.0
 10
4.198726455892808
 20
5.982636052420969
 30
0.0
 10
4.199194392399303
 20
5.981781559669979
 30
0.0
 10
4.200713490623286
 20
5.979082447647009
 30
0.0
 10
4.20394835603775
 20
5.976552877836538
 30
0.0
 10
4.206294820258724
 20
5.976037469510543
 30
0.0
 10
4.206667813126219
 20
5.975962870937043
 30
0.0
 10
4.207393453795711
 20
5.976451152509038
 30
0.0
 10
4.207752883286207
 20
5.97634942718154
 30
0.0
 10
4.209577157492687
 20
5.975874708986545
 30
0.0
 10
4.21108947402817
 20
5.97451837128656
 30
0.0
 10
4.212744206022152
 20
5.974959181039055
 30
0.0
 10
4.214303994377135
 20
5.97538642741455
 30
0.0
 10
4.21835944410009
 20
5.978689109714013
 30
0.0
 10
4.219681873357574
 20
5.980323496642495
 30
0.0
 10
4.220488894289066
 20
5.981300059786484
 30
0.0
 10
4.222625126166542
 20
5.985389417951939
 30
0.0
 10
4.22280823175604
 20
5.986508396554426
 30
0.0
  0
SPLINE
  5
7D
330
6D
100
AcDbEntity
  8
Layer 1
 62
     7
370
     9
100
AcDbSpline
210
0.0
220
0.0
230
1.0
 70
    11
 71
     3
 72
    26
 73
    22
 74
     0
 42
0.0000000001
 43
0.0000000001
 40
0.0
 40
0.0
 40
0.0
 40
0.0
 40
1.0
 40
1.0
 40
1.0
 40
2.0
 40
2.0
 40
2.0
 40
3.0
 40
3.0
 40
3.0
 40
4.0
 40
4.0
 40
4.0
 40
5.0
 40
5.0
 40
5.0
 40
6.0
 40
6.0
 40
6.0
 40
7.0
 40
7.0
 40
7.0
 40
7.0
 10
4.127152515464604
 20
5.867917009756245
 30
0.0
 10
4.127152515464604
 20
5.867917009756245
 30
0.0
 10
4.127016881694605
 20
5.869368291095229
 30
0.0
 10
4.12655572687661
 20
5.869076678489733
 30
0.0
 10
4.130665430107564
 20
5.876197451414654
 30
0.0
 10
4.130278873863069
 20
5.877601260934138
 30
0.0
 10
4.127206768972603
 20
5.88457961840056
 30
0.0
 10
4.128488508099089
 20
5.885135716857554
 30
0.0
 10
4.128671613688587
 20
5.885841012461546
 30
0.0
 10
4.129817719045074
 20
5.886078371559044
 30
0.0
 10
4.134490302421522
 20
5.887014244572033
 30
0.0
 10
4.137847238228985
 20
5.880422443350106
 30
0.0
 10
4.137257231329492
 20
5.877119761050643
 30
0.0
 10
4.137040217297494
 20
5.875858366989657
 30
0.0
 10
4.136178942858003
 20
5.875105599566165
 30
0.0
 10
4.135839858433007
 20
5.873884895636179
 30
0.0
 10
4.135500774008011
 20
5.872616719886693
 30
0.0
 10
4.135602499335509
 20
5.87017531202672
 30
0.0
 10
4.134449612290522
 20
5.868900354588734
 30
0.0
 10
4.133059366148038
 20
5.867333784545251
 30
0.0
 10
4.128617360180587
 20
5.866085953861266
 30
0.0
 10
4.127152515464604
 20
5.867917009756245
 30
0.0
  0
SPLINE
  5
7E
330
6D
100
AcDbEntity
  8
Layer 1
 62
     7
370
     9
100
AcDbSpline
210
0.0
220
0.0
230
1.0
 70
    11
 71
     3
 72
    71
 73
    67
 74
     0
 42
0.0000000001
 43
0.0000000001
 40
0.0
 40
0.0
 40
0.0
 40
0.0
 40
1.0
 40
1.0
 40
1.0
 40
2.0
 40
2.0
 40
2.0
 40
3.0
 40
3.0
 40
3.0
 40
4.0
 40
4.0
 40
4.0
 40
5.0
 40
5.0
 40
5.0
 40
6.0
 40
6.0
 40
6.0
 40
7.0
 40
7.0
 40
7.0
 40
8.0
 40
8.0
 40
8.0
 40
9.0
 40
9.0
 40
9.0
 40
10.0
 40
10.0
 40
10.0
 40
11.0
 40
11.0
 40
11.0
 40
12.0
 40
12.0
 40
12.0
 40
13.0
 40
13.0
 40
13.0
 40
14.0
 40
14.0
 40
14.0
 40
15.0
 40
15.0
 40
15.0
 40
16.0
 40
16.0
 40
16.0
 40
17.0
 40
17.0
 40
17.0
 40
18.0
 40
18.0
 40
18.0
 40
19.0
 40
19.0
 40
19.0
 40
20.0
 40
20.0
 40
20.0
 40
21.0
 40
21.0
 40
21.0
 40
22.0
 40
22.0
 40
22.0
 40
22.0
 10
4.140844744545952
 20
5.871328199071708
 30
0.0
 10
4.141726364050942
 20
5.874183289930175
 30
0.0
 10
4.144045701517916
 20
5.875912620497656
 30
0.0
 10
4.143374314356423
 20
5.878672767717125
 30
0.0
 10
4.143272589028924
 20
5.87914748591212
 30
0.0
 10
4.142702927194931
 20
5.879093232404121
 30
0.0
 10
4.142485913162934
 20
5.879534042156617
 30
0.0
 10
4.142485913162934
 20
5.879534042156617
 30
0.0
 10
4.14276396239143
 20
5.880415661661607
 30
0.0
 10
4.14276396239143
 20
5.880415661661607
 30
0.0
 10
4.142228208999936
 20
5.881609238837593
 30
0.0
 10
4.141427969756945
 20
5.881751654296092
 30
0.0
 10
4.140681984021954
 20
5.883019830045577
 30
0.0
 10
4.140302209465958
 20
5.88367087214157
 30
0.0
 10
4.139644385681465
 20
5.886865047425035
 30
0.0
 10
4.139454498403467
 20
5.887095624834032
 30
0.0
 10
4.138911963323473
 20
5.887760230307024
 30
0.0
 10
4.137826893163485
 20
5.887665286668026
 30
0.0
 10
4.13739286509949
 20
5.887943335896523
 30
0.0
 10
4.136362048447501
 20
5.888641849812015
 30
0.0
 10
4.135541464139011
 20
5.890242328297997
 30
0.0
 10
4.134429267225023
 20
5.890818771820491
 30
0.0
 10
4.134307196832024
 20
5.89088658870549
 30
0.0
 10
4.132923732378039
 20
5.890683138050492
 30
0.0
 10
4.132679591592043
 20
5.890798426754991
 30
0.0
 10
4.131553831301055
 20
5.891368088588984
 30
0.0
 10
4.130950261024561
 20
5.89272442628897
 30
0.0
 10
4.129722775406076
 20
5.893097419156465
 30
0.0
 10
4.128563106672588
 20
5.893443285269961
 30
0.0
 10
4.12657607194211
 20
5.891897060291979
 30
0.0
 10
4.125355368012124
 20
5.891571539243982
 30
0.0
 10
4.12385661485364
 20
5.891157856245487
 30
0.0
 10
4.122323953252657
 20
5.891652919505981
 30
0.0
 10
4.120716693078175
 20
5.889164039826509
 30
0.0
 10
4.119509552525189
 20
5.88727194873503
 30
0.0
 10
4.119319665247191
 20
5.883243625766075
 30
0.0
 10
4.118193904956203
 20
5.881236245970097
 30
0.0
 10
4.11758355299121
 20
5.88010370399061
 30
0.0
 10
4.116464574388722
 20
5.879581513976116
 30
0.0
 10
4.116186525160225
 20
5.878577824078127
 30
0.0
 10
4.116064454767227
 20
5.878082760817632
 30
0.0
 10
4.11666124335522
 20
5.877933563670634
 30
0.0
 10
4.116790095436719
 20
5.87741815534464
 30
0.0
 10
4.117000327780216
 20
5.876597571036148
 30
0.0
 10
4.117135961550215
 20
5.871748663758702
 30
0.0
 10
4.116878257387218
 20
5.870989114646712
 30
0.0
 10
4.116783313748219
 20
5.870880607630713
 30
0.0
 10
4.11668837010922
 20
5.870792445680213
 30
0.0
 10
4.116593426470221
 20
5.870690720352714
 30
0.0
 10
4.117244468566214
 20
5.867855974559746
 30
0.0
 10
4.122459587022656
 20
5.861745673221314
 30
0.0
 10
4.125796177764618
 20
5.860592786176326
 30
0.0
 10
4.126365839598613
 20
5.860396117209829
 30
0.0
 10
4.126962628186606
 20
5.86116922969882
 30
0.0
 10
4.127545853397599
 20
5.86119635645282
 30
0.0
 10
4.127545853397599
 20
5.86119635645282
 30
0.0
 10
4.128135860297093
 20
5.860626694618826
 30
0.0
 10
4.128135860297093
 20
5.860626694618826
 30
0.0
 10
4.128820810835586
 20
5.86030117357083
 30
0.0
 10
4.129736338783075
 20
5.861121757879321
 30
0.0
 10
4.130468761141067
 20
5.861243828272319
 30
0.0
 10
4.133425577327034
 20
5.861711764778814
 30
0.0
 10
4.136178942858003
 20
5.861745673221314
 30
0.0
 10
4.13917644917497
 20
5.865455256830773
 30
0.0
 10
4.141095667020449
 20
5.867801721051746
 30
0.0
 10
4.140268301023458
 20
5.869422544603228
 30
0.0
 10
4.140844744545952
 20
5.871328199071708
 30
0.0
  0
SPLINE
  5
7F
330
6D
100
AcDbEntity
  8
Layer 1
 62
     7
370
     9
100
AcDbSpline
210
0.0
220
0.0
230
1.0
 70
    11
 71
     3
 72
    29
 73
    25
 74
     0
 42
0.0000000001
 43
0.0000000001
 40
0.0
 40
0.0
 40
0.0
 40
0.0
 40
1.0
 40
1.0
 40
1.0
 40
2.0
 40
2.0
 40
2.0
 40
3.0
 40
3.0
 40
3.0
 40
4.0
 40
4.0
 40
4.0
 40
5.0
 40
5.0
 40
5.0
 40
6.0
 40
6.0
 40
6.0
 40
7.0
 40
7.0
 40
7.0
 40
8.0
 40
8.0
 40
8.0
 40
8.0
 10
4.070586451686733
 20
5.775903060189268
 30
0.0
 10
4.070600015063732
 20
5.775930186943269
 30
0.0
 10
4.070871282603729
 20
5.776784679694258
 30
0.0
 10
4.070871282603729
 20
5.776784679694258
 30
0.0
 10
4.070640705194732
 20
5.77756457387175
 30
0.0
 10
4.069481036461245
 20
5.779063327030233
 30
0.0
 10
4.06907413515125
 20
5.779680460683727
 30
0.0
 10
4.069786212443741
 20
5.780175523944221
 30
0.0
 10
4.070077825049238
 20
5.781030016695212
 30
0.0
 10
4.07080346571873
 20
5.781457263070707
 30
0.0
 10
4.073149929939704
 20
5.782854290901692
 30
0.0
 10
4.076005020798172
 20
5.780216214075221
 30
0.0
 10
4.077578372530155
 20
5.777754461149748
 30
0.0
 10
4.077978492151651
 20
5.777150890873255
 30
0.0
 10
4.078819421525641
 20
5.776588010727761
 30
0.0
 10
4.078771949706142
 20
5.776018348893767
 30
0.0
 10
4.078724477886643
 20
5.774967187176279
 30
0.0
 10
4.077530900710656
 20
5.774126257802289
 30
0.0
 10
4.077056182515661
 20
5.7730750960848
 30
0.0
 10
4.076581464320666
 20
5.771949335793813
 30
0.0
 10
4.076378013665669
 20
5.769033209738845
 30
0.0
 10
4.075672718061676
 20
5.768083773348856
 30
0.0
 10
4.07086450091523
 20
5.761580134077428
 30
0.0
 10
4.070532198178733
 20
5.774587412620283
 30
0.0
 10
4.070586451686733
 20
5.775903060189268
 30
0.0
  0
SPLINE
  5
80
330
6D
100
AcDbEntity
  8
Layer 1
 62
     7
370
     9
100
AcDbSpline
210
0.0
220
0.0
230
1.0
 70
    11
 71
     3
 72
    47
 73
    43
 74
     0
 42
0.0000000001
 43
0.0000000001
 40
0.0
 40
0.0
 40
0.0
 40
0.0
 40
1.0
 40
1.0
 40
1.0
 40
2.0
 40
2.0
 40
2.0
 40
3.0
 40
3.0
 40
3.0
 40
4.0
 40
4.0
 40
4.0
 40
5.0
 40
5.0
 40
5.0
 40
6.0
 40
6.0
 40
6.0
 40
7.0
 40
7.0
 40
7.0
 40
8.0
 40
8.0
 40
8.0
 40
9.0
 40
9.0
 40
9.0
 40
10.0
 40
10.0
 40
10.0
 40
11.0
 40
11.0
 40
11.0
 40
12.0
 40
12.0
 40
12.0
 40
13.0
 40
13.0
 40
13.0
 40
14.0
 40
14.0
 40
14.0
 40
14.0
 10
4.080080815586627
 20
5.766096738618377
 30
0.0
 10
4.081152322369615
 20
5.768015956463856
 30
0.0
 10
4.082413716430601
 20
5.76855170985535
 30
0.0
 10
4.082949469822095
 20
5.770233568603332
 30
0.0
 10
4.082996941641595
 20
5.770362420684831
 30
0.0
 10
4.082623948774099
 20
5.770993117715324
 30
0.0
 10
4.082644293839598
 20
5.771108406419822
 30
0.0
 10
4.083057976838094
 20
5.773163258035299
 30
0.0
 10
4.083851434392585
 20
5.775245236404776
 30
0.0
 10
4.08343096970559
 20
5.777252616200753
 30
0.0
 10
4.082210265775603
 20
5.783213720392188
 30
0.0
 10
4.076086401060172
 20
5.789452873812118
 30
0.0
 10
4.070125296868738
 20
5.787879522080135
 30
0.0
 10
4.068897811250252
 20
5.787560782720639
 30
0.0
 10
4.068572290202255
 20
5.786760543477648
 30
0.0
 10
4.06722951587927
 20
5.786082374627656
 30
0.0
 10
4.065683290901287
 20
5.785295698761664
 30
0.0
 10
4.064232009562304
 20
5.785580529678661
 30
0.0
 10
4.062584059256822
 20
5.783681656898682
 30
0.0
 10
4.062584059256822
 20
5.783681656898682
 30
0.0
 10
4.062027960799828
 20
5.781918417888702
 30
0.0
 10
4.062027960799828
 20
5.781918417888702
 30
0.0
 10
4.061532897539333
 20
5.78120634059621
 30
0.0
 10
4.060753003361842
 20
5.780867256171213
 30
0.0
 10
4.060298630232347
 20
5.780141615501721
 30
0.0
 10
4.058542172910866
 20
5.777218707758254
 30
0.0
 10
4.059281376957358
 20
5.770084371456333
 30
0.0
 10
4.060190123216349
 20
5.766985139811868
 30
0.0
 10
4.060875073754841
 20
5.767113991893366
 30
0.0
 10
4.061349791949835
 20
5.765282935998386
 30
0.0
 10
4.061383700392335
 20
5.765249027555887
 30
0.0
 10
4.061912672095329
 20
5.764842126245892
 30
0.0
 10
4.063770854744308
 20
5.765052358589389
 30
0.0
 10
4.064320171512803
 20
5.764706492475893
 30
0.0
 10
4.065974903506784
 20
5.763689239200905
 30
0.0
 10
4.066883649765773
 20
5.761763239666926
 30
0.0
 10
4.068470564874756
 20
5.760671387818438
 30
0.0
 10
4.071271402225225
 20
5.758758951661459
 30
0.0
 10
4.075971112355672
 20
5.759125162840455
 30
0.0
 10
4.078677006067143
 20
5.76227864799292
 30
0.0
 10
4.079565407260633
 20
5.763302682956408
 30
0.0
 10
4.07985023817763
 20
5.765655928865883
 30
0.0
 10
4.080080815586627
 20
5.766096738618377
 30
0.0
  0
SPLINE
  5
81
330
6D
100
AcDbEntity
  8
Layer 1
 62
     7
370
     9
100
AcDbSpline
210
0.0
220
0.0
230
1.0
 70
    11
 71
     3
 72
    35
 73
    31
 74
     0
 42
0.0000000001
 43
0.0000000001
 40
0.0
 40
0.0
 40
0.0
 40
0.0
 40
1.0
 40
1.0
 40
1.0
 40
2.0
 40
2.0
 40
2.0
 40
3.0
 40
3.0
 40
3.0
 40
4.0
 40
4.0
 40
4.0
 40
5.0
 40
5.0
 40
5.0
 40
6.0
 40
6.0
 40
6.0
 40
7.0
 40
7.0
 40
7.0
 40
8.0
 40
8.0
 40
8.0
 40
9.0
 40
9.0
 40
9.0
 40
10.0
 40
10.0
 40
10.0
 40
10.0
 10
4.265288728519567
 20
5.897953108122412
 30
0.0
 10
4.264691939931574
 20
5.897817474352412
 30
0.0
 10
4.264461362522576
 20
5.897390227976918
 30
0.0
 10
4.263837447180584
 20
5.897057925240421
 30
0.0
 10
4.262833757282595
 20
5.898190467219909
 30
0.0
 10
4.260772123978618
 20
5.899587495050893
 30
0.0
 10
4.261151898534614
 20
5.901398205880373
 30
0.0
 10
4.261341785812611
 20
5.902306952139363
 30
0.0
 10
4.262508236234599
 20
5.902937649169856
 30
0.0
 10
4.262874447413594
 20
5.903765015166846
 30
0.0
 10
4.263145714953591
 20
5.90434145868934
 30
0.0
 10
4.263579743017586
 20
5.909237837786286
 30
0.0
 10
4.263376292362588
 20
5.909617612342282
 30
0.0
 10
4.262996517806593
 20
5.910336471323274
 30
0.0
 10
4.262047081416603
 20
5.91067555574827
 30
0.0
 10
4.261599489975609
 20
5.911346942909763
 30
0.0
 10
4.261952137777604
 20
5.911970858251755
 30
0.0
 10
4.262264095448601
 20
5.91158430200726
 30
0.0
 10
4.261870757515606
 20
5.912228562414753
 30
0.0
 10
4.263023644560593
 20
5.913164435427742
 30
0.0
 10
4.263945954196583
 20
5.913937547916733
 30
0.0
 10
4.264759756816574
 20
5.914608935078226
 30
0.0
 10
4.268910150178527
 20
5.911801316039258
 30
0.0
 10
4.272029726888492
 20
5.910994295107766
 30
0.0
 10
4.271324431284501
 20
5.905345148587329
 30
0.0
 10
4.271202360891501
 20
5.904293986869841
 30
0.0
 10
4.271460065054499
 20
5.902279825385363
 30
0.0
 10
4.270795459581506
 20
5.901249008733375
 30
0.0
 10
4.269140727587525
 20
5.898617713595404
 30
0.0
 10
4.267011277398549
 20
5.898312537612907
 30
0.0
 10
4.265288728519567
 20
5.897953108122412
 30
0.0
  0
SPLINE
  5
82
330
6D
100
AcDbEntity
  8
Layer 1
 62
     7
370
     9
100
AcDbSpline
210
0.0
220
0.0
230
1.0
 70
    11
 71
     3
 72
    47
 73
    43
 74
     0
 42
0.0000000001
 43
0.0000000001
 40
0.0
 40
0.0
 40
0.0
 40
0.0
 40
1.0
 40
1.0
 40
1.0
 40
2.0
 40
2.0
 40
2.0
 40
3.0
 40
3.0
 40
3.0
 40
4.0
 40
4.0
 40
4.0
 40
5.0
 40
5.0
 40
5.0
 40
6.0
 40
6.0
 40
6.0
 40
7.0
 40
7.0
 40
7.0
 40
8.0
 40
8.0
 40
8.0
 40
9.0
 40
9.0
 40
9.0
 40
10.0
 40
10.0
 40
10.0
 40
11.0
 40
11.0
 40
11.0
 40
12.0
 40
12.0
 40
12.0
 40
13.0
 40
13.0
 40
13.0
 40
14.0
 40
14.0
 40
14.0
 40
14.0
 10
4.277197373525435
 20
5.903676853216347
 30
0.0
 10
4.277373697426433
 20
5.905101007801332
 30
0.0
 10
4.278201063423424
 20
5.906660796156315
 30
0.0
 10
4.278011176145426
 20
5.908071387364299
 30
0.0
 10
4.277807725490428
 20
5.909617612342282
 30
0.0
 10
4.272545135214487
 20
5.917470807625194
 30
0.0
 10
4.269669699290518
 20
5.919064504422677
 30
0.0
 10
4.269669699290518
 20
5.919064504422677
 30
0.0
 10
4.268489685491532
 20
5.919044159357177
 30
0.0
 10
4.268489685491532
 20
5.919044159357177
 30
0.0
 10
4.26782508001854
 20
5.919457842355672
 30
0.0
 10
4.267458868839543
 20
5.920468313942161
 30
0.0
 10
4.266712883104551
 20
5.920773489924658
 30
0.0
 10
4.265654939698563
 20
5.921227863054153
 30
0.0
 10
4.264325728752578
 20
5.920624292777659
 30
0.0
 10
4.26321353183859
 20
5.920726018105158
 30
0.0
 10
4.262006391285604
 20
5.920841306809657
 30
0.0
 10
4.260270279029624
 20
5.921906031904145
 30
0.0
 10
4.259117391984636
 20
5.921248208119653
 30
0.0
 10
4.257516913498654
 20
5.920332680172162
 30
0.0
 10
4.254770329656185
 20
5.916229758629708
 30
0.0
 10
4.253942963659194
 20
5.914744568848224
 30
0.0
 10
4.253149506104703
 20
5.91330006919774
 30
0.0
 10
4.251467647356721
 20
5.90430755024684
 30
0.0
 10
4.251772823339218
 20
5.903019029431855
 30
0.0
 10
4.252098344387214
 20
5.901710163551369
 30
0.0
 10
4.253176632858702
 20
5.901187973536875
 30
0.0
 10
4.253861583397194
 20
5.89983841752539
 30
0.0
 10
4.25427526639569
 20
5.899051741659399
 30
0.0
 10
4.254526188870187
 20
5.897125742125421
 30
0.0
 10
4.255082287327181
 20
5.896345847947929
 30
0.0
 10
4.256425061650166
 20
5.894521573741449
 30
0.0
 10
4.261423166074611
 20
5.890533940903493
 30
0.0
 10
4.263349165608589
 20
5.890615321165493
 30
0.0
 10
4.265112404618569
 20
5.890696701427492
 30
0.0
 10
4.266536559203554
 20
5.891985222242478
 30
0.0
 10
4.268286234836534
 20
5.892731207977469
 30
0.0
 10
4.270632699057508
 20
5.893714552809959
 30
0.0
 10
4.274416881240466
 20
5.894718242707947
 30
0.0
 10
4.276695528576441
 20
5.898407481251907
 30
0.0
 10
4.27764496496643
 20
5.899953706229889
 30
0.0
 10
4.277021049624437
 20
5.902130628238365
 30
0.0
 10
4.277197373525435
 20
5.903676853216347
 30
0.0
  0
SPLINE
  5
83
330
6D
100
AcDbEntity
  8
Layer 1
 62
     7
370
     9
100
AcDbSpline
210
0.0
220
0.0
230
1.0
 70
    11
 71
     3
 72
    32
 73
    28
 74
     0
 42
0.0000000001
 43
0.0000000001
 40
0.0
 40
0.0
 40
0.0
 40
0.0
 40
1.0
 40
1.0
 40
1.0
 40
2.0
 40
2.0
 40
2.0
 40
3.0
 40
3.0
 40
3.0
 40
4.0
 40
4.0
 40
4.0
 40
5.0
 40
5.0
 40
5.0
 40
6.0
 40
6.0
 40
6.0
 40
7.0
 40
7.0
 40
7.0
 40
8.0
 40
8.0
 40
8.0
 40
9.0
 40
9.0
 40
9.0
 40
9.0
 10
4.210357051670179
 20
5.793976260041568
 30
0.0
 10
4.2083632352512
 20
5.794294999401064
 30
0.0
 10
4.206545742733221
 20
5.795468231511551
 30
0.0
 10
4.204470546052244
 20
5.796817787523036
 30
0.0
 10
4.20571159504773
 20
5.801429335702984
 30
0.0
 10
4.206437235717222
 20
5.805383060098441
 30
0.0
 10
4.20487744736224
 20
5.8090994253964
 30
0.0
 10
4.205325038803235
 20
5.809336784493897
 30
0.0
 10
4.205623433097231
 20
5.810035298409389
 30
0.0
 10
4.206030334407227
 20
5.810286220883886
 30
0.0
 10
4.206518615979221
 20
5.810564270112383
 30
0.0
 10
4.209054967478193
 20
5.811133931946377
 30
0.0
 10
4.209529685673187
 20
5.810916917914379
 30
0.0
 10
4.209990840491183
 20
5.810727030636381
 30
0.0
 10
4.209943368671683
 20
5.810177713867887
 30
0.0
 10
4.210418086866678
 20
5.810055643474889
 30
0.0
 10
4.21106234727417
 20
5.80989966463939
 30
0.0
 10
4.212527191990154
 20
5.810130242048388
 30
0.0
 10
4.213056163693149
 20
5.809797939311892
 30
0.0
 10
4.216630113532609
 20
5.807566763795417
 30
0.0
 10
4.216101141829615
 20
5.801035997769989
 30
0.0
 10
4.215260212455624
 20
5.798431829386018
 30
0.0
 10
4.215138142062625
 20
5.798004583010523
 30
0.0
 10
4.215239867390124
 20
5.796743188949537
 30
0.0
 10
4.214995726604127
 20
5.796383759459041
 30
0.0
 10
4.213639388904142
 20
5.794261090958565
 30
0.0
 10
4.211808333009162
 20
5.79375246432107
 30
0.0
 10
4.210357051670179
 20
5.793976260041568
 30
0.0
  0
SPLINE
  5
84
330
6D
100
AcDbEntity
  8
Layer 1
 62
     7
370
     9
100
AcDbSpline
210
0.0
220
0.0
230
1.0
 70
    11
 71
     3
 72
    50
 73
    46
 74
     0
 42
0.0000000001
 43
0.0000000001
 40
0.0
 40
0.0
 40
0.0
 40
0.0
 40
1.0
 40
1.0
 40
1.0
 40
2.0
 40
2.0
 40
2.0
 40
3.0
 40
3.0
 40
3.0
 40
4.0
 40
4.0
 40
4.0
 40
5.0
 40
5.0
 40
5.0
 40
6.0
 40
6.0
 40
6.0
 40
7.0
 40
7.0
 40
7.0
 40
8.0
 40
8.0
 40
8.0
 40
9.0
 40
9.0
 40
9.0
 40
10.0
 40
10.0
 40
10.0
 40
11.0
 40
11.0
 40
11.0
 40
12.0
 40
12.0
 40
12.0
 40
13.0
 40
13.0
 40
13.0
 40
14.0
 40
14.0
 40
14.0
 40
15.0
 40
15.0
 40
15.0
 40
15.0
 10
4.220814415337062
 20
5.798804822253514
 30
0.0
 10
4.221078901188559
 20
5.800913927376991
 30
0.0
 10
4.222197879791047
 20
5.806712271044426
 30
0.0
 10
4.221546837695054
 20
5.808461946677406
 30
0.0
 10
4.221404422236556
 20
5.808868847987402
 30
0.0
 10
4.220624528059064
 20
5.809248622543398
 30
0.0
 10
4.220366823896067
 20
5.809614833722394
 30
0.0
 10
4.219146119966081
 20
5.811337382601375
 30
0.0
 10
4.219254626982079
 20
5.813290508889353
 30
0.0
 10
4.21649447976261
 20
5.814524776196339
 30
0.0
 10
4.216372409369612
 20
5.814585811392838
 30
0.0
 10
4.214988944915627
 20
5.81438914242634
 30
0.0
 10
4.21473802244113
 20
5.814497649442339
 30
0.0
 10
4.213429156560644
 20
5.815094438030333
 30
0.0
 10
4.212778114464651
 20
5.816321923648819
 30
0.0
 10
4.211496375338165
 20
5.816505029238317
 30
0.0
 10
4.211387868322167
 20
5.816518592615317
 30
0.0
 10
4.209753481393685
 20
5.815820078699825
 30
0.0
 10
4.209163474494192
 20
5.815881113896324
 30
0.0
 10
4.207969897318205
 20
5.816023529354823
 30
0.0
 10
4.207115404567214
 20
5.816993310810312
 30
0.0
 10
4.205935390768228
 20
5.816715261581814
 30
0.0
 10
4.203555018104754
 20
5.816132036370822
 30
0.0
 10
4.201886722733772
 20
5.814545121261839
 30
0.0
 10
4.199560603578298
 20
5.813114184988355
 30
0.0
 10
4.198645075630808
 20
5.812544523154361
 30
0.0
 10
4.196895399997828
 20
5.812171530286865
 30
0.0
 10
4.19579676646084
 20
5.810428636342385
 30
0.0
 10
4.194691351235353
 20
5.808645052266904
 30
0.0
 10
4.19678011129333
 20
5.796356632705041
 30
0.0
 10
4.198068632108315
 20
5.794383161351563
 30
0.0
 10
4.199736927479297
 20
5.791867154918091
 30
0.0
 10
4.203093863286759
 20
5.790456563710107
 30
0.0
 10
4.204579053068243
 20
5.789215514714621
 30
0.0
 10
4.206064242849726
 20
5.787974465719135
 30
0.0
 10
4.207949552252705
 20
5.787309860246142
 30
0.0
 10
4.208980368904694
 20
5.787818486883636
 30
0.0
 10
4.209502558919188
 20
5.788069409358133
 30
0.0
 10
4.210173946080681
 20
5.787343768688642
 30
0.0
 10
4.210743607914674
 20
5.787255606738142
 30
0.0
 10
4.213042600316149
 20
5.786950430755645
 30
0.0
 10
4.217342190825101
 20
5.789188387960621
 30
0.0
 10
4.219444514260077
 20
5.792057042196089
 30
0.0
 10
4.220936485730061
 20
5.794071203680566
 30
0.0
 10
4.220556711174065
 20
5.796743188949537
 30
0.0
 10
4.220814415337062
 20
5.798804822253514
 30
0.0
  0
SPLINE
  5
85
330
6D
100
AcDbEntity
  8
Layer 1
 62
     7
370
     9
100
AcDbSpline
210
0.0
220
0.0
230
1.0
 70
    11
 71
     3
 72
    26
 73
    22
 74
     0
 42
0.0000000001
 43
0.0000000001
 40
0.0
 40
0.0
 40
0.0
 40
0.0
 40
1.0
 40
1.0
 40
1.0
 40
2.0
 40
2.0
 40
2.0
 40
3.0
 40
3.0
 40
3.0
 40
4.0
 40
4.0
 40
4.0
 40
5.0
 40
5.0
 40
5.0
 40
6.0
 40
6.0
 40
6.0
 40
7.0
 40
7.0
 40
7.0
 40
7.0
 10
4.126006410108117
 20
5.682268287070809
 30
0.0
 10
4.129688866963575
 20
5.687897088525747
 30
0.0
 10
4.129227712145581
 20
5.692942664769691
 30
0.0
 10
4.123449713543645
 20
5.697432142556641
 30
0.0
 10
4.124887431505629
 20
5.701229888116599
 30
0.0
 10
4.126236987517114
 20
5.702382775161587
 30
0.0
 10
4.130136458404571
 20
5.700165163022111
 30
0.0
 10
4.131580958055054
 20
5.69935136040212
 30
0.0
 10
4.134924330485517
 20
5.69663868500215
 30
0.0
 10
4.135473647254012
 20
5.694977171319668
 30
0.0
 10
4.135907675318006
 20
5.693702213881683
 30
0.0
 10
4.134327541897524
 20
5.69131505952971
 30
0.0
 10
4.134083401111527
 20
5.689985848583724
 30
0.0
 10
4.133886732145029
 20
5.688826179850237
 30
0.0
 10
4.134436048913523
 20
5.686683166284261
 30
0.0
 10
4.133852823702529
 20
5.685598096124273
 30
0.0
 10
4.133506957589033
 20
5.68494705402828
 30
0.0
 10
4.131655556628553
 20
5.682743005265804
 30
0.0
 10
4.131553831301055
 20
5.682641279938306
 30
0.0
 10
4.128739430573586
 20
5.67956239335934
 30
0.0
 10
4.128942881228584
 20
5.68049826637233
 30
0.0
 10
4.126006410108117
 20
5.682268287070809
 30
0.0
  0
SPLINE
  5
86
330
6D
100
AcDbEntity
  8
Layer 1
 62
     7
370
     9
100
AcDbSpline
210
0.0
220
0.0
230
1.0
 70
    11
 71
     3
 72
    50
 73
    46
 74
     0
 42
0.0000000001
 43
0.0000000001
 40
0.0
 40
0.0
 40
0.0
 40
0.0
 40
1.0
 40
1.0
 40
1.0
 40
2.0
 40
2.0
 40
2.0
 40
3.0
 40
3.0
 40
3.0
 40
4.0
 40
4.0
 40
4.0
 40
5.0
 40
5.0
 40
5.0
 40
6.0
 40
6.0
 40
6.0
 40
7.0
 40
7.0
 40
7.0
 40
8.0
 40
8.0
 40
8.0
 40
9.0
 40
9.0
 40
9.0
 40
10.0
 40
10.0
 40
10.0
 40
11.0
 40
11.0
 40
11.0
 40
12.0
 40
12.0
 40
12.0
 40
13.0
 40
13.0
 40
13.0
 40
14.0
 40
14.0
 40
14.0
 40
15.0
 40
15.0
 40
15.0
 40
15.0
 10
4.140315772842957
 20
5.683353357230798
 30
0.0
 10
4.140458188301456
 20
5.683753476852293
 30
0.0
 10
4.139766456074463
 20
5.687829271640748
 30
0.0
 10
4.139942779975462
 20
5.688900778423736
 30
0.0
 10
4.140159794007459
 20
5.690202862615721
 30
0.0
 10
4.141027850135449
 20
5.691145517317211
 30
0.0
 10
4.141061758577949
 20
5.692427256443697
 30
0.0
 10
4.141244864167447
 20
5.696970987738646
 30
0.0
 10
4.136287449874002
 20
5.705027633676557
 30
0.0
 10
4.130638303353565
 20
5.706017760197546
 30
0.0
 10
4.129363345915579
 20
5.706241555918044
 30
0.0
 10
4.127857811068596
 20
5.705495570183052
 30
0.0
 10
4.12655572687661
 20
5.705373499790053
 30
0.0
 10
4.125077318783626
 20
5.705224302643055
 30
0.0
 10
4.121998432204661
 20
5.706234774229543
 30
0.0
 10
4.120709911389676
 20
5.705292119528054
 30
0.0
 10
4.119557024344688
 20
5.704444408465563
 30
0.0
 10
4.118905982248696
 20
5.701507937345096
 30
0.0
 10
4.118438045742201
 20
5.700578846020607
 30
0.0
 10
4.116952855960717
 20
5.697628811523139
 30
0.0
 10
4.115081109934738
 20
5.694271875715677
 30
0.0
 10
4.115352377474735
 20
5.691471038365208
 30
0.0
 10
4.115521919687233
 20
5.689884123256225
 30
0.0
 10
4.116566299716221
 20
5.689036412193735
 30
0.0
 10
4.117163088304214
 20
5.687408806953752
 30
0.0
 10
4.117549644548711
 20
5.686398335367264
 30
0.0
 10
4.117196996746714
 20
5.684418082325286
 30
0.0
 10
4.117508954417711
 20
5.683611061393795
 30
0.0
 10
4.118017581055205
 20
5.682376794086808
 30
0.0
 10
4.119028052641694
 20
5.682010582907813
 30
0.0
 10
4.119889327081184
 20
5.680722062092827
 30
0.0
 10
4.119889327081184
 20
5.680722062092827
 30
0.0
 10
4.120201284752181
 20
5.679263999065343
 30
0.0
 10
4.120201284752181
 20
5.679263999065343
 30
0.0
 10
4.120777728274675
 20
5.678429851379852
 30
0.0
 10
4.122317171564157
 20
5.67775168252986
 30
0.0
 10
4.122568094038654
 20
5.677548231874862
 30
0.0
 10
4.123286953019647
 20
5.676971788352368
 30
0.0
 10
4.125118008914626
 20
5.674666014262394
 30
0.0
 10
4.126704924023609
 20
5.674096352428401
 30
0.0
 10
4.128854719278085
 20
5.673343585004909
 30
0.0
 10
4.13375109837503
 20
5.675154295834389
 30
0.0
 10
4.136009400645505
 20
5.67773811915286
 30
0.0
 10
4.136707914560997
 20
5.678531576707352
 30
0.0
 10
4.14004450530296
 20
5.682424265906308
 30
0.0
 10
4.140315772842957
 20
5.683353357230798
 30
0.0
  0
SPLINE
  5
87
330
6D
100
AcDbEntity
  8
Layer 1
 62
     7
370
     9
100
AcDbSpline
210
0.0
220
0.0
230
1.0
 70
    11
 71
     3
 72
    41
 73
    37
 74
     0
 42
0.0000000001
 43
0.0000000001
 40
0.0
 40
0.0
 40
0.0
 40
0.0
 40
1.0
 40
1.0
 40
1.0
 40
2.0
 40
2.0
 40
2.0
 40
3.0
 40
3.0
 40
3.0
 40
4.0
 40
4.0
 40
4.0
 40
5.0
 40
5.0
 40
5.0
 40
6.0
 40
6.0
 40
6.0
 40
7.0
 40
7.0
 40
7.0
 40
8.0
 40
8.0
 40
8.0
 40
9.0
 40
9.0
 40
9.0
 40
10.0
 40
10.0
 40
10.0
 40
11.0
 40
11.0
 40
11.0
 40
12.0
 40
12.0
 40
12.0
 40
12.0
 10
4.074024767756194
 20
5.575999228276992
 30
0.0
 10
4.073868788920696
 20
5.575917848014993
 30
0.0
 10
4.073244873578704
 20
5.576236587374489
 30
0.0
 10
4.072858317334207
 20
5.575978883211492
 30
0.0
 10
4.072146240041715
 20
5.576453601406486
 30
0.0
 10
4.07176646548572
 20
5.576989354797981
 30
0.0
 10
4.070789902341731
 20
5.577416601173476
 30
0.0
 10
4.072105549910716
 20
5.579878354098948
 30
0.0
 10
4.073000732792706
 20
5.582075621172924
 30
0.0
 10
4.073611084757699
 20
5.584469557213398
 30
0.0
 10
4.073699246708198
 20
5.584767951507394
 30
0.0
 10
4.073950169182695
 20
5.585079909178391
 30
0.0
 10
4.073895915674695
 20
5.585351176718388
 30
0.0
 10
4.0735839580037
 20
5.587107634039868
 30
0.0
 10
4.071508761322723
 20
5.588823401230349
 30
0.0
 10
4.069725177247242
 20
5.59055273179783
 30
0.0
 10
4.06995575465624
 20
5.591034231681324
 30
0.0
 10
4.070274494015736
 20
5.591841252612816
 30
0.0
 10
4.070288057392736
 20
5.59231597080781
 30
0.0
 10
4.073597521380699
 20
5.593292533951799
 30
0.0
 10
4.077239288105159
 20
5.592777125625805
 30
0.0
 10
4.079409428425135
 20
5.588057070429858
 30
0.0
 10
4.079524717129633
 20
5.58782649302086
 30
0.0
 10
4.079043217246139
 20
5.587426373399365
 30
0.0
 10
4.079131379196638
 20
5.587182232613367
 30
0.0
 10
4.079402646736635
 20
5.586476937009375
 30
0.0
 10
4.080135069094626
 20
5.586402338435876
 30
0.0
 10
4.080026562078627
 20
5.585730951274384
 30
0.0
 10
4.079884146620129
 20
5.584713697999395
 30
0.0
 10
4.078609189182144
 20
5.583771043297905
 30
0.0
 10
4.078317576576647
 20
5.582780916776916
 30
0.0
 10
4.078086999167649
 20
5.581973895845425
 30
0.0
 10
4.078866893345141
 20
5.580719283472939
 30
0.0
 10
4.078358266707646
 20
5.579858009033448
 30
0.0
 10
4.077903893578151
 20
5.579078114855958
 30
0.0
 10
4.074926732326684
 20
5.576440038029487
 30
0.0
 10
4.074024767756194
 20
5.575999228276992
 30
0.0
  0
SPLINE
  5
88
330
6D
100
AcDbEntity
  8
Layer 1
 62
     7
370
     9
100
AcDbSpline
210
0.0
220
0.0
230
1.0
 70
    11
 71
     3
 72
    65
 73
    61
 74
     0
 42
0.0000000001
 43
0.0000000001
 40
0.0
 40
0.0
 40
0.0
 40
0.0
 40
1.0
 40
1.0
 40
1.0
 40
2.0
 40
2.0
 40
2.0
 40
3.0
 40
3.0
 40
3.0
 40
4.0
 40
4.0
 40
4.0
 40
5.0
 40
5.0
 40
5.0
 40
6.0
 40
6.0
 40
6.0
 40
7.0
 40
7.0
 40
7.0
 40
8.0
 40
8.0
 40
8.0
 40
9.0
 40
9.0
 40
9.0
 40
10.0
 40
10.0
 40
10.0
 40
11.0
 40
11.0
 40
11.0
 40
12.0
 40
12.0
 40
12.0
 40
13.0
 40
13.0
 40
13.0
 40
14.0
 40
14.0
 40
14.0
 40
15.0
 40
15.0
 40
15.0
 40
16.0
 40
16.0
 40
16.0
 40
17.0
 40
17.0
 40
17.0
 40
18.0
 40
18.0
 40
18.0
 40
19.0
 40
19.0
 40
19.0
 40
20.0
 40
20.0
 40
20.0
 40
20.0
 10
4.084210863883081
 20
5.579356164084454
 30
0.0
 10
4.084889032733074
 20
5.580719283472939
 30
0.0
 10
4.085953757827562
 20
5.581302508683932
 30
0.0
 10
4.086211461990559
 20
5.582604592875918
 30
0.0
 10
4.086564109792555
 20
5.584320360066399
 30
0.0
 10
4.085343405862568
 20
5.585771641405383
 30
0.0
 10
4.084678800389576
 20
5.587548443792363
 30
0.0
 10
4.084651673635577
 20
5.587650169119862
 30
0.0
 10
4.085024666503072
 20
5.588294429527354
 30
0.0
 10
4.084956849618073
 20
5.588430063297353
 30
0.0
 10
4.083030850084095
 20
5.592627928478807
 30
0.0
 10
4.079463681933134
 20
5.597809138492749
 30
0.0
 10
4.074872478818685
 20
5.598812828390738
 30
0.0
 10
4.074458795820189
 20
5.598907772029737
 30
0.0
 10
4.073855225543697
 20
5.598412708769242
 30
0.0
 10
4.073414415791201
 20
5.598500870719741
 30
0.0
 10
4.071691866912221
 20
5.598839955144737
 30
0.0
 10
4.070077825049238
 20
5.599755483092228
 30
0.0
 10
4.068443438120757
 20
5.598717884751739
 30
0.0
 10
4.067649980566265
 20
5.598209258114244
 30
0.0
 10
4.06722273419077
 20
5.597185223150756
 30
0.0
 10
4.066422494947779
 20
5.596642688070762
 30
0.0
 10
4.065744326097787
 20
5.596167969875768
 30
0.0
 10
4.064693164380298
 20
5.596364638842265
 30
0.0
 10
4.063811544875308
 20
5.595143934912279
 30
0.0
 10
4.063289354860814
 20
5.594384385800288
 30
0.0
 10
4.063594530843311
 20
5.592478731331808
 30
0.0
 10
4.063275791483814
 20
5.591631020269317
 30
0.0
 10
4.062929925370318
 20
5.590661238813828
 30
0.0
 10
4.062272101585825
 20
5.59051882335533
 30
0.0
 10
4.06184485521033
 20
5.589562605276841
 30
0.0
 10
4.060237595035848
 20
5.585832676601882
 30
0.0
 10
4.060841165312341
 20
5.583859205248404
 30
0.0
 10
4.061397263769335
 20
5.580203875146945
 30
0.0
 10
4.061478644031334
 20
5.579803755525449
 30
0.0
 10
4.06098358077084
 20
5.579091678232957
 30
0.0
 10
4.061125996229338
 20
5.578739030430961
 30
0.0
 10
4.06186520027583
 20
5.57705038999448
 30
0.0
 10
4.063987868776306
 20
5.575382094623499
 30
0.0
 10
4.065581565573789
 20
5.573829087957016
 30
0.0
 10
4.065113629067294
 20
5.573347588073522
 30
0.0
 10
4.067480438353767
 20
5.571048595672047
 30
0.0
 10
4.067948374860262
 20
5.571530095555541
 30
0.0
 10
4.068409529678257
 20
5.571333426589043
 30
0.0
 10
4.068721487349253
 20
5.570614567608051
 30
0.0
 10
4.069135170347749
 20
5.570377208510554
 30
0.0
 10
4.069874374394241
 20
5.569963525512058
 30
0.0
 10
4.073014296169705
 20
5.569651567841063
 30
0.0
 10
4.073821317101197
 20
5.56985501849606
 30
0.0
 10
4.074357070492691
 20
5.569983870577558
 30
0.0
 10
4.074736845048687
 20
5.57068238449305
 30
0.0
 10
4.075272598440181
 20
5.57075698306655
 30
0.0
 10
4.076066055994672
 20
5.570845145017049
 30
0.0
 10
4.077035837450161
 20
5.569990652266059
 30
0.0
 10
4.077903893578151
 20
5.570499278903553
 30
0.0
 10
4.079524717129633
 20
5.571428370228042
 30
0.0
 10
4.082054286940105
 20
5.57429024277501
 30
0.0
 10
4.083091885280593
 20
5.575836467752994
 30
0.0
 10
4.083736145688087
 20
5.576779122454483
 30
0.0
 10
4.083722582311086
 20
5.578359255874966
 30
0.0
 10
4.084210863883081
 20
5.579356164084454
 30
0.0
  0
SPLINE
  5
89
330
6D
100
AcDbEntity
  8
Layer 1
 62
     7
370
     9
100
AcDbSpline
210
0.0
220
0.0
230
1.0
 70
    11
 71
     3
 72
    26
 73
    22
 74
     0
 42
0.0000000001
 43
0.0000000001
 40
0.0
 40
0.0
 40
0.0
 40
0.0
 40
1.0
 40
1.0
 40
1.0
 40
2.0
 40
2.0
 40
2.0
 40
3.0
 40
3.0
 40
3.0
 40
4.0
 40
4.0
 40
4.0
 40
5.0
 40
5.0
 40
5.0
 40
6.0
 40
6.0
 40
6.0
 40
7.0
 40
7.0
 40
7.0
 40
7.0
 10
4.258018758447649
 20
5.710758160458993
 30
0.0
 10
4.258208645725646
 20
5.712718068435471
 30
0.0
 10
4.260392349422622
 20
5.715925807095935
 30
0.0
 10
4.25968705381863
 20
5.717797553121915
 30
0.0
 10
4.25876474418264
 20
5.720211834227888
 30
0.0
 10
4.254580442378186
 20
5.720503446833384
 30
0.0
 10
4.257557603629653
 20
5.723324629249353
 30
0.0
 10
4.258222209102646
 20
5.723962107968347
 30
0.0
 10
4.260256715652623
 20
5.724457171228841
 30
0.0
 10
4.261043391518615
 20
5.72453855149084
 30
0.0
 10
4.264542742784576
 20
5.724931889423836
 30
0.0
 10
4.268177727820535
 20
5.719791369540893
 30
0.0
 10
4.267580939232542
 20
5.716447997110429
 30
0.0
 10
4.267377488577544
 20
5.715173039672444
 30
0.0
 10
4.266441615564554
 20
5.714420272248952
 30
0.0
 10
4.266170348024557
 20
5.713213131695966
 30
0.0
 10
4.26593977061556
 20
5.711985646077479
 30
0.0
 10
4.266468742318554
 20
5.710351259148998
 30
0.0
 10
4.265654939698563
 20
5.709110210153511
 30
0.0
 10
4.262670996758597
 20
5.704573260547062
 30
0.0
 10
4.257625420514652
 20
5.706139830590544
 30
0.0
 10
4.258018758447649
 20
5.710758160458993
 30
0.0
  0
SPLINE
  5
8A
330
6D
100
AcDbEntity
  8
Layer 1
 62
     7
370
     9
100
AcDbSpline
210
0.0
220
0.0
230
1.0
 70
    11
 71
     3
 72
    47
 73
    43
 74
     0
 42
0.0000000001
 43
0.0000000001
 40
0.0
 40
0.0
 40
0.0
 40
0.0
 40
1.0
 40
1.0
 40
1.0
 40
2.0
 40
2.0
 40
2.0
 40
3.0
 40
3.0
 40
3.0
 40
4.0
 40
4.0
 40
4.0
 40
5.0
 40
5.0
 40
5.0
 40
6.0
 40
6.0
 40
6.0
 40
7.0
 40
7.0
 40
7.0
 40
8.0
 40
8.0
 40
8.0
 40
9.0
 40
9.0
 40
9.0
 40
10.0
 40
10.0
 40
10.0
 40
11.0
 40
11.0
 40
11.0
 40
12.0
 40
12.0
 40
12.0
 40
13.0
 40
13.0
 40
13.0
 40
14.0
 40
14.0
 40
14.0
 40
14.0
 10
4.272328121182489
 20
5.711836448930481
 30
0.0
 10
4.272423064821489
 20
5.712514617780474
 30
0.0
 10
4.273060543540481
 20
5.712663814927472
 30
0.0
 10
4.273182613933479
 20
5.713314857023464
 30
0.0
 10
4.273263994195479
 20
5.713613251317462
 30
0.0
 10
4.272843529508483
 20
5.714474525756952
 30
0.0
 10
4.272884219639483
 20
5.714772920050948
 30
0.0
 10
4.273182613933479
 20
5.717207546222421
 30
0.0
 10
4.273399627965477
 20
5.717255018041921
 30
0.0
 10
4.273087670294481
 20
5.719743897721394
 30
0.0
 10
4.273060543540481
 20
5.720164362408388
 30
0.0
 10
4.273494571604476
 20
5.720815404504381
 30
0.0
 10
4.273372501211478
 20
5.721208742437376
 30
0.0
 10
4.272884219639483
 20
5.722849911054358
 30
0.0
 10
4.271853402987494
 20
5.723250030675854
 30
0.0
 10
4.270686952565508
 20
5.724972579554835
 30
0.0
 10
4.270686952565508
 20
5.724972579554835
 30
0.0
 10
4.270361431517511
 20
5.726430642582319
 30
0.0
 10
4.270361431517511
 20
5.726430642582319
 30
0.0
 10
4.267662319494541
 20
5.730411493731775
 30
0.0
 10
4.264257911867579
 20
5.730262296584776
 30
0.0
 10
4.261545236467609
 20
5.730391148666275
 30
0.0
 10
4.260704307093619
 20
5.730438620485774
 30
0.0
 10
4.259741307326629
 20
5.731001500631268
 30
0.0
 10
4.258900377952639
 20
5.730648852829272
 30
0.0
 10
4.257855997923651
 20
5.730194479699777
 30
0.0
 10
4.257584730383653
 20
5.729360332014286
 30
0.0
 10
4.256594603862665
 20
5.728865268753792
 30
0.0
 10
4.254682167705686
 20
5.727895487298302
 30
0.0
 10
4.252640879467208
 20
5.727719163397304
 30
0.0
 10
4.250511429278232
 20
5.724972579554835
 30
0.0
 10
4.244753775741796
 20
5.717492377139418
 30
0.0
 10
4.248436232597255
 20
5.706675583982038
 30
0.0
 10
4.257557603629653
 20
5.701982655540091
 30
0.0
 10
4.259239462377635
 20
5.7011281627891
 30
0.0
 10
4.260962011256615
 20
5.699819296908615
 30
0.0
 10
4.262562489742598
 20
5.700009184186612
 30
0.0
 10
4.264461362522576
 20
5.70022619821861
 30
0.0
 10
4.269262797980523
 20
5.703664514288072
 30
0.0
 10
4.270958220105505
 20
5.70567867577255
 30
0.0
 10
4.272721459115485
 20
5.707767435830526
 30
0.0
 10
4.272083980396492
 20
5.709835850823003
 30
0.0
 10
4.272328121182489
 20
5.711836448930481
 30
0.0
  0
SPLINE
  5
8B
330
6D
100
AcDbEntity
  8
Layer 1
 62
     7
370
     9
100
AcDbSpline
210
0.0
220
0.0
230
1.0
 70
    11
 71
     3
 72
    53
 73
    49
 74
     0
 42
0.0000000001
 43
0.0000000001
 40
0.0
 40
0.0
 40
0.0
 40
0.0
 40
1.0
 40
1.0
 40
1.0
 40
2.0
 40
2.0
 40
2.0
 40
3.0
 40
3.0
 40
3.0
 40
4.0
 40
4.0
 40
4.0
 40
5.0
 40
5.0
 40
5.0
 40
6.0
 40
6.0
 40
6.0
 40
7.0
 40
7.0
 40
7.0
 40
8.0
 40
8.0
 40
8.0
 40
9.0
 40
9.0
 40
9.0
 40
10.0
 40
10.0
 40
10.0
 40
11.0
 40
11.0
 40
11.0
 40
12.0
 40
12.0
 40
12.0
 40
13.0
 40
13.0
 40
13.0
 40
14.0
 40
14.0
 40
14.0
 40
15.0
 40
15.0
 40
15.0
 40
16.0
 40
16.0
 40
16.0
 40
16.0
 10
4.20924485475619
 20
5.605404629612664
 30
0.0
 10
4.20924485475619
 20
5.605404629612664
 30
0.0
 10
4.208654847856697
 20
5.605987854823658
 30
0.0
 10
4.208654847856697
 20
5.605987854823658
 30
0.0
 10
4.208091967711203
 20
5.605960728069658
 30
0.0
 10
4.207468052369211
 20
5.605133362072667
 30
0.0
 10
4.206911953912217
 20
5.605377502858665
 30
0.0
 10
4.206498270913722
 20
5.605560608448163
 30
0.0
 10
4.206477925848222
 20
5.606170960413156
 30
0.0
 10
4.206023552718727
 20
5.606238777298155
 30
0.0
 10
4.206037116095726
 20
5.60672027718165
 30
0.0
 10
4.20565734153973
 20
5.607812129030138
 30
0.0
 10
4.20569803167073
 20
5.608280065536633
 30
0.0
 10
4.205772630244229
 20
5.608890417501626
 30
0.0
 10
4.20664068637222
 20
5.609765255318116
 30
0.0
 10
4.206545742733221
 20
5.610341698840609
 30
0.0
 10
4.206450799094222
 20
5.611074121198602
 30
0.0
 10
4.205684468293731
 20
5.611304698607599
 30
0.0
 10
4.205352165557234
 20
5.61207781109659
 30
0.0
 10
4.205108024771237
 20
5.612694944750084
 30
0.0
 10
4.205501362704232
 20
5.61384105010657
 30
0.0
 10
4.205318257114734
 20
5.614410711940565
 30
0.0
 10
4.204931700870239
 20
5.61578061301755
 30
0.0
 10
4.203276968876257
 20
5.617855809698527
 30
0.0
 10
4.202327532486268
 20
5.619049386874512
 30
0.0
 10
4.203202370302758
 20
5.620690555491494
 30
0.0
 10
4.204077208119248
 20
5.621884132667481
 30
0.0
 10
4.205772630244229
 20
5.62377622375896
 30
0.0
 10
4.206315165324224
 20
5.623538864661463
 30
0.0
 10
4.206701721568719
 20
5.623898294151959
 30
0.0
 10
4.207230693271713
 20
5.624088181429957
 30
0.0
 10
4.207773228351707
 20
5.623070928154968
 30
0.0
 10
4.208505650709699
 20
5.621531484865486
 30
0.0
 10
4.20931945332969
 20
5.620900787834993
 30
0.0
 10
4.209848425032684
 20
5.620514231590496
 30
0.0
 10
4.211252234552169
 20
5.62115171030949
 30
0.0
 10
4.212554318744154
 20
5.619490196627008
 30
0.0
 10
4.212757769399151
 20
5.619232492464011
 30
0.0
 10
4.212723860956652
 20
5.617754084371027
 30
0.0
 10
4.212879839792151
 20
5.617448908388531
 30
0.0
 10
4.21472445906413
 20
5.614010592319069
 30
0.0
 10
4.216786092368107
 20
5.61303402917508
 30
0.0
 10
4.215036416735126
 20
5.609582149728619
 30
0.0
 10
4.214955036473127
 20
5.60940582582762
 30
0.0
 10
4.214005600083138
 20
5.607317065769643
 30
0.0
 10
4.213897093067139
 20
5.607228903819144
 30
0.0
 10
4.212676389137153
 20
5.606021763266158
 30
0.0
 10
4.210574065702176
 20
5.605899692873159
 30
0.0
 10
4.20924485475619
 20
5.605404629612664
 30
0.0
  0
SPLINE
  5
8C
330
6D
100
AcDbEntity
  8
Layer 1
 62
     7
370
     9
100
AcDbSpline
210
0.0
220
0.0
230
1.0
 70
    11
 71
     3
 72
    56
 73
    52
 74
     0
 42
0.0000000001
 43
0.0000000001
 40
0.0
 40
0.0
 40
0.0
 40
0.0
 40
1.0
 40
1.0
 40
1.0
 40
2.0
 40
2.0
 40
2.0
 40
3.0
 40
3.0
 40
3.0
 40
4.0
 40
4.0
 40
4.0
 40
5.0
 40
5.0
 40
5.0
 40
6.0
 40
6.0
 40
6.0
 40
7.0
 40
7.0
 40
7.0
 40
8.0
 40
8.0
 40
8.0
 40
9.0
 40
9.0
 40
9.0
 40
10.0
 40
10.0
 40
10.0
 40
11.0
 40
11.0
 40
11.0
 40
12.0
 40
12.0
 40
12.0
 40
13.0
 40
13.0
 40
13.0
 40
14.0
 40
14.0
 40
14.0
 40
15.0
 40
15.0
 40
15.0
 40
16.0
 40
16.0
 40
16.0
 40
17.0
 40
17.0
 40
17.0
 40
17.0
 10
4.218698528525086
 20
5.619279964283511
 30
0.0
 10
4.218142430068092
 20
5.620615956917995
 30
0.0
 10
4.217233683809102
 20
5.62115171030949
 30
0.0
 10
4.216602986778609
 20
5.622467357878475
 30
0.0
 10
4.216121486895114
 20
5.623511737907463
 30
0.0
 10
4.216433444566111
 20
5.625125779770445
 30
0.0
 10
4.214507445032132
 20
5.626237976684433
 30
0.0
 10
4.214310776065634
 20
5.626353265388931
 30
0.0
 10
4.21286627641515
 20
5.625810730308937
 30
0.0
 10
4.212466156793655
 20
5.625919237324936
 30
0.0
 10
4.212120290680159
 20
5.626014180963935
 30
0.0
 10
4.211855804828661
 20
5.626610969551929
 30
0.0
 10
4.211570973911665
 20
5.626780511764427
 30
0.0
 10
4.210716481160675
 20
5.627289138401921
 30
0.0
 10
4.209495777230688
 20
5.626529589289929
 30
0.0
 10
4.208648066168197
 20
5.626739821633428
 30
0.0
 10
4.207773228351707
 20
5.626943272288425
 30
0.0
 10
4.207807136794207
 20
5.627540060876418
 30
0.0
 10
4.206878045469717
 20
5.627885926989914
 30
0.0
 10
4.204382384101745
 20
5.628835363379904
 30
0.0
 10
4.200977976474783
 20
5.628536969085907
 30
0.0
 10
4.198441624975811
 20
5.625132561458945
 30
0.0
 10
4.198441624975811
 20
5.625132561458945
 30
0.0
 10
4.198170357435814
 20
5.623667716742961
 30
0.0
 10
4.198170357435814
 20
5.623667716742961
 30
0.0
 10
4.195430555281845
 20
5.619381689611009
 30
0.0
 10
4.194101344335859
 20
5.615787394706049
 30
0.0
 10
4.195125379299348
 20
5.611637001344096
 30
0.0
 10
4.195254231380846
 20
5.6111555014606
 30
0.0
 10
4.195925618542339
 20
5.610680783265606
 30
0.0
 10
4.196027343869837
 20
5.610185720005111
 30
0.0
 10
4.196251139590335
 20
5.609229501926622
 30
0.0
 10
4.195884928411339
 20
5.607947762800136
 30
0.0
 10
4.196359646606334
 20
5.606977981344647
 30
0.0
 10
4.197261611176824
 20
5.605235087400167
 30
0.0
 10
4.19858404043431
 20
5.604278869321677
 30
0.0
 10
4.199641983840298
 20
5.602637700704696
 30
0.0
 10
4.200557511787787
 20
5.601247454562211
 30
0.0
 10
4.202592018337764
 20
5.597558216018252
 30
0.0
 10
4.204985954378238
 20
5.59686648379126
 30
0.0
 10
4.206647468060719
 20
5.596391765596265
 30
0.0
 10
4.207976679006705
 20
5.59865006786674
 30
0.0
 10
4.209624629312186
 20
5.599273983208732
 30
0.0
 10
4.210024748933682
 20
5.599423180355731
 30
0.0
 10
4.211265797929168
 20
5.598907772029737
 30
0.0
 10
4.211679480927663
 20
5.599009497357236
 30
0.0
 10
4.213761459297141
 20
5.599545250748729
 30
0.0
 10
4.217640585119098
 20
5.602027348739703
 30
0.0
 10
4.219491986079577
 20
5.604678988943173
 30
0.0
 10
4.221540056006554
 20
5.607581551621141
 30
0.0
 10
4.219993831028571
 20
5.616221422770044
 30
0.0
 10
4.218698528525086
 20
5.619279964283511
 30
0.0
  0
SPLINE
  5
8D
330
6D
100
AcDbEntity
  8
Layer 1
 62
     7
370
     9
100
AcDbSpline
210
0.0
220
0.0
230
1.0
 70
    11
 71
     3
 72
    41
 73
    37
 74
     0
 42
0.0000000001
 43
0.0000000001
 40
0.0
 40
0.0
 40
0.0
 40
0.0
 40
1.0
 40
1.0
 40
1.0
 40
2.0
 40
2.0
 40
2.0
 40
3.0
 40
3.0
 40
3.0
 40
4.0
 40
4.0
 40
4.0
 40
5.0
 40
5.0
 40
5.0
 40
6.0
 40
6.0
 40
6.0
 40
7.0
 40
7.0
 40
7.0
 40
8.0
 40
8.0
 40
8.0
 40
9.0
 40
9.0
 40
9.0
 40
10.0
 40
10.0
 40
10.0
 40
11.0
 40
11.0
 40
11.0
 40
12.0
 40
12.0
 40
12.0
 40
12.0
 10
4.129485416308578
 20
5.479441547415066
 30
0.0
 10
4.128285057444091
 20
5.47903464610507
 30
0.0
 10
4.128949662917083
 20
5.479143153121068
 30
0.0
 10
4.127735740675597
 20
5.479427984038066
 30
0.0
 10
4.123280171331147
 20
5.480485927444054
 30
0.0
 10
4.129159895260582
 20
5.483103659205025
 30
0.0
 10
4.128515634853089
 20
5.48615541902999
 30
0.0
 10
4.12834609264059
 20
5.486955658272982
 30
0.0
 10
4.127681487167598
 20
5.487037038534981
 30
0.0
 10
4.127322057677102
 20
5.487891531285971
 30
0.0
 10
4.126942283121106
 20
5.488827404298961
 30
0.0
 10
4.127247459103603
 20
5.490183741998946
 30
0.0
 10
4.126982973252106
 20
5.491106051634936
 30
0.0
 10
4.126718487400608
 20
5.492041924647925
 30
0.0
 10
4.125999628419616
 20
5.492462389334921
 30
0.0
 10
4.125775832699119
 20
5.49342538910191
 30
0.0
 10
4.125775832699119
 20
5.49342538910191
 30
0.0
 10
4.126060663616116
 20
5.4943070086069
 30
0.0
 10
4.126060663616116
 20
5.4943070086069
 30
0.0
 10
4.125748705945119
 20
5.494876670440894
 30
0.0
 10
4.12478570617813
 20
5.495147937980891
 30
0.0
 10
4.124575473834632
 20
5.495744726568884
 30
0.0
 10
4.124575473834632
 20
5.495778635011384
 30
0.0
 10
4.125138353980126
 20
5.497507965578865
 30
0.0
 10
4.125138353980126
 20
5.497507965578865
 30
0.0
 10
4.129071733310083
 20
5.5032656191153
 30
0.0
 10
4.134897203731518
 20
5.492462389334921
 30
0.0
 10
4.135182034648515
 20
5.490048108228947
 30
0.0
 10
4.135419393746012
 20
5.488122108694969
 30
0.0
 10
4.134320760209024
 20
5.486765770994984
 30
0.0
 10
4.133500175900533
 20
5.484758391199006
 30
0.0
 10
4.133174654852537
 20
5.483944588579015
 30
0.0
 10
4.13289660562404
 20
5.481842265144039
 30
0.0
 10
4.132096366381049
 20
5.480947082262048
 30
0.0
 10
4.131377507400057
 20
5.480119716265058
 30
0.0
 10
4.13020427528957
 20
5.479685688201062
 30
0.0
 10
4.129485416308578
 20
5.479441547415066
 30
0.0
  0
SPLINE
  5
8E
330
6D
100
AcDbEntity
  8
Layer 1
 62
     7
370
     9
100
AcDbSpline
210
0.0
220
0.0
230
1.0
 70
    11
 71
     3
 72
    50
 73
    46
 74
     0
 42
0.0000000001
 43
0.0000000001
 40
0.0
 40
0.0
 40
0.0
 40
0.0
 40
1.0
 40
1.0
 40
1.0
 40
2.0
 40
2.0
 40
2.0
 40
3.0
 40
3.0
 40
3.0
 40
4.0
 40
4.0
 40
4.0
 40
5.0
 40
5.0
 40
5.0
 40
6.0
 40
6.0
 40
6.0
 40
7.0
 40
7.0
 40
7.0
 40
8.0
 40
8.0
 40
8.0
 40
9.0
 40
9.0
 40
9.0
 40
10.0
 40
10.0
 40
10.0
 40
11.0
 40
11.0
 40
11.0
 40
12.0
 40
12.0
 40
12.0
 40
13.0
 40
13.0
 40
13.0
 40
14.0
 40
14.0
 40
14.0
 40
15.0
 40
15.0
 40
15.0
 40
15.0
 10
4.141326244429446
 20
5.48984465757395
 30
0.0
 10
4.141183828970948
 20
5.490631333439941
 30
0.0
 10
4.140410716481957
 20
5.490875474225939
 30
0.0
 10
4.140125885564959
 20
5.49158076982993
 30
0.0
 10
4.139800364516963
 20
5.49248951608892
 30
0.0
 10
4.140356462973957
 20
5.493703438330407
 30
0.0
 10
4.14008519543396
 20
5.494503677573398
 30
0.0
 10
4.138817019684474
 20
5.498457401968854
 30
0.0
 10
4.131370725711557
 20
5.504649083569285
 30
0.0
 10
4.127654360413598
 20
5.505435759435276
 30
0.0
 10
4.125646980617621
 20
5.505876569187771
 30
0.0
 10
4.125165480734125
 20
5.504303217455789
 30
0.0
 10
4.12300890379115
 20
5.503028260017803
 30
0.0
 10
4.12300890379115
 20
5.503028260017803
 30
0.0
 10
4.121842453369163
 20
5.503014696640803
 30
0.0
 10
4.121842453369163
 20
5.503014696640803
 30
0.0
 10
4.120492897357678
 20
5.501855027907316
 30
0.0
 10
4.117658151564709
 20
5.498396366772354
 30
0.0
 10
4.116959637649217
 20
5.496802669974873
 30
0.0
 10
4.116423884257723
 20
5.495548057602386
 30
0.0
 10
4.115637208391732
 20
5.485843461358995
 30
0.0
 10
4.115969511128228
 20
5.484514250413009
 30
0.0
 10
4.116064454767227
 20
5.484188729365012
 30
0.0
 10
4.11669515179772
 20
5.483903898448015
 30
0.0
 10
4.116857912321718
 20
5.483646194285019
 30
0.0
 10
4.117210560123715
 20
5.483090095828024
 30
0.0
 10
4.117129179861715
 20
5.481286166687045
 30
0.0
 10
4.117481827663712
 20
5.480743631607051
 30
0.0
 10
4.118058271186205
 20
5.479848448725061
 30
0.0
 10
4.119245066673692
 20
5.479292350268067
 30
0.0
 10
4.119855418638685
 20
5.478437857517077
 30
0.0
 10
4.119855418638685
 20
5.478437857517077
 30
0.0
 10
4.119868982015684
 20
5.47725784371809
 30
0.0
 10
4.119868982015684
 20
5.47725784371809
 30
0.0
 10
4.121116812699671
 20
5.475169083660113
 30
0.0
 10
4.126013191796616
 20
5.472578478653142
 30
0.0
 10
4.127247459103603
 20
5.472388591375144
 30
0.0
 10
4.12837321939459
 20
5.472239394228145
 30
0.0
 10
4.129614268390077
 20
5.473310901011134
 30
0.0
 10
4.130740028681064
 20
5.47360929530513
 30
0.0
 10
4.132076021315549
 20
5.473975506484126
 30
0.0
 10
4.133723971621031
 20
5.473812745960128
 30
0.0
 10
4.135100654386515
 20
5.475141956906113
 30
0.0
 10
4.137691259393487
 20
5.477596928143086
 30
0.0
 10
4.141712800673941
 20
5.487769460892973
 30
0.0
 10
4.141326244429446
 20
5.48984465757395
 30
0.0
  0
SPLINE
  5
8F
330
6D
100
AcDbEntity
  8
Layer 1
 62
     7
370
     9
100
AcDbSpline
210
0.0
220
0.0
230
1.0
 70
    11
 71
     3
 72
    44
 73
    40
 74
     0
 42
0.0000000001
 43
0.0000000001
 40
0.0
 40
0.0
 40
0.0
 40
0.0
 40
1.0
 40
1.0
 40
1.0
 40
2.0
 40
2.0
 40
2.0
 40
3.0
 40
3.0
 40
3.0
 40
4.0
 40
4.0
 40
4.0
 40
5.0
 40
5.0
 40
5.0
 40
6.0
 40
6.0
 40
6.0
 40
7.0
 40
7.0
 40
7.0
 40
8.0
 40
8.0
 40
8.0
 40
9.0
 40
9.0
 40
9.0
 40
10.0
 40
10.0
 40
10.0
 40
11.0
 40
11.0
 40
11.0
 40
12.0
 40
12.0
 40
12.0
 40
13.0
 40
13.0
 40
13.0
 40
13.0
 10
4.067649980566265
 20
5.367191039364314
 30
0.0
 10
4.067555036927266
 20
5.367652194182308
 30
0.0
 10
4.066971811716273
 20
5.367611504051309
 30
0.0
 10
4.066761579372775
 20
5.368045532115304
 30
0.0
 10
4.066008811949284
 20
5.369700264109286
 30
0.0
 10
4.068612980333255
 20
5.372195925477258
 30
0.0
 10
4.068429874743757
 20
5.373918474356239
 30
0.0
 10
4.068260332531259
 20
5.375722403497218
 30
0.0
 10
4.066592037160278
 20
5.378095994472193
 30
0.0
 10
4.065133974132793
 20
5.380008430629171
 30
0.0
 10
4.065222136083293
 20
5.380198317907169
 30
0.0
 10
4.066537783652278
 20
5.383128007339137
 30
0.0
 10
4.066544565340777
 20
5.383250077732135
 30
0.0
 10
4.066571692094778
 20
5.383345021371134
 30
0.0
 10
4.065730762720786
 20
5.384036753598126
 30
0.0
 10
4.065656164147288
 20
5.384118133860126
 30
0.0
 10
4.066090192211282
 20
5.38466066894012
 30
0.0
 10
4.065595128950788
 20
5.384755612579118
 30
0.0
 10
4.065642600770287
 20
5.385271020905113
 30
0.0
 10
4.067338022895269
 20
5.385908499624105
 30
0.0
 10
4.067785614336263
 20
5.386722302244096
 30
0.0
 10
4.069426782953245
 20
5.386206893918102
 30
0.0
 10
4.071013698062228
 20
5.385718612346108
 30
0.0
 10
4.071461289503223
 20
5.384647105563119
 30
0.0
 10
4.072383599139212
 20
5.383914683205128
 30
0.0
 10
4.072376817450713
 20
5.383846866320129
 30
0.0
 10
4.072105549910716
 20
5.383033063700138
 30
0.0
 10
4.072105549910716
 20
5.383033063700138
 30
0.0
 10
4.072770155383709
 20
5.382042937179149
 30
0.0
 10
4.074180746591693
 20
5.381446148591155
 30
0.0
 10
4.074770753491186
 20
5.380442458693167
 30
0.0
 10
4.074770753491186
 20
5.380442458693167
 30
0.0
 10
4.074791098556686
 20
5.379262444894179
 30
0.0
 10
4.074791098556686
 20
5.379262444894179
 30
0.0
 10
4.073326253840702
 20
5.376169994938214
 30
0.0
 10
4.073427979168201
 20
5.373579389931242
 30
0.0
 10
4.074329943738691
 20
5.370500503352277
 30
0.0
 10
4.070755993899231
 20
5.367340236511312
 30
0.0
 10
4.071244275471226
 20
5.367869208214306
 30
0.0
 10
4.067649980566265
 20
5.367191039364314
 30
0.0
  0
SPLINE
  5
90
330
6D
100
AcDbEntity
  8
Layer 1
 62
     7
370
     9
100
AcDbSpline
210
0.0
220
0.0
230
1.0
 70
    11
 71
     3
 72
    47
 73
    43
 74
     0
 42
0.0000000001
 43
0.0000000001
 40
0.0
 40
0.0
 40
0.0
 40
0.0
 40
1.0
 40
1.0
 40
1.0
 40
2.0
 40
2.0
 40
2.0
 40
3.0
 40
3.0
 40
3.0
 40
4.0
 40
4.0
 40
4.0
 40
5.0
 40
5.0
 40
5.0
 40
6.0
 40
6.0
 40
6.0
 40
7.0
 40
7.0
 40
7.0
 40
8.0
 40
8.0
 40
8.0
 40
9.0
 40
9.0
 40
9.0
 40
10.0
 40
10.0
 40
10.0
 40
11.0
 40
11.0
 40
11.0
 40
12.0
 40
12.0
 40
12.0
 40
13.0
 40
13.0
 40
13.0
 40
14.0
 40
14.0
 40
14.0
 40
14.0
 10
4.082223829152603
 20
5.370310616074279
 30
0.0
 10
4.082766364232597
 20
5.371477066496266
 30
0.0
 10
4.081125195615615
 20
5.373186051998247
 30
0.0
 10
4.080996343534117
 20
5.374393192551233
 30
0.0
 10
4.080847146387119
 20
5.376020797791216
 30
0.0
 10
4.082142448890604
 20
5.377716219916197
 30
0.0
 10
4.081803364465608
 20
5.379370951910178
 30
0.0
 10
4.081308301205113
 20
5.381812359770151
 30
0.0
 10
4.076622154451665
 20
5.390587864689054
 30
0.0
 10
4.072851535645707
 20
5.392106962913037
 30
0.0
 10
4.072153021730215
 20
5.392391793830034
 30
0.0
 10
4.071230712094225
 20
5.391537301079043
 30
0.0
 10
4.070518634801734
 20
5.391496610948043
 30
0.0
 10
4.06992184621374
 20
5.391442357440044
 30
0.0
 10
4.069379311133746
 20
5.392066272782037
 30
0.0
 10
4.068762177480253
 20
5.392052709405037
 30
0.0
 10
4.067297332764269
 20
5.392012019274038
 30
0.0
 10
4.066198699227281
 20
5.39089982236005
 30
0.0
 10
4.064693164380298
 20
5.390235216887057
 30
0.0
 10
4.064340516578302
 20
5.390072456363059
 30
0.0
 10
4.06273325640382
 20
5.389923259216061
 30
0.0
 10
4.062360263536324
 20
5.389611301545064
 30
0.0
 10
4.060380010494346
 20
5.387888752666084
 30
0.0
 10
4.060447827379345
 20
5.384999753365116
 30
0.0
 10
4.059532299431855
 20
5.383141570716136
 30
0.0
 10
4.05823021523987
 20
5.380483148824166
 30
0.0
 10
4.056148236870393
 20
5.378394388766189
 30
0.0
 10
4.055836279199396
 20
5.375790220382218
 30
0.0
 10
4.055836279199396
 20
5.375790220382218
 30
0.0
 10
4.05643306778739
 20
5.375206995171225
 30
0.0
 10
4.05643306778739
 20
5.375206995171225
 30
0.0
 10
4.056134673493394
 20
5.374081234880237
 30
0.0
 10
4.055849842576397
 20
5.372426502886255
 30
0.0
 10
4.056188927001393
 20
5.371395686234266
 30
0.0
 10
4.057260433784381
 20
5.368316799655301
 30
0.0
 10
4.063180847844815
 20
5.362009829350371
 30
0.0
 10
4.066578473783277
 20
5.360734871912386
 30
0.0
 10
4.068836776053752
 20
5.359893942538395
 30
0.0
 10
4.075706626504176
 20
5.362281096890368
 30
0.0
 10
4.077917456955151
 20
5.364695377996341
 30
0.0
 10
4.077964928774651
 20
5.364749631504341
 30
0.0
 10
4.082074632005605
 20
5.369985095026283
 30
0.0
 10
4.082223829152603
 20
5.370310616074279
 30
0.0
  0
SPLINE
  5
91
330
6D
100
AcDbEntity
  8
Layer 1
 62
     7
370
     9
100
AcDbSpline
210
0.0
220
0.0
230
1.0
 70
    11
 71
     3
 72
    20
 73
    16
 74
     0
 42
0.0000000001
 43
0.0000000001
 40
0.0
 40
0.0
 40
0.0
 40
0.0
 40
1.0
 40
1.0
 40
1.0
 40
2.0
 40
2.0
 40
2.0
 40
3.0
 40
3.0
 40
3.0
 40
4.0
 40
4.0
 40
4.0
 40
5.0
 40
5.0
 40
5.0
 40
5.0
 10
4.259578546802631
 20
5.520179150234112
 30
0.0
 10
4.259958321358627
 20
5.521047206362103
 30
0.0
 10
4.261138335157614
 20
5.523787008516072
 30
0.0
 10
4.260975574633616
 20
5.524587247759063
 30
0.0
 10
4.26055510994662
 20
5.526899803537537
 30
0.0
 10
4.25782887116965
 20
5.527822113173527
 30
0.0
 10
4.25971418057263
 20
5.530412718180498
 30
0.0
 10
4.261748687122607
 20
5.533172865399968
 30
0.0
 10
4.266224601532557
 20
5.532921942925471
 30
0.0
 10
4.268204854574535
 20
5.529659950757007
 30
0.0
 10
4.268855896670527
 20
5.528615570728019
 30
0.0
 10
4.268476122114532
 20
5.520884445838105
 30
0.0
 10
4.26777082651054
 20
5.519711213727618
 30
0.0
 10
4.264556306161576
 20
5.514306207993178
 30
0.0
 10
4.262236968694602
 20
5.51680865104965
 30
0.0
 10
4.259578546802631
 20
5.520179150234112
 30
0.0
  0
SPLINE
  5
92
330
6D
100
AcDbEntity
  8
Layer 1
 62
     7
370
     9
100
AcDbSpline
210
0.0
220
0.0
230
1.0
 70
    11
 71
     3
 72
    59
 73
    55
 74
     0
 42
0.0000000001
 43
0.0000000001
 40
0.0
 40
0.0
 40
0.0
 40
0.0
 40
1.0
 40
1.0
 40
1.0
 40
2.0
 40
2.0
 40
2.0
 40
3.0
 40
3.0
 40
3.0
 40
4.0
 40
4.0
 40
4.0
 40
5.0
 40
5.0
 40
5.0
 40
6.0
 40
6.0
 40
6.0
 40
7.0
 40
7.0
 40
7.0
 40
8.0
 40
8.0
 40
8.0
 40
9.0
 40
9.0
 40
9.0
 40
10.0
 40
10.0
 40
10.0
 40
11.0
 40
11.0
 40
11.0
 40
12.0
 40
12.0
 40
12.0
 40
13.0
 40
13.0
 40
13.0
 40
14.0
 40
14.0
 40
14.0
 40
15.0
 40
15.0
 40
15.0
 40
16.0
 40
16.0
 40
16.0
 40
17.0
 40
17.0
 40
17.0
 40
18.0
 40
18.0
 40
18.0
 40
18.0
 10
4.273603078620475
 20
5.52038260088911
 30
0.0
 10
4.273874346160472
 20
5.521610086507597
 30
0.0
 10
4.274633895272464
 20
5.522674811602085
 30
0.0
 10
4.274715275534462
 20
5.523902297220571
 30
0.0
 10
4.274796655796462
 20
5.524600811136063
 30
0.0
 10
4.274226993962468
 20
5.52493989556106
 30
0.0
 10
4.274104923569469
 20
5.525651972853551
 30
0.0
 10
4.27403710668447
 20
5.526323360015044
 30
0.0
 10
4.274525388256465
 20
5.528167979287024
 30
0.0
 10
4.274362627732467
 20
5.528873274891016
 30
0.0
 10
4.27399641655347
 20
5.530528006884997
 30
0.0
 10
4.271907656495494
 20
5.534915759344449
 30
0.0
 10
4.26957475565152
 20
5.536400949125932
 30
0.0
 10
4.269249234603524
 20
5.536617963157929
 30
0.0
 10
4.267662319494541
 20
5.536678998354429
 30
0.0
 10
4.267228291430546
 20
5.536950265894426
 30
0.0
 10
4.266712883104551
 20
5.537296132007922
 30
0.0
 10
4.266360235302556
 20
5.538191314889912
 30
0.0
 10
4.265736319960563
 20
5.53839476554491
 30
0.0
 10
4.265031024356571
 20
5.538638906330907
 30
0.0
 10
4.263376292362588
 20
5.538096371250913
 30
0.0
 10
4.262535362988598
 20
5.538055681119913
 30
0.0
 10
4.260975574633616
 20
5.537981082546414
 30
0.0
 10
4.259144518738636
 20
5.538238786709411
 30
0.0
 10
4.257571167006653
 20
5.537106244729924
 30
0.0
 10
4.256479315158165
 20
5.536306005486933
 30
0.0
 10
4.254838146541184
 20
5.534732653754951
 30
0.0
 10
4.254126069248692
 20
5.533552639955964
 30
0.0
 10
4.253942963659194
 20
5.533233900596467
 30
0.0
 10
4.254037907298192
 20
5.531870781207982
 30
0.0
 10
4.253861583397194
 20
5.531497788340486
 30
0.0
 10
4.2533529567597
 20
5.530385591426499
 30
0.0
 10
4.252606971024709
 20
5.530161795706001
 30
0.0
 10
4.252139034518214
 20
5.529137760742513
 30
0.0
 10
4.251359140340722
 20
5.527388085109532
 30
0.0
 10
4.250864077080228
 20
5.520558924790108
 30
0.0
 10
4.251406612160221
 20
5.518897411107627
 30
0.0
 10
4.25156259099572
 20
5.518456601355132
 30
0.0
 10
4.252369611927211
 20
5.518137861995635
 30
0.0
 10
4.252593407647709
 20
5.517744524062639
 30
0.0
 10
4.252810421679707
 20
5.517391876260644
 30
0.0
 10
4.253176632858702
 20
5.515594728808163
 30
0.0
 10
4.253508935595199
 20
5.515126792301668
 30
0.0
 10
4.256526786977665
 20
5.511057779201714
 30
0.0
 10
4.261843630761605
 20
5.50960649786273
 30
0.0
 10
4.264990334225571
 20
5.509735349944228
 30
0.0
 10
4.265261601765568
 20
5.509735349944228
 30
0.0
 10
4.266278855040556
 20
5.509369138765233
 30
0.0
 10
4.266455178941555
 20
5.509464082404231
 30
0.0
 10
4.267906460280538
 20
5.510230413204723
 30
0.0
 10
4.270239361124513
 20
5.512753201326695
 30
0.0
 10
4.271066727121503
 20
5.513621257454686
 30
0.0
 10
4.273467444850477
 20
5.516130482199658
 30
0.0
 10
4.27311479704848
 20
5.518042918356636
 30
0.0
 10
4.273603078620475
 20
5.52038260088911
 30
0.0
  0
SPLINE
  5
93
330
6D
100
AcDbEntity
  8
Layer 1
 62
     7
370
     9
100
AcDbSpline
210
0.0
220
0.0
230
1.0
 70
    11
 71
     3
 72
    26
 73
    22
 74
     0
 42
0.0000000001
 43
0.0000000001
 40
0.0
 40
0.0
 40
0.0
 40
0.0
 40
1.0
 40
1.0
 40
1.0
 40
2.0
 40
2.0
 40
2.0
 40
3.0
 40
3.0
 40
3.0
 40
4.0
 40
4.0
 40
4.0
 40
5.0
 40
5.0
 40
5.0
 40
6.0
 40
6.0
 40
6.0
 40
7.0
 40
7.0
 40
7.0
 40
7.0
 10
4.126006410108117
 20
5.277781258181308
 30
0.0
 10
4.129688866963575
 20
5.283410059636245
 30
0.0
 10
4.129227712145581
 20
5.288455635880189
 30
0.0
 10
4.123449713543645
 20
5.292945113667139
 30
0.0
 10
4.124887431505629
 20
5.296742859227097
 30
0.0
 10
4.126236987517114
 20
5.297895746272085
 30
0.0
 10
4.130136458404571
 20
5.295684915821109
 30
0.0
 10
4.131580958055054
 20
5.294871113201118
 30
0.0
 10
4.134924330485517
 20
5.292158437801148
 30
0.0
 10
4.135473647254012
 20
5.290490142430167
 30
0.0
 10
4.135907675318006
 20
5.289215184992181
 30
0.0
 10
4.134327541897524
 20
5.286828030640208
 30
0.0
 10
4.134083401111527
 20
5.285498819694222
 30
0.0
 10
4.133886732145029
 20
5.284345932649235
 30
0.0
 10
4.134436048913523
 20
5.282202919083259
 30
0.0
 10
4.133852823702529
 20
5.28111784892327
 30
0.0
 10
4.133506957589033
 20
5.280466806827278
 30
0.0
 10
4.131655556628553
 20
5.278255976376303
 30
0.0
 10
4.131553831301055
 20
5.278161032737303
 30
0.0
 10
4.128739430573586
 20
5.275068582781338
 30
0.0
 10
4.128942881228584
 20
5.276018019171327
 30
0.0
 10
4.126006410108117
 20
5.277781258181308
 30
0.0
  0
SPLINE
  5
94
330
6D
100
AcDbEntity
  8
Layer 1
 62
     7
370
     9
100
AcDbSpline
210
0.0
220
0.0
230
1.0
 70
    11
 71
     3
 72
    50
 73
    46
 74
     0
 42
0.0000000001
 43
0.0000000001
 40
0.0
 40
0.0
 40
0.0
 40
0.0
 40
1.0
 40
1.0
 40
1.0
 40
2.0
 40
2.0
 40
2.0
 40
3.0
 40
3.0
 40
3.0
 40
4.0
 40
4.0
 40
4.0
 40
5.0
 40
5.0
 40
5.0
 40
6.0
 40
6.0
 40
6.0
 40
7.0
 40
7.0
 40
7.0
 40
8.0
 40
8.0
 40
8.0
 40
9.0
 40
9.0
 40
9.0
 40
10.0
 40
10.0
 40
10.0
 40
11.0
 40
11.0
 40
11.0
 40
12.0
 40
12.0
 40
12.0
 40
13.0
 40
13.0
 40
13.0
 40
14.0
 40
14.0
 40
14.0
 40
15.0
 40
15.0
 40
15.0
 40
15.0
 10
4.140315772842957
 20
5.278866328341296
 30
0.0
 10
4.140458188301456
 20
5.279273229651292
 30
0.0
 10
4.139766456074463
 20
5.283342242751246
 30
0.0
 10
4.139942779975462
 20
5.284413749534235
 30
0.0
 10
4.140159794007459
 20
5.285715833726219
 30
0.0
 10
4.141027850135449
 20
5.286651706739209
 30
0.0
 10
4.141061758577949
 20
5.287940227554195
 30
0.0
 10
4.141244864167447
 20
5.292483958849145
 30
0.0
 10
4.136287449874002
 20
5.300540604787055
 30
0.0
 10
4.130638303353565
 20
5.301530731308044
 30
0.0
 10
4.129363345915579
 20
5.301761308717041
 30
0.0
 10
4.127857811068596
 20
5.301001759605049
 30
0.0
 10
4.12655572687661
 20
5.300893252589051
 30
0.0
 10
4.125077318783626
 20
5.300730492065052
 30
0.0
 10
4.121998432204661
 20
5.301747745340041
 30
0.0
 10
4.120709911389676
 20
5.300811872327052
 30
0.0
 10
4.119557024344688
 20
5.299957379576061
 30
0.0
 10
4.118905982248696
 20
5.297014126767095
 30
0.0
 10
4.118438045742201
 20
5.296091817131105
 30
0.0
 10
4.116952855960717
 20
5.293135000945137
 30
0.0
 10
4.115081109934738
 20
5.289784846826175
 30
0.0
 10
4.115352377474735
 20
5.286977227787205
 30
0.0
 10
4.115521919687233
 20
5.285403876055224
 30
0.0
 10
4.116566299716221
 20
5.284549383304233
 30
0.0
 10
4.117163088304214
 20
5.28292177806425
 30
0.0
 10
4.117549644548711
 20
5.281904524789262
 30
0.0
 10
4.117196996746714
 20
5.279924271747285
 30
0.0
 10
4.117508954417711
 20
5.279124032504293
 30
0.0
 10
4.118017581055205
 20
5.277889765197307
 30
0.0
 10
4.119028052641694
 20
5.277523554018311
 30
0.0
 10
4.119889327081184
 20
5.276235033203325
 30
0.0
 10
4.119889327081184
 20
5.276235033203325
 30
0.0
 10
4.120201284752181
 20
5.274770188487342
 30
0.0
 10
4.120201284752181
 20
5.274770188487342
 30
0.0
 10
4.120777728274675
 20
5.27394282249035
 30
0.0
 10
4.122317171564157
 20
5.273264653640358
 30
0.0
 10
4.122568094038654
 20
5.27306120298536
 30
0.0
 10
4.123286953019647
 20
5.272491541151367
 30
0.0
 10
4.125118008914626
 20
5.270185767061393
 30
0.0
 10
4.126704924023609
 20
5.269616105227398
 30
0.0
 10
4.128854719278085
 20
5.268856556115408
 30
0.0
 10
4.13375109837503
 20
5.270674048633387
 30
0.0
 10
4.136009400645505
 20
5.273251090263359
 30
0.0
 10
4.136707914560997
 20
5.274037766129349
 30
0.0
 10
4.14004450530296
 20
5.277944018705306
 30
0.0
 10
4.140315772842957
 20
5.278866328341296
 30
0.0
  0
SPLINE
  5
95
330
6D
100
AcDbEntity
  8
Layer 1
 62
     7
370
     9
100
AcDbSpline
210
0.0
220
0.0
230
1.0
 70
    11
 71
     3
 72
    41
 73
    37
 74
     0
 42
0.0000000001
 43
0.0000000001
 40
0.0
 40
0.0
 40
0.0
 40
0.0
 40
1.0
 40
1.0
 40
1.0
 40
2.0
 40
2.0
 40
2.0
 40
3.0
 40
3.0
 40
3.0
 40
4.0
 40
4.0
 40
4.0
 40
5.0
 40
5.0
 40
5.0
 40
6.0
 40
6.0
 40
6.0
 40
7.0
 40
7.0
 40
7.0
 40
8.0
 40
8.0
 40
8.0
 40
9.0
 40
9.0
 40
9.0
 40
10.0
 40
10.0
 40
10.0
 40
11.0
 40
11.0
 40
11.0
 40
12.0
 40
12.0
 40
12.0
 40
12.0
 10
4.074024767756194
 20
5.17151219938749
 30
0.0
 10
4.073868788920696
 20
5.171430819125491
 30
0.0
 10
4.073244873578704
 20
5.171742776796487
 30
0.0
 10
4.072858317334207
 20
5.17149863601049
 30
0.0
 10
4.072146240041715
 20
5.171959790828485
 30
0.0
 10
4.07176646548572
 20
5.172502325908479
 30
0.0
 10
4.070789902341731
 20
5.172936353972474
 30
0.0
 10
4.072105549910716
 20
5.175391325209446
 30
0.0
 10
4.073000732792706
 20
5.177588592283422
 30
0.0
 10
4.073611084757699
 20
5.179989310012395
 30
0.0
 10
4.073699246708198
 20
5.180287704306392
 30
0.0
 10
4.073950169182695
 20
5.180586098600389
 30
0.0
 10
4.073895915674695
 20
5.180857366140386
 30
0.0
 10
4.0735839580037
 20
5.182620605150366
 30
0.0
 10
4.071508761322723
 20
5.184329590652347
 30
0.0
 10
4.069725177247242
 20
5.186065702908328
 30
0.0
 10
4.06995575465624
 20
5.186553984480322
 30
0.0
 10
4.070274494015736
 20
5.187354223723314
 30
0.0
 10
4.070288057392736
 20
5.187828941918308
 30
0.0
 10
4.073597521380699
 20
5.188805505062297
 30
0.0
 10
4.077239288105159
 20
5.188290096736303
 30
0.0
 10
4.079409428425135
 20
5.183570041540356
 30
0.0
 10
4.079524717129633
 20
5.183339464131358
 30
0.0
 10
4.079043217246139
 20
5.182946126198362
 30
0.0
 10
4.079131379196638
 20
5.182701985412366
 30
0.0
 10
4.079402646736635
 20
5.181996689808373
 30
0.0
 10
4.080135069094626
 20
5.181915309546374
 30
0.0
 10
4.080026562078627
 20
5.181237140696382
 30
0.0
 10
4.079884146620129
 20
5.180233450798393
 30
0.0
 10
4.078609189182144
 20
5.179284014408403
 30
0.0
 10
4.078317576576647
 20
5.178293887887414
 30
0.0
 10
4.078086999167649
 20
5.177493648644424
 30
0.0
 10
4.078866893345141
 20
5.176232254583438
 30
0.0
 10
4.078358266707646
 20
5.175377761832447
 30
0.0
 10
4.077903893578151
 20
5.174591085966456
 30
0.0
 10
4.074926732326684
 20
5.171959790828485
 30
0.0
 10
4.074024767756194
 20
5.17151219938749
 30
0.0
  0
SPLINE
  5
96
330
6D
100
AcDbEntity
  8
Layer 1
 62
     7
370
     9
100
AcDbSpline
210
0.0
220
0.0
230
1.0
 70
    11
 71
     3
 72
    65
 73
    61
 74
     0
 42
0.0000000001
 43
0.0000000001
 40
0.0
 40
0.0
 40
0.0
 40
0.0
 40
1.0
 40
1.0
 40
1.0
 40
2.0
 40
2.0
 40
2.0
 40
3.0
 40
3.0
 40
3.0
 40
4.0
 40
4.0
 40
4.0
 40
5.0
 40
5.0
 40
5.0
 40
6.0
 40
6.0
 40
6.0
 40
7.0
 40
7.0
 40
7.0
 40
8.0
 40
8.0
 40
8.0
 40
9.0
 40
9.0
 40
9.0
 40
10.0
 40
10.0
 40
10.0
 40
11.0
 40
11.0
 40
11.0
 40
12.0
 40
12.0
 40
12.0
 40
13.0
 40
13.0
 40
13.0
 40
14.0
 40
14.0
 40
14.0
 40
15.0
 40
15.0
 40
15.0
 40
16.0
 40
16.0
 40
16.0
 40
17.0
 40
17.0
 40
17.0
 40
18.0
 40
18.0
 40
18.0
 40
19.0
 40
19.0
 40
19.0
 40
20.0
 40
20.0
 40
20.0
 40
20.0
 10
4.084210863883081
 20
5.174862353506453
 30
0.0
 10
4.084889032733074
 20
5.176232254583438
 30
0.0
 10
4.085953757827562
 20
5.17681547979443
 30
0.0
 10
4.086211461990559
 20
5.178117563986416
 30
0.0
 10
4.086564109792555
 20
5.179826549488397
 30
0.0
 10
4.085343405862568
 20
5.181291394204381
 30
0.0
 10
4.084678800389576
 20
5.183054633214361
 30
0.0
 10
4.084651673635577
 20
5.18316314023036
 30
0.0
 10
4.085024666503072
 20
5.183814182326353
 30
0.0
 10
4.084956849618073
 20
5.183949816096352
 30
0.0
 10
4.083030850084095
 20
5.188140899589305
 30
0.0
 10
4.079463681933134
 20
5.193322109603248
 30
0.0
 10
4.074872478818685
 20
5.194325799501236
 30
0.0
 10
4.074458795820189
 20
5.194420743140235
 30
0.0
 10
4.073855225543697
 20
5.193932461568241
 30
0.0
 10
4.073414415791201
 20
5.194013841830239
 30
0.0
 10
4.071691866912221
 20
5.194352926255236
 30
0.0
 10
4.070077825049238
 20
5.195261672514226
 30
0.0
 10
4.068443438120757
 20
5.194230855862237
 30
0.0
 10
4.067649980566265
 20
5.193715447536243
 30
0.0
 10
4.06722273419077
 20
5.192698194261254
 30
0.0
 10
4.066422494947779
 20
5.19215565918126
 30
0.0
 10
4.065744326097787
 20
5.191680940986266
 30
0.0
 10
4.064693164380298
 20
5.191870828264263
 30
0.0
 10
4.063811544875308
 20
5.190650124334277
 30
0.0
 10
4.063289354860814
 20
5.189890575222285
 30
0.0
 10
4.063594530843311
 20
5.187991702442306
 30
0.0
 10
4.063275791483814
 20
5.187150773068316
 30
0.0
 10
4.062929925370318
 20
5.186174209924327
 30
0.0
 10
4.062272101585825
 20
5.186038576154328
 30
0.0
 10
4.06184485521033
 20
5.185075576387339
 30
0.0
 10
4.060237595035848
 20
5.18134564771238
 30
0.0
 10
4.060841165312341
 20
5.179365394670403
 30
0.0
 10
4.061397263769335
 20
5.175716846257443
 30
0.0
 10
4.061478644031334
 20
5.175323508324447
 30
0.0
 10
4.06098358077084
 20
5.174604649343455
 30
0.0
 10
4.061125996229338
 20
5.17425200154146
 30
0.0
 10
4.06186520027583
 20
5.172556579416479
 30
0.0
 10
4.063987868776306
 20
5.170901847422496
 30
0.0
 10
4.065581565573789
 20
5.169342059067514
 30
0.0
 10
4.065113629067294
 20
5.168867340872519
 30
0.0
 10
4.067480438353767
 20
5.166561566782545
 30
0.0
 10
4.067948374860262
 20
5.167049848354539
 30
0.0
 10
4.068409529678257
 20
5.166846397699541
 30
0.0
 10
4.068721487349253
 20
5.166127538718549
 30
0.0
 10
4.069135170347749
 20
5.165883397932553
 30
0.0
 10
4.069874374394241
 20
5.165476496622557
 30
0.0
 10
4.073014296169705
 20
5.165164538951561
 30
0.0
 10
4.073821317101197
 20
5.165367989606558
 30
0.0
 10
4.074357070492691
 20
5.165503623376557
 30
0.0
 10
4.074736845048687
 20
5.166195355603549
 30
0.0
 10
4.075272598440181
 20
5.166263172488548
 30
0.0
 10
4.076066055994672
 20
5.166358116127547
 30
0.0
 10
4.077035837450161
 20
5.165503623376557
 30
0.0
 10
4.077903893578151
 20
5.166019031702551
 30
0.0
 10
4.079524717129633
 20
5.16694134133854
 30
0.0
 10
4.082054286940105
 20
5.169803213885508
 30
0.0
 10
4.083091885280593
 20
5.171349438863492
 30
0.0
 10
4.083736145688087
 20
5.172285311876482
 30
0.0
 10
4.083722582311086
 20
5.173872226985464
 30
0.0
 10
4.084210863883081
 20
5.174862353506453
 30
0.0
  0
SPLINE
  5
97
330
6D
100
AcDbEntity
  8
Layer 1
 62
     7
370
     9
100
AcDbSpline
210
0.0
220
0.0
230
1.0
 70
    11
 71
     3
 72
    26
 73
    22
 74
     0
 42
0.0000000001
 43
0.0000000001
 40
0.0
 40
0.0
 40
0.0
 40
0.0
 40
1.0
 40
1.0
 40
1.0
 40
2.0
 40
2.0
 40
2.0
 40
3.0
 40
3.0
 40
3.0
 40
4.0
 40
4.0
 40
4.0
 40
5.0
 40
5.0
 40
5.0
 40
6.0
 40
6.0
 40
6.0
 40
7.0
 40
7.0
 40
7.0
 40
7.0
 10
4.258018758447649
 20
5.306264349880991
 30
0.0
 10
4.258208645725646
 20
5.308231039545969
 30
0.0
 10
4.260392349422622
 20
5.311445559894934
 30
0.0
 10
4.25968705381863
 20
5.313317305920913
 30
0.0
 10
4.25876474418264
 20
5.315731587026886
 30
0.0
 10
4.254580442378186
 20
5.316016417943883
 30
0.0
 10
4.257557603629653
 20
5.318837600359851
 30
0.0
 10
4.258222209102646
 20
5.319475079078845
 30
0.0
 10
4.260256715652623
 20
5.319963360650839
 30
0.0
 10
4.261043391518615
 20
5.320044740912838
 30
0.0
 10
4.264542742784576
 20
5.320451642222833
 30
0.0
 10
4.268177727820535
 20
5.31529755896289
 30
0.0
 10
4.267580939232542
 20
5.311960968220927
 30
0.0
 10
4.267377488577544
 20
5.310686010782942
 30
0.0
 10
4.266441615564554
 20
5.30992646167095
 30
0.0
 10
4.266170348024557
 20
5.308732884494964
 30
0.0
 10
4.26593977061556
 20
5.307498617187978
 30
0.0
 10
4.266468742318554
 20
5.305857448570996
 30
0.0
 10
4.265654939698563
 20
5.304623181264009
 30
0.0
 10
4.262670996758597
 20
5.30007944996906
 30
0.0
 10
4.257625420514652
 20
5.301652801701042
 30
0.0
 10
4.258018758447649
 20
5.306264349880991
 30
0.0
  0
SPLINE
  5
98
330
6D
100
AcDbEntity
  8
Layer 1
 62
     7
370
     9
100
AcDbSpline
210
0.0
220
0.0
230
1.0
 70
    11
 71
     3
 72
    47
 73
    43
 74
     0
 42
0.0000000001
 43
0.0000000001
 40
0.0
 40
0.0
 40
0.0
 40
0.0
 40
1.0
 40
1.0
 40
1.0
 40
2.0
 40
2.0
 40
2.0
 40
3.0
 40
3.0
 40
3.0
 40
4.0
 40
4.0
 40
4.0
 40
5.0
 40
5.0
 40
5.0
 40
6.0
 40
6.0
 40
6.0
 40
7.0
 40
7.0
 40
7.0
 40
8.0
 40
8.0
 40
8.0
 40
9.0
 40
9.0
 40
9.0
 40
10.0
 40
10.0
 40
10.0
 40
11.0
 40
11.0
 40
11.0
 40
12.0
 40
12.0
 40
12.0
 40
13.0
 40
13.0
 40
13.0
 40
14.0
 40
14.0
 40
14.0
 40
14.0
 10
4.272328121182489
 20
5.307349420040979
 30
0.0
 10
4.272423064821489
 20
5.308027588890972
 30
0.0
 10
4.273060543540481
 20
5.30817678603797
 30
0.0
 10
4.273182613933479
 20
5.308827828133962
 30
0.0
 10
4.273263994195479
 20
5.30912622242796
 30
0.0
 10
4.272843529508483
 20
5.30998071517895
 30
0.0
 10
4.272884219639483
 20
5.310279109472947
 30
0.0
 10
4.273182613933479
 20
5.312720517332919
 30
0.0
 10
4.273399627965477
 20
5.312774770840919
 30
0.0
 10
4.273087670294481
 20
5.315256868831892
 30
0.0
 10
4.273060543540481
 20
5.315677333518886
 30
0.0
 10
4.273494571604476
 20
5.316328375614879
 30
0.0
 10
4.273372501211478
 20
5.316721713547875
 30
0.0
 10
4.272884219639483
 20
5.318362882164856
 30
0.0
 10
4.271853402987494
 20
5.318769783474852
 30
0.0
 10
4.270686952565508
 20
5.320478768976833
 30
0.0
 10
4.270686952565508
 20
5.320478768976833
 30
0.0
 10
4.270361431517511
 20
5.321943613692817
 30
0.0
 10
4.270361431517511
 20
5.321943613692817
 30
0.0
 10
4.267662319494541
 20
5.325931246530772
 30
0.0
 10
4.264257911867579
 20
5.325768486006774
 30
0.0
 10
4.261545236467609
 20
5.325904119776773
 30
0.0
 10
4.260704307093619
 20
5.325958373284772
 30
0.0
 10
4.259741307326629
 20
5.326514471741766
 30
0.0
 10
4.258900377952639
 20
5.32616182393977
 30
0.0
 10
4.257855997923651
 20
5.325714232498775
 30
0.0
 10
4.257584730383653
 20
5.324873303124784
 30
0.0
 10
4.256594603862665
 20
5.324385021552789
 30
0.0
 10
4.254682167705686
 20
5.3234084584088
 30
0.0
 10
4.252640879467208
 20
5.323232134507802
 30
0.0
 10
4.250511429278232
 20
5.320478768976833
 30
0.0
 10
4.244753775741796
 20
5.313005348249916
 30
0.0
 10
4.248436232597255
 20
5.302195336781036
 30
0.0
 10
4.257557603629653
 20
5.297502408339089
 30
0.0
 10
4.259239462377635
 20
5.296634352211099
 30
0.0
 10
4.260962011256615
 20
5.295332268019113
 30
0.0
 10
4.262562489742598
 20
5.29552215529711
 30
0.0
 10
4.264461362522576
 20
5.295739169329108
 30
0.0
 10
4.269262797980523
 20
5.29918426708707
 30
0.0
 10
4.270958220105505
 20
5.301191646883048
 30
0.0
 10
4.272721459115485
 20
5.303280406941024
 30
0.0
 10
4.272083980396492
 20
5.305342040245002
 30
0.0
 10
4.272328121182489
 20
5.307349420040979
 30
0.0
  0
SPLINE
  5
99
330
6D
100
AcDbEntity
  8
Layer 1
 62
     7
370
     9
100
AcDbSpline
210
0.0
220
0.0
230
1.0
 70
    11
 71
     3
 72
    53
 73
    49
 74
     0
 42
0.0000000001
 43
0.0000000001
 40
0.0
 40
0.0
 40
0.0
 40
0.0
 40
1.0
 40
1.0
 40
1.0
 40
2.0
 40
2.0
 40
2.0
 40
3.0
 40
3.0
 40
3.0
 40
4.0
 40
4.0
 40
4.0
 40
5.0
 40
5.0
 40
5.0
 40
6.0
 40
6.0
 40
6.0
 40
7.0
 40
7.0
 40
7.0
 40
8.0
 40
8.0
 40
8.0
 40
9.0
 40
9.0
 40
9.0
 40
10.0
 40
10.0
 40
10.0
 40
11.0
 40
11.0
 40
11.0
 40
12.0
 40
12.0
 40
12.0
 40
13.0
 40
13.0
 40
13.0
 40
14.0
 40
14.0
 40
14.0
 40
15.0
 40
15.0
 40
15.0
 40
16.0
 40
16.0
 40
16.0
 40
16.0
 10
4.20924485475619
 20
5.200917600723162
 30
0.0
 10
4.20924485475619
 20
5.200917600723162
 30
0.0
 10
4.208654847856697
 20
5.201500825934156
 30
0.0
 10
4.208654847856697
 20
5.201500825934156
 30
0.0
 10
4.208091967711203
 20
5.201473699180157
 30
0.0
 10
4.207468052369211
 20
5.200646333183165
 30
0.0
 10
4.206911953912217
 20
5.200890473969163
 30
0.0
 10
4.206498270913722
 20
5.201066797870161
 30
0.0
 10
4.206477925848222
 20
5.201690713212154
 30
0.0
 10
4.206023552718727
 20
5.201744966720153
 30
0.0
 10
4.206037116095726
 20
5.202233248292148
 30
0.0
 10
4.20565734153973
 20
5.203318318452136
 30
0.0
 10
4.20569803167073
 20
5.203793036647131
 30
0.0
 10
4.205772630244229
 20
5.204403388612124
 30
0.0
 10
4.20664068637222
 20
5.205271444740115
 30
0.0
 10
4.206545742733221
 20
5.205854669951108
 30
0.0
 10
4.206450799094222
 20
5.2065870923091
 30
0.0
 10
4.205684468293731
 20
5.206817669718097
 30
0.0
 10
4.205352165557234
 20
5.207590782207088
 30
0.0
 10
4.205108024771237
 20
5.208201134172081
 30
0.0
 10
4.205501362704232
 20
5.209354021217069
 30
0.0
 10
4.205318257114734
 20
5.209923683051063
 30
0.0
 10
4.204931700870239
 20
5.211293584128048
 30
0.0
 10
4.203276968876257
 20
5.213368780809025
 30
0.0
 10
4.202327532486268
 20
5.214562357985011
 30
0.0
 10
4.203202370302758
 20
5.216203526601992
 30
0.0
 10
4.204077208119248
 20
5.217397103777979
 30
0.0
 10
4.205772630244229
 20
5.219295976557959
 30
0.0
 10
4.206315165324224
 20
5.219051835771961
 30
0.0
 10
4.206701721568719
 20
5.219404483573957
 30
0.0
 10
4.207230693271713
 20
5.219594370851955
 30
0.0
 10
4.207773228351707
 20
5.218590680953966
 30
0.0
 10
4.208505650709699
 20
5.217044455975984
 30
0.0
 10
4.20931945332969
 20
5.21642054063399
 30
0.0
 10
4.209848425032684
 20
5.216027202700995
 30
0.0
 10
4.211252234552169
 20
5.216664681419988
 30
0.0
 10
4.212554318744154
 20
5.215009949426006
 30
0.0
 10
4.212757769399151
 20
5.214738681886009
 30
0.0
 10
4.212723860956652
 20
5.213273837170025
 30
0.0
 10
4.212879839792151
 20
5.212961879499029
 30
0.0
 10
4.21472445906413
 20
5.209530345118067
 30
0.0
 10
4.216786092368107
 20
5.208553781974078
 30
0.0
 10
4.215036416735126
 20
5.205095120839117
 30
0.0
 10
4.214955036473127
 20
5.204918796938118
 30
0.0
 10
4.214005600083138
 20
5.202830036880141
 30
0.0
 10
4.213897093067139
 20
5.202748656618143
 30
0.0
 10
4.212676389137153
 20
5.201527952688156
 30
0.0
 10
4.210574065702176
 20
5.201419445672157
 30
0.0
 10
4.20924485475619
 20
5.200917600723162
 30
0.0
  0
SPLINE
  5
9A
330
6D
100
AcDbEntity
  8
Layer 1
 62
     7
370
     9
100
AcDbSpline
210
0.0
220
0.0
230
1.0
 70
    11
 71
     3
 72
    56
 73
    52
 74
     0
 42
0.0000000001
 43
0.0000000001
 40
0.0
 40
0.0
 40
0.0
 40
0.0
 40
1.0
 40
1.0
 40
1.0
 40
2.0
 40
2.0
 40
2.0
 40
3.0
 40
3.0
 40
3.0
 40
4.0
 40
4.0
 40
4.0
 40
5.0
 40
5.0
 40
5.0
 40
6.0
 40
6.0
 40
6.0
 40
7.0
 40
7.0
 40
7.0
 40
8.0
 40
8.0
 40
8.0
 40
9.0
 40
9.0
 40
9.0
 40
10.0
 40
10.0
 40
10.0
 40
11.0
 40
11.0
 40
11.0
 40
12.0
 40
12.0
 40
12.0
 40
13.0
 40
13.0
 40
13.0
 40
14.0
 40
14.0
 40
14.0
 40
15.0
 40
15.0
 40
15.0
 40
16.0
 40
16.0
 40
16.0
 40
17.0
 40
17.0
 40
17.0
 40
17.0
 10
4.218698528525086
 20
5.214792935394009
 30
0.0
 10
4.218142430068092
 20
5.216122146339994
 30
0.0
 10
4.217233683809102
 20
5.216664681419988
 30
0.0
 10
4.216602986778609
 20
5.217980328988973
 30
0.0
 10
4.216121486895114
 20
5.219024709017961
 30
0.0
 10
4.216433444566111
 20
5.220638750880943
 30
0.0
 10
4.214507445032132
 20
5.221750947794931
 30
0.0
 10
4.214310776065634
 20
5.22187301818793
 30
0.0
 10
4.21286627641515
 20
5.221330483107936
 30
0.0
 10
4.212466156793655
 20
5.221438990123935
 30
0.0
 10
4.212120290680159
 20
5.221520370385933
 30
0.0
 10
4.211855804828661
 20
5.222117158973927
 30
0.0
 10
4.211570973911665
 20
5.222293482874925
 30
0.0
 10
4.210716481160675
 20
5.22279532782392
 30
0.0
 10
4.209495777230688
 20
5.222035778711928
 30
0.0
 10
4.208648066168197
 20
5.222252792743926
 30
0.0
 10
4.207773228351707
 20
5.222456243398923
 30
0.0
 10
4.207807136794207
 20
5.223053031986916
 30
0.0
 10
4.206878045469717
 20
5.223392116411913
 30
0.0
 10
4.204382384101745
 20
5.224341552801902
 30
0.0
 10
4.200977976474783
 20
5.224043158507906
 30
0.0
 10
4.198441624975811
 20
5.220652314257944
 30
0.0
 10
4.198441624975811
 20
5.220652314257944
 30
0.0
 10
4.198170357435814
 20
5.21918746954196
 30
0.0
 10
4.198170357435814
 20
5.21918746954196
 30
0.0
 10
4.195430555281845
 20
5.214901442410008
 30
0.0
 10
4.194101344335859
 20
5.211293584128048
 30
0.0
 10
4.195125379299348
 20
5.207143190766094
 30
0.0
 10
4.195254231380846
 20
5.206668472571098
 30
0.0
 10
4.195925618542339
 20
5.206193754376104
 30
0.0
 10
4.196027343869837
 20
5.20570547280411
 30
0.0
 10
4.196251139590335
 20
5.20474247303712
 30
0.0
 10
4.195884928411339
 20
5.203453952222135
 30
0.0
 10
4.196359646606334
 20
5.202490952455145
 30
0.0
 10
4.197261611176824
 20
5.200741276822165
 30
0.0
 10
4.19858404043431
 20
5.199791840432175
 30
0.0
 10
4.199641983840298
 20
5.198150671815194
 30
0.0
 10
4.200557511787787
 20
5.196753643984209
 30
0.0
 10
4.202592018337764
 20
5.19306440544025
 30
0.0
 10
4.204985954378238
 20
5.192386236590258
 30
0.0
 10
4.206647468060719
 20
5.191897955018263
 30
0.0
 10
4.207976679006705
 20
5.194163038977238
 30
0.0
 10
4.209624629312186
 20
5.194786954319231
 30
0.0
 10
4.210024748933682
 20
5.194936151466229
 30
0.0
 10
4.211265797929168
 20
5.194420743140235
 30
0.0
 10
4.211679480927663
 20
5.194529250156234
 30
0.0
 10
4.213761459297141
 20
5.195058221859228
 30
0.0
 10
4.217640585119098
 20
5.197540319850201
 30
0.0
 10
4.219491986079577
 20
5.200198741742171
 30
0.0
 10
4.221540056006554
 20
5.203101304420138
 30
0.0
 10
4.219993831028571
 20
5.211727612192043
 30
0.0
 10
4.218698528525086
 20
5.214792935394009
 30
0.0
  0
SPLINE
  5
9B
330
6D
100
AcDbEntity
  8
Layer 1
 62
     7
370
     9
100
AcDbSpline
210
0.0
220
0.0
230
1.0
 70
    11
 71
     3
 72
    41
 73
    37
 74
     0
 42
0.0000000001
 43
0.0000000001
 40
0.0
 40
0.0
 40
0.0
 40
0.0
 40
1.0
 40
1.0
 40
1.0
 40
2.0
 40
2.0
 40
2.0
 40
3.0
 40
3.0
 40
3.0
 40
4.0
 40
4.0
 40
4.0
 40
5.0
 40
5.0
 40
5.0
 40
6.0
 40
6.0
 40
6.0
 40
7.0
 40
7.0
 40
7.0
 40
8.0
 40
8.0
 40
8.0
 40
9.0
 40
9.0
 40
9.0
 40
10.0
 40
10.0
 40
10.0
 40
11.0
 40
11.0
 40
11.0
 40
12.0
 40
12.0
 40
12.0
 40
12.0
 10
4.129485416308578
 20
5.074954518525564
 30
0.0
 10
4.128285057444091
 20
5.074547617215568
 30
0.0
 10
4.128949662917083
 20
5.074656124231566
 30
0.0
 10
4.127735740675597
 20
5.074940955148564
 30
0.0
 10
4.123280171331147
 20
5.075998898554552
 30
0.0
 10
4.129159895260582
 20
5.078616630315523
 30
0.0
 10
4.128515634853089
 20
5.081668390140488
 30
0.0
 10
4.12834609264059
 20
5.08246862938348
 30
0.0
 10
4.127681487167598
 20
5.082550009645479
 30
0.0
 10
4.127322057677102
 20
5.083404502396469
 30
0.0
 10
4.126942283121106
 20
5.084340375409459
 30
0.0
 10
4.127247459103603
 20
5.085696713109444
 30
0.0
 10
4.126982973252106
 20
5.086619022745434
 30
0.0
 10
4.126718487400608
 20
5.087554895758424
 30
0.0
 10
4.125999628419616
 20
5.087975360445419
 30
0.0
 10
4.125775832699119
 20
5.088938360212408
 30
0.0
 10
4.125775832699119
 20
5.088938360212408
 30
0.0
 10
4.126060663616116
 20
5.089819979717398
 30
0.0
 10
4.126060663616116
 20
5.089819979717398
 30
0.0
 10
4.125748705945119
 20
5.090389641551392
 30
0.0
 10
4.12478570617813
 20
5.090660909091389
 30
0.0
 10
4.124575473834632
 20
5.091257697679382
 30
0.0
 10
4.124575473834632
 20
5.091284824433382
 30
0.0
 10
4.125138353980126
 20
5.093020936689363
 30
0.0
 10
4.125138353980126
 20
5.093020936689363
 30
0.0
 10
4.129071733310083
 20
5.098771808537299
 30
0.0
 10
4.134897203731518
 20
5.087975360445419
 30
0.0
 10
4.135182034648515
 20
5.085561079339446
 30
0.0
 10
4.135419393746012
 20
5.083635079805467
 30
0.0
 10
4.134320760209024
 20
5.082278742105483
 30
0.0
 10
4.133500175900533
 20
5.080271362309504
 30
0.0
 10
4.133174654852537
 20
5.079457559689513
 30
0.0
 10
4.13289660562404
 20
5.077355236254537
 30
0.0
 10
4.132096366381049
 20
5.076460053372546
 30
0.0
 10
4.131377507400057
 20
5.075632687375556
 30
0.0
 10
4.13020427528957
 20
5.07519865931156
 30
0.0
 10
4.129485416308578
 20
5.074954518525564
 30
0.0
  0
SPLINE
  5
9C
330
6D
100
AcDbEntity
  8
Layer 1
 62
     7
370
     9
100
AcDbSpline
210
0.0
220
0.0
230
1.0
 70
    11
 71
     3
 72
    50
 73
    46
 74
     0
 42
0.0000000001
 43
0.0000000001
 40
0.0
 40
0.0
 40
0.0
 40
0.0
 40
1.0
 40
1.0
 40
1.0
 40
2.0
 40
2.0
 40
2.0
 40
3.0
 40
3.0
 40
3.0
 40
4.0
 40
4.0
 40
4.0
 40
5.0
 40
5.0
 40
5.0
 40
6.0
 40
6.0
 40
6.0
 40
7.0
 40
7.0
 40
7.0
 40
8.0
 40
8.0
 40
8.0
 40
9.0
 40
9.0
 40
9.0
 40
10.0
 40
10.0
 40
10.0
 40
11.0
 40
11.0
 40
11.0
 40
12.0
 40
12.0
 40
12.0
 40
13.0
 40
13.0
 40
13.0
 40
14.0
 40
14.0
 40
14.0
 40
15.0
 40
15.0
 40
15.0
 40
15.0
 10
4.141326244429446
 20
5.085357628684448
 30
0.0
 10
4.141183828970948
 20
5.086144304550439
 30
0.0
 10
4.140410716481957
 20
5.086388445336437
 30
0.0
 10
4.140125885564959
 20
5.087093740940428
 30
0.0
 10
4.139800364516963
 20
5.088002487199418
 30
0.0
 10
4.140356462973957
 20
5.089223191129405
 30
0.0
 10
4.14008519543396
 20
5.090009866995396
 30
0.0
 10
4.138817019684474
 20
5.093970373079352
 30
0.0
 10
4.131370725711557
 20
5.100155272991283
 30
0.0
 10
4.127654360413598
 20
5.100941948857274
 30
0.0
 10
4.125646980617621
 20
5.101389540298269
 30
0.0
 10
4.125165480734125
 20
5.099816188566287
 30
0.0
 10
4.12300890379115
 20
5.098541231128301
 30
0.0
 10
4.12300890379115
 20
5.098541231128301
 30
0.0
 10
4.121842453369163
 20
5.098527667751301
 30
0.0
 10
4.121842453369163
 20
5.098527667751301
 30
0.0
 10
4.120492897357678
 20
5.097361217329314
 30
0.0
 10
4.117658151564709
 20
5.093916119571353
 30
0.0
 10
4.116959637649217
 20
5.092315641085371
 30
0.0
 10
4.116423884257723
 20
5.091067810401384
 30
0.0
 10
4.115637208391732
 20
5.081356432469493
 30
0.0
 10
4.115969511128228
 20
5.080027221523507
 30
0.0
 10
4.116064454767227
 20
5.079701700475511
 30
0.0
 10
4.11669515179772
 20
5.079416869558514
 30
0.0
 10
4.116857912321718
 20
5.079159165395517
 30
0.0
 10
4.117210560123715
 20
5.078603066938523
 30
0.0
 10
4.117129179861715
 20
5.076799137797543
 30
0.0
 10
4.117481827663712
 20
5.076256602717549
 30
0.0
 10
4.118058271186205
 20
5.075361419835559
 30
0.0
 10
4.119245066673692
 20
5.074805321378565
 30
0.0
 10
4.119855418638685
 20
5.073950828627575
 30
0.0
 10
4.119855418638685
 20
5.073950828627575
 30
0.0
 10
4.119868982015684
 20
5.072770814828588
 30
0.0
 10
4.119868982015684
 20
5.072770814828588
 30
0.0
 10
4.121116812699671
 20
5.070682054770611
 30
0.0
 10
4.126013191796616
 20
5.06809144976364
 30
0.0
 10
4.127247459103603
 20
5.067901562485642
 30
0.0
 10
4.12837321939459
 20
5.067752365338643
 30
0.0
 10
4.129614268390077
 20
5.068823872121632
 30
0.0
 10
4.130740028681064
 20
5.069122266415628
 30
0.0
 10
4.132076021315549
 20
5.069488477594624
 30
0.0
 10
4.133723971621031
 20
5.069325717070626
 30
0.0
 10
4.135100654386515
 20
5.070654928016611
 30
0.0
 10
4.137691259393487
 20
5.073109899253584
 30
0.0
 10
4.141712800673941
 20
5.083282432003471
 30
0.0
 10
4.141326244429446
 20
5.085357628684448
 30
0.0
  0
SPLINE
  5
9D
330
6D
100
AcDbEntity
  8
Layer 1
 62
     7
370
     9
100
AcDbSpline
210
0.0
220
0.0
230
1.0
 70
    11
 71
     3
 72
    41
 73
    37
 74
     0
 42
0.0000000001
 43
0.0000000001
 40
0.0
 40
0.0
 40
0.0
 40
0.0
 40
1.0
 40
1.0
 40
1.0
 40
2.0
 40
2.0
 40
2.0
 40
3.0
 40
3.0
 40
3.0
 40
4.0
 40
4.0
 40
4.0
 40
5.0
 40
5.0
 40
5.0
 40
6.0
 40
6.0
 40
6.0
 40
7.0
 40
7.0
 40
7.0
 40
8.0
 40
8.0
 40
8.0
 40
9.0
 40
9.0
 40
9.0
 40
10.0
 40
10.0
 40
10.0
 40
11.0
 40
11.0
 40
11.0
 40
12.0
 40
12.0
 40
12.0
 40
12.0
 10
4.185800557611952
 20
4.985422666949559
 30
0.0
 10
4.184600198747464
 20
4.985015765639564
 30
0.0
 10
4.185264804220457
 20
4.985124272655562
 30
0.0
 10
4.184050881978971
 20
4.985409103572559
 30
0.0
 10
4.17959531263452
 20
4.986467046978548
 30
0.0
 10
4.185475036563955
 20
4.989084778739518
 30
0.0
 10
4.184830776156463
 20
4.992136538564484
 30
0.0
 10
4.184661233943964
 20
4.992936777807476
 30
0.0
 10
4.183996628470972
 20
4.993018158069475
 30
0.0
 10
4.183637198980476
 20
4.993872650820465
 30
0.0
 10
4.18325742442448
 20
4.994808523833455
 30
0.0
 10
4.183562600406976
 20
4.99616486153344
 30
0.0
 10
4.18329811455548
 20
4.997087171169429
 30
0.0
 10
4.183033628703982
 20
4.998023044182419
 30
0.0
 10
4.18231476972299
 20
4.998443508869414
 30
0.0
 10
4.182090974002493
 20
4.999406508636404
 30
0.0
 10
4.182090974002493
 20
4.999406508636404
 30
0.0
 10
4.18237580491949
 20
5.000288128141394
 30
0.0
 10
4.18237580491949
 20
5.000288128141394
 30
0.0
 10
4.182063847248493
 20
5.000857789975387
 30
0.0
 10
4.181100847481504
 20
5.001129057515384
 30
0.0
 10
4.180890615138006
 20
5.001725846103378
 30
0.0
 10
4.180890615138006
 20
5.001752972857378
 30
0.0
 10
4.1814534952835
 20
5.003489085113358
 30
0.0
 10
4.1814534952835
 20
5.003489085113358
 30
0.0
 10
4.185386874613456
 20
5.009239956961294
 30
0.0
 10
4.191212345034892
 20
4.998443508869414
 30
0.0
 10
4.191497175951888
 20
4.996029227763441
 30
0.0
 10
4.191734535049386
 20
4.994103228229463
 30
0.0
 10
4.190635901512398
 20
4.992746890529478
 30
0.0
 10
4.189815317203907
 20
4.9907395107335
 30
0.0
 10
4.18948979615591
 20
4.989925708113509
 30
0.0
 10
4.189211746927414
 20
4.987823384678532
 30
0.0
 10
4.188411507684422
 20
4.986928201796542
 30
0.0
 10
4.187692648703431
 20
4.986100835799552
 30
0.0
 10
4.186519416592944
 20
4.985666807735557
 30
0.0
 10
4.185800557611952
 20
4.985422666949559
 30
0.0
  0
SPLINE
  5
9E
330
6D
100
AcDbEntity
  8
Layer 1
 62
     7
370
     9
100
AcDbSpline
210
0.0
220
0.0
230
1.0
 70
    11
 71
     3
 72
    50
 73
    46
 74
     0
 42
0.0000000001
 43
0.0000000001
 40
0.0
 40
0.0
 40
0.0
 40
0.0
 40
1.0
 40
1.0
 40
1.0
 40
2.0
 40
2.0
 40
2.0
 40
3.0
 40
3.0
 40
3.0
 40
4.0
 40
4.0
 40
4.0
 40
5.0
 40
5.0
 40
5.0
 40
6.0
 40
6.0
 40
6.0
 40
7.0
 40
7.0
 40
7.0
 40
8.0
 40
8.0
 40
8.0
 40
9.0
 40
9.0
 40
9.0
 40
10.0
 40
10.0
 40
10.0
 40
11.0
 40
11.0
 40
11.0
 40
12.0
 40
12.0
 40
12.0
 40
13.0
 40
13.0
 40
13.0
 40
14.0
 40
14.0
 40
14.0
 40
15.0
 40
15.0
 40
15.0
 40
15.0
 10
4.19764138573282
 20
4.995825777108443
 30
0.0
 10
4.197498970274322
 20
4.996612452974435
 30
0.0
 10
4.19672585778533
 20
4.996856593760432
 30
0.0
 10
4.196441026868333
 20
4.997561889364424
 30
0.0
 10
4.196115505820337
 20
4.998470635623414
 30
0.0
 10
4.196671604277331
 20
4.999691339553401
 30
0.0
 10
4.196400336737334
 20
5.000478015419391
 30
0.0
 10
4.195132160987848
 20
5.004438521503348
 30
0.0
 10
4.18768586701493
 20
5.010623421415279
 30
0.0
 10
4.183969501716971
 20
5.01141009728127
 30
0.0
 10
4.181962121920994
 20
5.011857688722265
 30
0.0
 10
4.181480622037499
 20
5.010284336990282
 30
0.0
 10
4.179324045094523
 20
5.009009379552297
 30
0.0
 10
4.179324045094523
 20
5.009009379552297
 30
0.0
 10
4.178157594672537
 20
5.008995816175297
 30
0.0
 10
4.178157594672537
 20
5.008995816175297
 30
0.0
 10
4.176808038661052
 20
5.00782936575331
 30
0.0
 10
4.173973292868083
 20
5.004384267995349
 30
0.0
 10
4.173274778952591
 20
5.002783789509366
 30
0.0
 10
4.172739025561096
 20
5.00153595882538
 30
0.0
 10
4.171952349695105
 20
4.991824580893488
 30
0.0
 10
4.172284652431602
 20
4.990495369947503
 30
0.0
 10
4.1723795960706
 20
4.990169848899506
 30
0.0
 10
4.173010293101093
 20
4.98988501798251
 30
0.0
 10
4.173173053625092
 20
4.989627313819512
 30
0.0
 10
4.173525701427088
 20
4.989071215362519
 30
0.0
 10
4.173444321165089
 20
4.987267286221539
 30
0.0
 10
4.173796968967085
 20
4.986724751141544
 30
0.0
 10
4.174373412489579
 20
4.985829568259555
 30
0.0
 10
4.175560207977065
 20
4.985273469802561
 30
0.0
 10
4.176170559942059
 20
4.98441897705157
 30
0.0
 10
4.176170559942059
 20
4.98441897705157
 30
0.0
 10
4.176184123319058
 20
4.983238963252584
 30
0.0
 10
4.176184123319058
 20
4.983238963252584
 30
0.0
 10
4.177431954003045
 20
4.981150203194606
 30
0.0
 10
4.18232833309999
 20
4.978559598187635
 30
0.0
 10
4.183562600406976
 20
4.978369710909638
 30
0.0
 10
4.184688360697964
 20
4.978220513762639
 30
0.0
 10
4.18592940969345
 20
4.979292020545628
 30
0.0
 10
4.187055169984437
 20
4.979590414839624
 30
0.0
 10
4.188391162618923
 20
4.97995662601862
 30
0.0
 10
4.190039112924405
 20
4.979793865494622
 30
0.0
 10
4.191415795689889
 20
4.981123076440607
 30
0.0
 10
4.194006400696861
 20
4.98357804767758
 30
0.0
 10
4.198027941977315
 20
4.993750580427466
 30
0.0
 10
4.19764138573282
 20
4.995825777108443
 30
0.0
  0
SPLINE
  5
9F
330
6D
100
AcDbEntity
  8
Layer 1
 62
     7
370
     9
100
AcDbSpline
210
0.0
220
0.0
230
1.0
 70
    11
 71
     3
 72
    41
 73
    37
 74
     0
 42
0.0000000001
 43
0.0000000001
 40
0.0
 40
0.0
 40
0.0
 40
0.0
 40
1.0
 40
1.0
 40
1.0
 40
2.0
 40
2.0
 40
2.0
 40
3.0
 40
3.0
 40
3.0
 40
4.0
 40
4.0
 40
4.0
 40
5.0
 40
5.0
 40
5.0
 40
6.0
 40
6.0
 40
6.0
 40
7.0
 40
7.0
 40
7.0
 40
8.0
 40
8.0
 40
8.0
 40
9.0
 40
9.0
 40
9.0
 40
10.0
 40
10.0
 40
10.0
 40
11.0
 40
11.0
 40
11.0
 40
12.0
 40
12.0
 40
12.0
 40
12.0
 10
4.185800557611952
 20
4.86042258451895
 30
0.0
 10
4.184600198747464
 20
4.860015683208954
 30
0.0
 10
4.185264804220457
 20
4.860124190224952
 30
0.0
 10
4.184050881978971
 20
4.860409021141949
 30
0.0
 10
4.17959531263452
 20
4.861466964547938
 30
0.0
 10
4.185475036563955
 20
4.864084696308908
 30
0.0
 10
4.184830776156463
 20
4.867136456133874
 30
0.0
 10
4.184661233943964
 20
4.867936695376866
 30
0.0
 10
4.183996628470972
 20
4.868018075638865
 30
0.0
 10
4.183637198980476
 20
4.868872568389855
 30
0.0
 10
4.18325742442448
 20
4.869808441402845
 30
0.0
 10
4.183562600406976
 20
4.87116477910283
 30
0.0
 10
4.18329811455548
 20
4.87208708873882
 30
0.0
 10
4.183033628703982
 20
4.87302296175181
 30
0.0
 10
4.18231476972299
 20
4.873443426438804
 30
0.0
 10
4.182090974002493
 20
4.874406426205794
 30
0.0
 10
4.182090974002493
 20
4.874406426205794
 30
0.0
 10
4.18237580491949
 20
4.875288045710784
 30
0.0
 10
4.18237580491949
 20
4.875288045710784
 30
0.0
 10
4.182063847248493
 20
4.875857707544777
 30
0.0
 10
4.181100847481504
 20
4.876128975084774
 30
0.0
 10
4.180890615138006
 20
4.876725763672768
 30
0.0
 10
4.180890615138006
 20
4.876752890426768
 30
0.0
 10
4.1814534952835
 20
4.878489002682748
 30
0.0
 10
4.1814534952835
 20
4.878489002682748
 30
0.0
 10
4.185386874613456
 20
4.884239874530684
 30
0.0
 10
4.191212345034892
 20
4.873443426438804
 30
0.0
 10
4.191497175951888
 20
4.871029145332831
 30
0.0
 10
4.191734535049386
 20
4.869103145798853
 30
0.0
 10
4.190635901512398
 20
4.867746808098868
 30
0.0
 10
4.189815317203907
 20
4.865739428302891
 30
0.0
 10
4.18948979615591
 20
4.864925625682899
 30
0.0
 10
4.189211746927414
 20
4.862823302247922
 30
0.0
 10
4.188411507684422
 20
4.861928119365932
 30
0.0
 10
4.187692648703431
 20
4.861100753368942
 30
0.0
 10
4.186519416592944
 20
4.860666725304947
 30
0.0
 10
4.185800557611952
 20
4.86042258451895
 30
0.0
  0
SPLINE
  5
A0
330
6D
100
AcDbEntity
  8
Layer 1
 62
     7
370
     9
100
AcDbSpline
210
0.0
220
0.0
230
1.0
 70
    11
 71
     3
 72
    50
 73
    46
 74
     0
 42
0.0000000001
 43
0.0000000001
 40
0.0
 40
0.0
 40
0.0
 40
0.0
 40
1.0
 40
1.0
 40
1.0
 40
2.0
 40
2.0
 40
2.0
 40
3.0
 40
3.0
 40
3.0
 40
4.0
 40
4.0
 40
4.0
 40
5.0
 40
5.0
 40
5.0
 40
6.0
 40
6.0
 40
6.0
 40
7.0
 40
7.0
 40
7.0
 40
8.0
 40
8.0
 40
8.0
 40
9.0
 40
9.0
 40
9.0
 40
10.0
 40
10.0
 40
10.0
 40
11.0
 40
11.0
 40
11.0
 40
12.0
 40
12.0
 40
12.0
 40
13.0
 40
13.0
 40
13.0
 40
14.0
 40
14.0
 40
14.0
 40
15.0
 40
15.0
 40
15.0
 40
15.0
 10
4.19764138573282
 20
4.870825694677833
 30
0.0
 10
4.197498970274322
 20
4.871612370543825
 30
0.0
 10
4.19672585778533
 20
4.871856511329822
 30
0.0
 10
4.196441026868333
 20
4.872561806933814
 30
0.0
 10
4.196115505820337
 20
4.873470553192804
 30
0.0
 10
4.196671604277331
 20
4.874691257122791
 30
0.0
 10
4.196400336737334
 20
4.875477932988781
 30
0.0
 10
4.195132160987848
 20
4.879438439072738
 30
0.0
 10
4.18768586701493
 20
4.885623338984669
 30
0.0
 10
4.183969501716971
 20
4.88641001485066
 30
0.0
 10
4.181962121920994
 20
4.886857606291655
 30
0.0
 10
4.181480622037499
 20
4.885284254559672
 30
0.0
 10
4.179324045094523
 20
4.884009297121687
 30
0.0
 10
4.179324045094523
 20
4.884009297121687
 30
0.0
 10
4.178157594672537
 20
4.883995733744687
 30
0.0
 10
4.178157594672537
 20
4.883995733744687
 30
0.0
 10
4.176808038661052
 20
4.8828292833227
 30
0.0
 10
4.173973292868083
 20
4.879384185564739
 30
0.0
 10
4.173274778952591
 20
4.877783707078756
 30
0.0
 10
4.172739025561096
 20
4.87653587639477
 30
0.0
 10
4.171952349695105
 20
4.866824498462878
 30
0.0
 10
4.172284652431602
 20
4.865495287516893
 30
0.0
 10
4.1723795960706
 20
4.865169766468896
 30
0.0
 10
4.173010293101093
 20
4.8648849355519
 30
0.0
 10
4.173173053625092
 20
4.864627231388902
 30
0.0
 10
4.173525701427088
 20
4.864071132931909
 30
0.0
 10
4.173444321165089
 20
4.862267203790929
 30
0.0
 10
4.173796968967085
 20
4.861724668710934
 30
0.0
 10
4.174373412489579
 20
4.860829485828945
 30
0.0
 10
4.175560207977065
 20
4.860273387371951
 30
0.0
 10
4.176170559942059
 20
4.85941889462096
 30
0.0
 10
4.176170559942059
 20
4.85941889462096
 30
0.0
 10
4.176184123319058
 20
4.858238880821974
 30
0.0
 10
4.176184123319058
 20
4.858238880821974
 30
0.0
 10
4.177431954003045
 20
4.856150120763997
 30
0.0
 10
4.18232833309999
 20
4.853559515757025
 30
0.0
 10
4.183562600406976
 20
4.853369628479028
 30
0.0
 10
4.184688360697964
 20
4.853220431332029
 30
0.0
 10
4.18592940969345
 20
4.854291938115018
 30
0.0
 10
4.187055169984437
 20
4.854590332409014
 30
0.0
 10
4.188391162618923
 20
4.85495654358801
 30
0.0
 10
4.190039112924405
 20
4.854793783064012
 30
0.0
 10
4.191415795689889
 20
4.856122994009997
 30
0.0
 10
4.194006400696861
 20
4.85857796524697
 30
0.0
 10
4.198027941977315
 20
4.868750497996857
 30
0.0
 10
4.19764138573282
 20
4.870825694677833
 30
0.0
  0
SPLINE
  5
A1
330
6D
100
AcDbEntity
  8
Layer 1
 62
     7
370
     9
100
AcDbSpline
210
0.0
220
0.0
230
1.0
 70
    11
 71
     3
 72
    20
 73
    16
 74
     0
 42
0.0000000001
 43
0.0000000001
 40
0.0
 40
0.0
 40
0.0
 40
0.0
 40
1.0
 40
1.0
 40
1.0
 40
2.0
 40
2.0
 40
2.0
 40
3.0
 40
3.0
 40
3.0
 40
4.0
 40
4.0
 40
4.0
 40
5.0
 40
5.0
 40
5.0
 40
5.0
 10
4.259578546802631
 20
5.115698903033111
 30
0.0
 10
4.259958321358627
 20
5.116566959161101
 30
0.0
 10
4.261138335157614
 20
5.119306761315071
 30
0.0
 10
4.260975574633616
 20
5.120093437181062
 30
0.0
 10
4.26055510994662
 20
5.122412774648036
 30
0.0
 10
4.25782887116965
 20
5.123335084284025
 30
0.0
 10
4.25971418057263
 20
5.125925689290996
 30
0.0
 10
4.261748687122607
 20
5.128692618198966
 30
0.0
 10
4.266224601532557
 20
5.128434914035969
 30
0.0
 10
4.268204854574535
 20
5.125166140179005
 30
0.0
 10
4.268855896670527
 20
5.124135323527017
 30
0.0
 10
4.268476122114532
 20
5.116404198637103
 30
0.0
 10
4.26777082651054
 20
5.115224184838116
 30
0.0
 10
4.264556306161576
 20
5.109812397415176
 30
0.0
 10
4.262236968694602
 20
5.112321622160148
 30
0.0
 10
4.259578546802631
 20
5.115698903033111
 30
0.0
  0
SPLINE
  5
A2
330
6D
100
AcDbEntity
  8
Layer 1
 62
     7
370
     9
100
AcDbSpline
210
0.0
220
0.0
230
1.0
 70
    11
 71
     3
 72
    59
 73
    55
 74
     0
 42
0.0000000001
 43
0.0000000001
 40
0.0
 40
0.0
 40
0.0
 40
0.0
 40
1.0
 40
1.0
 40
1.0
 40
2.0
 40
2.0
 40
2.0
 40
3.0
 40
3.0
 40
3.0
 40
4.0
 40
4.0
 40
4.0
 40
5.0
 40
5.0
 40
5.0
 40
6.0
 40
6.0
 40
6.0
 40
7.0
 40
7.0
 40
7.0
 40
8.0
 40
8.0
 40
8.0
 40
9.0
 40
9.0
 40
9.0
 40
10.0
 40
10.0
 40
10.0
 40
11.0
 40
11.0
 40
11.0
 40
12.0
 40
12.0
 40
12.0
 40
13.0
 40
13.0
 40
13.0
 40
14.0
 40
14.0
 40
14.0
 40
15.0
 40
15.0
 40
15.0
 40
16.0
 40
16.0
 40
16.0
 40
17.0
 40
17.0
 40
17.0
 40
18.0
 40
18.0
 40
18.0
 40
18.0
 10
4.273603078620475
 20
5.115888790311108
 30
0.0
 10
4.273874346160472
 20
5.117123057618095
 30
0.0
 10
4.274633895272464
 20
5.118194564401082
 30
0.0
 10
4.274715275534462
 20
5.119415268331069
 30
0.0
 10
4.274796655796462
 20
5.120120563935061
 30
0.0
 10
4.274226993962468
 20
5.120446084983057
 30
0.0
 10
4.274104923569469
 20
5.121164943964049
 30
0.0
 10
4.27403710668447
 20
5.121829549437043
 30
0.0
 10
4.274525388256465
 20
5.123674168709021
 30
0.0
 10
4.274362627732467
 20
5.124379464313014
 30
0.0
 10
4.27399641655347
 20
5.126034196306995
 30
0.0
 10
4.271907656495494
 20
5.130428730454947
 30
0.0
 10
4.26957475565152
 20
5.13192070192493
 30
0.0
 10
4.269249234603524
 20
5.132137715956928
 30
0.0
 10
4.267662319494541
 20
5.132191969464927
 30
0.0
 10
4.267228291430546
 20
5.132463237004924
 30
0.0
 10
4.266712883104551
 20
5.13281588480692
 30
0.0
 10
4.266360235302556
 20
5.13371106768891
 30
0.0
 10
4.265736319960563
 20
5.133900954966908
 30
0.0
 10
4.265031024356571
 20
5.134145095752905
 30
0.0
 10
4.263376292362588
 20
5.133602560672911
 30
0.0
 10
4.262535362988598
 20
5.133575433918912
 30
0.0
 10
4.260975574633616
 20
5.133494053656913
 30
0.0
 10
4.259144518738636
 20
5.133751757819909
 30
0.0
 10
4.257571167006653
 20
5.132625997528923
 30
0.0
 10
4.256479315158165
 20
5.131812194908931
 30
0.0
 10
4.254838146541184
 20
5.130238843176949
 30
0.0
 10
4.254126069248692
 20
5.129072392754962
 30
0.0
 10
4.253942963659194
 20
5.128746871706965
 30
0.0
 10
4.254037907298192
 20
5.12739053400698
 30
0.0
 10
4.253861583397194
 20
5.127010759450984
 30
0.0
 10
4.2533529567597
 20
5.125898562536997
 30
0.0
 10
4.252606971024709
 20
5.125681548505
 30
0.0
 10
4.252139034518214
 20
5.124650731853011
 30
0.0
 10
4.251359140340722
 20
5.12290105622003
 30
0.0
 10
4.250864077080228
 20
5.116078677589107
 30
0.0
 10
4.251406612160221
 20
5.114410382218125
 30
0.0
 10
4.25156259099572
 20
5.11396279077713
 30
0.0
 10
4.252369611927211
 20
5.113650833106133
 30
0.0
 10
4.252593407647709
 20
5.113257495173137
 30
0.0
 10
4.252810421679707
 20
5.112904847371142
 30
0.0
 10
4.253176632858702
 20
5.111114481607161
 30
0.0
 10
4.253508935595199
 20
5.110639763412166
 30
0.0
 10
4.256526786977665
 20
5.106570750312212
 30
0.0
 10
4.261843630761605
 20
5.105119468973228
 30
0.0
 10
4.264990334225571
 20
5.105255102743227
 30
0.0
 10
4.265261601765568
 20
5.105255102743227
 30
0.0
 10
4.266278855040556
 20
5.104875328187231
 30
0.0
 10
4.266455178941555
 20
5.10498383520323
 30
0.0
 10
4.267906460280538
 20
5.105743384315221
 30
0.0
 10
4.270239361124513
 20
5.108266172437193
 30
0.0
 10
4.271066727121503
 20
5.109134228565184
 30
0.0
 10
4.273467444850477
 20
5.111643453310156
 30
0.0
 10
4.27311479704848
 20
5.113555889467135
 30
0.0
 10
4.273603078620475
 20
5.115888790311108
 30
0.0
  0
SPLINE
  5
A3
330
6D
100
AcDbEntity
  8
Layer 1
 62
     7
370
     9
100
AcDbSpline
210
0.0
220
0.0
230
1.0
 70
    11
 71
     3
 72
    47
 73
    43
 74
     0
 42
0.0000000001
 43
0.0000000001
 40
0.0
 40
0.0
 40
0.0
 40
0.0
 40
1.0
 40
1.0
 40
1.0
 40
2.0
 40
2.0
 40
2.0
 40
3.0
 40
3.0
 40
3.0
 40
4.0
 40
4.0
 40
4.0
 40
5.0
 40
5.0
 40
5.0
 40
6.0
 40
6.0
 40
6.0
 40
7.0
 40
7.0
 40
7.0
 40
8.0
 40
8.0
 40
8.0
 40
9.0
 40
9.0
 40
9.0
 40
10.0
 40
10.0
 40
10.0
 40
11.0
 40
11.0
 40
11.0
 40
12.0
 40
12.0
 40
12.0
 40
13.0
 40
13.0
 40
13.0
 40
14.0
 40
14.0
 40
14.0
 40
14.0
 10
4.208275073300701
 20
5.407487832430865
 30
0.0
 10
4.208153002907703
 20
5.407420015545866
 30
0.0
 10
4.20750874250021
 20
5.407786226724862
 30
0.0
 10
4.207393453795711
 20
5.407772663347862
 30
0.0
 10
4.200760962442785
 20
5.405778846928884
 30
0.0
 10
4.205874355571728
 20
5.411706042677818
 30
0.0
 10
4.205840447129228
 20
5.413876182997795
 30
0.0
 10
4.205840447129228
 20
5.413876182997795
 30
0.0
 10
4.205250440229735
 20
5.414459408208788
 30
0.0
 10
4.205250440229735
 20
5.414459408208788
 30
0.0
 10
4.204884229050739
 20
5.41519183056678
 30
0.0
 10
4.204891010739239
 20
5.417443351148755
 30
0.0
 10
4.204321348905245
 20
5.418243590391746
 30
0.0
 10
4.203555018104754
 20
5.419369350682733
 30
0.0
 10
4.201615455193775
 20
5.420183153302724
 30
0.0
 10
4.201059356736781
 20
5.421417420609711
 30
0.0
 10
4.201059356736781
 20
5.421417420609711
 30
0.0
 10
4.201879941045273
 20
5.425228729546668
 30
0.0
 10
4.201879941045273
 20
5.425228729546668
 30
0.0
 10
4.202598800026265
 20
5.426245982821657
 30
0.0
 10
4.203697433563252
 20
5.426598630623653
 30
0.0
 10
4.204192496823747
 20
5.427005531933649
 30
0.0
 10
4.205053771263238
 20
5.426056095543659
 30
0.0
 10
4.205074116328738
 20
5.425405053447666
 30
0.0
 10
4.205982862587727
 20
5.424699757843674
 30
0.0
 10
4.20746127068071
 20
5.423587560929686
 30
0.0
 10
4.209916241917683
 20
5.423750321453685
 30
0.0
 10
4.211001312077671
 20
5.420969829168715
 30
0.0
 10
4.211421776764666
 20
5.419952575893727
 30
0.0
 10
4.210601192456176
 20
5.417958759474749
 30
0.0
 10
4.210479122063177
 20
5.416873689314762
 30
0.0
 10
4.210479122063177
 20
5.416873689314762
 30
0.0
 10
4.210485903751677
 20
5.416290464103768
 30
0.0
 10
4.210485903751677
 20
5.416290464103768
 30
0.0
 10
4.211489593649666
 20
5.412641915690808
 30
0.0
 10
4.213185015774647
 20
5.414920563026783
 30
0.0
 10
4.210858896619173
 20
5.41074304291083
 30
0.0
 10
4.210858896619173
 20
5.41074304291083
 30
0.0
 10
4.210587629079176
 20
5.409264634817846
 30
0.0
 10
4.210587629079176
 20
5.409264634817846
 30
0.0
 10
4.210587629079176
 20
5.409264634817846
 30
0.0
 10
4.208729446430197
 20
5.407691283085863
 30
0.0
 10
4.208275073300701
 20
5.407487832430865
 30
0.0
  0
SPLINE
  5
A4
330
6D
100
AcDbEntity
  8
Layer 1
 62
     7
370
     9
100
AcDbSpline
210
0.0
220
0.0
230
1.0
 70
    11
 71
     3
 72
    56
 73
    52
 74
     0
 42
0.0000000001
 43
0.0000000001
 40
0.0
 40
0.0
 40
0.0
 40
0.0
 40
1.0
 40
1.0
 40
1.0
 40
2.0
 40
2.0
 40
2.0
 40
3.0
 40
3.0
 40
3.0
 40
4.0
 40
4.0
 40
4.0
 40
5.0
 40
5.0
 40
5.0
 40
6.0
 40
6.0
 40
6.0
 40
7.0
 40
7.0
 40
7.0
 40
8.0
 40
8.0
 40
8.0
 40
9.0
 40
9.0
 40
9.0
 40
10.0
 40
10.0
 40
10.0
 40
11.0
 40
11.0
 40
11.0
 40
12.0
 40
12.0
 40
12.0
 40
13.0
 40
13.0
 40
13.0
 40
14.0
 40
14.0
 40
14.0
 40
15.0
 40
15.0
 40
15.0
 40
16.0
 40
16.0
 40
16.0
 40
17.0
 40
17.0
 40
17.0
 40
17.0
 10
4.218406915919589
 20
5.414364464569789
 30
0.0
 10
4.218501859558588
 20
5.415124013681781
 30
0.0
 10
4.217260810563102
 20
5.420386603957722
 30
0.0
 10
4.216847127564606
 20
5.421051209430715
 30
0.0
 10
4.216616550155608
 20
5.42145811074071
 30
0.0
 10
4.215870564420617
 20
5.421770068411707
 30
0.0
 10
4.215660332077119
 20
5.422204096475702
 30
0.0
 10
4.215165268816625
 20
5.423370546897689
 30
0.0
 10
4.215348374406123
 20
5.425486433709666
 30
0.0
 10
4.21472445906413
 20
5.426571503869654
 30
0.0
 10
4.214276867623135
 20
5.427398869866644
 30
0.0
 10
4.213198579151647
 20
5.427819334553639
 30
0.0
 10
4.212649262383152
 20
5.428606010419631
 30
0.0
 10
4.212649262383152
 20
5.428606010419631
 30
0.0
 10
4.212337304712157
 20
5.430043728381615
 30
0.0
 10
4.212337304712157
 20
5.430043728381615
 30
0.0
 10
4.208607376037198
 20
5.435143558133558
 30
0.0
 10
4.200747399065786
 20
5.433665150040574
 30
0.0
 10
4.196868273243829
 20
5.428361869633633
 30
0.0
 10
4.196203667770836
 20
5.427439559997644
 30
0.0
 10
4.19587814672284
 20
5.425405053447666
 30
0.0
 10
4.195457682035844
 20
5.424550560696676
 30
0.0
 10
4.19493549202135
 20
5.423465490536688
 30
0.0
 10
4.194101344335859
 20
5.42326203988169
 30
0.0
 10
4.193741914845363
 20
5.422190533098702
 30
0.0
 10
4.19309765443787
 20
5.420223843433724
 30
0.0
 10
4.194460773826355
 20
5.417524731410754
 30
0.0
 10
4.194711696300852
 20
5.415476661483777
 30
0.0
 10
4.194793076562852
 20
5.414893436272783
 30
0.0
 10
4.194223414728858
 20
5.4133879014258
 30
0.0
 10
4.194453992137855
 20
5.412845366345806
 30
0.0
 10
4.194609970973353
 20
5.412533408674809
 30
0.0
 10
4.195288139823346
 20
5.412343521396812
 30
0.0
 10
4.195349175019845
 20
5.411977310217815
 30
0.0
 10
4.195511935543843
 20
5.411149944220825
 30
0.0
 10
4.195010090594849
 20
5.409929240290839
 30
0.0
 10
4.195389865150845
 20
5.409061184162848
 30
0.0
 10
4.195945963607839
 20
5.407813353478862
 30
0.0
 10
4.197159885849325
 20
5.407230128267869
 30
0.0
 10
4.198061850419815
 20
5.405873790567884
 30
0.0
 10
4.198061850419815
 20
5.405873790567884
 30
0.0
 10
4.197831273010817
 20
5.405100678078892
 30
0.0
 10
4.197783801191318
 20
5.405005734439893
 30
0.0
 10
4.202625926780264
 20
5.400990974847938
 30
0.0
 10
4.205630214785731
 20
5.399783834294952
 30
0.0
 10
4.210390960112678
 20
5.40255076320292
 30
0.0
 10
4.211774424566663
 20
5.403337439068912
 30
0.0
 10
4.21380893111664
 20
5.404381819097901
 30
0.0
 10
4.215307684275123
 20
5.406416325647878
 30
0.0
 10
4.216413099500611
 20
5.407908297117861
 30
0.0
 10
4.21823737370709
 20
5.412818239591807
 30
0.0
 10
4.218406915919589
 20
5.414364464569789
 30
0.0
  0
ENDBLK
  5
70
330
6D
100
AcDbEntity
  8
0
100
AcDbBlockEnd
  0
BLOCK
  5
B0
330
AD
100
AcDbEntity
  8
0
100
AcDbBlockBegin
  2
sstmodel
 70
     2
 10
0.0
 20
0.0
 30
0.0
  3
sstmodel
  1

  4

  0
ATTDEF
  5
B1
330
AD
100
AcDbEntity
  8
NOTE
100
AcDbText
 10
-0.017158740347781
 20
-0.047694410726082
 30
0.0
 40
0.09
  1

  7
HELVETICA
 72
     1
 11
-0.017158740347781
 21
-0.047694410726082
 31
0.0
100
AcDbAttributeDefinition
  3
Enter Model No.
  2
MODEL
 70
     0
  0
ATTDEF
  5
B2
330
AD
100
AcDbEntity
  8
NOTE
100
AcDbText
 10
-0.0004587403477809
 20
-0.2007844647268215
 30
0.0
 40
0.09
  1

  7
HELVETICA
 72
     1
 11
-0.0004587403477809
 21
-0.2007844647268215
 31
0.0
100
AcDbAttributeDefinition
  3
Enter Code No. or Patent
  2
APPROVAL
 70
     4
  0
TEXT
  5
B3
330
AD
100
AcDbEntity
  8
0
100
AcDbText
 10
-0.6953396409425234
 20
0.107302245609844
 30
0.0
 40
0.09
  1
SIMPSON Strong-Tie
  7
HELVETICA
 72
     1
 11
-0.0010539266568089
 21
0.107302245609844
 31
0.0
100
AcDbText
  0
TEXT
  5
B4
330
AD
100
AcDbEntity
  8
NOTE
100
AcDbText
 10
0.7437759301119596
 20
0.1498088353144997
 30
0.0
 40
0.05184
  1
R
  7
HELVETICA
100
AcDbText
  0
CIRCLE
  5
B5
330
AD
100
AcDbEntity
  8
NOTE
100
AcDbCircle
 10
0.759641433609472
 20
0.175605771415941
 30
0.0
 40
0.0337881099853014
  0
ENDBLK
  5
B6
330
AD
100
AcDbEntity
  8
0
100
AcDbBlockEnd
  0
ENDSEC
  0
SECTION
  2
ENTITIES
  0
SPLINE
  5
3C
330
1F
100
AcDbEntity
  8
Layer 1
370
     0
100
AcDbSpline
210
0.0
220
0.0
230
1.0
 70
    11
 71
     3
 72
    17
 73
    13
 74
     0
 42
0.0000000001
 43
0.0000000001
 40
0.0
 40
0.0
 40
0.0
 40
0.0
 40
1.0
 40
1.0
 40
1.0
 40
2.0
 40
2.0
 40
2.0
 40
3.0
 40
3.0
 40
3.0
 40
4.0
 40
4.0
 40
4.0
 40
4.0
 10
0.2178376619642917
 20
0.146063580914845
 30
0.0
 10
0.2176070845552944
 20
0.1529673398077689
 30
0.0
 10
0.2241581956462211
 20
0.1574568175947189
 30
0.0
 10
0.2289460677271684
 20
0.1595862677836948
 30
0.0
 10
0.2337271581196152
 20
0.1617021545956714
 30
0.0
 10
0.2477788166914587
 20
0.1643198863566422
 30
0.0
 10
0.2578021522943468
 20
0.1606713379436826
 30
0.0
 10
0.2678254878972357
 20
0.1570499162847234
 30
0.0
 10
0.2810497804720891
 20
0.1462263414388438
 30
0.0
 10
0.2810497804720891
 20
0.1462263414388438
 30
0.0
 10
0.2810497804720891
 20
0.1462263414388438
 30
0.0
 10
0.2503897667639299
 20
0.1291636131730334
 30
0.0
 10
0.2178376619642917
 20
0.146063580914845
 30
0.0
  0
SPLINE
  5
3D
330
1F
100
AcDbEntity
  8
Layer 1
 62
     7
370
     9
100
AcDbSpline
210
0.0
220
0.0
230
1.0
 70
     8
 71
     3
 72
    41
 73
    37
 74
     0
 42
0.0000000001
 43
0.0000000001
 40
0.0
 40
0.0
 40
0.0
 40
0.0
 40
1.0
 40
1.0
 40
1.0
 40
2.0
 40
2.0
 40
2.0
 40
3.0
 40
3.0
 40
3.0
 40
4.0
 40
4.0
 40
4.0
 40
5.0
 40
5.0
 40
5.0
 40
6.0
 40
6.0
 40
6.0
 40
7.0
 40
7.0
 40
7.0
 40
8.0
 40
8.0
 40
8.0
 40
9.0
 40
9.0
 40
9.0
 40
10.0
 40
10.0
 40
10.0
 40
11.0
 40
11.0
 40
11.0
 40
12.0
 40
12.0
 40
12.0
 40
12.0
 10
0.3251307557215988
 20
1.478692497904026
 30
0.0
 10
0.3251443190985981
 20
1.956252220380215
 30
0.0
 10
0.3256054739165935
 20
1.958279945241692
 30
0.0
 10
0.3256054739165935
 20
1.958279945241692
 30
0.0
 10
0.3256054739165935
 20
1.958279945241692
 30
0.0
 10
0.3017610571508582
 20
1.990940557057329
 30
0.0
 10
0.3017610571508582
 20
1.990940557057329
 30
0.0
 10
0.3017610571508582
 20
1.990940557057329
 30
0.0
 10
0.281646569060082
 20
2.003717258191188
 30
0.0
 10
0.281646569060082
 20
2.003717258191188
 30
0.0
 10
0.281646569060082
 20
2.003717258191188
 30
0.0
 10
0.0667552055629717
 20
1.982083671876428
 30
0.0
 10
0.0667552055629717
 20
1.982083671876428
 30
0.0
 10
0.0667552055629717
 20
1.982083671876428
 30
0.0
 10
0.0378719942417929
 20
1.93423207782096
 30
0.0
 10
0.0378719942417929
 20
1.93423207782096
 30
0.0
 10
0.0378719942417929
 20
1.93423207782096
 30
0.0
 10
0.0285471725543962
 20
0.9528810617508734
 30
0.0
 10
0.0285471725543962
 20
0.9528810617508734
 30
0.0
 10
0.0285471725543962
 20
0.9528810617508734
 30
0.0
 10
0.0273468136899098
 20
0.9404841351730111
 30
0.0
 10
0.0260515111864246
 20
0.9349638407340724
 30
0.0
 10
0.0247562086829385
 20
0.9294435462951336
 30
0.0
 10
0.0142581548850553
 20
0.9031848484234262
 30
0.0
 10
0.0166385275485292
 20
0.8722603488637697
 30
0.0
 10
0.0183271679850101
 20
0.8502876781240136
 30
0.0
 10
0.0280249825399022
 20
0.8449165808320736
 30
0.0
 10
0.0267500251019168
 20
0.8380263853161507
 30
0.0
 10
0.0254750676639306
 20
0.831136189800227
 30
0.0
 10
0.0294627005018864
 20
0.1724579125565517
 30
0.0
 10
0.0294627005018864
 20
0.1724579125565517
 30
0.0
 10
0.0294627005018864
 20
0.1724579125565517
 30
0.0
 10
0.0329959602103473
 20
0.1595320142756957
 30
0.0
 10
0.039275803761277
 20
0.1534284946257634
 30
0.0
 10
0.0410932962792572
 20
0.1516652556157832
 30
0.0
 10
0.0637848260000045
 20
0.1293941905820306
 30
0.0
 10
0.080305019185821
 20
0.1131859550672107
 30
0.0
  0
SPLINE
  5
3E
330
1F
100
AcDbEntity
  8
Layer 1
 62
     7
370
     9
100
AcDbSpline
210
0.0
220
0.0
230
1.0
 70
     8
 71
     3
 72
    38
 73
    34
 74
     0
 42
0.0000000001
 43
0.0000000001
 40
0.0
 40
0.0
 40
0.0
 40
0.0
 40
1.0
 40
1.0
 40
1.0
 40
2.0
 40
2.0
 40
2.0
 40
3.0
 40
3.0
 40
3.0
 40
4.0
 40
4.0
 40
4.0
 40
5.0
 40
5.0
 40
5.0
 40
6.0
 40
6.0
 40
6.0
 40
7.0
 40
7.0
 40
7.0
 40
8.0
 40
8.0
 40
8.0
 40
9.0
 40
9.0
 40
9.0
 40
10.0
 40
10.0
 40
10.0
 40
11.0
 40
11.0
 40
11.0
 40
11.0
 10
0.080305019185821
 20
0.1131859550672107
 30
0.0
 10
0.1206153756293729
 20
0.073594457604651
 30
0.0
 10
0.1759403904117578
 20
0.0192595693432551
 30
0.0
 10
0.1759403904117578
 20
0.0192595693432551
 30
0.0
 10
0.1759403904117578
 20
0.0192595693432551
 30
0.0
 10
0.1906837812105939
 20
-0.0018450452685101
 30
0.0
 10
0.2186785913382821
 20
0.0116233880923406
 30
0.0
 10
0.2186785913382821
 20
0.0116233880923406
 30
0.0
 10
0.4820454642328533
 20
0.1054412668002973
 30
0.0
 10
0.4820454642328533
 20
0.1054412668002973
 30
0.0
 10
0.4820454642328533
 20
0.1054412668002973
 30
0.0
 10
0.5024854733716264
 20
0.1181094609181566
 30
0.0
 10
0.487009660214798
 20
0.1426456099108835
 30
0.0
 10
0.487009660214798
 20
0.1426456099108835
 30
0.0
 10
0.5006137273456472
 20
0.1524519314817745
 30
0.0
 10
0.501142699048641
 20
0.164143562455644
 30
0.0
 10
0.501142699048641
 20
0.164143562455644
 30
0.0
 10
0.3660243373761434
 20
0.8069119984784967
 30
0.0
 10
0.3660243373761434
 20
0.8069119984784967
 30
0.0
 10
0.3660243373761434
 20
0.8069119984784967
 30
0.0
 10
0.3506570312353148
 20
0.8797880230986861
 30
0.0
 10
0.3573030859652411
 20
0.8963760331695019
 30
0.0
 10
0.3573030859652411
 20
0.8963760331695019
 30
0.0
 10
0.358008381569233
 20
0.9499242455649064
 30
0.0
 10
0.356529973476249
 20
0.9567737509498295
 30
0.0
 10
0.356529973476249
 20
0.9567737509498295
 30
0.0
 10
0.34836482052234
 20
0.9806452944695643
 30
0.0
 10
0.3399962169134332
 20
0.9887697572924736
 30
0.0
 10
0.3316411766815257
 20
0.9969077834923832
 30
0.0
 10
0.3267583609615805
 20
1.013862004742195
 30
0.0
 10
0.325632600670593
 20
1.020019777900126
 30
0.0
 10
0.325361333130596
 20
1.02151174937011
 30
0.0
 10
0.3252256993605975
 20
1.116984360072048
 30
0.0
 10
0.3251578824755983
 20
1.260823973155449
 30
0.0
  0
SPLINE
  5
3F
330
1F
100
AcDbEntity
  8
Layer 1
 62
     7
370
     9
100
AcDbSpline
210
0.0
220
0.0
230
1.0
 70
     8
 71
     3
 72
     8
 73
     4
 74
     0
 42
0.0000000001
 43
0.0000000001
 40
0.0
 40
0.0
 40
0.0
 40
0.0
 40
1.0
 40
1.0
 40
1.0
 40
1.0
 10
0.3251578824755983
 20
1.280680757083228
 30
0.0
 10
0.3251307557215988
 20
1.334941046771125
 30
0.0
 10
0.3251171923445986
 20
1.395420144813452
 30
0.0
 10
0.3251307557215988
 20
1.459873312316735
 30
0.0
  0
LWPOLYLINE
  5
40
330
1F
100
AcDbEntity
  8
Layer 1
 62
     7
370
     9
100
AcDbPolyline
 90
        2
 70
     0
 43
0.0
 10
0.455135724265153
 20
0.1112463921562323
 10
0.2504508019604286
 20
0.0376786353090504
  0
LWPOLYLINE
  5
44
330
1F
100
AcDbEntity
  8
Layer 1
 62
     7
370
     9
100
AcDbPolyline
 90
        2
 70
     0
 43
0.0
 10
0.4553663016741503
 20
0.1313608802470085
 10
0.2470599577104666
 20
0.0582542782178219
  0
LWPOLYLINE
  5
48
330
1F
100
AcDbEntity
  8
Layer 1
 62
     7
370
     9
100
AcDbPolyline
 90
        2
 70
     0
 43
0.0
 10
0.3170741097836878
 20
0.8971762724124925
 10
0.2902864402089858
 20
0.3172198352759423
  0
LWPOLYLINE
  5
4C
330
1F
100
AcDbEntity
  8
Layer 1
 62
     7
370
     9
100
AcDbPolyline
 90
        2
 70
     0
 43
0.0
 10
0.2376198473185713
 20
0.2860376315532891
 10
0.1344635835462187
 20
0.2520749355456662
  0
SPLINE
  5
50
330
1F
100
AcDbEntity
  8
Layer 1
 62
     7
370
     9
100
AcDbSpline
210
0.0
220
0.0
230
1.0
 70
     8
 71
     3
 72
    20
 73
    16
 74
     0
 42
0.0000000001
 43
0.0000000001
 40
0.0
 40
0.0
 40
0.0
 40
0.0
 40
1.0
 40
1.0
 40
1.0
 40
2.0
 40
2.0
 40
2.0
 40
3.0
 40
3.0
 40
3.0
 40
4.0
 40
4.0
 40
4.0
 40
5.0
 40
5.0
 40
5.0
 40
5.0
 10
0.3141037302207215
 20
0.8167047566723875
 30
0.0
 10
0.3141037302207215
 20
0.8167047566723875
 30
0.0
 10
0.3065218024778051
 20
0.8057591114335088
 30
0.0
 10
0.3055452393338163
 20
0.8016222814485552
 30
0.0
 10
0.3045686761898274
 20
0.7974854514636016
 30
0.0
 10
0.2735153245486721
 20
0.2999536563551342
 30
0.0
 10
0.2735153245486721
 20
0.2999536563551342
 30
0.0
 10
0.2735153245486721
 20
0.2999536563551342
 30
0.0
 10
0.2544926883063843
 20
0.2964136149581735
 30
0.0
 10
0.2599112574178237
 20
0.2779402954843793
 30
0.0
 10
0.2599112574178237
 20
0.2779402954843793
 30
0.0
 10
0.2671066289162436
 20
0.2797577880023585
 30
0.0
 10
0.2671066289162436
 20
0.2797577880023585
 30
0.0
 10
0.2671066289162436
 20
0.2797577880023585
 30
0.0
 10
0.2591652716828321
 20
0.2942434746381979
 30
0.0
 10
0.2735424513026725
 20
0.2985837552781492
 30
0.0
  0
HATCH
  5
51
330
1F
100
AcDbEntity
  8
Layer 1
 62
     7
100
AcDbHatch
 10
0.0
 20
0.0
 30
0.0
210
0.0
220
0.0
230
1.0
  2
SOLID
 70
     1
 71
     0
 91
        1
 92
        1
 93
        2
 72
     4
 94
        3
 73
     0
 74
     0
 95
       20
 96
       16
 40
0.0
 40
0.0
 40
0.0
 40
0.0
 40
0.0138888980478455
 40
0.0138888980478455
 40
0.0138888980478455
 40
0.0277777960956911
 40
0.0277777960956911
 40
0.0277777960956911
 40
0.0416666941435366
 40
0.0416666941435366
 40
0.0416666941435366
 40
0.0555555921913822
 40
0.0555555921913822
 40
0.0555555921913822
 40
0.0694444902392277
 40
0.0694444902392277
 40
0.0694444902392277
 40
0.0694444902392277
 10
0.3141037302207215
 20
0.8167047566723875
 10
0.3141037302207215
 20
0.8167047566723875
 10
0.3065218024778051
 20
0.8057591114335088
 10
0.3055452393338163
 20
0.8016222814485552
 10
0.3045686761898274
 20
0.7974854514636016
 10
0.2735153245486721
 20
0.2999536563551342
 10
0.2735153245486721
 20
0.2999536563551342
 10
0.2735153245486721
 20
0.2999536563551342
 10
0.2544926883063843
 20
0.2964136149581735
 10
0.2599112574178237
 20
0.2779402954843793
 10
0.2599112574178237
 20
0.2779402954843793
 10
0.2671066289162436
 20
0.2797577880023585
 10
0.2671066289162436
 20
0.2797577880023585
 10
0.2671066289162436
 20
0.2797577880023585
 10
0.2591652716828321
 20
0.2942434746381979
 10
0.2735424513026725
 20
0.2985837552781492
 72
     1
 10
0.2735424513026725
 20
0.2985837552781492
 11
0.3141037302207215
 21
0.8167047566723875
 97
        0
 75
     2
 76
     1
 98
        0
  0
SPLINE
  5
52
330
1F
100
AcDbEntity
  8
Layer 1
 62
     7
370
     9
100
AcDbSpline
210
0.0
220
0.0
230
1.0
 70
     8
 71
     3
 72
    20
 73
    16
 74
     0
 42
0.0000000001
 43
0.0000000001
 40
0.0
 40
0.0
 40
0.0
 40
0.0
 40
1.0
 40
1.0
 40
1.0
 40
2.0
 40
2.0
 40
2.0
 40
3.0
 40
3.0
 40
3.0
 40
4.0
 40
4.0
 40
4.0
 40
5.0
 40
5.0
 40
5.0
 40
5.0
 10
0.344038103259388
 20
0.9807809282395628
 30
0.0
 10
0.344038103259388
 20
0.9807809282395628
 30
0.0
 10
0.3561366355432538
 20
0.9415692053329989
 30
0.0
 10
0.3466287082663593
 20
0.9213190834722242
 30
0.0
 10
0.3466287082663593
 20
0.9213190834722242
 30
0.0
 10
0.3404031182234286
 20
0.891886555382551
 30
0.0
 10
0.3411762307124198
 20
0.8738608273497519
 30
0.0
 10
0.3411762307124198
 20
0.8738608273497519
 30
0.0
 10
0.3512538198233077
 20
0.808892251520474
 30
0.0
 10
0.3534103967662841
 20
0.8017036617105546
 30
0.0
 10
0.3534103967662841
 20
0.8017036617105546
 30
0.0
 10
0.4868062095598003
 20
0.1689314345365913
 30
0.0
 10
0.4868062095598003
 20
0.1689314345365913
 30
0.0
 10
0.4868062095598003
 20
0.1689314345365913
 30
0.0
 10
0.4855041253678154
 20
0.1518958330247804
 30
0.0
 10
0.4751417053399303
 20
0.1548526492107474
 30
0.0
  0
SPLINE
  5
53
330
1F
100
AcDbEntity
  8
Layer 1
 62
     7
370
     9
100
AcDbSpline
210
0.0
220
0.0
230
1.0
 70
     8
 71
     3
 72
     8
 73
     4
 74
     0
 42
0.0000000001
 43
0.0000000001
 40
0.0
 40
0.0
 40
0.0
 40
0.0
 40
1.0
 40
1.0
 40
1.0
 40
1.0
 10
0.4868062095598003
 20
0.1689314345365913
 30
0.0
 10
0.4868062095598003
 20
0.1689314345365913
 30
0.0
 10
0.4834153653098383
 20
0.1539303395747576
 30
0.0
 10
0.4730529452819532
 20
0.1568735923837252
 30
0.0
  0
SPLINE
  5
54
330
1F
100
AcDbEntity
  8
Layer 1
 62
     7
370
     9
100
AcDbSpline
210
0.0
220
0.0
230
1.0
 70
     8
 71
     3
 72
    14
 73
    10
 74
     0
 42
0.0000000001
 43
0.0000000001
 40
0.0
 40
0.0
 40
0.0
 40
0.0
 40
1.0
 40
1.0
 40
1.0
 40
2.0
 40
2.0
 40
2.0
 40
3.0
 40
3.0
 40
3.0
 40
3.0
 10
0.2034469189674519
 20
0.0071067835513903
 30
0.0
 10
0.2034469189674519
 20
0.0071067835513903
 30
0.0
 10
0.2253517728222079
 20
0.0202225691102447
 30
0.0
 10
0.2220626538997443
 20
0.0335824954550965
 30
0.0
 10
0.2220626538997443
 20
0.0335824954550965
 30
0.0
 10
0.2218795483102465
 20
0.0522185754528888
 30
0.0
 10
0.2098420512228802
 20
0.0649410230787479
 30
0.0
 10
0.1977977724470144
 20
0.0776634707046062
 30
0.0
 10
0.1539880647375016
 20
0.1121008849072229
 30
0.0
 10
0.1539880647375016
 20
0.1121008849072229
 30
0.0
  0
SPLINE
  5
55
330
1F
100
AcDbEntity
  8
Layer 1
 62
     7
370
     9
100
AcDbSpline
210
0.0
220
0.0
230
1.0
 70
     8
 71
     3
 72
    17
 73
    13
 74
     0
 42
0.0000000001
 43
0.0000000001
 40
0.0
 40
0.0
 40
0.0
 40
0.0
 40
1.0
 40
1.0
 40
1.0
 40
2.0
 40
2.0
 40
2.0
 40
3.0
 40
3.0
 40
3.0
 40
4.0
 40
4.0
 40
4.0
 40
4.0
 10
0.1605323941399286
 20
0.0874426655214977
 30
0.0
 10
0.1605323941399286
 20
0.0874426655214977
 30
0.0
 10
0.2012564335819764
 20
0.0519337445358925
 30
0.0
 10
0.2012564335819764
 20
0.0519337445358925
 30
0.0
 10
0.2012564335819764
 20
0.0519337445358925
 30
0.0
 10
0.211252642430865
 20
0.038153353504045
 30
0.0
 10
0.2077397277879038
 20
0.0313987917581207
 30
0.0
 10
0.2077397277879038
 20
0.0313987917581207
 30
0.0
 10
0.2006867717479821
 20
0.0199513015702477
 30
0.0
 10
0.1918231048785808
 20
0.0265295394151748
 30
0.0
 10
0.1829662196976791
 20
0.0331077772601018
 30
0.0
 10
0.1719663209508013
 20
0.0448129716109715
 30
0.0
 10
0.1719663209508013
 20
0.0448129716109715
 30
0.0
  0
SPLINE
  5
56
330
1F
100
AcDbEntity
  8
Layer 1
 62
     7
370
     9
100
AcDbSpline
210
0.0
220
0.0
230
1.0
 70
     8
 71
     3
 72
    11
 73
     7
 74
     0
 42
0.0000000001
 43
0.0000000001
 40
0.0
 40
0.0
 40
0.0
 40
0.0
 40
1.0
 40
1.0
 40
1.0
 40
2.0
 40
2.0
 40
2.0
 40
2.0
 10
0.2076515658374047
 20
0.0375836916700516
 30
0.0
 10
0.2076515658374047
 20
0.0375836916700516
 30
0.0
 10
0.1999543493899907
 20
0.0348981430240816
 30
0.0
 10
0.195261420948043
 20
0.0384381844210422
 30
0.0
 10
0.190575274194595
 20
0.0419782258180028
 30
0.0
 10
0.1858484373101472
 20
0.047579900518941
 30
0.0
 10
0.1858484373101472
 20
0.047579900518941
 30
0.0
  0
LWPOLYLINE
  5
57
330
1F
100
AcDbEntity
  8
Layer 1
 62
     7
370
     9
100
AcDbPolyline
 90
        3
 70
     0
 43
0.0
 10
0.487009660214798
 20
0.1426456099108835
 10
0.2883740040520069
 20
0.2828095478273243
 10
0.1391293852341669
 20
0.2318655038158912
  0
SPLINE
  5
5C
330
1F
100
AcDbEntity
  8
Layer 1
 62
     7
370
     9
100
AcDbSpline
210
0.0
220
0.0
230
1.0
 70
     8
 71
     3
 72
    35
 73
    31
 74
     0
 42
0.0000000001
 43
0.0000000001
 40
0.0
 40
0.0
 40
0.0
 40
0.0
 40
1.0
 40
1.0
 40
1.0
 40
2.0
 40
2.0
 40
2.0
 40
3.0
 40
3.0
 40
3.0
 40
4.0
 40
4.0
 40
4.0
 40
5.0
 40
5.0
 40
5.0
 40
6.0
 40
6.0
 40
6.0
 40
7.0
 40
7.0
 40
7.0
 40
8.0
 40
8.0
 40
8.0
 40
9.0
 40
9.0
 40
9.0
 40
10.0
 40
10.0
 40
10.0
 40
10.0
 10
0.186140049915644
 20
0.0635846853787623
 30
0.0
 10
0.186140049915644
 20
0.0635846853787623
 30
0.0
 10
0.1722986236872979
 20
0.0576981797608278
 30
0.0
 10
0.1660119984478676
 20
0.064832516062749
 30
0.0
 10
0.1597253732084383
 20
0.0719668523646693
 30
0.0
 10
0.1576162680849613
 20
0.0750321755666352
 30
0.0
 10
0.1565108528594736
 20
0.0801591320725779
 30
0.0
 10
0.155405437633986
 20
0.0853132153325209
 30
0.0
 10
0.0584883272815633
 20
0.805826928318508
 30
0.0
 10
0.0584883272815633
 20
0.805826928318508
 30
0.0
 10
0.0584883272815633
 20
0.805826928318508
 30
0.0
 10
0.0513878994221431
 20
0.8340794426091946
 30
0.0
 10
0.0492516675446666
 20
0.8392199624921375
 30
0.0
 10
0.0471154356671901
 20
0.8443469189980801
 30
0.0
 10
0.0317684745918605
 20
0.8662110827218372
 30
0.0
 10
0.0315446788713629
 20
0.8816733325016646
 30
0.0
 10
0.0315446788713629
 20
0.8816733325016646
 30
0.0
 10
0.0245188495854416
 20
0.91002079043135
 30
0.0
 10
0.039689486759773
 20
0.9308541375031183
 30
0.0
 10
0.039689486759773
 20
0.9308541375031183
 30
0.0
 10
0.0440433307767245
 20
0.9510364424788937
 30
0.0
 10
0.0434736689427302
 20
0.9546307373838534
 30
0.0
 10
0.0429107887972373
 20
0.9582385956658133
 30
0.0
 10
0.0504384630321528
 20
1.927450389321035
 30
0.0
 10
0.0504384630321528
 20
1.927450389321035
 30
0.0
 10
0.0504384630321528
 20
1.927450389321035
 30
0.0
 10
0.0757341611368716
 20
1.970826068966553
 30
0.0
 10
0.0757341611368716
 20
1.970826068966553
 30
0.0
 10
0.0757341611368716
 20
1.970826068966553
 30
0.0
 10
0.2955625938619271
 20
1.993721049342298
 30
0.0
 10
0.2955625938619271
 20
1.993721049342298
 30
0.0
  0
SPLINE
  5
5D
330
1F
100
AcDbEntity
  8
Layer 1
 62
     7
370
     9
100
AcDbSpline
210
0.0
220
0.0
230
1.0
 70
     8
 71
     3
 72
    17
 73
    13
 74
     0
 42
0.0000000001
 43
0.0000000001
 40
0.0
 40
0.0
 40
0.0
 40
0.0
 40
1.0
 40
1.0
 40
1.0
 40
2.0
 40
2.0
 40
2.0
 40
3.0
 40
3.0
 40
3.0
 40
4.0
 40
4.0
 40
4.0
 40
4.0
 10
0.1955937236845387
 20
0.0513369559478987
 30
0.0
 10
0.1955937236845387
 20
0.0513369559478987
 30
0.0
 10
0.1740618626972781
 20
0.0427784650609944
 30
0.0
 10
0.1693960610093299
 20
0.0442568731539774
 30
0.0
 10
0.1647370410098823
 20
0.0457352812469614
 30
0.0
 10
0.1517365441555265
 20
0.0532900822358773
 30
0.0
 10
0.1484542069215635
 20
0.0666500085807282
 30
0.0
 10
0.1451718696875997
 20
0.0799963715485799
 30
0.0
 10
0.046864513192693
 20
0.7896729463116881
 30
0.0
 10
0.046864513192693
 20
0.7896729463116881
 30
0.0
 10
0.046864513192693
 20
0.7896729463116881
 30
0.0
 10
0.0375329098167967
 20
0.8292508803972476
 30
0.0
 10
0.0291643062078899
 20
0.8373753432201578
 30
0.0
  0
SPLINE
  5
5E
330
1F
100
AcDbEntity
  8
Layer 1
370
     0
100
AcDbSpline
210
0.0
220
0.0
230
1.0
 70
    11
 71
     3
 72
    62
 73
    58
 74
     0
 42
0.0000000001
 43
0.0000000001
 40
0.0
 40
0.0
 40
0.0
 40
0.0
 40
1.0
 40
1.0
 40
1.0
 40
2.0
 40
2.0
 40
2.0
 40
3.0
 40
3.0
 40
3.0
 40
4.0
 40
4.0
 40
4.0
 40
5.0
 40
5.0
 40
5.0
 40
6.0
 40
6.0
 40
6.0
 40
7.0
 40
7.0
 40
7.0
 40
8.0
 40
8.0
 40
8.0
 40
9.0
 40
9.0
 40
9.0
 40
10.0
 40
10.0
 40
10.0
 40
11.0
 40
11.0
 40
11.0
 40
12.0
 40
12.0
 40
12.0
 40
13.0
 40
13.0
 40
13.0
 40
14.0
 40
14.0
 40
14.0
 40
15.0
 40
15.0
 40
15.0
 40
16.0
 40
16.0
 40
16.0
 40
17.0
 40
17.0
 40
17.0
 40
18.0
 40
18.0
 40
18.0
 40
19.0
 40
19.0
 40
19.0
 40
19.0
 10
0.1755199257247622
 20
0.0623775448257762
 30
0.0
 10
0.1755199257247622
 20
0.0623775448257762
 30
0.0
 10
0.1754995806592623
 20
0.0623911082027755
 30
0.0
 10
0.1754995806592623
 20
0.0623911082027755
 30
0.0
 10
0.1764151086067525
 20
0.0631235305607678
 30
0.0
 10
0.1772424746037427
 20
0.0638830796727596
 30
0.0
 10
0.1780901856662336
 20
0.064669755538751
 30
0.0
 10
0.1780901856662336
 20
0.064669755538751
 30
0.0
 10
0.1781444391742326
 20
0.0647104456697498
 30
0.0
 10
0.1781444391742326
 20
0.0647104456697498
 30
0.0
 10
0.1781986926822325
 20
0.0645883752767515
 30
0.0
 10
0.1782461645017319
 20
0.0644663048837524
 30
0.0
 10
0.1783071996982315
 20
0.0643577978677543
 30
0.0
 10
0.1788836432207246
 20
0.0630014601677695
 30
0.0
 10
0.1804841217067068
 20
0.0623775448257762
 30
0.0
 10
0.1818268960296923
 20
0.0629743334137691
 30
0.0
 10
0.1831967971066772
 20
0.0635575586247628
 30
0.0
 10
0.1838003673831699
 20
0.0651309103567455
 30
0.0
 10
0.1832442689261766
 20
0.0664736846797309
 30
0.0
 10
0.1827898957966809
 20
0.0678842758877147
 30
0.0
 10
0.1823423043556867
 20
0.0693084304726987
 30
0.0
 10
0.1810605652292008
 20
0.0702443034856888
 30
0.0
 10
0.1810605652292008
 20
0.0702443034856888
 30
0.0
 10
0.1805112484607063
 20
0.0709902892206804
 30
0.0
 10
0.1805112484607063
 20
0.0709902892206804
 30
0.0
 10
0.180138255593211
 20
0.0716955848246723
 30
0.0
 10
0.1794668684317182
 20
0.0721838663966672
 30
0.0
 10
0.1787073193197264
 20
0.0723195001666657
 30
0.0
 10
0.1787073193197264
 20
0.0723195001666657
 30
0.0
 10
0.177398453439241
 20
0.0724958240676639
 30
0.0
 10
0.177398453439241
 20
0.0724958240676639
 30
0.0
 10
0.1765710874422508
 20
0.0717227115786718
 30
0.0
 10
0.1757233763797599
 20
0.0709902892206804
 30
0.0
 10
0.1748960103827688
 20
0.0702307401086886
 30
0.0
 10
0.1748960103827688
 20
0.0702307401086886
 30
0.0
 10
0.1767948831627484
 20
0.0724008804286642
 30
0.0
 10
0.1767948831627484
 20
0.0724008804286642
 30
0.0
 10
0.1765575240652506
 20
0.0723737536746647
 30
0.0
 10
0.1763066015907535
 20
0.072333063543665
 30
0.0
 10
0.1760692424932557
 20
0.0722652466586657
 30
0.0
 10
0.1746993414162716
 20
0.0717769650866718
 30
0.0
 10
0.1739669190582793
 20
0.0702849936166885
 30
0.0
 10
0.1744619823187739
 20
0.0689150925397035
 30
0.0
 10
0.1744619823187739
 20
0.0689150925397035
 30
0.0
 10
0.1745908344002727
 20
0.0682504870667104
 30
0.0
 10
0.1745908344002727
 20
0.0682504870667104
 30
0.0
 10
0.1745908344002727
 20
0.0682504870667104
 30
0.0
 10
0.1744958907612739
 20
0.0681555434277117
 30
0.0
 10
0.1744958907612739
 20
0.0681555434277117
 30
0.0
 10
0.1739058838617797
 20
0.0671654169067226
 30
0.0
 10
0.1730378277337898
 20
0.0664058677947317
 30
0.0
 10
0.1723393138182976
 20
0.0654564314047414
 30
0.0
 10
0.1714916027558067
 20
0.0645883752767515
 30
0.0
 10
0.1715119478213065
 20
0.0631777840687668
 30
0.0
 10
0.172386785637797
 20
0.0623232913177763
 30
0.0
 10
0.1732548417657878
 20
0.0614823619437859
 30
0.0
 10
0.1746722146622712
 20
0.0614959253207861
 30
0.0
 10
0.1755199257247622
 20
0.0623775448257762
 30
0.0
  0
HATCH
  5
5F
330
1F
100
AcDbEntity
  8
Layer 1
 62
     7
100
AcDbHatch
 10
0.0
 20
0.0
 30
0.0
210
0.0
220
0.0
230
1.0
  2
SOLID
 70
     1
 71
     0
 91
        1
 92
        1
 93
        1
 72
     4
 94
        3
 73
     0
 74
     1
 95
       58
 96
       58
 40
0.0
 40
0.0
 40
0.0
 40
1.0
 40
1.0
 40
1.0
 40
2.0
 40
2.0
 40
2.0
 40
3.0
 40
3.0
 40
3.0
 40
4.0
 40
4.0
 40
4.0
 40
5.0
 40
5.0
 40
5.0
 40
6.0
 40
6.0
 40
6.0
 40
7.0
 40
7.0
 40
7.0
 40
8.0
 40
8.0
 40
8.0
 40
9.0
 40
9.0
 40
9.0
 40
10.0
 40
10.0
 40
10.0
 40
11.0
 40
11.0
 40
11.0
 40
12.0
 40
12.0
 40
12.0
 40
13.0
 40
13.0
 40
13.0
 40
14.0
 40
14.0
 40
14.0
 40
15.0
 40
15.0
 40
15.0
 40
16.0
 40
16.0
 40
16.0
 40
17.0
 40
17.0
 40
17.0
 40
18.0
 40
18.0
 40
18.0
 40
19.0
 10
4.157737930599263
 20
4.331749275818829
 10
4.157737930599263
 20
4.331749275818829
 10
4.157717585533764
 20
4.331762839195828
 10
4.157717585533764
 20
4.331762839195828
 10
4.158633113481254
 20
4.33249526155382
 10
4.159460479478244
 20
4.333254810665812
 10
4.160308190540735
 20
4.334041486531803
 10
4.160308190540735
 20
4.334041486531803
 10
4.160362444048734
 20
4.334082176662802
 10
4.160362444048734
 20
4.334082176662802
 10
4.160416697556734
 20
4.333960106269804
 10
4.160464169376233
 20
4.333838035876805
 10
4.160525204572733
 20
4.333729528860807
 10
4.161101648095226
 20
4.332373191160822
 10
4.162702126581208
 20
4.331749275818829
 10
4.164044900904194
 20
4.332346064406822
 10
4.165414801981179
 20
4.332929289617815
 10
4.166018372257671
 20
4.334502641349798
 10
4.165462273800678
 20
4.335845415672783
 10
4.165007900671182
 20
4.337256006880767
 10
4.164560309230188
 20
4.338680161465751
 10
4.163278570103702
 20
4.339616034478741
 10
4.163278570103702
 20
4.339616034478741
 10
4.162729253335208
 20
4.340362020213733
 10
4.162729253335208
 20
4.340362020213733
 10
4.162356260467712
 20
4.341067315817725
 10
4.16168487330622
 20
4.34155559738972
 10
4.160925324194228
 20
4.341691231159718
 10
4.160925324194228
 20
4.341691231159718
 10
4.159616458313742
 20
4.341867555060716
 10
4.159616458313742
 20
4.341867555060716
 10
4.158789092316752
 20
4.341094442571724
 10
4.157941381254261
 20
4.340362020213733
 10
4.15711401525727
 20
4.339602471101741
 10
4.15711401525727
 20
4.339602471101741
 10
4.15901288803725
 20
4.341772611421717
 10
4.15901288803725
 20
4.341772611421717
 10
4.158775528939752
 20
4.341745484667717
 10
4.158524606465255
 20
4.341704794536717
 10
4.158287247367757
 20
4.341636977651718
 10
4.156917346290773
 20
4.341148696079724
 10
4.156184923932781
 20
4.339656724609741
 10
4.156679987193275
 20
4.338286823532756
 10
4.156679987193275
 20
4.338286823532756
 10
4.156808839274774
 20
4.337622218059763
 10
4.156808839274774
 20
4.337622218059763
 10
4.156808839274774
 20
4.337622218059763
 10
4.156713895635775
 20
4.337527274420764
 10
4.156713895635775
 20
4.337527274420764
 10
4.156123888736281
 20
4.336537147899775
 10
4.155255832608291
 20
4.335777598787784
 10
4.154557318692799
 20
4.334828162397794
 10
4.153709607630308
 20
4.333960106269804
 10
4.153729952695808
 20
4.332549515061819
 10
4.154604790512298
 20
4.331695022310829
 10
4.155472846640289
 20
4.330854092936838
 10
4.156890219536773
 20
4.330867656313838
 10
4.157737930599263
 20
4.331749275818829
 97
        0
 75
     2
 76
     1
 98
        0
  0
SPLINE
  5
60
330
1F
100
AcDbEntity
  8
Layer 1
 62
     7
370
     9
100
AcDbSpline
210
0.0
220
0.0
230
1.0
 70
    11
 71
     3
 72
    17
 73
    13
 74
     0
 42
0.0000000001
 43
0.0000000001
 40
0.0
 40
0.0
 40
0.0
 40
0.0
 40
1.0
 40
1.0
 40
1.0
 40
2.0
 40
2.0
 40
2.0
 40
3.0
 40
3.0
 40
3.0
 40
4.0
 40
4.0
 40
4.0
 40
4.0
 10
0.2996180435848821
 20
0.1695282231245843
 30
0.0
 10
0.2996180435848821
 20
0.1695282231245843
 30
0.0
 10
0.2929312987239561
 20
0.132649401061995
 30
0.0
 10
0.2367924813215812
 20
0.1397566106099157
 30
0.0
 10
0.1806536639192053
 20
0.1468638201578365
 30
0.0
 10
0.1906091826370941
 20
0.1961666955522885
 30
0.0
 10
0.2036842780649488
 20
0.2044539188991958
 30
0.0
 10
0.2036842780649488
 20
0.2044539188991958
 30
0.0
 10
0.2309602292116457
 20
0.2348901368868575
 30
0.0
 10
0.273895099104668
 20
0.2135142547350952
 30
0.0
 10
0.3005810433518716
 20
0.2002085818982433
 30
0.0
 10
0.3042702818958301
 20
0.1805959387564613
 30
0.0
 10
0.2996180435848821
 20
0.1695282231245843
 30
0.0
  0
SPLINE
  5
61
330
1F
100
AcDbEntity
  8
Layer 1
 62
     7
370
     9
100
AcDbSpline
210
0.0
220
0.0
230
1.0
 70
     8
 71
     3
 72
    14
 73
    10
 74
     0
 42
0.0000000001
 43
0.0000000001
 40
0.0
 40
0.0
 40
0.0
 40
0.0
 40
1.0
 40
1.0
 40
1.0
 40
2.0
 40
2.0
 40
2.0
 40
3.0
 40
3.0
 40
3.0
 40
3.0
 10
0.298627917063893
 20
0.1664222097916186
 30
0.0
 10
0.298627917063893
 20
0.1664222097916186
 30
0.0
 10
0.2906933415189812
 20
0.1924232035003302
 30
0.0
 10
0.2682323892072311
 20
0.2006968634702382
 30
0.0
 10
0.2457714368954811
 20
0.2089705234401462
 30
0.0
 10
0.231821503651136
 20
0.204901510340191
 30
0.0
 10
0.2219270201297459
 20
0.1996117933102495
 30
0.0
 10
0.2120325366083558
 20
0.1943220762803088
 30
0.0
 10
0.1970721317775226
 20
0.1830916001244338
 30
0.0
 10
0.1930166820545676
 20
0.1782359111584873
 30
0.0
  0
SPLINE
  5
62
330
1F
100
AcDbEntity
  8
Layer 1
 62
     7
370
     9
100
AcDbSpline
210
0.0
220
0.0
230
1.0
 70
     8
 71
     3
 72
    14
 73
    10
 74
     0
 42
0.0000000001
 43
0.0000000001
 40
0.0
 40
0.0
 40
0.0
 40
0.0
 40
1.0
 40
1.0
 40
1.0
 40
2.0
 40
2.0
 40
2.0
 40
3.0
 40
3.0
 40
3.0
 40
3.0
 10
0.2929312987239561
 20
0.1556800152077384
 30
0.0
 10
0.2929312987239561
 20
0.1556800152077384
 30
0.0
 10
0.2850645400640444
 20
0.1775713056854951
 30
0.0
 10
0.2694734382027173
 20
0.1859399092944019
 30
0.0
 10
0.2538823363413911
 20
0.1943220762803088
 30
0.0
 10
0.2316858698811375
 20
0.1901309927873554
 30
0.0
 10
0.2204418303482623
 20
0.18343068454943
 30
0.0
 10
0.2204418303482623
 20
0.18343068454943
 30
0.0
 10
0.2015683912529722
 20
0.1746551796305278
 30
0.0
 10
0.199337215736497
 20
0.1625973374776617
 30
0.0
  0
SPLINE
  5
63
330
1F
100
AcDbEntity
  8
Layer 1
 62
     7
370
     9
100
AcDbSpline
210
0.0
220
0.0
230
1.0
 70
     8
 71
     3
 72
    14
 73
    10
 74
     0
 42
0.0000000001
 43
0.0000000001
 40
0.0
 40
0.0
 40
0.0
 40
0.0
 40
1.0
 40
1.0
 40
1.0
 40
2.0
 40
2.0
 40
2.0
 40
3.0
 40
3.0
 40
3.0
 40
3.0
 10
0.2861631736010315
 20
0.1487084394298162
 30
0.0
 10
0.2861631736010315
 20
0.1487084394298162
 30
0.0
 10
0.2822026675170761
 20
0.1640757455706448
 30
0.0
 10
0.2669981219002446
 20
0.1700571948275789
 30
0.0
 10
0.2517867945949144
 20
0.1760250807075119
 30
0.0
 10
0.2372536361395756
 20
0.1792938545644756
 30
0.0
 10
0.2178240985872915
 20
0.1676700404756053
 30
0.0
 10
0.1983945610350082
 20
0.1560597897637344
 30
0.0
 10
0.2039352005394459
 20
0.1533878044947636
 30
0.0
 10
0.2039352005394459
 20
0.1533878044947636
 30
0.0
  0
SPLINE
  5
64
330
1F
100
AcDbEntity
  8
Layer 1
 62
     7
370
     9
100
AcDbSpline
210
0.0
220
0.0
230
1.0
 70
     8
 71
     3
 72
    26
 73
    22
 74
     0
 42
0.0000000001
 43
0.0000000001
 40
0.0
 40
0.0
 40
0.0
 40
0.0
 40
1.0
 40
1.0
 40
1.0
 40
2.0
 40
2.0
 40
2.0
 40
3.0
 40
3.0
 40
3.0
 40
4.0
 40
4.0
 40
4.0
 40
5.0
 40
5.0
 40
5.0
 40
6.0
 40
6.0
 40
6.0
 40
7.0
 40
7.0
 40
7.0
 40
7.0
 10
0.2261994838846988
 20
0.1588538454257034
 30
0.0
 10
0.2231612874367324
 20
0.1550289731117456
 30
0.0
 10
0.2074006433629076
 20
0.1513668613217867
 30
0.0
 10
0.2074006433629076
 20
0.1513668613217867
 30
0.0
 10
0.2074006433629076
 20
0.1513668613217867
 30
0.0
 10
0.2172883451957981
 20
0.1446122995758614
 30
0.0
 10
0.2181292745697885
 20
0.1463619752088423
 30
0.0
 10
0.221472647000251
 20
0.1532928608557649
 30
0.0
 10
0.2241581956462211
 20
0.1574568175947189
 30
0.0
 10
0.2289460677271684
 20
0.1595862677836948
 30
0.0
 10
0.2337271581196152
 20
0.1617021545956714
 30
0.0
 10
0.2477788166914587
 20
0.1643198863566422
 30
0.0
 10
0.2578021522943468
 20
0.1606713379436826
 30
0.0
 10
0.2678254878972357
 20
0.1570499162847234
 30
0.0
 10
0.2810497804720891
 20
0.1462263414388438
 30
0.0
 10
0.2810497804720891
 20
0.1462263414388438
 30
0.0
 10
0.2810497804720891
 20
0.1462263414388438
 30
0.0
 10
0.2714740363101953
 20
0.1419674410608911
 30
0.0
 10
0.2714740363101953
 20
0.1419674410608911
 30
0.0
 10
0.2714740363101953
 20
0.1419674410608911
 30
0.0
 10
0.2709789730497008
 20
0.1526146920057725
 30
0.0
 10
0.2605894262678161
 20
0.1579722259207133
 30
0.0
  0
LWPOLYLINE
  5
65
330
1F
100
AcDbEntity
  8
Layer 1
 62
     7
370
     9
100
AcDbPolyline
 90
        2
 70
     0
 43
0.0
 10
0.049461899888164
 20
1.926575551504545
 10
0.0378719942417929
 20
1.93423207782096
  0
LWPOLYLINE
  5
69
330
1F
100
AcDbEntity
  8
Layer 1
 62
     7
370
     9
100
AcDbPolyline
 90
        2
 70
     0
 43
0.0
 10
0.0763309497248654
 20
1.97201964614254
 10
0.0673926842819643
 20
1.980008475195451
  0
INSERT
  5
6E
330
1F
100
AcDbEntity
  8
Layer 1
100
AcDbBlockReference
  2
block 2
 10
-3.982218004874501
 20
-4.269371730993052
 30
0.0
  0
INSERT
  5
C7
330
1F
100
AcDbEntity
  8
0
100
AcDbBlockReference
 66
     1
  2
sstmodel
 10
0.8065589531281949
 20
1.111233656964743
 30
0.0
 41
0.5
 42
0.5
 43
0.5
  0
ATTRIB
  5
C8
330
C7
100
AcDbEntity
  8
NOTE
 62
     7
100
AcDbText
 10
0.7208367258114472
 20
1.087386451601702
 30
0.0
 40
0.045
  1
HTT5
  7
HELVETICA
 72
     1
 11
0.7979795829543044
 21
1.087386451601702
 31
0.0
100
AcDbAttribute
  2
MODEL
 70
     0
  0
ATTRIB
  5
C9
330
C7
100
AcDbEntity
  8
NOTE
100
AcDbText
 10
0.8063295829543045
 20
1.010841424601333
 30
0.0
 40
0.045
  1

  7
HELVETICA
 72
     1
 11
0.8063295829543045
 21
1.010841424601333
 31
0.0
100
AcDbAttribute
  2
APPROVAL
 70
     4
  0
SEQEND
  5
CA
330
C7
100
AcDbEntity
  8
0
  0
ENDSEC
  0
SECTION
  2
OBJECTS
  0
DICTIONARY
  5
C
330
0
100
AcDbDictionary
281
     1
  3
ACAD_COLOR
350
A9
  3
ACAD_GROUP
350
D
  3
ACAD_LAYOUT
350
1A
  3
ACAD_MATERIAL
350
A8
  3
ACAD_MLINESTYLE
350
17
  3
ACAD_PLOTSETTINGS
350
19
  3
ACAD_PLOTSTYLENAME
350
E
  3
ACAD_TABLESTYLE
350
A6
  3
ACAD_VISUALSTYLE
350
2A
  3
ACDBHEADERROUNDTRIPXREC
350
D8
  3
AcDbVariableDictionary
350
D3
  0
DICTIONARY
  5
BA
330
2
100
AcDbDictionary
280
     1
281
     1
  3
ACAD_LAYERSTATES
360
BB
  0
DICTIONARY
  5
AE
330
AD
100
AcDbDictionary
280
     1
281
     1
  3
ACAD_SORTENTS
360
AF
  0
DICTIONARY
  5
A9
102
{ACAD_REACTORS
330
C
102
}
330
C
100
AcDbDictionary
281
     1
  0
DICTIONARY
  5
D
102
{ACAD_REACTORS
330
C
102
}
330
C
100
AcDbDictionary
281
     1
  0
DICTIONARY
  5
1A
102
{ACAD_REACTORS
330
C
102
}
330
C
100
AcDbDictionary
281
     1
  3
Layout1
350
1E
  3
Layout2
350
26
  3
Model
350
22
  0
DICTIONARY
  5
A8
102
{ACAD_REACTORS
330
C
102
}
330
C
100
AcDbDictionary
281
     1
  0
DICTIONARY
  5
17
102
{ACAD_REACTORS
330
C
102
}
330
C
100
AcDbDictionary
281
     1
  3
Standard
350
18
  0
DICTIONARY
  5
19
102
{ACAD_REACTORS
330
C
102
}
330
C
100
AcDbDictionary
281
     1
  0
ACDBDICTIONARYWDFLT
  5
E
102
{ACAD_REACTORS
330
C
102
}
330
C
100
AcDbDictionary
281
     1
  3
Normal
350
F
100
AcDbDictionaryWithDefault
340
F
  0
DICTIONARY
  5
A6
102
{ACAD_REACTORS
330
C
102
}
330
C
100
AcDbDictionary
281
     1
  3
Standard
350
AA
  0
DICTIONARY
  5
2A
102
{ACAD_REACTORS
330
C
102
}
330
C
100
AcDbDictionary
281
     1
  3
2dWireframe
350
2F
  3
3D Hidden
350
31
  3
3dWireframe
350
30
  3
Basic
350
32
  3
Brighten
350
36
  3
ColorChange
350
3A
  3
Conceptual
350
34
  3
Dim
350
35
  3
Facepattern
350
39
  3
Flat
350
2B
  3
FlatWithEdges
350
2C
  3
Gouraud
350
2D
  3
GouraudWithEdges
350
2E
  3
Linepattern
350
38
  3
Realistic
350
33
  3
Thicken
350
37
  0
DICTIONARY
  5
D8
102
{ACAD_REACTORS
330
C
102
}
330
C
100
AcDbDictionary
281
     1
  3
COLORDICT
350
D9
  3
MATERIALDICT
350
DA
  0
DICTIONARY
  5
D3
102
{ACAD_REACTORS
330
C
102
}
330
C
100
AcDbDictionary
281
     1
  3
CTABLESTYLE
350
D4
  0
DICTIONARY
  5
BB
102
{ACAD_REACTORS
330
BA
102
}
330
BA
100
AcDbDictionary
281
     1
  0
SORTENTSTABLE
  5
AF
102
{ACAD_REACTORS
330
AE
102
}
330
AE
100
AcDbSortentsTable
330
AD
  0
LAYOUT
  5
1E
102
{ACAD_REACTORS
330
1A
102
}
102
{ACAD_XDICTIONARY
360
DB
102
}
330
1A
100
AcDbPlotSettings
  1

  2
none_device
  4

  6

 40
0.0
 41
0.0
 42
0.0
 43
0.0
 44
0.0
 45
0.0
 46
0.0
 47
0.0
 48
0.0
 49
0.0
140
0.0
141
0.0
142
1.0
143
1.0
 70
   688
 72
     0
 73
     0
 74
     5
  7

 75
    16
147
1.0
148
0.0
149
0.0
100
AcDbLayout
  1
Layout1
 70
     1
 71
     1
 10
0.0
 20
0.0
 11
12.0
 21
9.0
 12
0.0
 22
0.0
 32
0.0
 14
1.000000000000000E+20
 24
1.000000000000000E+20
 34
1.000000000000000E+20
 15
-1.000000000000000E+20
 25
-1.000000000000000E+20
 35
-1.000000000000000E+20
146
0.0
 13
0.0
 23
0.0
 33
0.0
 16
1.0
 26
0.0
 36
0.0
 17
0.0
 27
1.0
 37
0.0
 76
     0
330
1B
  0
LAYOUT
  5
26
102
{ACAD_REACTORS
330
1A
102
}
102
{ACAD_XDICTIONARY
360
DD
102
}
330
1A
100
AcDbPlotSettings
  1

  2
none_device
  4

  6

 40
0.0
 41
0.0
 42
0.0
 43
0.0
 44
0.0
 45
0.0
 46
0.0
 47
0.0
 48
0.0
 49
0.0
140
0.0
141
0.0
142
1.0
143
1.0
 70
   688
 72
     0
 73
     0
 74
     5
  7

 75
    16
147
1.0
148
0.0
149
0.0
100
AcDbLayout
  1
Layout2
 70
     1
 71
     2
 10
0.0
 20
0.0
 11
0.0
 21
0.0
 12
0.0
 22
0.0
 32
0.0
 14
0.0
 24
0.0
 34
0.0
 15
0.0
 25
0.0
 35
0.0
146
0.0
 13
0.0
 23
0.0
 33
0.0
 16
1.0
 26
0.0
 36
0.0
 17
0.0
 27
1.0
 37
0.0
 76
     0
330
23
  0
LAYOUT
  5
22
102
{ACAD_REACTORS
330
1A
102
}
102
{ACAD_XDICTIONARY
360
DF
102
}
330
1A
100
AcDbPlotSettings
  1

  2
none_device
  4

  6

 40
0.0
 41
0.0
 42
0.0
 43
0.0
 44
0.0
 45
0.0
 46
0.0
 47
0.0
 48
0.0
 49
0.0
140
0.0
141
0.0
142
1.0
143
1.0
 70
  1712
 72
     0
 73
     0
 74
     0
  7

 75
     0
147
1.0
148
0.0
149
0.0
100
AcDbLayout
  1
Model
 70
     1
 71
     0
 10
0.0
 20
0.0
 11
12.0
 21
9.0
 12
0.0
 22
0.0
 32
0.0
 14
1.000000000000000E+20
 24
1.000000000000000E+20
 34
1.000000000000000E+20
 15
-1.000000000000000E+20
 25
-1.000000000000000E+20
 35
-1.000000000000000E+20
146
0.0
 13
0.0
 23
0.0
 33
0.0
 16
1.0
 26
0.0
 36
0.0
 17
0.0
 27
1.0
 37
0.0
 76
     0
330
1F
  0
MLINESTYLE
  5
18
102
{ACAD_REACTORS
330
17
102
}
330
17
100
AcDbMlineStyle
  2
STANDARD
 70
     0
  3

 62
   256
 51
90.0
 52
90.0
 71
     2
 49
0.5
 62
   256
  6
BYLAYER
 49
-0.5
 62
   256
  6
BYLAYER
  0
ACDBPLACEHOLDER
  5
F
102
{ACAD_REACTORS
330
E
102
}
330
E
  0
ACAD_PROXY_OBJECT
  5
AA
102
{ACAD_REACTORS
330
A6
102
}
330
A6
100
AcDbProxyObject
 90
      499
 91
      504
 95
   983063
 70
     0
 93
     1841
310
4214DD185B99185C9928B81E85EB51B8AE3F2E07A17AD46E2B8FC02B5E8DC0F42B1CFD028000000C1008070000C3001FDFF8000000C1003FBFF000000182007F7FE00000030400FEFFC00000060801FDFF8000000C1003FBFF00000018200000000000000681FA0B0000001820100E000186003FBFF000000182007F7FE000
310
00030400FEFFC00000060801FDFF8000000C1003FBFF000000182007F7FE000000304000AD7A3703D0AC73F4160000003040201C00030C007F7FE00000030400FEFFC00000060801FDFF8000000C1003FBFF000000182007F7FE00000030400FEFFC000000608000
340
11
340
11
340
11
 94
        0
  0
ACAD_PROXY_OBJECT
  5
2F
102
{ACAD_REACTORS
330
2A
102
}
330
2A
100
AcDbProxyObject
 90
      499
 91
      501
 95
   983063
 70
     0
 93
      436
310
42CC9915DA5C99599C985B595049028333333333333E3BF0000000000000FB0107901411070040501600405405064090741402480A0340
 94
        0
1001
ACAD
1000
AcDbSavedByObjectVersion
1070
     0
1000
AcRTDxfName
1000
VISUALSTYLE
  0
ACAD_PROXY_OBJECT
  5
31
102
{ACAD_REACTORS
330
2A
102
}
330
2A
100
AcDbProxyObject
 90
      499
 91
      501
 95
   983063
 70
     0
 93
      500
310
424CD108121A5919195B90640502408333333333333E3BF0000000000000FB01079024090700405020000000000001110200405405064090740C02480A0340
 94
        0
1001
ACAD
1000
AcDbSavedByObjectVersion
1070
     0
1000
AcRTDxfName
1000
VISUALSTYLE
  0
ACAD_PROXY_OBJECT
  5
30
102
{ACAD_REACTORS
330
2A
102
}
330
2A
100
AcDbProxyObject
 90
      499
 91
      501
 95
   983063
 70
     0
 93
      436
310
42CCD915DA5C99599C985B595059028333333333333E3BF0000000000000FB0107901411070040501600405405064090741402480A0340
 94
        0
1001
ACAD
1000
AcDbSavedByObjectVersion
1070
     0
1000
AcRTDxfName
1000
VISUALSTYLE
  0
ACAD_PROXY_OBJECT
  5
32
102
{ACAD_REACTORS
330
2A
102
}
330
2A
100
AcDbProxyObject
 90
      499
 91
      501
 95
   983063
 70
     0
 93
      388
310
4150985CDA58D07406404333333333333E3BF0000000000000FB0107A41107004050150841D405064090741402480A0350
 94
        0
1001
ACAD
1000
AcDbSavedByObjectVersion
1070
     0
1000
AcRTDxfName
1000
VISUALSTYLE
  0
ACAD_PROXY_OBJECT
  5
36
102
{ACAD_REACTORS
330
2A
102
}
330
2A
100
AcDbProxyObject
 90
      499
 91
      501
 95
   983063
 70
     0
 93
      428
310
42109C9A59DA1D195B90C409028333333333333E3BF0000000000000FB010790141107004050150841D405064090741402480A029950
 94
        0
1001
ACAD
1000
AcDbSavedByObjectVersion
1070
     0
1000
AcRTDxfName
1000
VISUALSTYLE
  0
ACAD_PROXY_OBJECT
  5
3A
102
{ACAD_REACTORS
330
2A
102
}
330
2A
100
AcDbProxyObject
 90
      499
 91
      501
 95
   983063
 70
     0
 93
      452
310
42D0DBDB1BDC90DA185B99D95104090240C333333333333E3BF0000000000000FB0108901411070040501508421405064090741402480A0350
 94
        0
1001
ACAD
1000
AcDbSavedByObjectVersion
1070
     0
1000
AcRTDxfName
1000
VISUALSTYLE
  0
ACAD_PROXY_OBJECT
  5
34
102
{ACAD_REACTORS
330
2A
102
}
330
2A
100
AcDbProxyObject
 90
      499
 91
      501
 95
   983063
 70
     0
 93
      500
310
4290DBDB98D95C1D1D585B10940D028333333333333E3BF0000000000000FB0107902409070040501000000000000111010841D405064090740C02480A0340
 94
        0
1001
ACAD
1000
AcDbSavedByObjectVersion
1070
     0
1000
AcRTDxfName
1000
VISUALSTYLE
  0
ACAD_PROXY_OBJECT
  5
35
102
{ACAD_REACTORS
330
2A
102
}
330
2A
100
AcDbProxyObject
 90
      499
 91
      501
 95
   983063
 70
     0
 93
      412
310
40D11A5B50B409028333333333333E3BF0000000000000FB010790141107004050150841D405064090741402480A02677FFFFFD0
 94
        0
1001
ACAD
1000
AcDbSavedByObjectVersion
1070
     0
1000
AcRTDxfName
1000
VISUALSTYLE
  0
ACAD_PROXY_OBJECT
  5
39
102
{ACAD_REACTORS
330
2A
102
}
330
2A
100
AcDbProxyObject
 90
      499
 91
      501
 95
   983063
 70
     0
 93
      444
310
42D19858D95C185D1D195C9B90F409028333333333333E3BF0000000000000FB010790141107004050150841D405064090741402480A0350
 94
        0
1001
ACAD
1000
AcDbSavedByObjectVersion
1070
     0
1000
AcRTDxfName
1000
VISUALSTYLE
  0
ACAD_PROXY_OBJECT
  5
2B
102
{ACAD_REACTORS
330
2A
102
}
330
2A
100
AcDbProxyObject
 90
      499
 91
      501
 95
   983063
 70
     0
 93
      388
310
41119B185D240901404333333333333E3BF0000000000000F9010740A41107004050150841D405064090741402480A1B50
 94
        0
1001
ACAD
1000
AcDbSavedByObjectVersion
1070
     0
1000
AcRTDxfName
1000
VISUALSTYLE
  0
ACAD_PROXY_OBJECT
  5
2C
102
{ACAD_REACTORS
330
2A
102
}
330
2A
100
AcDbProxyObject
 90
      499
 91
      501
 95
   983063
 70
     0
 93
      476
310
43519B185D15DA5D1A115919D95CD0140901404333333333333E3BF0000000000000F9010740901411070040501600405405064090741402480A1B50
 94
        0
1001
ACAD
1000
AcDbSavedByObjectVersion
1070
     0
1000
AcRTDxfName
1000
VISUALSTYLE
  0
ACAD_PROXY_OBJECT
  5
2D
102
{ACAD_REACTORS
330
2A
102
}
330
2A
100
AcDbProxyObject
 90
      499
 91
      501
 95
   983063
 70
     0
 93
      412
310
41D1DBDD5C985D5910240902404333333333333E3BF0000000000000F9010740A411070040501641D405064090741402480A1B50
 94
        0
1001
ACAD
1000
AcDbSavedByObjectVersion
1070
     0
1000
AcRTDxfName
1000
VISUALSTYLE
  0
ACAD_PROXY_OBJECT
  5
2E
102
{ACAD_REACTORS
330
2A
102
}
330
2A
100
AcDbProxyObject
 90
      499
 91
      501
 95
   983063
 70
     0
 93
      500
310
4411DBDD5C985D5915DA5D1A115919D95CD0340902404333333333333E3BF0000000000000F9010740901411070040501600405405064090741402480A1B50
 94
        0
1001
ACAD
1000
AcDbSavedByObjectVersion
1070
     0
1000
AcRTDxfName
1000
VISUALSTYLE
  0
ACAD_PROXY_OBJECT
  5
38
102
{ACAD_REACTORS
330
2A
102
}
330
2A
100
AcDbProxyObject
 90
      499
 91
      501
 95
   983063
 70
     0
 93
      444
310
42D31A5B995C185D1D195C9B90E409028333333333333E3BF0000000000000FB010790141107004050750841D405064090741402483A0350
 94
        0
1001
ACAD
1000
AcDbSavedByObjectVersion
1070
     0
1000
AcRTDxfName
1000
VISUALSTYLE
  0
ACAD_PROXY_OBJECT
  5
33
102
{ACAD_REACTORS
330
2A
102
}
330
2A
100
AcDbProxyObject
 90
      499
 91
      501
 95
   983063
 70
     0
 93
      420
310
425499585B1A5CDD1A58D08409028333333333333E3BF0000000000000FB01079019070040501508421405064090741402480A1B40
 94
        0
1001
ACAD
1000
AcDbSavedByObjectVersion
1070
     0
1000
AcRTDxfName
1000
VISUALSTYLE
  0
ACAD_PROXY_OBJECT
  5
37
102
{ACAD_REACTORS
330
2A
102
}
330
2A
100
AcDbProxyObject
 90
      499
 91
      501
 95
   983063
 70
     0
 93
      412
310
41D51A1A58DAD95B90D409028333333333333E3BF0000000000000FB010790141107004050150C41D405064090741402480A0350
 94
        0
1001
ACAD
1000
AcDbSavedByObjectVersion
1070
     0
1000
AcRTDxfName
1000
VISUALSTYLE
  0
XRECORD
  5
D9
102
{ACAD_REACTORS
330
D8
102
}
330
D8
100
AcDbXrecord
340
A9
  0
XRECORD
  5
DA
102
{ACAD_REACTORS
330
D8
102
}
330
D8
100
AcDbXrecord
340
A8
  0
DICTIONARYVAR
  5
D4
102
{ACAD_REACTORS
330
D3
102
}
330
D3
100
DictionaryVariables
280
     0
  1
STANDARD
  0
DICTIONARY
  5
DB
330
1E
100
AcDbDictionary
280
     1
281
     1
  3
ACAD_XREC_ROUNDTRIP
360
DC
  0
DICTIONARY
  5
DD
330
26
100
AcDbDictionary
280
     1
281
     1
  3
ACAD_XREC_ROUNDTRIP
360
DE
  0
DICTIONARY
  5
DF
330
22
100
AcDbDictionary
280
     1
281
     1
  3
ACAD_XREC_ROUNDTRIP
360
E0
  0
XRECORD
  5
DC
102
{ACAD_REACTORS
330
DB
102
}
330
DB
100
AcDbXrecord
102
SHADEPLOT
 70
     0
102
SHADEPLOTRESLEVEL
 70
     2
102
SHADEPLOTCUSTOMDPI
 70
   300
  0
XRECORD
  5
DE
102
{ACAD_REACTORS
330
DD
102
}
330
DD
100
AcDbXrecord
102
SHADEPLOT
 70
     0
102
SHADEPLOTRESLEVEL
 70
     2
102
SHADEPLOTCUSTOMDPI
 70
   300
  0
XRECORD
  5
E0
102
{ACAD_REACTORS
330
DF
102
}
330
DF
100
AcDbXrecord
102
SHADEPLOT
 70
     0
102
SHADEPLOTRESLEVEL
 70
     2
102
SHADEPLOTCUSTOMDPI
 70
   300
  0
ENDSEC
  0
EOF
