  0
SECTION
  2
HEADER
  9
$ACADVER
  1
AC1015
  9
$ACADMAINTVER
 70
     6
  9
$DWGCODEPAGE
  3
ISO8859-1
  9
$INSBASE
 10
0.0
 20
0.0
 30
0.0
  9
$EXTMIN
 10
13.347731
 20
7.668536000000001
 30
0.0
  9
$EXTMAX
 10
18.97732695238094
 20
15.503951
 30
0.0
  9
$LIMMIN
 10
0.0
 20
0.0
  9
$LIMMAX
 10
12.0
 20
9.0
  9
$ORTHOMODE
 70
     0
  9
$REGENMODE
 70
     0
  9
$FILLMODE
 70
     1
  9
$QTEXTMODE
 70
     0
  9
$MIRRTEXT
 70
     1
  9
$LTSCALE
 40
0.25
  9
$ATTMODE
 70
     1
  9
$TEXTSIZE
 40
0.22
  9
$TRACEWID
 40
0.05
  9
$TEXTSTYLE
  7
STANDARD
  9
$CLAYER
  8
0
  9
$CELTYPE
  6
ByLayer
  9
$CECOLOR
 62
   256
  9
$CELTSCALE
 40
1.0
  9
$DISPSILH
 70
     0
  9
$DIMSCALE
 40
1.0
  9
$DIMASZ
 40
0.125
  9
$DIMEXO
 40
0.0625
  9
$DIMDLI
 40
0.38
  9
$DIMRND
 40
0.0
  9
$DIMDLE
 40
0.0
  9
$DIMEXE
 40
0.18
  9
$DIMTP
 40
0.0
  9
$DIMTM
 40
0.0
  9
$DIMTXT
 40
0.125
  9
$DIMCEN
 40
0.09
  9
$DIMTSZ
 40
0.0
  9
$DIMTOL
 70
     0
  9
$DIMLIM
 70
     0
  9
$DIMTIH
 70
     1
  9
$DIMTOH
 70
     1
  9
$DIMSE1
 70
     0
  9
$DIMSE2
 70
     0
  9
$DIMTAD
 70
     0
  9
$DIMZIN
 70
     0
  9
$DIMBLK
  1

  9
$DIMASO
 70
     0
  9
$DIMSHO
 70
     1
  9
$DIMPOST
  1

  9
$DIMAPOST
  1

  9
$DIMALT
 70
     0
  9
$DIMALTD
 70
     2
  9
$DIMALTF
 40
25.4
  9
$DIMLFAC
 40
1.0
  9
$DIMTOFL
 70
     0
  9
$DIMTVP
 40
0.0
  9
$DIMTIX
 70
     0
  9
$DIMSOXD
 70
     0
  9
$DIMSAH
 70
     0
  9
$DIMBLK1
  1

  9
$DIMBLK2
  1

  9
$DIMSTYLE
  2
Standard
  9
$DIMCLRD
 70
     0
  9
$DIMCLRE
 70
     0
  9
$DIMCLRT
 70
     0
  9
$DIMTFAC
 40
1.0
  9
$DIMGAP
 40
0.09
  9
$DIMJUST
 70
     0
  9
$DIMSD1
 70
     0
  9
$DIMSD2
 70
     0
  9
$DIMTOLJ
 70
     1
  9
$DIMTZIN
 70
     0
  9
$DIMALTZ
 70
     0
  9
$DIMALTTZ
 70
     0
  9
$DIMUPT
 70
     0
  9
$DIMDEC
 70
     4
  9
$DIMTDEC
 70
     4
  9
$DIMALTU
 70
     2
  9
$DIMALTTD
 70
     2
  9
$DIMTXSTY
  7
STANDARD
  9
$DIMAUNIT
 70
     0
  9
$DIMADEC
 70
     0
  9
$DIMALTRND
 40
0.0
  9
$DIMAZIN
 70
     0
  9
$DIMDSEP
 70
    46
  9
$DIMATFIT
 70
     3
  9
$DIMFRAC
 70
     0
  9
$DIMLDRBLK
  1

  9
$DIMLUNIT
 70
     2
  9
$DIMLWD
 70
    -2
  9
$DIMLWE
 70
    -2
  9
$DIMTMOVE
 70
     0
  9
$LUNITS
 70
     2
  9
$LUPREC
 70
     4
  9
$SKETCHINC
 40
0.1
  9
$FILLETRAD
 40
0.0625
  9
$AUNITS
 70
     0
  9
$AUPREC
 70
     0
  9
$MENU
  1
acad
  9
$ELEVATION
 40
0.0
  9
$PELEVATION
 40
0.0
  9
$THICKNESS
 40
0.0
  9
$LIMCHECK
 70
     0
  9
$CHAMFERA
 40
0.0
  9
$CHAMFERB
 40
0.0
  9
$CHAMFERC
 40
1.0
  9
$CHAMFERD
 40
0.0
  9
$SKPOLY
 70
     0
  9
$TDCREATE
 40
2453955.561579456
  9
$TDUCREATE
 40
2453955.89491279
  9
$TDUPDATE
 40
2453955.603246134
  9
$TDUUPDATE
 40
2453955.894912801
  9
$TDINDWG
 40
0.0000000116
  9
$TDUSRTIMER
 40
0.0000000116
  9
$USRTIMER
 70
     1
  9
$ANGBASE
 50
0.0
  9
$ANGDIR
 70
     0
  9
$PDMODE
 70
     0
  9
$PDSIZE
 40
0.0
  9
$PLINEWID
 40
0.0
  9
$SPLFRAME
 70
     0
  9
$SPLINETYPE
 70
     6
  9
$SPLINESEGS
 70
     8
  9
$HANDSEED
  5
197
  9
$SURFTAB1
 70
     6
  9
$SURFTAB2
 70
     6
  9
$SURFTYPE
 70
     6
  9
$SURFU
 70
     6
  9
$SURFV
 70
     6
  9
$UCSBASE
  2

  9
$UCSNAME
  2

  9
$UCSORG
 10
0.0
 20
0.0
 30
0.0
  9
$UCSXDIR
 10
1.0
 20
0.0
 30
0.0
  9
$UCSYDIR
 10
0.0
 20
1.0
 30
0.0
  9
$UCSORTHOREF
  2

  9
$UCSORTHOVIEW
 70
     0
  9
$UCSORGTOP
 10
0.0
 20
0.0
 30
0.0
  9
$UCSORGBOTTOM
 10
0.0
 20
0.0
 30
0.0
  9
$UCSORGLEFT
 10
0.0
 20
0.0
 30
0.0
  9
$UCSORGRIGHT
 10
0.0
 20
0.0
 30
0.0
  9
$UCSORGFRONT
 10
0.0
 20
0.0
 30
0.0
  9
$UCSORGBACK
 10
0.0
 20
0.0
 30
0.0
  9
$PUCSBASE
  2

  9
$PUCSNAME
  2

  9
$PUCSORG
 10
0.0
 20
0.0
 30
0.0
  9
$PUCSXDIR
 10
1.0
 20
0.0
 30
0.0
  9
$PUCSYDIR
 10
0.0
 20
1.0
 30
0.0
  9
$PUCSORTHOREF
  2

  9
$PUCSORTHOVIEW
 70
     0
  9
$PUCSORGTOP
 10
0.0
 20
0.0
 30
0.0
  9
$PUCSORGBOTTOM
 10
0.0
 20
0.0
 30
0.0
  9
$PUCSORGLEFT
 10
0.0
 20
0.0
 30
0.0
  9
$PUCSORGRIGHT
 10
0.0
 20
0.0
 30
0.0
  9
$PUCSORGFRONT
 10
0.0
 20
0.0
 30
0.0
  9
$PUCSORGBACK
 10
0.0
 20
0.0
 30
0.0
  9
$USERI1
 70
     0
  9
$USERI2
 70
     0
  9
$USERI3
 70
     0
  9
$USERI4
 70
     0
  9
$USERI5
 70
     0
  9
$USERR1
 40
0.0
  9
$USERR2
 40
0.0
  9
$USERR3
 40
0.0
  9
$USERR4
 40
0.0
  9
$USERR5
 40
0.0
  9
$WORLDVIEW
 70
     1
  9
$SHADEDGE
 70
     3
  9
$SHADEDIF
 70
    70
  9
$TILEMODE
 70
     1
  9
$MAXACTVP
 70
    16
  9
$PINSBASE
 10
0.0
 20
0.0
 30
0.0
  9
$PLIMCHECK
 70
     0
  9
$PEXTMIN
 10
1.000000000000000E+20
 20
1.000000000000000E+20
 30
1.000000000000000E+20
  9
$PEXTMAX
 10
-1.000000000000000E+20
 20
-1.000000000000000E+20
 30
-1.000000000000000E+20
  9
$PLIMMIN
 10
0.0
 20
0.0
  9
$PLIMMAX
 10
12.0
 20
9.0
  9
$UNITMODE
 70
     0
  9
$VISRETAIN
 70
     0
  9
$PLINEGEN
 70
     0
  9
$PSLTSCALE
 70
     1
  9
$TREEDEPTH
 70
  3020
  9
$CMLSTYLE
  2
Standard
  9
$CMLJUST
 70
     0
  9
$CMLSCALE
 40
1.0
  9
$PROXYGRAPHICS
 70
     1
  9
$MEASUREMENT
 70
     0
  9
$CELWEIGHT
370
    -1
  9
$ENDCAPS
280
     0
  9
$JOINSTYLE
280
     0
  9
$LWDISPLAY
290
     0
  9
$INSUNITS
 70
     1
  9
$HYPERLINKBASE
  1

  9
$STYLESHEET
  1

  9
$XEDIT
290
     1
  9
$CEPSNTYPE
380
     0
  9
$PSTYLEMODE
290
     0
  9
$FINGERPRINTGUID
  2
{FAEB1C30-E019-11D5-929B-00C0DF256EC4}
  9
$VERSIONGUID
  2
{FAEB1C32-E019-11D5-929B-00C0DF256EC4}
  9
$EXTNAMES
290
     1
  9
$PSVPSCALE
 40
0.0
  9
$OLESTARTUP
290
     0
  0
ENDSEC
  0
SECTION
  2
CLASSES
  0
CLASS
  1
ACDBDICTIONARYWDFLT
  2
AcDbDictionaryWithDefault
  3
AutoCAD 2000
 90
        0
280
     0
281
     0
  0
CLASS
  1
ACDBPLACEHOLDER
  2
AcDbPlaceHolder
  3
ObjectDBX Classes
 90
        0
280
     0
281
     0
  0
CLASS
  1
LAYOUT
  2
AcDbLayout
  3
ObjectDBX Classes
 90
        0
280
     0
281
     0
  0
ENDSEC
  0
SECTION
  2
TABLES
  0
TABLE
  2
VPORT
  5
8
330
0
100
AcDbSymbolTable
 70
     2
  0
VPORT
  5
1E
330
8
100
AcDbSymbolTableRecord
100
AcDbViewportTableRecord
  2
*ACTIVE
 70
     0
 10
0.0
 20
0.0
 11
1.0
 21
1.0
 12
10.75516213438257
 22
7.7519755
 13
0.0
 23
0.0
 14
1.0
 24
1.0
 15
0.0
 25
0.0
 16
0.0
 26
0.0
 36
1.0
 17
0.0
 27
0.0
 37
0.0
 40
15.503951
 41
0.7207678883071553
 42
50.0
 43
0.0
 44
0.0
 50
0.0
 51
0.0
 71
     0
 72
  2000
 73
     1
 74
     0
 75
     0
 76
     0
 77
     0
 78
     0
281
     0
 65
     1
110
0.0
120
0.0
130
0.0
111
1.0
121
0.0
131
0.0
112
0.0
122
1.0
132
0.0
 79
     0
146
0.0
  0
ENDTAB
  0
TABLE
  2
LTYPE
  5
5
330
0
100
AcDbSymbolTable
 70
     1
  0
LTYPE
  5
10
330
5
100
AcDbSymbolTableRecord
100
AcDbLinetypeTableRecord
  2
ByBlock
 70
     0
  3

 72
    65
 73
     0
 40
0.0
  0
LTYPE
  5
11
330
5
100
AcDbSymbolTableRecord
100
AcDbLinetypeTableRecord
  2
ByLayer
 70
     0
  3

 72
    65
 73
     0
 40
0.0
  0
LTYPE
  5
1B
330
5
100
AcDbSymbolTableRecord
100
AcDbLinetypeTableRecord
  2
CONTINUOUS
 70
     0
  3
Solid line
 72
    65
 73
     0
 40
0.0
  0
ENDTAB
  0
TABLE
  2
LAYER
  5
2
330
0
100
AcDbSymbolTable
 70
     1
  0
LAYER
  5
1C
330
2
100
AcDbSymbolTableRecord
100
AcDbLayerTableRecord
  2
0
 70
     0
 62
     7
  6
CONTINUOUS
370
    -3
390
F
  0
ENDTAB
  0
TABLE
  2
STYLE
  5
3
330
0
100
AcDbSymbolTable
 70
     1
  0
STYLE
  5
21
330
3
100
AcDbSymbolTableRecord
100
AcDbTextStyleTableRecord
  2
STANDARD
 70
     0
 40
0.0
 41
1.0
 50
0.0
 71
     0
 42
0.22
  3
ROMANS.SHX
  4

  0
ENDTAB
  0
TABLE
  2
VIEW
  5
6
330
0
100
AcDbSymbolTable
 70
     1
  0
VIEW
  5
20
330
6
100
AcDbSymbolTableRecord
100
AcDbViewTableRecord
  2
1
 70
     0
 40
12.757069
 10
18.224796
 20
11.087792
 41
16.620738
 11
0.0
 21
0.0
 31
1.0
 12
0.0
 22
0.0
 32
0.0
 42
50.0
 43
0.0
 44
0.0
 50
0.0
 71
     0
281
     0
 72
     0
  0
ENDTAB
  0
TABLE
  2
UCS
  5
7
330
0
100
AcDbSymbolTable
 70
     0
  0
ENDTAB
  0
TABLE
  2
APPID
  5
9
330
0
100
AcDbSymbolTable
 70
     1
  0
APPID
  5
1F
330
9
100
AcDbSymbolTableRecord
100
AcDbRegAppTableRecord
  2
ACAD
 70
     0
  0
ENDTAB
  0
TABLE
  2
DIMSTYLE
  5
A
330
0
100
AcDbSymbolTable
 70
     1
100
AcDbDimStyleTable
  0
DIMSTYLE
105
22
330
A
100
AcDbSymbolTableRecord
100
AcDbDimStyleTableRecord
  2
Standard
 70
     0
  3

  4

340
21
  0
ENDTAB
  0
TABLE
  2
BLOCK_RECORD
  5
1
330
0
100
AcDbSymbolTable
 70
     0
  0
BLOCK_RECORD
  5
18
330
1
100
AcDbSymbolTableRecord
100
AcDbBlockTableRecord
  2
*Model_Space
340
19
  0
BLOCK_RECORD
  5
16
330
1
100
AcDbSymbolTableRecord
100
AcDbBlockTableRecord
  2
*Paper_Space
340
17
  0
ENDTAB
  0
ENDSEC
  0
SECTION
  2
BLOCKS
  0
BLOCK
  5
18C
330
18
100
AcDbEntity
  8
0
100
AcDbBlockBegin
  2
*Model_Space
 70
     0
 10
0.0
 20
0.0
 30
0.0
  3
*Model_Space
  1

  4

  0
ENDBLK
  5
18D
330
18
100
AcDbEntity
  8
0
100
AcDbBlockEnd
  0
BLOCK
  5
18A
330
16
100
AcDbEntity
 67
     1
  8
0
100
AcDbBlockBegin
  2
*Paper_Space
 70
     0
 10
0.0
 20
0.0
 30
0.0
  3
*Paper_Space
  1

  4

  0
ENDBLK
  5
18B
330
16
100
AcDbEntity
 67
     1
  8
0
100
AcDbBlockEnd
  0
ENDSEC
  0
SECTION
  2
ENTITIES
  0
LINE
  5
23
330
18
100
AcDbEntity
  8
0
100
AcDbLine
 10
18.792486
 20
12.735853
 30
0.0
 11
18.792486
 21
9.350663000000001
 31
0.0
  0
LINE
  5
24
330
18
100
AcDbEntity
  8
0
100
AcDbLine
 10
17.556065
 20
8.803003
 30
0.0
 11
18.792486
 21
9.350663000000001
 31
0.0
  0
LINE
  5
25
330
18
100
AcDbEntity
  8
0
100
AcDbLine
 10
17.523228
 20
12.273827
 30
0.0
 11
18.792486
 21
12.735853
 31
0.0
  0
LINE
  5
26
330
18
100
AcDbEntity
  8
0
100
AcDbLine
 10
13.481152
 20
15.247756
 30
0.0
 11
17.523228
 21
12.273827
 31
0.0
  0
LINE
  5
27
330
18
100
AcDbEntity
  8
0
100
AcDbLine
 10
18.792486
 20
12.735853
 30
0.0
 11
14.549729
 21
15.503951
 31
0.0
  0
LINE
  5
28
330
18
100
AcDbEntity
  8
0
100
AcDbLine
 10
13.481152
 20
15.247756
 30
0.0
 11
14.549729
 21
15.503951
 31
0.0
  0
LINE
  5
29
330
18
100
AcDbEntity
  8
0
100
AcDbLine
 10
13.481152
 20
15.247756
 30
0.0
 11
13.481152
 21
14.220908
 31
0.0
  0
LINE
  5
2A
330
18
100
AcDbEntity
  8
0
100
AcDbLine
 10
13.481152
 20
12.767833
 30
0.0
 11
14.325386
 21
11.946406
 31
0.0
  0
LINE
  5
2B
330
18
100
AcDbEntity
  8
0
100
AcDbLine
 10
17.523228
 20
12.273827
 30
0.0
 11
17.525294
 21
12.055498
 31
0.0
  0
LINE
  5
2C
330
18
100
AcDbEntity
  8
0
100
AcDbLine
 10
14.436173
 20
8.283127
 30
0.0
 11
17.027633
 21
9.412927999999999
 31
0.0
  0
LINE
  5
2D
330
18
100
AcDbEntity
  8
0
100
AcDbLine
 10
14.40894
 20
11.161692
 30
0.0
 11
17.523228
 21
12.273827
 31
0.0
  0
LINE
  5
2E
330
18
100
AcDbEntity
  8
0
100
AcDbLine
 10
14.408873
 20
11.168767
 30
0.0
 11
14.419305
 21
10.066045
 31
0.0
  0
LINE
  5
2F
330
18
100
AcDbEntity
  8
0
100
AcDbLine
 10
13.823016
 20
9.017339
 30
0.0
 11
14.436179
 21
8.282524
 31
0.0
  0
LINE
  5
30
330
18
100
AcDbEntity
  8
0
100
AcDbLine
 10
13.796993
 20
11.767976
 30
0.0
 11
14.408873
 21
11.168767
 31
0.0
  0
LINE
  5
31
330
18
100
AcDbEntity
  8
0
100
AcDbLine
 10
13.796993
 20
11.767976
 30
0.0
 11
13.806623
 21
10.750154
 31
0.0
  0
LINE
  5
32
330
18
100
AcDbEntity
  8
0
100
AcDbLine
 10
13.796993
 20
11.767976
 30
0.0
 11
16.822256
 21
12.789562
 31
0.0
  0
LINE
  5
33
330
18
100
AcDbEntity
  8
0
100
AcDbLine
 10
16.959662
 20
9.383293999999999
 30
0.0
 11
17.556065
 21
8.803003
 31
0.0
  0
LINE
  5
34
330
18
100
AcDbEntity
  8
0
100
AcDbLine
 10
17.562675
 20
12.029418
 30
0.0
 11
17.585119
 21
9.656994000000001
 31
0.0
  0
LINE
  5
35
330
18
100
AcDbEntity
  8
0
100
AcDbLine
 10
13.481152
 20
13.926303
 30
0.0
 11
13.481152
 21
12.767833
 31
0.0
  0
LINE
  5
36
330
18
100
AcDbEntity
  8
0
100
AcDbLine
 10
17.025668
 20
9.620644
 30
0.0
 11
17.062865
 21
9.613977
 31
0.0
  0
LINE
  5
37
330
18
100
AcDbEntity
  8
0
100
AcDbLine
 10
17.525294
 20
12.055498
 30
0.0
 11
17.562675
 21
12.029418
 31
0.0
  0
LINE
  5
38
330
18
100
AcDbEntity
  8
0
100
AcDbLine
 10
17.064997
 20
9.388710000000001
 30
0.0
 11
17.5476
 21
9.599111000000001
 31
0.0
  0
LINE
  5
39
330
18
100
AcDbEntity
  8
0
100
AcDbLine
 10
17.562675
 20
12.029418
 30
0.0
 11
17.227774
 21
11.909823
 31
0.0
  0
LINE
  5
3A
330
18
100
AcDbEntity
  8
0
100
AcDbLine
 10
17.227774
 20
11.909823
 30
0.0
 11
17.244974
 21
10.091766
 31
0.0
  0
LINE
  5
3B
330
18
100
AcDbEntity
  8
0
100
AcDbLine
 10
17.244974
 20
10.091766
 30
0.0
 11
17.062865
 21
9.613977
 31
0.0
  0
LINE
  5
3C
330
18
100
AcDbEntity
  8
0
100
AcDbLine
 10
17.062865
 20
9.613977
 30
0.0
 11
17.064997
 21
9.388710000000001
 31
0.0
  0
LINE
  5
3D
330
18
100
AcDbEntity
  8
0
100
AcDbLine
 10
17.525294
 20
12.055498
 30
0.0
 11
17.190393
 21
11.935903
 31
0.0
  0
LINE
  5
3E
330
18
100
AcDbEntity
  8
0
100
AcDbLine
 10
17.190393
 20
11.935903
 30
0.0
 11
17.207777
 21
10.098433
 31
0.0
  0
LINE
  5
3F
330
18
100
AcDbEntity
  8
0
100
AcDbLine
 10
17.207777
 20
10.098433
 30
0.0
 11
17.025668
 21
9.620644
 31
0.0
  0
LINE
  5
40
330
18
100
AcDbEntity
  8
0
100
AcDbLine
 10
17.025668
 20
9.620644
 30
0.0
 11
17.027633
 21
9.412927999999999
 31
0.0
  0
ARC
  5
41
330
18
100
AcDbEntity
  8
0
100
AcDbCircle
 10
17.041722
 20
9.434828999999999
 30
0.0
 40
0.05166
100
AcDbArc
 50
219.794191
 51
296.777984
  0
LINE
  5
42
330
18
100
AcDbEntity
  8
0
100
AcDbLine
 10
17.548529
 20
9.599516
 30
0.0
 11
17.556065
 21
8.803003
 31
0.0
  0
LINE
  5
43
330
18
100
AcDbEntity
  8
0
100
AcDbLine
 10
13.81061
 20
10.328636
 30
0.0
 11
14.423293
 21
9.644527
 31
0.0
  0
LINE
  5
44
330
18
100
AcDbEntity
  8
0
100
AcDbLine
 10
13.806623
 20
10.750154
 30
0.0
 11
14.419305
 21
10.066045
 31
0.0
  0
LINE
  5
45
330
18
100
AcDbEntity
  8
0
100
AcDbLine
 10
13.713897
 20
10.562759
 30
0.0
 11
14.32658
 21
9.87865
 31
0.0
  0
LINE
  5
46
330
18
100
AcDbEntity
  8
0
100
AcDbLine
 10
14.423293
 20
9.644527
 30
0.0
 11
14.436179
 21
8.282524
 31
0.0
  0
LINE
  5
47
330
18
100
AcDbEntity
  8
0
100
AcDbLine
 10
13.81061
 20
10.328636
 30
0.0
 11
13.823016
 21
9.017339
 31
0.0
  0
CIRCLE
  5
48
330
18
100
AcDbEntity
  8
0
100
AcDbCircle
 10
17.3398
 20
9.837957000000001
 30
0.0
 40
0.032625
  0
CIRCLE
  5
49
330
18
100
AcDbEntity
  8
0
100
AcDbCircle
 10
17.3398
 20
10.242787
 30
0.0
 40
0.032625
  0
CIRCLE
  5
4A
330
18
100
AcDbEntity
  8
0
100
AcDbCircle
 10
17.3398
 20
11.030402
 30
0.0
 40
0.032625
  0
LINE
  5
4B
330
18
100
AcDbEntity
  8
0
100
AcDbLine
 10
17.29763
 20
11.203728
 30
0.0
 11
17.3797
 21
11.158435
 31
0.0
  0
LINE
  5
4C
330
18
100
AcDbEntity
  8
0
100
AcDbLine
 10
17.3797
 20
11.158435
 30
0.0
 11
17.37789
 21
11.252156
 31
0.0
  0
LINE
  5
4D
330
18
100
AcDbEntity
  8
0
100
AcDbLine
 10
17.37789
 20
11.252156
 30
0.0
 11
17.29763
 21
11.203728
 31
0.0
  0
LINE
  5
4E
330
18
100
AcDbEntity
  8
0
100
AcDbLine
 10
17.3797
 20
10.370819
 30
0.0
 11
17.37789
 21
10.464541
 31
0.0
  0
LINE
  5
4F
330
18
100
AcDbEntity
  8
0
100
AcDbLine
 10
17.29763
 20
10.416113
 30
0.0
 11
17.3797
 21
10.370819
 31
0.0
  0
LINE
  5
50
330
18
100
AcDbEntity
  8
0
100
AcDbLine
 10
17.37789
 20
10.464541
 30
0.0
 11
17.29763
 21
10.416113
 31
0.0
  0
LINE
  5
51
330
18
100
AcDbEntity
  8
0
100
AcDbLine
 10
17.348273
 20
11.175779
 30
0.0
 11
17.347156
 21
11.233612
 31
0.0
  0
LINE
  5
52
330
18
100
AcDbEntity
  8
0
100
AcDbLine
 10
17.348273
 20
10.388163
 30
0.0
 11
17.347156
 21
10.445997
 31
0.0
  0
LINE
  5
53
330
18
100
AcDbEntity
  8
0
100
AcDbLine
 10
13.811516
 20
10.232945
 30
0.0
 11
13.830968
 21
10.305906
 31
0.0
  0
LINE
  5
54
330
18
100
AcDbEntity
  8
0
100
AcDbLine
 10
13.830968
 20
10.305906
 30
0.0
 11
13.882068
 21
10.380579
 31
0.0
  0
ARC
  5
55
330
18
100
AcDbEntity
  8
0
100
AcDbCircle
 10
17.522622
 20
9.656402
 30
0.0
 40
0.0625
100
AcDbArc
 50
293.555798
 51
0.54204
  0
LINE
  5
56
330
18
100
AcDbEntity
  8
0
100
AcDbLine
 10
17.190393
 20
11.935903
 30
0.0
 11
17.227774
 21
11.909823
 31
0.0
  0
LINE
  5
57
330
18
100
AcDbEntity
  8
0
100
AcDbLine
 10
14.255542
 20
11.318923
 30
0.0
 11
14.230354
 21
11.175236
 31
0.0
  0
LINE
  5
58
330
18
100
AcDbEntity
  8
0
100
AcDbLine
 10
14.230354
 20
11.175236
 30
0.0
 11
14.211436
 21
11.022908
 31
0.0
  0
LINE
  5
59
330
18
100
AcDbEntity
  8
0
100
AcDbLine
 10
14.211436
 20
11.022908
 30
0.0
 11
14.189545
 21
10.828492
 31
0.0
  0
LINE
  5
5A
330
18
100
AcDbEntity
  8
0
100
AcDbLine
 10
14.189545
 20
10.828492
 30
0.0
 11
14.162635
 21
10.646096
 31
0.0
  0
LINE
  5
5B
330
18
100
AcDbEntity
  8
0
100
AcDbLine
 10
14.162635
 20
10.646096
 30
0.0
 11
14.148742
 21
10.474733
 31
0.0
  0
LINE
  5
5C
330
18
100
AcDbEntity
  8
0
100
AcDbLine
 10
14.148742
 20
10.474733
 30
0.0
 11
14.136773
 21
10.381515
 31
0.0
  0
LINE
  5
5D
330
18
100
AcDbEntity
  8
0
100
AcDbLine
 10
14.136773
 20
10.381515
 30
0.0
 11
14.073718
 21
10.311338
 31
0.0
  0
LINE
  5
5E
330
18
100
AcDbEntity
  8
0
100
AcDbLine
 10
14.073718
 20
10.311338
 30
0.0
 11
14.010976
 21
10.231047
 31
0.0
  0
LINE
  5
5F
330
18
100
AcDbEntity
  8
0
100
AcDbLine
 10
13.818119
 20
9.534984
 30
0.0
 11
13.851652
 21
9.819151
 31
0.0
  0
LINE
  5
60
330
18
100
AcDbEntity
  8
0
100
AcDbLine
 10
13.851652
 20
9.819151
 30
0.0
 11
13.871565
 21
9.980497999999999
 31
0.0
  0
LINE
  5
61
330
18
100
AcDbEntity
  8
0
100
AcDbLine
 10
13.871565
 20
9.980497999999999
 30
0.0
 11
13.883452
 21
10.153863
 31
0.0
  0
LINE
  5
62
330
18
100
AcDbEntity
  8
0
100
AcDbLine
 10
13.883452
 20
10.153863
 30
0.0
 11
13.883777
 21
10.24694
 31
0.0
  0
LINE
  5
63
330
18
100
AcDbEntity
  8
0
100
AcDbLine
 10
13.883777
 20
10.24694
 30
0.0
 11
13.942278
 21
10.307754
 31
0.0
  0
LINE
  5
64
330
18
100
AcDbEntity
  8
0
100
AcDbLine
 10
13.841199
 20
8.995549000000001
 30
0.0
 11
13.878192
 21
9.207917
 31
0.0
  0
LINE
  5
65
330
18
100
AcDbEntity
  8
0
100
AcDbLine
 10
13.878192
 20
9.207917
 30
0.0
 11
13.887043
 21
9.418355999999999
 31
0.0
  0
LINE
  5
66
330
18
100
AcDbEntity
  8
0
100
AcDbLine
 10
13.887043
 20
9.418355999999999
 30
0.0
 11
13.906877
 21
9.678907000000001
 31
0.0
  0
LINE
  5
67
330
18
100
AcDbEntity
  8
0
100
AcDbLine
 10
13.906877
 20
9.678907000000001
 30
0.0
 11
13.935682
 21
9.999588000000001
 31
0.0
  0
LINE
  5
68
330
18
100
AcDbEntity
  8
0
100
AcDbLine
 10
13.935682
 20
9.999588000000001
 30
0.0
 11
13.943594
 21
10.130864
 31
0.0
  0
LINE
  5
69
330
18
100
AcDbEntity
  8
0
100
AcDbLine
 10
13.943594
 20
10.130864
 30
0.0
 11
13.948177
 21
10.175032
 31
0.0
  0
LINE
  5
6A
330
18
100
AcDbEntity
  8
0
100
AcDbLine
 10
13.948177
 20
10.175032
 30
0.0
 11
14.013763
 21
10.234614
 31
0.0
  0
LINE
  5
6B
330
18
100
AcDbEntity
  8
0
100
AcDbLine
 10
13.903341
 20
8.921077
 30
0.0
 11
13.937326
 21
9.191931
 31
0.0
  0
LINE
  5
6C
330
18
100
AcDbEntity
  8
0
100
AcDbLine
 10
13.937326
 20
9.191931
 30
0.0
 11
13.967206
 21
9.420424000000001
 31
0.0
  0
LINE
  5
6D
330
18
100
AcDbEntity
  8
0
100
AcDbLine
 10
13.967206
 20
9.420424000000001
 30
0.0
 11
13.970986
 21
9.707015
 31
0.0
  0
LINE
  5
6E
330
18
100
AcDbEntity
  8
0
100
AcDbLine
 10
13.970986
 20
9.707015
 30
0.0
 11
13.996825
 21
9.976589000000001
 31
0.0
  0
LINE
  5
6F
330
18
100
AcDbEntity
  8
0
100
AcDbLine
 10
13.996825
 20
9.976589000000001
 30
0.0
 11
14.003425
 21
10.113343
 31
0.0
  0
LINE
  5
70
330
18
100
AcDbEntity
  8
0
100
AcDbLine
 10
14.003425
 20
10.113343
 30
0.0
 11
14.079492
 21
10.154544
 31
0.0
  0
LINE
  5
71
330
18
100
AcDbEntity
  8
0
100
AcDbLine
 10
13.985871
 20
8.822172999999999
 30
0.0
 11
14.007562
 21
9.075747999999999
 31
0.0
  0
LINE
  5
72
330
18
100
AcDbEntity
  8
0
100
AcDbLine
 10
14.007562
 20
9.075747999999999
 30
0.0
 11
14.0294
 21
9.336300999999999
 31
0.0
  0
LINE
  5
73
330
18
100
AcDbEntity
  8
0
100
AcDbLine
 10
14.0294
 20
9.336300999999999
 30
0.0
 11
14.043217
 21
9.602859000000001
 31
0.0
  0
LINE
  5
74
330
18
100
AcDbEntity
  8
0
100
AcDbLine
 10
14.043217
 20
9.602859000000001
 30
0.0
 11
14.062059
 21
9.850382000000002
 31
0.0
  0
LINE
  5
75
330
18
100
AcDbEntity
  8
0
100
AcDbLine
 10
14.062059
 20
9.850382000000002
 30
0.0
 11
14.079004
 21
9.963628
 31
0.0
  0
LINE
  5
76
330
18
100
AcDbEntity
  8
0
100
AcDbLine
 10
14.079004
 20
9.963628
 30
0.0
 11
14.082641
 21
10.024892
 31
0.0
  0
LINE
  5
77
330
18
100
AcDbEntity
  8
0
100
AcDbLine
 10
14.082641
 20
10.024892
 30
0.0
 11
14.155302
 21
10.069896
 31
0.0
  0
LINE
  5
78
330
18
100
AcDbEntity
  8
0
100
AcDbLine
 10
14.057551
 20
8.736272
 30
0.0
 11
14.08581
 21
8.965584
 31
0.0
  0
LINE
  5
79
330
18
100
AcDbEntity
  8
0
100
AcDbLine
 10
14.08581
 20
8.965584
 30
0.0
 11
14.108617
 21
9.268224
 31
0.0
  0
LINE
  5
7A
330
18
100
AcDbEntity
  8
0
100
AcDbLine
 10
14.108617
 20
9.268224
 30
0.0
 11
14.124493
 21
9.465641999999999
 31
0.0
  0
LINE
  5
7B
330
18
100
AcDbEntity
  8
0
100
AcDbLine
 10
14.124493
 20
9.465641999999999
 30
0.0
 11
14.121401
 21
9.572858999999999
 31
0.0
  0
LINE
  5
7C
330
18
100
AcDbEntity
  8
0
100
AcDbLine
 10
14.121401
 20
9.572858999999999
 30
0.0
 11
14.136295
 21
9.745225
 31
0.0
  0
LINE
  5
7D
330
18
100
AcDbEntity
  8
0
100
AcDbLine
 10
14.136295
 20
9.745225
 30
0.0
 11
14.154214
 21
9.893544
 31
0.0
  0
LINE
  5
7E
330
18
100
AcDbEntity
  8
0
100
AcDbLine
 10
14.154214
 20
9.893544
 30
0.0
 11
14.146438
 21
9.953658000000001
 31
0.0
  0
LINE
  5
7F
330
18
100
AcDbEntity
  8
0
100
AcDbLine
 10
14.146438
 20
9.953658000000001
 30
0.0
 11
14.215217
 21
10.002996
 31
0.0
  0
LINE
  5
80
330
18
100
AcDbEntity
  8
0
100
AcDbLine
 10
14.132682
 20
8.646235000000001
 30
0.0
 11
14.158113
 21
8.771241999999999
 31
0.0
  0
LINE
  5
81
330
18
100
AcDbEntity
  8
0
100
AcDbLine
 10
14.158113
 20
8.771241999999999
 30
0.0
 11
14.173969
 21
8.993712
 31
0.0
  0
LINE
  5
82
330
18
100
AcDbEntity
  8
0
100
AcDbLine
 10
14.173969
 20
8.993712
 30
0.0
 11
14.183854
 21
9.164069
 31
0.0
  0
LINE
  5
83
330
18
100
AcDbEntity
  8
0
100
AcDbLine
 10
14.183854
 20
9.164069
 30
0.0
 11
14.202673
 21
9.440652
 31
0.0
  0
LINE
  5
84
330
18
100
AcDbEntity
  8
0
100
AcDbLine
 10
14.202673
 20
9.440652
 30
0.0
 11
14.211505
 21
9.675141
 31
0.0
  0
LINE
  5
85
330
18
100
AcDbEntity
  8
0
100
AcDbLine
 10
14.211505
 20
9.675141
 30
0.0
 11
14.235961
 21
9.853699000000001
 31
0.0
  0
LINE
  5
86
330
18
100
AcDbEntity
  8
0
100
AcDbLine
 10
14.235961
 20
9.853699000000001
 30
0.0
 11
14.284835
 21
9.925262
 31
0.0
  0
LINE
  5
87
330
18
100
AcDbEntity
  8
0
100
AcDbLine
 10
14.203949
 20
8.560828000000001
 30
0.0
 11
14.237346
 21
8.682122
 31
0.0
  0
LINE
  5
88
330
18
100
AcDbEntity
  8
0
100
AcDbLine
 10
14.237346
 20
8.682122
 30
0.0
 11
14.271261
 21
8.877549999999999
 31
0.0
  0
LINE
  5
89
330
18
100
AcDbEntity
  8
0
100
AcDbLine
 10
14.271261
 20
8.877549999999999
 30
0.0
 11
14.26704
 21
9.145096000000001
 31
0.0
  0
LINE
  5
8A
330
18
100
AcDbEntity
  8
0
100
AcDbLine
 10
14.26704
 20
9.145096000000001
 30
0.0
 11
14.291891
 21
9.397635000000001
 31
0.0
  0
LINE
  5
8B
330
18
100
AcDbEntity
  8
0
100
AcDbLine
 10
14.291891
 20
9.397635000000001
 30
0.0
 11
14.315799
 21
9.575018
 31
0.0
  0
LINE
  5
8C
330
18
100
AcDbEntity
  8
0
100
AcDbLine
 10
14.315799
 20
9.575018
 30
0.0
 11
14.334578
 21
9.743584
 31
0.0
  0
LINE
  5
8D
330
18
100
AcDbEntity
  8
0
100
AcDbLine
 10
14.334578
 20
9.743584
 30
0.0
 11
14.42827
 21
9.838374
 31
0.0
  0
LINE
  5
8E
330
18
100
AcDbEntity
  8
0
100
AcDbLine
 10
14.285821
 20
8.462713000000001
 30
0.0
 11
14.309566
 21
8.591994
 31
0.0
  0
LINE
  5
8F
330
18
100
AcDbEntity
  8
0
100
AcDbLine
 10
14.309566
 20
8.591994
 30
0.0
 11
14.328437
 21
8.803444000000001
 31
0.0
  0
LINE
  5
90
330
18
100
AcDbEntity
  8
0
100
AcDbLine
 10
14.328437
 20
8.803444000000001
 30
0.0
 11
14.338307
 21
8.992839999999999
 31
0.0
  0
LINE
  5
91
330
18
100
AcDbEntity
  8
0
100
AcDbLine
 10
14.338307
 20
8.992839999999999
 30
0.0
 11
14.358186
 21
9.196274000000001
 31
0.0
  0
LINE
  5
92
330
18
100
AcDbEntity
  8
0
100
AcDbLine
 10
14.358186
 20
9.196274000000001
 30
0.0
 11
14.364071
 21
9.357610000000001
 31
0.0
  0
LINE
  5
93
330
18
100
AcDbEntity
  8
0
100
AcDbLine
 10
14.364071
 20
9.357610000000001
 30
0.0
 11
14.375975
 21
9.508929999999999
 31
0.0
  0
LINE
  5
94
330
18
100
AcDbEntity
  8
0
100
AcDbLine
 10
14.375975
 20
9.508929999999999
 30
0.0
 11
14.394907
 21
9.643221000000001
 31
0.0
  0
LINE
  5
95
330
18
100
AcDbEntity
  8
0
100
AcDbLine
 10
14.394907
 20
9.643221000000001
 30
0.0
 11
14.390981
 21
9.680605999999999
 31
0.0
  0
LINE
  5
96
330
18
100
AcDbEntity
  8
0
100
AcDbLine
 10
14.353556
 20
8.381539
 30
0.0
 11
14.353735
 21
8.492825999999999
 31
0.0
  0
LINE
  5
97
330
18
100
AcDbEntity
  8
0
100
AcDbLine
 10
14.353735
 20
8.492825999999999
 30
0.0
 11
14.371666
 21
8.626113999999999
 31
0.0
  0
LINE
  5
98
330
18
100
AcDbEntity
  8
0
100
AcDbLine
 10
14.371666
 20
8.626113999999999
 30
0.0
 11
14.391608
 21
8.751386999999999
 31
0.0
  0
LINE
  5
99
330
18
100
AcDbEntity
  8
0
100
AcDbLine
 10
14.391608
 20
8.751386999999999
 30
0.0
 11
14.404547
 21
8.861623
 31
0.0
  0
LINE
  5
9A
330
18
100
AcDbEntity
  8
0
100
AcDbLine
 10
14.404547
 20
8.861623
 30
0.0
 11
14.42922
 21
9.018031000000001
 31
0.0
  0
LINE
  5
9B
330
18
100
AcDbEntity
  8
0
100
AcDbLine
 10
14.05483
 20
10.473011
 30
0.0
 11
14.009526
 21
10.386441
 31
0.0
  0
LINE
  5
9C
330
18
100
AcDbEntity
  8
0
100
AcDbLine
 10
14.009526
 20
10.386441
 30
0.0
 11
13.948622
 21
10.300671
 31
0.0
  0
LINE
  5
9D
330
18
100
AcDbEntity
  8
0
100
AcDbLine
 10
14.20988
 20
10.299886
 30
0.0
 11
14.182997
 21
10.242283
 31
0.0
  0
LINE
  5
9E
330
18
100
AcDbEntity
  8
0
100
AcDbLine
 10
14.182997
 20
10.242283
 30
0.0
 11
14.118923
 21
10.170084
 31
0.0
  0
LINE
  5
9F
330
18
100
AcDbEntity
  8
0
100
AcDbLine
 10
14.118923
 20
10.170084
 30
0.0
 11
14.093894
 21
10.141004
 31
0.0
  0
LINE
  5
A0
330
18
100
AcDbEntity
  8
0
100
AcDbLine
 10
14.295031
 20
9.913877000000001
 30
0.0
 11
14.381642
 21
9.989929
 31
0.0
  0
LINE
  5
A1
330
18
100
AcDbEntity
  8
0
100
AcDbLine
 10
14.413219
 20
10.709417
 30
0.0
 11
14.390185
 21
10.541061
 31
0.0
  0
LINE
  5
A2
330
18
100
AcDbEntity
  8
0
100
AcDbLine
 10
14.390185
 20
10.541061
 30
0.0
 11
14.378252
 21
10.425814
 31
0.0
  0
LINE
  5
A3
330
18
100
AcDbEntity
  8
0
100
AcDbLine
 10
14.378252
 20
10.425814
 30
0.0
 11
14.368362
 21
10.261469
 31
0.0
  0
LINE
  5
A4
330
18
100
AcDbEntity
  8
0
100
AcDbLine
 10
14.368362
 20
10.261469
 30
0.0
 11
14.357483
 21
10.135075
 31
0.0
  0
LINE
  5
A5
330
18
100
AcDbEntity
  8
0
100
AcDbLine
 10
14.357483
 20
10.135075
 30
0.0
 11
14.290352
 21
10.07302
 31
0.0
  0
LINE
  5
A6
330
18
100
AcDbEntity
  8
0
100
AcDbLine
 10
14.290352
 20
10.07302
 30
0.0
 11
14.22054
 21
9.997052
 31
0.0
  0
LINE
  5
A7
330
18
100
AcDbEntity
  8
0
100
AcDbLine
 10
14.39628
 20
11.181098
 30
0.0
 11
14.372785
 21
11.000991
 31
0.0
  0
LINE
  5
A8
330
18
100
AcDbEntity
  8
0
100
AcDbLine
 10
14.372785
 20
11.000991
 30
0.0
 11
14.338861
 21
10.817588
 31
0.0
  0
LINE
  5
A9
330
18
100
AcDbEntity
  8
0
100
AcDbLine
 10
14.338861
 20
10.817588
 30
0.0
 11
14.310922
 21
10.667257
 31
0.0
  0
LINE
  5
AA
330
18
100
AcDbEntity
  8
0
100
AcDbLine
 10
14.310922
 20
10.667257
 30
0.0
 11
14.296026
 21
10.497897
 31
0.0
  0
LINE
  5
AB
330
18
100
AcDbEntity
  8
0
100
AcDbLine
 10
14.296026
 20
10.497897
 30
0.0
 11
14.281114
 21
10.348579
 31
0.0
  0
LINE
  5
AC
330
18
100
AcDbEntity
  8
0
100
AcDbLine
 10
14.281114
 20
10.348579
 30
0.0
 11
14.279498
 21
10.222151
 31
0.0
  0
LINE
  5
AD
330
18
100
AcDbEntity
  8
0
100
AcDbLine
 10
14.279498
 20
10.222151
 30
0.0
 11
14.243169
 21
10.181205
 31
0.0
  0
LINE
  5
AE
330
18
100
AcDbEntity
  8
0
100
AcDbLine
 10
14.243169
 20
10.181205
 30
0.0
 11
14.190127
 21
10.09699
 31
0.0
  0
LINE
  5
AF
330
18
100
AcDbEntity
  8
0
100
AcDbLine
 10
14.190127
 20
10.09699
 30
0.0
 11
14.160936
 21
10.063605
 31
0.0
  0
LINE
  5
B0
330
18
100
AcDbEntity
  8
0
100
AcDbLine
 10
14.322893
 20
11.252966
 30
0.0
 11
14.302586
 21
11.070077
 31
0.0
  0
LINE
  5
B1
330
18
100
AcDbEntity
  8
0
100
AcDbLine
 10
14.302586
 20
11.070077
 30
0.0
 11
14.27865
 21
10.926764
 31
0.0
  0
LINE
  5
B2
330
18
100
AcDbEntity
  8
0
100
AcDbLine
 10
14.27865
 20
10.926764
 30
0.0
 11
14.257705
 21
10.803494
 31
0.0
  0
LINE
  5
B3
330
18
100
AcDbEntity
  8
0
100
AcDbLine
 10
14.257705
 20
10.803494
 30
0.0
 11
14.251798
 21
10.671218
 31
0.0
  0
LINE
  5
B4
330
18
100
AcDbEntity
  8
0
100
AcDbLine
 10
14.251798
 20
10.671218
 30
0.0
 11
14.232897
 21
10.497847
 31
0.0
  0
LINE
  5
B5
330
18
100
AcDbEntity
  8
0
100
AcDbLine
 10
14.232897
 20
10.497847
 30
0.0
 11
14.219969
 21
10.37258
 31
0.0
  0
LINE
  5
B6
330
18
100
AcDbEntity
  8
0
100
AcDbLine
 10
14.219969
 20
10.37258
 30
0.0
 11
14.20988
 21
10.299886
 31
0.0
  0
LINE
  5
B7
330
18
100
AcDbEntity
  8
0
100
AcDbLine
 10
14.181673
 20
11.391262
 30
0.0
 11
14.169126
 21
11.304453
 31
0.0
  0
LINE
  5
B8
330
18
100
AcDbEntity
  8
0
100
AcDbLine
 10
14.169126
 20
11.304453
 30
0.0
 11
14.143171
 21
11.180177
 31
0.0
  0
LINE
  5
B9
330
18
100
AcDbEntity
  8
0
100
AcDbLine
 10
14.143171
 20
11.180177
 30
0.0
 11
14.112225
 21
11.031848
 31
0.0
  0
LINE
  5
BA
330
18
100
AcDbEntity
  8
0
100
AcDbLine
 10
14.112225
 20
11.031848
 30
0.0
 11
14.094332
 21
10.850461
 31
0.0
  0
LINE
  5
BB
330
18
100
AcDbEntity
  8
0
100
AcDbLine
 10
14.094332
 20
10.850461
 30
0.0
 11
14.081446
 21
10.674089
 31
0.0
  0
LINE
  5
BC
330
18
100
AcDbEntity
  8
0
100
AcDbLine
 10
14.081446
 20
10.674089
 30
0.0
 11
14.068509
 21
10.560846
 31
0.0
  0
LINE
  5
BD
330
18
100
AcDbEntity
  8
0
100
AcDbLine
 10
14.068509
 20
10.560846
 30
0.0
 11
14.05483
 21
10.473011
 31
0.0
  0
LINE
  5
BE
330
18
100
AcDbEntity
  8
0
100
AcDbLine
 10
14.123944
 20
11.447795
 30
0.0
 11
14.098974
 21
11.314417
 31
0.0
  0
LINE
  5
BF
330
18
100
AcDbEntity
  8
0
100
AcDbLine
 10
14.098974
 20
11.314417
 30
0.0
 11
14.075058
 21
11.146053
 31
0.0
  0
LINE
  5
C0
330
18
100
AcDbEntity
  8
0
100
AcDbLine
 10
14.075058
 20
11.146053
 30
0.0
 11
14.047151
 21
10.956642
 31
0.0
  0
LINE
  5
C1
330
18
100
AcDbEntity
  8
0
100
AcDbLine
 10
14.047151
 20
10.956642
 30
0.0
 11
14.024187
 21
10.852409
 31
0.0
  0
LINE
  5
C2
330
18
100
AcDbEntity
  8
0
100
AcDbLine
 10
14.024187
 20
10.852409
 30
0.0
 11
14.005248
 21
10.726135
 31
0.0
  0
LINE
  5
C3
330
18
100
AcDbEntity
  8
0
100
AcDbLine
 10
14.005248
 20
10.726135
 30
0.0
 11
14.006303
 21
10.658998
 31
0.0
  0
LINE
  5
C4
330
18
100
AcDbEntity
  8
0
100
AcDbLine
 10
14.006303
 20
10.658998
 30
0.0
 11
13.9941
 21
10.54082
 31
0.0
  0
LINE
  5
C5
330
18
100
AcDbEntity
  8
0
100
AcDbLine
 10
13.9941
 20
10.54082
 30
0.0
 11
13.97235
 21
10.512671
 31
0.0
  0
LINE
  5
C6
330
18
100
AcDbEntity
  8
0
100
AcDbLine
 10
13.97235
 20
10.512671
 30
0.0
 11
13.93731
 21
10.472561
 31
0.0
  0
LINE
  5
C7
330
18
100
AcDbEntity
  8
0
100
AcDbLine
 10
13.93731
 20
10.472561
 30
0.0
 11
13.921305
 21
10.436474
 31
0.0
  0
LINE
  5
C8
330
18
100
AcDbEntity
  8
0
100
AcDbLine
 10
13.921305
 20
10.436474
 30
0.0
 11
13.879866
 21
10.377442
 31
0.0
  0
LINE
  5
C9
330
18
100
AcDbEntity
  8
0
100
AcDbLine
 10
14.054626
 20
11.515678
 30
0.0
 11
14.034788
 21
11.382506
 31
0.0
  0
LINE
  5
CA
330
18
100
AcDbEntity
  8
0
100
AcDbLine
 10
14.034788
 20
11.382506
 30
0.0
 11
14.01689
 21
11.208134
 31
0.0
  0
LINE
  5
CB
330
18
100
AcDbEntity
  8
0
100
AcDbLine
 10
14.01689
 20
11.208134
 30
0.0
 11
14.002942
 21
11.105913
 31
0.0
  0
LINE
  5
CC
330
18
100
AcDbEntity
  8
0
100
AcDbLine
 10
14.002942
 20
11.105913
 30
0.0
 11
13.983992
 21
10.993668
 31
0.0
  0
LINE
  5
CD
330
18
100
AcDbEntity
  8
0
100
AcDbLine
 10
13.983992
 20
10.993668
 30
0.0
 11
13.960046
 21
10.864383
 31
0.0
  0
LINE
  5
CE
330
18
100
AcDbEntity
  8
0
100
AcDbLine
 10
13.960046
 20
10.864383
 30
0.0
 11
13.944124
 21
10.724082
 31
0.0
  0
LINE
  5
CF
330
18
100
AcDbEntity
  8
0
100
AcDbLine
 10
13.944124
 20
10.724082
 30
0.0
 11
13.936519
 21
10.605115
 31
0.0
  0
LINE
  5
D0
330
18
100
AcDbEntity
  8
0
100
AcDbLine
 10
13.936519
 20
10.605115
 30
0.0
 11
13.892151
 21
10.555695
 31
0.0
  0
LINE
  5
D1
330
18
100
AcDbEntity
  8
0
100
AcDbLine
 10
13.892151
 20
10.555695
 30
0.0
 11
13.853108
 21
10.508568
 31
0.0
  0
LINE
  5
D2
330
18
100
AcDbEntity
  8
0
100
AcDbLine
 10
13.853108
 20
10.508568
 30
0.0
 11
13.817852
 21
10.446686
 31
0.0
  0
LINE
  5
D3
330
18
100
AcDbEntity
  8
0
100
AcDbLine
 10
13.983775
 20
11.585061
 30
0.0
 11
13.962626
 21
11.399484
 31
0.0
  0
LINE
  5
D4
330
18
100
AcDbEntity
  8
0
100
AcDbLine
 10
13.962626
 20
11.399484
 30
0.0
 11
13.929749
 21
11.159966
 31
0.0
  0
LINE
  5
D5
330
18
100
AcDbEntity
  8
0
100
AcDbLine
 10
13.929749
 20
11.159966
 30
0.0
 11
13.909846
 21
10.986594
 31
0.0
  0
LINE
  5
D6
330
18
100
AcDbEntity
  8
0
100
AcDbLine
 10
13.909846
 20
10.986594
 30
0.0
 11
13.887936
 21
10.816227
 31
0.0
  0
LINE
  5
D7
330
18
100
AcDbEntity
  8
0
100
AcDbLine
 10
13.887936
 20
10.816227
 30
0.0
 11
13.873901
 21
10.675032
 31
0.0
  0
LINE
  5
D8
330
18
100
AcDbEntity
  8
0
100
AcDbLine
 10
13.873901
 20
10.675032
 30
0.0
 11
13.760452
 21
10.510777
 31
0.0
  0
LINE
  5
D9
330
18
100
AcDbEntity
  8
0
100
AcDbLine
 10
13.893216
 20
11.673746
 30
0.0
 11
13.874357
 21
11.510642
 31
0.0
  0
LINE
  5
DA
330
18
100
AcDbEntity
  8
0
100
AcDbLine
 10
13.874357
 20
11.510642
 30
0.0
 11
13.846436
 21
11.338266
 31
0.0
  0
LINE
  5
DB
330
18
100
AcDbEntity
  8
0
100
AcDbLine
 10
13.846436
 20
11.338266
 30
0.0
 11
13.824519
 21
11.177919
 31
0.0
  0
LINE
  5
DC
330
18
100
AcDbEntity
  8
0
100
AcDbLine
 10
13.824519
 20
11.177919
 30
0.0
 11
13.804576
 21
10.966486
 31
0.0
  0
LINE
  5
DD
330
18
100
AcDbEntity
  8
0
100
AcDbLine
 10
13.713897
 20
10.562759
 30
0.0
 11
13.806623
 21
10.750154
 31
0.0
  0
LINE
  5
DE
330
18
100
AcDbEntity
  8
0
100
AcDbLine
 10
13.81061
 20
10.328636
 30
0.0
 11
13.858641
 21
10.401141
 31
0.0
  0
LINE
  5
DF
330
18
100
AcDbEntity
  8
0
100
AcDbLine
 10
14.423293
 20
9.644527
 30
0.0
 11
14.526052
 21
9.799646000000001
 31
0.0
  0
LINE
  5
E0
330
18
100
AcDbEntity
  8
0
100
AcDbLine
 10
14.526052
 20
9.799646000000001
 30
0.0
 11
14.32658
 21
9.87865
 31
0.0
  0
LINE
  5
E1
330
18
100
AcDbEntity
  8
0
100
AcDbLine
 10
14.32658
 20
9.87865
 30
0.0
 11
14.419305
 21
10.066045
 31
0.0
  0
LINE
  5
E2
330
18
100
AcDbEntity
  8
0
100
AcDbLine
 10
17.554121
 20
9.008426
 30
0.0
 11
17.584017
 21
8.935297
 31
0.0
  0
LINE
  5
E3
330
18
100
AcDbEntity
  8
0
100
AcDbLine
 10
17.584017
 20
8.935297
 30
0.0
 11
17.599086
 21
8.887210000000001
 31
0.0
  0
LINE
  5
E4
330
18
100
AcDbEntity
  8
0
100
AcDbLine
 10
17.599086
 20
8.887210000000001
 30
0.0
 11
17.613947
 21
8.828642
 31
0.0
  0
LINE
  5
E5
330
18
100
AcDbEntity
  8
0
100
AcDbLine
 10
17.550643
 20
9.376132999999999
 30
0.0
 11
17.608846
 21
9.215892999999999
 31
0.0
  0
LINE
  5
E6
330
18
100
AcDbEntity
  8
0
100
AcDbLine
 10
17.608846
 20
9.215892999999999
 30
0.0
 11
17.649022
 21
9.097682000000001
 31
0.0
  0
LINE
  5
E7
330
18
100
AcDbEntity
  8
0
100
AcDbLine
 10
17.649022
 20
9.097682000000001
 30
0.0
 11
17.671136
 21
9.011523
 31
0.0
  0
LINE
  5
E8
330
18
100
AcDbEntity
  8
0
100
AcDbLine
 10
17.671136
 20
9.011523
 30
0.0
 11
17.687245
 21
8.915338
 31
0.0
  0
LINE
  5
E9
330
18
100
AcDbEntity
  8
0
100
AcDbLine
 10
17.687245
 20
8.915338
 30
0.0
 11
17.689857
 21
8.862264999999999
 31
0.0
  0
LINE
  5
EA
330
18
100
AcDbEntity
  8
0
100
AcDbLine
 10
17.577304
 20
9.626135000000001
 30
0.0
 11
17.629693
 21
9.462416000000001
 31
0.0
  0
LINE
  5
EB
330
18
100
AcDbEntity
  8
0
100
AcDbLine
 10
17.629693
 20
9.462416000000001
 30
0.0
 11
17.695985
 21
9.265063
 31
0.0
  0
LINE
  5
EC
330
18
100
AcDbEntity
  8
0
100
AcDbLine
 10
17.695985
 20
9.265063
 30
0.0
 11
17.751259
 21
9.063692999999999
 31
0.0
  0
LINE
  5
ED
330
18
100
AcDbEntity
  8
0
100
AcDbLine
 10
17.751259
 20
9.063692999999999
 30
0.0
 11
17.784383
 21
8.992574000000001
 31
0.0
  0
LINE
  5
EE
330
18
100
AcDbEntity
  8
0
100
AcDbLine
 10
17.784383
 20
8.992574000000001
 30
0.0
 11
17.796367
 21
8.909442
 31
0.0
  0
LINE
  5
EF
330
18
100
AcDbEntity
  8
0
100
AcDbLine
 10
17.582637
 20
9.919346000000001
 30
0.0
 11
17.674632
 21
9.654846000000001
 31
0.0
  0
LINE
  5
F0
330
18
100
AcDbEntity
  8
0
100
AcDbLine
 10
17.674632
 20
9.654846000000001
 30
0.0
 11
17.739914
 21
9.468516000000001
 31
0.0
  0
LINE
  5
F1
330
18
100
AcDbEntity
  8
0
100
AcDbLine
 10
17.739914
 20
9.468516000000001
 30
0.0
 11
17.792131
 21
9.330273
 31
0.0
  0
LINE
  5
F2
330
18
100
AcDbEntity
  8
0
100
AcDbLine
 10
17.792131
 20
9.330273
 30
0.0
 11
17.828296
 21
9.216067000000001
 31
0.0
  0
LINE
  5
F3
330
18
100
AcDbEntity
  8
0
100
AcDbLine
 10
17.828296
 20
9.216067000000001
 30
0.0
 11
17.863446
 21
9.117894
 31
0.0
  0
LINE
  5
F4
330
18
100
AcDbEntity
  8
0
100
AcDbLine
 10
17.863446
 20
9.117894
 30
0.0
 11
17.888667
 21
8.950325999999999
 31
0.0
  0
LINE
  5
F5
330
18
100
AcDbEntity
  8
0
100
AcDbLine
 10
17.579386
 20
10.26298
 30
0.0
 11
17.652246
 21
10.083709
 31
0.0
  0
LINE
  5
F6
330
18
100
AcDbEntity
  8
0
100
AcDbLine
 10
17.652246
 20
10.083709
 30
0.0
 11
17.728599
 21
9.836262
 31
0.0
  0
LINE
  5
F7
330
18
100
AcDbEntity
  8
0
100
AcDbLine
 10
17.728599
 20
9.836262
 30
0.0
 11
17.793866
 21
9.66897
 31
0.0
  0
LINE
  5
F8
330
18
100
AcDbEntity
  8
0
100
AcDbLine
 10
17.793866
 20
9.66897
 30
0.0
 11
17.853122
 21
9.499669000000001
 31
0.0
  0
LINE
  5
F9
330
18
100
AcDbEntity
  8
0
100
AcDbLine
 10
17.853122
 20
9.499669000000001
 30
0.0
 11
17.913403
 21
9.301310000000001
 31
0.0
  0
LINE
  5
FA
330
18
100
AcDbEntity
  8
0
100
AcDbLine
 10
17.913403
 20
9.301310000000001
 30
0.0
 11
17.937501
 21
9.240203999999999
 31
0.0
  0
LINE
  5
FB
330
18
100
AcDbEntity
  8
0
100
AcDbLine
 10
17.937501
 20
9.240203999999999
 30
0.0
 11
17.956668
 21
9.079889999999999
 31
0.0
  0
LINE
  5
FC
330
18
100
AcDbEntity
  8
0
100
AcDbLine
 10
17.956668
 20
9.079889999999999
 30
0.0
 11
17.982235
 21
8.991771
 31
0.0
  0
LINE
  5
FD
330
18
100
AcDbEntity
  8
0
100
AcDbLine
 10
17.575377
 20
10.686815
 30
0.0
 11
17.668961
 21
10.48655
 31
0.0
  0
LINE
  5
FE
330
18
100
AcDbEntity
  8
0
100
AcDbLine
 10
17.668961
 20
10.48655
 30
0.0
 11
17.745294
 21
10.264154
 31
0.0
  0
LINE
  5
FF
330
18
100
AcDbEntity
  8
0
100
AcDbLine
 10
17.745294
 20
10.264154
 30
0.0
 11
17.806549
 21
10.100867
 31
0.0
  0
LINE
  5
100
330
18
100
AcDbEntity
  8
0
100
AcDbLine
 10
17.806549
 20
10.100867
 30
0.0
 11
17.837732
 21
9.951585000000002
 31
0.0
  0
LINE
  5
101
330
18
100
AcDbEntity
  8
0
100
AcDbLine
 10
17.837732
 20
9.951585000000002
 30
0.0
 11
17.884939
 21
9.812336999999999
 31
0.0
  0
LINE
  5
102
330
18
100
AcDbEntity
  8
0
100
AcDbLine
 10
17.884939
 20
9.812336999999999
 30
0.0
 11
17.939154
 21
9.682112
 31
0.0
  0
LINE
  5
103
330
18
100
AcDbEntity
  8
0
100
AcDbLine
 10
17.939154
 20
9.682112
 30
0.0
 11
17.967344
 21
9.515792999999999
 31
0.0
  0
LINE
  5
104
330
18
100
AcDbEntity
  8
0
100
AcDbLine
 10
17.967344
 20
9.515792999999999
 30
0.0
 11
18.002548
 21
9.34948
 31
0.0
  0
LINE
  5
105
330
18
100
AcDbEntity
  8
0
100
AcDbLine
 10
18.002548
 20
9.34948
 30
0.0
 11
18.034735
 21
9.197191999999999
 31
0.0
  0
LINE
  5
106
330
18
100
AcDbEntity
  8
0
100
AcDbLine
 10
18.034735
 20
9.197191999999999
 30
0.0
 11
18.094027
 21
9.041288
 31
0.0
  0
LINE
  5
107
330
18
100
AcDbEntity
  8
0
100
AcDbLine
 10
17.571793
 20
11.065649
 30
0.0
 11
17.682701
 21
10.849306
 31
0.0
  0
LINE
  5
108
330
18
100
AcDbEntity
  8
0
100
AcDbLine
 10
17.682701
 20
10.849306
 30
0.0
 11
17.762045
 21
10.621902
 31
0.0
  0
LINE
  5
109
330
18
100
AcDbEntity
  8
0
100
AcDbLine
 10
17.762045
 20
10.621902
 30
0.0
 11
17.852419
 21
10.383484
 31
0.0
  0
LINE
  5
10A
330
18
100
AcDbEntity
  8
0
100
AcDbLine
 10
17.852419
 20
10.383484
 30
0.0
 11
17.948853
 21
10.085949
 31
0.0
  0
LINE
  5
10B
330
18
100
AcDbEntity
  8
0
100
AcDbLine
 10
17.948853
 20
10.085949
 30
0.0
 11
18.015188
 21
9.83649
 31
0.0
  0
LINE
  5
10C
330
18
100
AcDbEntity
  8
0
100
AcDbLine
 10
18.015188
 20
9.83649
 30
0.0
 11
18.081519
 21
9.590036
 31
0.0
  0
LINE
  5
10D
330
18
100
AcDbEntity
  8
0
100
AcDbLine
 10
18.081519
 20
9.590036
 30
0.0
 11
18.143824
 21
9.366627000000001
 31
0.0
  0
LINE
  5
10E
330
18
100
AcDbEntity
  8
0
100
AcDbLine
 10
18.143824
 20
9.366627000000001
 30
0.0
 11
18.185039
 21
9.203324
 31
0.0
  0
LINE
  5
10F
330
18
100
AcDbEntity
  8
0
100
AcDbLine
 10
18.185039
 20
9.203324
 30
0.0
 11
18.204472
 21
9.090208000000001
 31
0.0
  0
LINE
  5
110
330
18
100
AcDbEntity
  8
0
100
AcDbLine
 10
17.56838
 20
11.42636
 30
0.0
 11
17.639272
 21
11.278152
 31
0.0
  0
LINE
  5
111
330
18
100
AcDbEntity
  8
0
100
AcDbLine
 10
17.639272
 20
11.278152
 30
0.0
 11
17.711599
 21
11.052746
 31
0.0
  0
LINE
  5
112
330
18
100
AcDbEntity
  8
0
100
AcDbLine
 10
17.711599
 20
11.052746
 30
0.0
 11
17.822065
 21
10.751215
 31
0.0
  0
LINE
  5
113
330
18
100
AcDbEntity
  8
0
100
AcDbLine
 10
17.822065
 20
10.751215
 30
0.0
 11
17.927493
 21
10.484751
 31
0.0
  0
LINE
  5
114
330
18
100
AcDbEntity
  8
0
100
AcDbLine
 10
17.927493
 20
10.484751
 30
0.0
 11
17.992771
 21
10.303431
 31
0.0
  0
LINE
  5
115
330
18
100
AcDbEntity
  8
0
100
AcDbLine
 10
17.992771
 20
10.303431
 30
0.0
 11
18.078144
 21
10.053986
 31
0.0
  0
LINE
  5
116
330
18
100
AcDbEntity
  8
0
100
AcDbLine
 10
18.078144
 20
10.053986
 30
0.0
 11
18.131374
 21
9.902718
 31
0.0
  0
LINE
  5
117
330
18
100
AcDbEntity
  8
0
100
AcDbLine
 10
18.131374
 20
9.902718
 30
0.0
 11
18.180648
 21
9.684308
 31
0.0
  0
LINE
  5
118
330
18
100
AcDbEntity
  8
0
100
AcDbLine
 10
18.180648
 20
9.684308
 30
0.0
 11
18.238965
 21
9.435845000000001
 31
0.0
  0
LINE
  5
119
330
18
100
AcDbEntity
  8
0
100
AcDbLine
 10
18.238965
 20
9.435845000000001
 30
0.0
 11
18.292466
 21
9.129185000000001
 31
0.0
  0
LINE
  5
11A
330
18
100
AcDbEntity
  8
0
100
AcDbLine
 10
17.564236
 20
11.864388
 30
0.0
 11
17.662049
 21
11.617867
 31
0.0
  0
LINE
  5
11B
330
18
100
AcDbEntity
  8
0
100
AcDbLine
 10
17.662049
 20
11.617867
 30
0.0
 11
17.74737
 21
11.434559
 31
0.0
  0
LINE
  5
11C
330
18
100
AcDbEntity
  8
0
100
AcDbLine
 10
17.74737
 20
11.434559
 30
0.0
 11
17.825713
 21
11.20515
 31
0.0
  0
LINE
  5
11D
330
18
100
AcDbEntity
  8
0
100
AcDbLine
 10
17.825713
 20
11.20515
 30
0.0
 11
17.933175
 21
10.90061
 31
0.0
  0
LINE
  5
11E
330
18
100
AcDbEntity
  8
0
100
AcDbLine
 10
17.933175
 20
10.90061
 30
0.0
 11
18.014525
 21
10.670201
 31
0.0
  0
LINE
  5
11F
330
18
100
AcDbEntity
  8
0
100
AcDbLine
 10
18.014525
 20
10.670201
 30
0.0
 11
18.104931
 21
10.392703
 31
0.0
  0
LINE
  5
120
330
18
100
AcDbEntity
  8
0
100
AcDbLine
 10
18.104931
 20
10.392703
 30
0.0
 11
18.197379
 21
10.067108
 31
0.0
  0
LINE
  5
121
330
18
100
AcDbEntity
  8
0
100
AcDbLine
 10
18.197379
 20
10.067108
 30
0.0
 11
18.259721
 21
9.796602
 31
0.0
  0
LINE
  5
122
330
18
100
AcDbEntity
  8
0
100
AcDbLine
 10
18.259721
 20
9.796602
 30
0.0
 11
18.299001
 21
9.546119000000001
 31
0.0
  0
LINE
  5
123
330
18
100
AcDbEntity
  8
0
100
AcDbLine
 10
18.299001
 20
9.546119000000001
 30
0.0
 11
18.34129
 21
9.290628
 31
0.0
  0
LINE
  5
124
330
18
100
AcDbEntity
  8
0
100
AcDbLine
 10
18.34129
 20
9.290628
 30
0.0
 11
18.375433
 21
9.165934
 31
0.0
  0
LINE
  5
125
330
18
100
AcDbEntity
  8
0
100
AcDbLine
 10
17.566526
 20
12.289587
 30
0.0
 11
17.628561
 21
12.146927
 31
0.0
  0
LINE
  5
126
330
18
100
AcDbEntity
  8
0
100
AcDbLine
 10
17.628561
 20
12.146927
 30
0.0
 11
17.66375
 21
11.999653
 31
0.0
  0
LINE
  5
127
330
18
100
AcDbEntity
  8
0
100
AcDbLine
 10
17.66375
 20
11.999653
 30
0.0
 11
17.736057
 21
11.799298
 31
0.0
  0
LINE
  5
128
330
18
100
AcDbEntity
  8
0
100
AcDbLine
 10
17.736057
 20
11.799298
 30
0.0
 11
17.828412
 21
11.590944
 31
0.0
  0
LINE
  5
129
330
18
100
AcDbEntity
  8
0
100
AcDbLine
 10
17.828412
 20
11.590944
 30
0.0
 11
17.928806
 21
11.354538
 31
0.0
  0
LINE
  5
12A
330
18
100
AcDbEntity
  8
0
100
AcDbLine
 10
17.928806
 20
11.354538
 30
0.0
 11
18.015168
 21
11.122129
 31
0.0
  0
LINE
  5
12B
330
18
100
AcDbEntity
  8
0
100
AcDbLine
 10
18.015168
 20
11.122129
 30
0.0
 11
18.077458
 21
10.916757
 31
0.0
  0
LINE
  5
12C
330
18
100
AcDbEntity
  8
0
100
AcDbLine
 10
18.077458
 20
10.916757
 30
0.0
 11
18.16387
 21
10.621219
 31
0.0
  0
LINE
  5
12D
330
18
100
AcDbEntity
  8
0
100
AcDbLine
 10
18.16387
 20
10.621219
 30
0.0
 11
18.243274
 21
10.317659
 31
0.0
  0
LINE
  5
12E
330
18
100
AcDbEntity
  8
0
100
AcDbLine
 10
18.243274
 20
10.317659
 30
0.0
 11
18.342717
 21
10.01712
 31
0.0
  0
LINE
  5
12F
330
18
100
AcDbEntity
  8
0
100
AcDbLine
 10
18.342717
 20
10.01712
 30
0.0
 11
18.38492
 21
9.869850999999999
 31
0.0
  0
LINE
  5
130
330
18
100
AcDbEntity
  8
0
100
AcDbLine
 10
18.38492
 20
9.869850999999999
 30
0.0
 11
18.40913
 21
9.668457
 31
0.0
  0
LINE
  5
131
330
18
100
AcDbEntity
  8
0
100
AcDbLine
 10
18.40913
 20
9.668457
 30
0.0
 11
18.444392
 21
9.428993
 31
0.0
  0
LINE
  5
132
330
18
100
AcDbEntity
  8
0
100
AcDbLine
 10
18.444392
 20
9.428993
 30
0.0
 11
18.455525
 21
9.290718
 31
0.0
  0
LINE
  5
133
330
18
100
AcDbEntity
  8
0
100
AcDbLine
 10
18.455525
 20
9.290718
 30
0.0
 11
18.467714
 21
9.206809
 31
0.0
  0
LINE
  5
134
330
18
100
AcDbEntity
  8
0
100
AcDbLine
 10
17.7226
 20
12.3464
 30
0.0
 11
17.813964
 21
12.118015
 31
0.0
  0
LINE
  5
135
330
18
100
AcDbEntity
  8
0
100
AcDbLine
 10
17.813964
 20
12.118015
 30
0.0
 11
17.897328
 21
11.875583
 31
0.0
  0
LINE
  5
136
330
18
100
AcDbEntity
  8
0
100
AcDbLine
 10
17.897328
 20
11.875583
 30
0.0
 11
18.018797
 21
11.599112
 31
0.0
  0
LINE
  5
137
330
18
100
AcDbEntity
  8
0
100
AcDbLine
 10
18.018797
 20
11.599112
 30
0.0
 11
18.086091
 21
11.40176
 31
0.0
  0
LINE
  5
138
330
18
100
AcDbEntity
  8
0
100
AcDbLine
 10
18.086091
 20
11.40176
 30
0.0
 11
18.17244
 21
11.185384
 31
0.0
  0
LINE
  5
139
330
18
100
AcDbEntity
  8
0
100
AcDbLine
 10
18.17244
 20
11.185384
 30
0.0
 11
18.221657
 21
11.039123
 31
0.0
  0
LINE
  5
13A
330
18
100
AcDbEntity
  8
0
100
AcDbLine
 10
18.221657
 20
11.039123
 30
0.0
 11
18.26593
 21
10.810689
 31
0.0
  0
LINE
  5
13B
330
18
100
AcDbEntity
  8
0
100
AcDbLine
 10
18.26593
 20
10.810689
 30
0.0
 11
18.370413
 21
10.472077
 31
0.0
  0
LINE
  5
13C
330
18
100
AcDbEntity
  8
0
100
AcDbLine
 10
18.370413
 20
10.472077
 30
0.0
 11
18.429717
 21
10.24165
 31
0.0
  0
LINE
  5
13D
330
18
100
AcDbEntity
  8
0
100
AcDbLine
 10
18.429717
 20
10.24165
 30
0.0
 11
18.472972
 21
10.032255
 31
0.0
  0
LINE
  5
13E
330
18
100
AcDbEntity
  8
0
100
AcDbLine
 10
18.472972
 20
10.032255
 30
0.0
 11
18.510173
 21
9.874961000000001
 31
0.0
  0
LINE
  5
13F
330
18
100
AcDbEntity
  8
0
100
AcDbLine
 10
18.510173
 20
9.874961000000001
 30
0.0
 11
18.524319
 21
9.728672
 31
0.0
  0
LINE
  5
140
330
18
100
AcDbEntity
  8
0
100
AcDbLine
 10
18.524319
 20
9.728672
 30
0.0
 11
18.550515
 21
9.549325
 31
0.0
  0
LINE
  5
141
330
18
100
AcDbEntity
  8
0
100
AcDbLine
 10
18.550515
 20
9.549325
 30
0.0
 11
18.571676
 21
9.400035000000001
 31
0.0
  0
LINE
  5
142
330
18
100
AcDbEntity
  8
0
100
AcDbLine
 10
18.571676
 20
9.400035000000001
 30
0.0
 11
18.5934
 21
9.26248
 31
0.0
  0
LINE
  5
143
330
18
100
AcDbEntity
  8
0
100
AcDbLine
 10
17.822271
 20
12.382682
 30
0.0
 11
17.892036
 21
12.229305
 31
0.0
  0
LINE
  5
144
330
18
100
AcDbEntity
  8
0
100
AcDbLine
 10
17.892036
 20
12.229305
 30
0.0
 11
17.986402
 21
12.012936
 31
0.0
  0
LINE
  5
145
330
18
100
AcDbEntity
  8
0
100
AcDbLine
 10
17.986402
 20
12.012936
 30
0.0
 11
18.081772
 21
11.792559
 31
0.0
  0
LINE
  5
146
330
18
100
AcDbEntity
  8
0
100
AcDbLine
 10
18.081772
 20
11.792559
 30
0.0
 11
18.174146
 21
11.561157
 31
0.0
  0
LINE
  5
147
330
18
100
AcDbEntity
  8
0
100
AcDbLine
 10
18.174146
 20
11.561157
 30
0.0
 11
18.272508
 21
11.35882
 31
0.0
  0
LINE
  5
148
330
18
100
AcDbEntity
  8
0
100
AcDbLine
 10
18.272508
 20
11.35882
 30
0.0
 11
18.354875
 21
11.109373
 31
0.0
  0
LINE
  5
149
330
18
100
AcDbEntity
  8
0
100
AcDbLine
 10
18.354875
 20
11.109373
 30
0.0
 11
18.392119
 21
10.89897
 31
0.0
  0
LINE
  5
14A
330
18
100
AcDbEntity
  8
0
100
AcDbLine
 10
18.392119
 20
10.89897
 30
0.0
 11
18.408269
 21
10.750679
 31
0.0
  0
LINE
  5
14B
330
18
100
AcDbEntity
  8
0
100
AcDbLine
 10
18.408269
 20
10.750679
 30
0.0
 11
18.472559
 21
10.552322
 31
0.0
  0
LINE
  5
14C
330
18
100
AcDbEntity
  8
0
100
AcDbLine
 10
18.472559
 20
10.552322
 30
0.0
 11
18.522836
 21
10.332912
 31
0.0
  0
LINE
  5
14D
330
18
100
AcDbEntity
  8
0
100
AcDbLine
 10
18.522836
 20
10.332912
 30
0.0
 11
18.588179
 21
10.070425
 31
0.0
  0
LINE
  5
14E
330
18
100
AcDbEntity
  8
0
100
AcDbLine
 10
18.588179
 20
10.070425
 30
0.0
 11
18.630416
 21
9.880067
 31
0.0
  0
LINE
  5
14F
330
18
100
AcDbEntity
  8
0
100
AcDbLine
 10
18.630416
 20
9.880067
 30
0.0
 11
18.667672
 21
9.653632
 31
0.0
  0
LINE
  5
150
330
18
100
AcDbEntity
  8
0
100
AcDbLine
 10
18.667672
 20
9.653632
 30
0.0
 11
18.688869
 21
9.461253999999999
 31
0.0
  0
LINE
  5
151
330
18
100
AcDbEntity
  8
0
100
AcDbLine
 10
18.688869
 20
9.461253999999999
 30
0.0
 11
18.711174
 21
9.314647000000001
 31
0.0
  0
LINE
  5
152
330
18
100
AcDbEntity
  8
0
100
AcDbLine
 10
18.005613
 20
12.449421
 30
0.0
 11
18.058385
 21
12.220419
 31
0.0
  0
LINE
  5
153
330
18
100
AcDbEntity
  8
0
100
AcDbLine
 10
18.058385
 20
12.220419
 30
0.0
 11
18.128652
 21
12.065156
 31
0.0
  0
LINE
  5
154
330
18
100
AcDbEntity
  8
0
100
AcDbLine
 10
18.128652
 20
12.065156
 30
0.0
 11
18.1859
 21
11.900864
 31
0.0
  0
LINE
  5
155
330
18
100
AcDbEntity
  8
0
100
AcDbLine
 10
18.1859
 20
11.900864
 30
0.0
 11
18.284302
 21
11.649426
 31
0.0
  0
LINE
  5
156
330
18
100
AcDbEntity
  8
0
100
AcDbLine
 10
18.284302
 20
11.649426
 30
0.0
 11
18.343568
 21
11.467098
 31
0.0
  0
LINE
  5
157
330
18
100
AcDbEntity
  8
0
100
AcDbLine
 10
18.343568
 20
11.467098
 30
0.0
 11
18.401876
 21
11.229657
 31
0.0
  0
LINE
  5
158
330
18
100
AcDbEntity
  8
0
100
AcDbLine
 10
18.401876
 20
11.229657
 30
0.0
 11
18.45816
 21
11.017266
 31
0.0
  0
LINE
  5
159
330
18
100
AcDbEntity
  8
0
100
AcDbLine
 10
18.45816
 20
11.017266
 30
0.0
 11
18.522506
 21
10.747763
 31
0.0
  0
LINE
  5
15A
330
18
100
AcDbEntity
  8
0
100
AcDbLine
 10
18.522506
 20
10.747763
 30
0.0
 11
18.587821
 21
10.520348
 31
0.0
  0
LINE
  5
15B
330
18
100
AcDbEntity
  8
0
100
AcDbLine
 10
18.587821
 20
10.520348
 30
0.0
 11
18.655175
 21
10.247842
 31
0.0
  0
LINE
  5
15C
330
18
100
AcDbEntity
  8
0
100
AcDbLine
 10
18.655175
 20
10.247842
 30
0.0
 11
18.703454
 21
10.021415
 31
0.0
  0
LINE
  5
15D
330
18
100
AcDbEntity
  8
0
100
AcDbLine
 10
18.703454
 20
10.021415
 30
0.0
 11
18.750737
 21
9.786971000000001
 31
0.0
  0
LINE
  5
15E
330
18
100
AcDbEntity
  8
0
100
AcDbLine
 10
18.750737
 20
9.786971000000001
 30
0.0
 11
18.785003
 21
9.540493
 31
0.0
  0
LINE
  5
15F
330
18
100
AcDbEntity
  8
0
100
AcDbLine
 10
18.785003
 20
9.540493
 30
0.0
 11
18.792486
 21
9.371169999999999
 31
0.0
  0
LINE
  5
160
330
18
100
AcDbEntity
  8
0
100
AcDbLine
 10
18.152509
 20
12.502893
 30
0.0
 11
18.226688
 21
12.273662
 31
0.0
  0
LINE
  5
161
330
18
100
AcDbEntity
  8
0
100
AcDbLine
 10
18.226688
 20
12.273662
 30
0.0
 11
18.28192
 21
12.124399
 31
0.0
  0
LINE
  5
162
330
18
100
AcDbEntity
  8
0
100
AcDbLine
 10
18.28192
 20
12.124399
 30
0.0
 11
18.362302
 21
11.850901
 31
0.0
  0
LINE
  5
163
330
18
100
AcDbEntity
  8
0
100
AcDbLine
 10
18.362302
 20
11.850901
 30
0.0
 11
18.418573
 21
11.655545
 31
0.0
  0
LINE
  5
164
330
18
100
AcDbEntity
  8
0
100
AcDbLine
 10
18.418573
 20
11.655545
 30
0.0
 11
18.463791
 21
11.497256
 31
0.0
  0
LINE
  5
165
330
18
100
AcDbEntity
  8
0
100
AcDbLine
 10
18.463791
 20
11.497256
 30
0.0
 11
18.529091
 21
11.28888
 31
0.0
  0
LINE
  5
166
330
18
100
AcDbEntity
  8
0
100
AcDbLine
 10
18.529091
 20
11.28888
 30
0.0
 11
18.586382
 21
11.069475
 31
0.0
  0
LINE
  5
167
330
18
100
AcDbEntity
  8
0
100
AcDbLine
 10
18.586382
 20
11.069475
 30
0.0
 11
18.619609
 21
10.870091
 31
0.0
  0
LINE
  5
168
330
18
100
AcDbEntity
  8
0
100
AcDbLine
 10
18.619609
 20
10.870091
 30
0.0
 11
18.67686
 21
10.701791
 31
0.0
  0
LINE
  5
169
330
18
100
AcDbEntity
  8
0
100
AcDbLine
 10
18.67686
 20
10.701791
 30
0.0
 11
18.71205
 21
10.552513
 31
0.0
  0
LINE
  5
16A
330
18
100
AcDbEntity
  8
0
100
AcDbLine
 10
18.71205
 20
10.552513
 30
0.0
 11
18.748239
 21
10.408245
 31
0.0
  0
LINE
  5
16B
330
18
100
AcDbEntity
  8
0
100
AcDbLine
 10
18.748239
 20
10.408245
 30
0.0
 11
18.792486
 21
10.2189
 31
0.0
  0
LINE
  5
16C
330
18
100
AcDbEntity
  8
0
100
AcDbLine
 10
18.305126
 20
12.558448
 30
0.0
 11
18.374872
 21
12.42509
 31
0.0
  0
LINE
  5
16D
330
18
100
AcDbEntity
  8
0
100
AcDbLine
 10
18.374872
 20
12.42509
 30
0.0
 11
18.431149
 21
12.221717
 31
0.0
  0
LINE
  5
16E
330
18
100
AcDbEntity
  8
0
100
AcDbLine
 10
18.431149
 20
12.221717
 30
0.0
 11
18.476376
 21
12.053408
 31
0.0
  0
LINE
  5
16F
330
18
100
AcDbEntity
  8
0
100
AcDbLine
 10
18.476376
 20
12.053408
 30
0.0
 11
18.567793
 21
11.763886
 31
0.0
  0
LINE
  5
170
330
18
100
AcDbEntity
  8
0
100
AcDbLine
 10
18.567793
 20
11.763886
 30
0.0
 11
18.611011
 21
11.601587
 31
0.0
  0
LINE
  5
171
330
18
100
AcDbEntity
  8
0
100
AcDbLine
 10
18.611011
 20
11.601587
 30
0.0
 11
18.653222
 21
11.444297
 31
0.0
  0
LINE
  5
172
330
18
100
AcDbEntity
  8
0
100
AcDbLine
 10
18.653222
 20
11.444297
 30
0.0
 11
18.695482
 21
11.225882
 31
0.0
  0
LINE
  5
173
330
18
100
AcDbEntity
  8
0
100
AcDbLine
 10
18.695482
 20
11.225882
 30
0.0
 11
18.728653
 21
11.096643
 31
0.0
  0
LINE
  5
174
330
18
100
AcDbEntity
  8
0
100
AcDbLine
 10
18.728653
 20
11.096643
 30
0.0
 11
18.761818
 21
10.974419
 31
0.0
  0
LINE
  5
175
330
18
100
AcDbEntity
  8
0
100
AcDbLine
 10
18.761818
 20
10.974419
 30
0.0
 11
18.792486
 21
10.800084
 31
0.0
  0
LINE
  5
176
330
18
100
AcDbEntity
  8
0
100
AcDbLine
 10
18.449441
 20
12.61098
 30
0.0
 11
18.51408
 21
12.524405
 31
0.0
  0
LINE
  5
177
330
18
100
AcDbEntity
  8
0
100
AcDbLine
 10
18.51408
 20
12.524405
 30
0.0
 11
18.531179
 21
12.443252
 31
0.0
  0
LINE
  5
178
330
18
100
AcDbEntity
  8
0
100
AcDbLine
 10
18.531179
 20
12.443252
 30
0.0
 11
18.554282
 21
12.373126
 31
0.0
  0
LINE
  5
179
330
18
100
AcDbEntity
  8
0
100
AcDbLine
 10
18.554282
 20
12.373126
 30
0.0
 11
18.578419
 21
12.262919
 31
0.0
  0
LINE
  5
17A
330
18
100
AcDbEntity
  8
0
100
AcDbLine
 10
18.578419
 20
12.262919
 30
0.0
 11
18.613623
 21
12.097607
 31
0.0
  0
LINE
  5
17B
330
18
100
AcDbEntity
  8
0
100
AcDbLine
 10
18.613623
 20
12.097607
 30
0.0
 11
18.676858
 21
11.964384
 31
0.0
  0
LINE
  5
17C
330
18
100
AcDbEntity
  8
0
100
AcDbLine
 10
18.676858
 20
11.964384
 30
0.0
 11
18.720052
 21
11.831145
 31
0.0
  0
LINE
  5
17D
330
18
100
AcDbEntity
  8
0
100
AcDbLine
 10
18.720052
 20
11.831145
 30
0.0
 11
18.738179
 21
11.718928
 31
0.0
  0
LINE
  5
17E
330
18
100
AcDbEntity
  8
0
100
AcDbLine
 10
18.738179
 20
11.718928
 30
0.0
 11
18.762314
 21
11.610725
 31
0.0
  0
LINE
  5
17F
330
18
100
AcDbEntity
  8
0
100
AcDbLine
 10
18.762314
 20
11.610725
 30
0.0
 11
18.792486
 21
11.481494
 31
0.0
  0
LINE
  5
180
330
18
100
AcDbEntity
  8
0
100
AcDbLine
 10
18.63399
 20
12.678158
 30
0.0
 11
18.686468
 21
12.481453
 31
0.0
  0
LINE
  5
181
330
18
100
AcDbEntity
  8
0
100
AcDbLine
 10
18.686468
 20
12.481453
 30
0.0
 11
18.706568
 21
12.407317
 31
0.0
  0
LINE
  5
182
330
18
100
AcDbEntity
  8
0
100
AcDbLine
 10
18.706568
 20
12.407317
 30
0.0
 11
18.739718
 21
12.303129
 31
0.0
  0
LINE
  5
183
330
18
100
AcDbEntity
  8
0
100
AcDbLine
 10
18.739718
 20
12.303129
 30
0.0
 11
18.792486
 21
12.172902
 31
0.0
  0
LINE
  5
184
330
18
100
AcDbEntity
  8
0
100
AcDbLine
 10
13.481152
 20
13.926303
 30
0.0
 11
13.595784
 21
14.0326
 31
0.0
  0
LINE
  5
185
330
18
100
AcDbEntity
  8
0
100
AcDbLine
 10
13.595784
 20
14.0326
 30
0.0
 11
13.433387
 21
14.112635
 31
0.0
  0
LINE
  5
186
330
18
100
AcDbEntity
  8
0
100
AcDbLine
 10
13.433387
 20
14.112635
 30
0.0
 11
13.481152
 21
14.220908
 31
0.0
  0
TEXT
  5
187
330
18
100
AcDbEntity
  8
0
100
AcDbText
 10
15.624946
 20
8.163349999999999
 30
0.0
 40
0.22
  1
Simpson Strong-Tie
100
AcDbText
  0
TEXT
  5
188
330
18
100
AcDbEntity
  8
0
100
AcDbText
 10
15.624946
 20
7.807160000000001
 30
0.0
 40
0.22
  1
HUC (on beam)
100
AcDbText
  0
POINT
  5
189
330
18
100
AcDbEntity
  8
0
100
AcDbPoint
 10
13.347731
 20
7.668536000000001
 30
0.0
  0
ENDSEC
  0
SECTION
  2
OBJECTS
  0
DICTIONARY
  5
C
330
0
100
AcDbDictionary
281
     1
  3
ACAD_COLOR
350
18F
  3
ACAD_GROUP
350
D
  3
ACAD_LAYOUT
350
15
  3
ACAD_MATERIAL
350
191
  3
ACAD_MLINESTYLE
350
12
  3
ACAD_PLOTSETTINGS
350
14
  3
ACAD_PLOTSTYLENAME
350
E
  3
ACDBHEADERROUNDTRIPXREC
350
18E
  0
DICTIONARY
  5
18F
102
{ACAD_REACTORS
330
C
102
}
330
C
100
AcDbDictionary
281
     1
  0
DICTIONARY
  5
D
102
{ACAD_REACTORS
330
C
102
}
330
C
100
AcDbDictionary
281
     1
  0
DICTIONARY
  5
15
102
{ACAD_REACTORS
330
C
102
}
330
C
100
AcDbDictionary
281
     1
  3
Layout1
350
17
  3
Model
350
19
  0
DICTIONARY
  5
191
102
{ACAD_REACTORS
330
C
102
}
330
C
100
AcDbDictionary
281
     1
  0
DICTIONARY
  5
12
102
{ACAD_REACTORS
330
C
102
}
330
C
100
AcDbDictionary
281
     1
  3
Standard
350
13
  0
DICTIONARY
  5
14
102
{ACAD_REACTORS
330
C
102
}
330
C
100
AcDbDictionary
281
     1
  0
ACDBDICTIONARYWDFLT
  5
E
102
{ACAD_REACTORS
330
C
102
}
330
C
100
AcDbDictionary
281
     1
  3
Normal
350
F
100
AcDbDictionaryWithDefault
340
F
  0
DICTIONARY
  5
18E
102
{ACAD_REACTORS
330
C
102
}
330
C
100
AcDbDictionary
281
     1
  3
COLORDICT
350
190
  3
MATERIALDICT
350
192
  0
LAYOUT
  5
17
102
{ACAD_REACTORS
330
15
102
}
102
{ACAD_XDICTIONARY
360
193
102
}
330
15
100
AcDbPlotSettings
  1

  2

  4

  6

 40
0.0
 41
0.0
 42
0.0
 43
0.0
 44
0.0
 45
0.0
 46
0.0
 47
0.0
 48
0.0
 49
0.0
140
0.0
141
0.0
142
1.0
143
1.0
 70
   688
 72
     0
 73
     0
 74
     5
  7

 75
    16
147
1.0
148
0.0
149
0.0
100
AcDbLayout
  1
Layout1
 70
     1
 71
     1
 10
0.0
 20
0.0
 11
12.0
 21
9.0
 12
0.0
 22
0.0
 32
0.0
 14
1.000000000000000E+20
 24
1.000000000000000E+20
 34
1.000000000000000E+20
 15
-1.000000000000000E+20
 25
-1.000000000000000E+20
 35
-1.000000000000000E+20
146
0.0
 13
0.0
 23
0.0
 33
0.0
 16
1.0
 26
0.0
 36
0.0
 17
0.0
 27
1.0
 37
0.0
 76
     0
330
16
  0
LAYOUT
  5
19
102
{ACAD_REACTORS
330
15
102
}
102
{ACAD_XDICTIONARY
360
195
102
}
330
15
100
AcDbPlotSettings
  1

  2

  4

  6

 40
0.0
 41
0.0
 42
0.0
 43
0.0
 44
0.0
 45
0.0
 46
0.0
 47
0.0
 48
0.0
 49
0.0
140
0.0
141
0.0
142
1.0
143
1.0
 70
  1712
 72
     0
 73
     0
 74
     0
  7

 75
     0
147
1.0
148
0.0
149
0.0
100
AcDbLayout
  1
Model
 70
     1
 71
     0
 10
0.0
 20
0.0
 11
0.0
 21
0.0
 12
0.0
 22
0.0
 32
0.0
 14
0.0
 24
0.0
 34
0.0
 15
0.0
 25
0.0
 35
0.0
146
0.0
 13
0.0
 23
0.0
 33
0.0
 16
1.0
 26
0.0
 36
0.0
 17
0.0
 27
1.0
 37
0.0
 76
     0
330
18
  0
MLINESTYLE
  5
13
102
{ACAD_REACTORS
330
12
102
}
330
12
100
AcDbMlineStyle
  2
Standard
 70
     0
  3

 62
   256
 51
90.0
 52
90.0
 71
     2
 49
0.5
 62
   256
  6
BYLAYER
 49
-0.5
 62
   256
  6
BYLAYER
  0
ACDBPLACEHOLDER
  5
F
102
{ACAD_REACTORS
330
E
102
}
330
E
  0
XRECORD
  5
190
102
{ACAD_REACTORS
330
18E
102
}
330
18E
100
AcDbXrecord
340
18F
  0
XRECORD
  5
192
102
{ACAD_REACTORS
330
18E
102
}
330
18E
100
AcDbXrecord
340
191
  0
DICTIONARY
  5
193
330
17
100
AcDbDictionary
280
     1
281
     1
  3
ACAD_XREC_ROUNDTRIP
360
194
  0
DICTIONARY
  5
195
330
19
100
AcDbDictionary
280
     1
281
     1
  3
ACAD_XREC_ROUNDTRIP
360
196
  0
XRECORD
  5
194
102
{ACAD_REACTORS
330
193
102
}
330
193
100
AcDbXrecord
102
SHADEPLOT
 70
     0
102
SHADEPLOTRESLEVEL
 70
     0
102
SHADEPLOTCUSTOMDPI
 70
     0
  0
XRECORD
  5
196
102
{ACAD_REACTORS
330
195
102
}
330
195
100
AcDbXrecord
102
SHADEPLOT
 70
 27424
102
SHADEPLOTRESLEVEL
 70
 25504
102
SHADEPLOTCUSTOMDPI
 70
 16888
  0
ENDSEC
  0
EOF
