  0
SECTION
  2
HEADER
  9
$ACADVER
  1
AC1015
  9
$ACADMAINTVER
 70
     6
  9
$DWGCODEPAGE
  3
ISO8859-1
  9
$INSBASE
 10
0.0
 20
0.0
 30
0.0
  9
$EXTMIN
 10
9.997060000000001
 20
6.253645
 30
0.0
  9
$EXTMAX
 10
16.456296
 20
15.535679
 30
0.0
  9
$LIMMIN
 10
0.0
 20
0.0
  9
$LIMMAX
 10
12.0
 20
9.0
  9
$ORTHOMODE
 70
     1
  9
$REGENMODE
 70
     0
  9
$FILLMODE
 70
     1
  9
$QTEXTMODE
 70
     0
  9
$MIRRTEXT
 70
     1
  9
$LTSCALE
 40
0.25
  9
$ATTMODE
 70
     1
  9
$TEXTSIZE
 40
0.25
  9
$TRACEWID
 40
0.05
  9
$TEXTSTYLE
  7
STANDARD
  9
$CLAYER
  8
0
  9
$CELTYPE
  6
ByLayer
  9
$CECOLOR
 62
   256
  9
$CELTSCALE
 40
1.0
  9
$DISPSILH
 70
     0
  9
$DIMSCALE
 40
1.0
  9
$DIMASZ
 40
0.125
  9
$DIMEXO
 40
0.0625
  9
$DIMDLI
 40
0.38
  9
$DIMRND
 40
0.0
  9
$DIMDLE
 40
0.0
  9
$DIMEXE
 40
0.18
  9
$DIMTP
 40
0.0
  9
$DIMTM
 40
0.0
  9
$DIMTXT
 40
0.125
  9
$DIMCEN
 40
0.09
  9
$DIMTSZ
 40
0.0
  9
$DIMTOL
 70
     0
  9
$DIMLIM
 70
     0
  9
$DIMTIH
 70
     1
  9
$DIMTOH
 70
     1
  9
$DIMSE1
 70
     0
  9
$DIMSE2
 70
     0
  9
$DIMTAD
 70
     0
  9
$DIMZIN
 70
     0
  9
$DIMBLK
  1

  9
$DIMASO
 70
     0
  9
$DIMSHO
 70
     1
  9
$DIMPOST
  1

  9
$DIMAPOST
  1

  9
$DIMALT
 70
     0
  9
$DIMALTD
 70
     2
  9
$DIMALTF
 40
25.4
  9
$DIMLFAC
 40
1.0
  9
$DIMTOFL
 70
     0
  9
$DIMTVP
 40
0.0
  9
$DIMTIX
 70
     0
  9
$DIMSOXD
 70
     0
  9
$DIMSAH
 70
     0
  9
$DIMBLK1
  1

  9
$DIMBLK2
  1

  9
$DIMSTYLE
  2
Standard
  9
$DIMCLRD
 70
     0
  9
$DIMCLRE
 70
     0
  9
$DIMCLRT
 70
     0
  9
$DIMTFAC
 40
1.0
  9
$DIMGAP
 40
0.09
  9
$DIMJUST
 70
     0
  9
$DIMSD1
 70
     0
  9
$DIMSD2
 70
     0
  9
$DIMTOLJ
 70
     1
  9
$DIMTZIN
 70
     0
  9
$DIMALTZ
 70
     0
  9
$DIMALTTZ
 70
     0
  9
$DIMUPT
 70
     0
  9
$DIMDEC
 70
     4
  9
$DIMTDEC
 70
     4
  9
$DIMALTU
 70
     2
  9
$DIMALTTD
 70
     2
  9
$DIMTXSTY
  7
STANDARD
  9
$DIMAUNIT
 70
     0
  9
$DIMADEC
 70
     0
  9
$DIMALTRND
 40
0.0
  9
$DIMAZIN
 70
     0
  9
$DIMDSEP
 70
    46
  9
$DIMATFIT
 70
     3
  9
$DIMFRAC
 70
     0
  9
$DIMLDRBLK
  1

  9
$DIMLUNIT
 70
     2
  9
$DIMLWD
 70
    -2
  9
$DIMLWE
 70
    -2
  9
$DIMTMOVE
 70
     0
  9
$LUNITS
 70
     2
  9
$LUPREC
 70
     4
  9
$SKETCHINC
 40
0.1
  9
$FILLETRAD
 40
0.0625
  9
$AUNITS
 70
     0
  9
$AUPREC
 70
     0
  9
$MENU
  1
acad
  9
$ELEVATION
 40
0.0
  9
$PELEVATION
 40
0.0
  9
$THICKNESS
 40
0.0
  9
$LIMCHECK
 70
     0
  9
$CHAMFERA
 40
0.0
  9
$CHAMFERB
 40
0.0
  9
$CHAMFERC
 40
1.0
  9
$CHAMFERD
 40
0.0
  9
$SKPOLY
 70
     0
  9
$TDCREATE
 40
2453955.561578195
  9
$TDUCREATE
 40
2453955.894911528
  9
$TDUPDATE
 40
2453955.603244873
  9
$TDUUPDATE
 40
2453955.894911539
  9
$TDINDWG
 40
0.0000000116
  9
$TDUSRTIMER
 40
0.0000000116
  9
$USRTIMER
 70
     1
  9
$ANGBASE
 50
0.0
  9
$ANGDIR
 70
     0
  9
$PDMODE
 70
     0
  9
$PDSIZE
 40
0.0
  9
$PLINEWID
 40
0.0
  9
$SPLFRAME
 70
     0
  9
$SPLINETYPE
 70
     6
  9
$SPLINESEGS
 70
     8
  9
$HANDSEED
  5
1A4
  9
$SURFTAB1
 70
     6
  9
$SURFTAB2
 70
     6
  9
$SURFTYPE
 70
     6
  9
$SURFU
 70
     6
  9
$SURFV
 70
     6
  9
$UCSBASE
  2

  9
$UCSNAME
  2

  9
$UCSORG
 10
0.0
 20
0.0
 30
0.0
  9
$UCSXDIR
 10
1.0
 20
0.0
 30
0.0
  9
$UCSYDIR
 10
0.0
 20
1.0
 30
0.0
  9
$UCSORTHOREF
  2

  9
$UCSORTHOVIEW
 70
     0
  9
$UCSORGTOP
 10
0.0
 20
0.0
 30
0.0
  9
$UCSORGBOTTOM
 10
0.0
 20
0.0
 30
0.0
  9
$UCSORGLEFT
 10
0.0
 20
0.0
 30
0.0
  9
$UCSORGRIGHT
 10
0.0
 20
0.0
 30
0.0
  9
$UCSORGFRONT
 10
0.0
 20
0.0
 30
0.0
  9
$UCSORGBACK
 10
0.0
 20
0.0
 30
0.0
  9
$PUCSBASE
  2

  9
$PUCSNAME
  2

  9
$PUCSORG
 10
0.0
 20
0.0
 30
0.0
  9
$PUCSXDIR
 10
1.0
 20
0.0
 30
0.0
  9
$PUCSYDIR
 10
0.0
 20
1.0
 30
0.0
  9
$PUCSORTHOREF
  2

  9
$PUCSORTHOVIEW
 70
     0
  9
$PUCSORGTOP
 10
0.0
 20
0.0
 30
0.0
  9
$PUCSORGBOTTOM
 10
0.0
 20
0.0
 30
0.0
  9
$PUCSORGLEFT
 10
0.0
 20
0.0
 30
0.0
  9
$PUCSORGRIGHT
 10
0.0
 20
0.0
 30
0.0
  9
$PUCSORGFRONT
 10
0.0
 20
0.0
 30
0.0
  9
$PUCSORGBACK
 10
0.0
 20
0.0
 30
0.0
  9
$USERI1
 70
     0
  9
$USERI2
 70
     0
  9
$USERI3
 70
     0
  9
$USERI4
 70
     0
  9
$USERI5
 70
     0
  9
$USERR1
 40
0.0
  9
$USERR2
 40
0.0
  9
$USERR3
 40
0.0
  9
$USERR4
 40
0.0
  9
$USERR5
 40
0.0
  9
$WORLDVIEW
 70
     1
  9
$SHADEDGE
 70
     3
  9
$SHADEDIF
 70
    70
  9
$TILEMODE
 70
     1
  9
$MAXACTVP
 70
    16
  9
$PINSBASE
 10
0.0
 20
0.0
 30
0.0
  9
$PLIMCHECK
 70
     0
  9
$PEXTMIN
 10
1.000000000000000E+20
 20
1.000000000000000E+20
 30
1.000000000000000E+20
  9
$PEXTMAX
 10
-1.000000000000000E+20
 20
-1.000000000000000E+20
 30
-1.000000000000000E+20
  9
$PLIMMIN
 10
0.0
 20
0.0
  9
$PLIMMAX
 10
12.0
 20
9.0
  9
$UNITMODE
 70
     0
  9
$VISRETAIN
 70
     0
  9
$PLINEGEN
 70
     0
  9
$PSLTSCALE
 70
     1
  9
$TREEDEPTH
 70
  3020
  9
$CMLSTYLE
  2
Standard
  9
$CMLJUST
 70
     0
  9
$CMLSCALE
 40
1.0
  9
$PROXYGRAPHICS
 70
     1
  9
$MEASUREMENT
 70
     0
  9
$CELWEIGHT
370
    -1
  9
$ENDCAPS
280
     0
  9
$JOINSTYLE
280
     0
  9
$LWDISPLAY
290
     0
  9
$INSUNITS
 70
     1
  9
$HYPERLINKBASE
  1

  9
$STYLESHEET
  1

  9
$XEDIT
290
     1
  9
$CEPSNTYPE
380
     0
  9
$PSTYLEMODE
290
     0
  9
$FINGERPRINTGUID
  2
{FAEB1C30-E019-11D5-929B-00C0DF256EC4}
  9
$VERSIONGUID
  2
{FAEB1C32-E019-11D5-929B-00C0DF256EC4}
  9
$EXTNAMES
290
     1
  9
$PSVPSCALE
 40
0.0
  9
$OLESTARTUP
290
     0
  0
ENDSEC
  0
SECTION
  2
CLASSES
  0
CLASS
  1
ACDBDICTIONARYWDFLT
  2
AcDbDictionaryWithDefault
  3
AutoCAD 2000
 90
        0
280
     0
281
     0
  0
CLASS
  1
ACDBPLACEHOLDER
  2
AcDbPlaceHolder
  3
ObjectDBX Classes
 90
        0
280
     0
281
     0
  0
CLASS
  1
LAYOUT
  2
AcDbLayout
  3
ObjectDBX Classes
 90
        0
280
     0
281
     0
  0
ENDSEC
  0
SECTION
  2
TABLES
  0
TABLE
  2
VPORT
  5
8
330
0
100
AcDbSymbolTable
 70
     2
  0
VPORT
  5
1E
330
8
100
AcDbSymbolTableRecord
100
AcDbViewportTableRecord
  2
*ACTIVE
 70
     0
 10
0.0
 20
0.0
 11
1.0
 21
1.0
 12
10.77717199394673
 22
7.7678395
 13
0.0
 23
0.0
 14
1.0
 24
1.0
 15
0.0
 25
0.0
 16
0.0
 26
0.0
 36
1.0
 17
0.0
 27
0.0
 37
0.0
 40
15.535679
 41
0.7207678883071553
 42
50.0
 43
0.0
 44
0.0
 50
0.0
 51
0.0
 71
     0
 72
  2000
 73
     1
 74
     0
 75
     0
 76
     0
 77
     0
 78
     0
281
     0
 65
     1
110
0.0
120
0.0
130
0.0
111
1.0
121
0.0
131
0.0
112
0.0
122
1.0
132
0.0
 79
     0
146
0.0
  0
ENDTAB
  0
TABLE
  2
LTYPE
  5
5
330
0
100
AcDbSymbolTable
 70
     1
  0
LTYPE
  5
10
330
5
100
AcDbSymbolTableRecord
100
AcDbLinetypeTableRecord
  2
ByBlock
 70
     0
  3

 72
    65
 73
     0
 40
0.0
  0
LTYPE
  5
11
330
5
100
AcDbSymbolTableRecord
100
AcDbLinetypeTableRecord
  2
ByLayer
 70
     0
  3

 72
    65
 73
     0
 40
0.0
  0
LTYPE
  5
1B
330
5
100
AcDbSymbolTableRecord
100
AcDbLinetypeTableRecord
  2
CONTINUOUS
 70
     0
  3
Solid line
 72
    65
 73
     0
 40
0.0
  0
ENDTAB
  0
TABLE
  2
LAYER
  5
2
330
0
100
AcDbSymbolTable
 70
     1
  0
LAYER
  5
1C
330
2
100
AcDbSymbolTableRecord
100
AcDbLayerTableRecord
  2
0
 70
     0
 62
     7
  6
CONTINUOUS
370
    -3
390
F
  0
ENDTAB
  0
TABLE
  2
STYLE
  5
3
330
0
100
AcDbSymbolTable
 70
     1
  0
STYLE
  5
21
330
3
100
AcDbSymbolTableRecord
100
AcDbTextStyleTableRecord
  2
STANDARD
 70
     0
 40
0.0
 41
1.0
 50
0.0
 71
     0
 42
0.25
  3
ROMANS.SHX
  4

  0
ENDTAB
  0
TABLE
  2
VIEW
  5
6
330
0
100
AcDbSymbolTable
 70
     1
  0
VIEW
  5
20
330
6
100
AcDbSymbolTableRecord
100
AcDbViewTableRecord
  2
1
 70
     0
 40
13.44622
 10
15.221085
 20
10.319723
 41
17.518608
 11
0.0
 21
0.0
 31
1.0
 12
0.0
 22
0.0
 32
0.0
 42
50.0
 43
0.0
 44
0.0
 50
0.0
 71
     0
281
     0
 72
     0
  0
ENDTAB
  0
TABLE
  2
UCS
  5
7
330
0
100
AcDbSymbolTable
 70
     0
  0
ENDTAB
  0
TABLE
  2
APPID
  5
9
330
0
100
AcDbSymbolTable
 70
     1
  0
APPID
  5
1F
330
9
100
AcDbSymbolTableRecord
100
AcDbRegAppTableRecord
  2
ACAD
 70
     0
  0
ENDTAB
  0
TABLE
  2
DIMSTYLE
  5
A
330
0
100
AcDbSymbolTable
 70
     1
100
AcDbDimStyleTable
  0
DIMSTYLE
105
22
330
A
100
AcDbSymbolTableRecord
100
AcDbDimStyleTableRecord
  2
Standard
 70
     0
  3

  4

340
21
  0
ENDTAB
  0
TABLE
  2
BLOCK_RECORD
  5
1
330
0
100
AcDbSymbolTable
 70
     0
  0
BLOCK_RECORD
  5
18
330
1
100
AcDbSymbolTableRecord
100
AcDbBlockTableRecord
  2
*Model_Space
340
19
  0
BLOCK_RECORD
  5
16
330
1
100
AcDbSymbolTableRecord
100
AcDbBlockTableRecord
  2
*Paper_Space
340
17
  0
ENDTAB
  0
ENDSEC
  0
SECTION
  2
BLOCKS
  0
BLOCK
  5
199
330
18
100
AcDbEntity
  8
0
100
AcDbBlockBegin
  2
*Model_Space
 70
     0
 10
0.0
 20
0.0
 30
0.0
  3
*Model_Space
  1

  4

  0
ENDBLK
  5
19A
330
18
100
AcDbEntity
  8
0
100
AcDbBlockEnd
  0
BLOCK
  5
197
330
16
100
AcDbEntity
 67
     1
  8
0
100
AcDbBlockBegin
  2
*Paper_Space
 70
     0
 10
0.0
 20
0.0
 30
0.0
  3
*Paper_Space
  1

  4

  0
ENDBLK
  5
198
330
16
100
AcDbEntity
 67
     1
  8
0
100
AcDbBlockEnd
  0
ENDSEC
  0
SECTION
  2
ENTITIES
  0
LINE
  5
23
330
18
100
AcDbEntity
  8
0
100
AcDbLine
 10
16.456296
 20
14.969526
 30
0.0
 11
16.456296
 21
7.405063
 31
0.0
  0
LINE
  5
24
330
18
100
AcDbEntity
  8
0
100
AcDbLine
 10
14.895712
 20
14.467678
 30
0.0
 11
14.895712
 21
12.192053
 31
0.0
  0
LINE
  5
25
330
18
100
AcDbEntity
  8
0
100
AcDbLine
 10
13.984164
 20
15.094681
 30
0.0
 11
13.984164
 21
13.322229
 31
0.0
  0
LINE
  5
26
330
18
100
AcDbEntity
  8
0
100
AcDbLine
 10
12.371329
 20
11.695537
 30
0.0
 11
14.895712
 21
12.613341
 31
0.0
  0
LINE
  5
27
330
18
100
AcDbEntity
  8
0
100
AcDbLine
 10
14.294657
 20
8.655046000000001
 30
0.0
 11
14.913621
 21
8.90662
 31
0.0
  0
LINE
  5
28
330
18
100
AcDbEntity
  8
0
100
AcDbLine
 10
14.895712
 20
6.624358
 30
0.0
 11
15.629953
 21
6.991673
 31
0.0
  0
LINE
  5
29
330
18
100
AcDbEntity
  8
0
100
AcDbLine
 10
13.984164
 20
7.793827
 30
0.0
 11
14.895712
 21
6.624358
 31
0.0
  0
LINE
  5
2A
330
18
100
AcDbEntity
  8
0
100
AcDbLine
 10
14.895712
 20
14.467678
 30
0.0
 11
15.50274
 21
14.662884
 31
0.0
  0
LINE
  5
2B
330
18
100
AcDbEntity
  8
0
100
AcDbLine
 10
13.984164
 20
15.094681
 30
0.0
 11
14.895712
 21
14.467678
 31
0.0
  0
LINE
  5
2C
330
18
100
AcDbEntity
  8
0
100
AcDbLine
 10
12.371329
 20
11.695537
 30
0.0
 11
12.371329
 21
10.434216
 31
0.0
  0
LINE
  5
2D
330
18
100
AcDbEntity
  8
0
100
AcDbLine
 10
13.984164
 20
13.322229
 30
0.0
 11
14.895712
 21
12.613341
 31
0.0
  0
LINE
  5
2E
330
18
100
AcDbEntity
  8
0
100
AcDbLine
 10
13.984164
 20
8.575641000000001
 30
0.0
 11
13.984164
 21
7.793827
 31
0.0
  0
LINE
  5
2F
330
18
100
AcDbEntity
  8
0
100
AcDbLine
 10
11.5546
 20
8.951853
 30
0.0
 11
12.371329
 21
7.881432000000001
 31
0.0
  0
LINE
  5
30
330
18
100
AcDbEntity
  8
0
100
AcDbLine
 10
11.5546
 20
12.504737
 30
0.0
 11
11.5546
 21
11.304173
 31
0.0
  0
LINE
  5
31
330
18
100
AcDbEntity
  8
0
100
AcDbLine
 10
11.5546
 20
10.783073
 30
0.0
 11
12.371329
 21
9.913116000000001
 31
0.0
  0
LINE
  5
32
330
18
100
AcDbEntity
  8
0
100
AcDbLine
 10
11.5546
 20
11.304173
 30
0.0
 11
12.371329
 21
10.434216
 31
0.0
  0
LINE
  5
33
330
18
100
AcDbEntity
  8
0
100
AcDbLine
 10
11.456692
 20
11.122895
 30
0.0
 11
12.263678
 21
10.214118
 31
0.0
  0
LINE
  5
34
330
18
100
AcDbEntity
  8
0
100
AcDbLine
 10
12.371329
 20
9.913116000000001
 30
0.0
 11
12.485335
 21
10.066576
 31
0.0
  0
LINE
  5
35
330
18
100
AcDbEntity
  8
0
100
AcDbLine
 10
12.485335
 20
10.066576
 30
0.0
 11
12.263678
 21
10.214118
 31
0.0
  0
LINE
  5
36
330
18
100
AcDbEntity
  8
0
100
AcDbLine
 10
12.263678
 20
10.214118
 30
0.0
 11
12.371329
 21
10.434216
 31
0.0
  0
LINE
  5
37
330
18
100
AcDbEntity
  8
0
100
AcDbLine
 10
11.5546
 20
11.304173
 30
0.0
 11
11.456692
 21
11.122895
 31
0.0
  0
LINE
  5
38
330
18
100
AcDbEntity
  8
0
100
AcDbLine
 10
11.631696
 20
10.925817
 30
0.0
 11
11.5546
 21
10.783073
 31
0.0
  0
LINE
  5
39
330
18
100
AcDbEntity
  8
0
100
AcDbLine
 10
11.5546
 20
10.783073
 30
0.0
 11
11.5546
 21
8.951853
 31
0.0
  0
LINE
  5
3A
330
18
100
AcDbEntity
  8
0
100
AcDbLine
 10
12.371329
 20
9.913116000000001
 30
0.0
 11
12.371329
 21
7.881432000000001
 31
0.0
  0
LINE
  5
3B
330
18
100
AcDbEntity
  8
0
100
AcDbLine
 10
15.629953
 20
6.991673
 30
0.0
 11
15.769583
 21
7.199149
 31
0.0
  0
LINE
  5
3C
330
18
100
AcDbEntity
  8
0
100
AcDbLine
 10
15.769583
 20
7.199149
 30
0.0
 11
15.880059
 21
6.98682
 31
0.0
  0
LINE
  5
3D
330
18
100
AcDbEntity
  8
0
100
AcDbLine
 10
15.880059
 20
6.98682
 30
0.0
 11
15.981856
 21
7.167717999999999
 31
0.0
  0
LINE
  5
3E
330
18
100
AcDbEntity
  8
0
100
AcDbLine
 10
15.981856
 20
7.167717999999999
 30
0.0
 11
16.456296
 21
7.405063
 31
0.0
  0
LINE
  5
3F
330
18
100
AcDbEntity
  8
0
100
AcDbLine
 10
15.723222
 20
7.130261
 30
0.0
 11
15.880059
 21
6.98682
 31
0.0
  0
LINE
  5
40
330
18
100
AcDbEntity
  8
0
100
AcDbLine
 10
14.534142
 20
12.012171
 30
0.0
 11
14.534142
 21
9.492010000000001
 31
0.0
  0
LINE
  5
41
330
18
100
AcDbEntity
  8
0
100
AcDbLine
 10
14.477266
 20
12.039917
 30
0.0
 11
14.477266
 21
9.502478999999999
 31
0.0
  0
LINE
  5
42
330
18
100
AcDbEntity
  8
0
100
AcDbLine
 10
14.534142
 20
12.012171
 30
0.0
 11
14.952588
 21
12.164307
 31
0.0
  0
LINE
  5
43
330
18
100
AcDbEntity
  8
0
100
AcDbLine
 10
14.477266
 20
12.039917
 30
0.0
 11
14.895712
 21
12.192053
 31
0.0
  0
LINE
  5
44
330
18
100
AcDbEntity
  8
0
100
AcDbLine
 10
14.952588
 20
12.164307
 30
0.0
 11
14.952588
 21
8.964521000000001
 31
0.0
  0
LINE
  5
45
330
18
100
AcDbEntity
  8
0
100
AcDbLine
 10
14.477266
 20
12.039917
 30
0.0
 11
14.534142
 21
12.012171
 31
0.0
  0
LINE
  5
46
330
18
100
AcDbEntity
  8
0
100
AcDbLine
 10
14.895712
 20
12.192053
 30
0.0
 11
14.952588
 21
12.164307
 31
0.0
  0
LINE
  5
47
330
18
100
AcDbEntity
  8
0
100
AcDbLine
 10
14.895712
 20
8.899341
 30
0.0
 11
14.895712
 21
6.624358
 31
0.0
  0
LINE
  5
48
330
18
100
AcDbEntity
  8
0
100
AcDbLine
 10
14.294657
 20
8.863536
 30
0.0
 11
14.534142
 21
9.492010000000001
 31
0.0
  0
LINE
  5
49
330
18
100
AcDbEntity
  8
0
100
AcDbLine
 10
14.294657
 20
8.863536
 30
0.0
 11
14.294657
 21
8.655046000000001
 31
0.0
  0
LINE
  5
4A
330
18
100
AcDbEntity
  8
0
100
AcDbLine
 10
14.23778
 20
8.874005
 30
0.0
 11
14.477266
 21
9.502478999999999
 31
0.0
  0
LINE
  5
4B
330
18
100
AcDbEntity
  8
0
100
AcDbLine
 10
14.23778
 20
8.874005
 30
0.0
 11
14.23778
 21
8.684805000000001
 31
0.0
  0
LINE
  5
4C
330
18
100
AcDbEntity
  8
0
100
AcDbLine
 10
12.371329
 20
7.881432000000001
 30
0.0
 11
14.23778
 21
8.684805000000001
 31
0.0
  0
ARC
  5
4D
330
18
100
AcDbEntity
  8
0
100
AcDbCircle
 10
14.253353
 20
8.738175999999999
 30
0.0
 40
0.092826
100
AcDbArc
 50
230.7911910000001
 51
296.420706
  0
CIRCLE
  5
4E
330
18
100
AcDbEntity
  8
0
100
AcDbCircle
 10
14.656947
 20
9.204180000000001
 30
0.0
 40
0.040098
  0
CIRCLE
  5
4F
330
18
100
AcDbEntity
  8
0
100
AcDbCircle
 10
14.656947
 20
9.725294999999999
 30
0.0
 40
0.040098
  0
CIRCLE
  5
50
330
18
100
AcDbEntity
  8
0
100
AcDbCircle
 10
14.656947
 20
10.819627
 30
0.0
 40
0.040098
  0
LINE
  5
51
330
18
100
AcDbEntity
  8
0
100
AcDbLine
 10
14.612472
 20
15.27525
 30
0.0
 11
15.50274
 21
14.662884
 31
0.0
  0
LINE
  5
52
330
18
100
AcDbEntity
  8
0
100
AcDbLine
 10
15.042838
 20
15.398934
 30
0.0
 11
15.918531
 21
14.796593
 31
0.0
  0
LINE
  5
53
330
18
100
AcDbEntity
  8
0
100
AcDbLine
 10
14.735346
 20
15.491951
 30
0.0
 11
15.625615
 21
14.879585
 31
0.0
  0
LINE
  5
54
330
18
100
AcDbEntity
  8
0
100
AcDbLine
 10
15.918531
 20
14.796593
 30
0.0
 11
16.456296
 21
14.969526
 31
0.0
  0
LINE
  5
55
330
18
100
AcDbEntity
  8
0
100
AcDbLine
 10
11.747688
 20
10.795194
 30
0.0
 11
11.861823
 21
10.976927
 31
0.0
  0
LINE
  5
56
330
18
100
AcDbEntity
  8
0
100
AcDbLine
 10
12.152586
 20
10.339223
 30
0.0
 11
12.281224
 21
10.530193
 31
0.0
  0
LINE
  5
57
330
18
100
AcDbEntity
  8
0
100
AcDbLine
 10
12.080901
 20
10.41995
 30
0.0
 11
12.20898
 21
10.607146
 31
0.0
  0
LINE
  5
58
330
18
100
AcDbEntity
  8
0
100
AcDbLine
 10
11.621976
 20
10.711305
 30
0.0
 11
11.720347
 21
10.825983
 31
0.0
  0
LINE
  5
59
330
18
100
AcDbEntity
  8
0
100
AcDbLine
 10
11.69128
 20
10.637484
 30
0.0
 11
11.805624
 21
10.72995
 31
0.0
  0
LINE
  5
5A
330
18
100
AcDbEntity
  8
0
100
AcDbLine
 10
11.799087
 20
10.522652
 30
0.0
 11
11.896353
 21
10.627776
 31
0.0
  0
LINE
  5
5B
330
18
100
AcDbEntity
  8
0
100
AcDbLine
 10
11.869861
 20
10.447265
 30
0.0
 11
11.970843
 21
10.54389
 31
0.0
  0
LINE
  5
5C
330
18
100
AcDbEntity
  8
0
100
AcDbLine
 10
11.940699
 20
10.371811
 30
0.0
 11
11.945833
 21
10.37663
 31
0.0
  0
LINE
  5
5D
330
18
100
AcDbEntity
  8
0
100
AcDbLine
 10
11.945833
 20
10.37663
 30
0.0
 11
11.945833
 21
10.37663
 31
0.0
  0
LINE
  5
5E
330
18
100
AcDbEntity
  8
0
100
AcDbLine
 10
11.945833
 20
10.37663
 30
0.0
 11
12.046196
 21
10.459032
 31
0.0
  0
LINE
  5
5F
330
18
100
AcDbEntity
  8
0
100
AcDbLine
 10
12.039947
 20
10.453902
 30
0.0
 11
12.03995
 21
10.451897
 31
0.0
  0
LINE
  5
60
330
18
100
AcDbEntity
  8
0
100
AcDbLine
 10
12.03995
 20
10.451897
 30
0.0
 11
12.03995
 21
10.451897
 31
0.0
  0
LINE
  5
61
330
18
100
AcDbEntity
  8
0
100
AcDbLine
 10
12.025643
 20
10.281331
 30
0.0
 11
12.127679
 21
10.367272
 31
0.0
  0
LINE
  5
62
330
18
100
AcDbEntity
  8
0
100
AcDbLine
 10
12.109053
 20
10.192485
 30
0.0
 11
12.218976
 21
10.264459
 31
0.0
  0
LINE
  5
63
330
18
100
AcDbEntity
  8
0
100
AcDbLine
 10
12.191899
 20
10.10424
 30
0.0
 11
12.284735
 21
10.200102
 31
0.0
  0
LINE
  5
64
330
18
100
AcDbEntity
  8
0
100
AcDbLine
 10
12.315598
 20
9.972480000000001
 30
0.0
 11
12.422635
 21
10.108311
 31
0.0
  0
LINE
  5
65
330
18
100
AcDbEntity
  8
0
100
AcDbLine
 10
14.774144
 20
14.551297
 30
0.0
 11
14.838233
 21
14.619956
 31
0.0
  0
LINE
  5
66
330
18
100
AcDbEntity
  8
0
100
AcDbLine
 10
14.838233
 20
14.619956
 30
0.0
 11
14.923317
 21
14.706236
 31
0.0
  0
LINE
  5
67
330
18
100
AcDbEntity
  8
0
100
AcDbLine
 10
14.923317
 20
14.706236
 30
0.0
 11
15.001386
 21
14.79351
 31
0.0
  0
LINE
  5
68
330
18
100
AcDbEntity
  8
0
100
AcDbLine
 10
15.001386
 20
14.79351
 30
0.0
 11
15.066445
 21
14.863734
 31
0.0
  0
LINE
  5
69
330
18
100
AcDbEntity
  8
0
100
AcDbLine
 10
15.066445
 20
14.863734
 30
0.0
 11
15.121797
 21
14.924914
 31
0.0
  0
LINE
  5
6A
330
18
100
AcDbEntity
  8
0
100
AcDbLine
 10
15.067685
 20
14.52298
 30
0.0
 11
15.121852
 21
14.60825
 31
0.0
  0
LINE
  5
6B
330
18
100
AcDbEntity
  8
0
100
AcDbLine
 10
15.121852
 20
14.60825
 30
0.0
 11
15.189923
 21
14.674468
 31
0.0
  0
LINE
  5
6C
330
18
100
AcDbEntity
  8
0
100
AcDbLine
 10
15.189923
 20
14.674468
 30
0.0
 11
15.267024
 21
14.730675
 31
0.0
  0
LINE
  5
6D
330
18
100
AcDbEntity
  8
0
100
AcDbLine
 10
15.267024
 20
14.730675
 30
0.0
 11
15.326505
 21
14.784106
 31
0.0
  0
LINE
  5
6E
330
18
100
AcDbEntity
  8
0
100
AcDbLine
 10
15.271655
 20
14.588573
 30
0.0
 11
15.344245
 21
14.680656
 31
0.0
  0
LINE
  5
6F
330
18
100
AcDbEntity
  8
0
100
AcDbLine
 10
15.344245
 20
14.680656
 30
0.0
 11
15.396116
 21
14.736225
 31
0.0
  0
LINE
  5
70
330
18
100
AcDbEntity
  8
0
100
AcDbLine
 10
15.396116
 20
14.736225
 30
0.0
 11
15.460308
 21
14.845138
 31
0.0
  0
LINE
  5
71
330
18
100
AcDbEntity
  8
0
100
AcDbLine
 10
15.460308
 20
14.845138
 30
0.0
 11
15.531697
 21
14.944186
 31
0.0
  0
LINE
  5
72
330
18
100
AcDbEntity
  8
0
100
AcDbLine
 10
15.176795
 20
15.306792
 30
0.0
 11
15.125796
 21
15.223382
 31
0.0
  0
LINE
  5
73
330
18
100
AcDbEntity
  8
0
100
AcDbLine
 10
15.300805
 20
15.221493
 30
0.0
 11
15.244275
 21
15.141887
 31
0.0
  0
LINE
  5
74
330
18
100
AcDbEntity
  8
0
100
AcDbLine
 10
15.401542
 20
15.152201
 30
0.0
 11
15.360225
 21
15.062132
 31
0.0
  0
LINE
  5
75
330
18
100
AcDbEntity
  8
0
100
AcDbLine
 10
15.490419
 20
15.091068
 30
0.0
 11
15.44493
 21
15.003868
 31
0.0
  0
LINE
  5
76
330
18
100
AcDbEntity
  8
0
100
AcDbLine
 10
15.777893
 20
7.080259
 30
0.0
 11
15.796745
 21
7.106983000000001
 31
0.0
  0
LINE
  5
77
330
18
100
AcDbEntity
  8
0
100
AcDbLine
 10
15.796745
 20
7.106983000000001
 30
0.0
 11
15.80876
 21
7.117017999999999
 31
0.0
  0
ARC
  5
78
330
18
100
AcDbEntity
  8
0
100
AcDbCircle
 10
14.890088
 20
8.964521000000001
 30
0.0
 40
0.0625
100
AcDbArc
 50
292.118983
 51
0.0
  0
LINE
  5
79
330
18
100
AcDbEntity
  8
0
100
AcDbLine
 10
14.586937
 20
11.062065
 30
0.0
 11
14.684435
 21
10.987894
 31
0.0
  0
LINE
  5
7A
330
18
100
AcDbEntity
  8
0
100
AcDbLine
 10
14.684435
 20
10.987894
 30
0.0
 11
14.699919
 21
11.109415
 31
0.0
  0
LINE
  5
7B
330
18
100
AcDbEntity
  8
0
100
AcDbLine
 10
14.699919
 20
11.109415
 30
0.0
 11
14.586937
 21
11.062065
 31
0.0
  0
LINE
  5
7C
330
18
100
AcDbEntity
  8
0
100
AcDbLine
 10
14.586937
 20
9.967732
 30
0.0
 11
14.684435
 21
9.893561999999999
 31
0.0
  0
LINE
  5
7D
330
18
100
AcDbEntity
  8
0
100
AcDbLine
 10
14.684435
 20
9.893561999999999
 30
0.0
 11
14.699919
 21
10.015083
 31
0.0
  0
LINE
  5
7E
330
18
100
AcDbEntity
  8
0
100
AcDbLine
 10
14.699919
 20
10.015083
 30
0.0
 11
14.586937
 21
9.967732
 31
0.0
  0
LINE
  5
7F
330
18
100
AcDbEntity
  8
0
100
AcDbLine
 10
14.653302
 20
11.011578
 30
0.0
 11
14.663842
 21
11.094295
 31
0.0
  0
LINE
  5
80
330
18
100
AcDbEntity
  8
0
100
AcDbLine
 10
14.653302
 20
9.917246
 30
0.0
 11
14.663842
 21
9.999963000000001
 31
0.0
  0
LINE
  5
81
330
18
100
AcDbEntity
  8
0
100
AcDbLine
 10
14.654147
 20
11.0535
 30
0.0
 11
14.658247
 21
11.050382
 31
0.0
  0
LINE
  5
82
330
18
100
AcDbEntity
  8
0
100
AcDbLine
 10
14.658247
 20
11.050382
 30
0.0
 11
14.658898
 21
11.055491
 31
0.0
  0
LINE
  5
83
330
18
100
AcDbEntity
  8
0
100
AcDbLine
 10
14.658898
 20
11.055491
 30
0.0
 11
14.654147
 21
11.0535
 31
0.0
  0
LINE
  5
84
330
18
100
AcDbEntity
  8
0
100
AcDbLine
 10
16.335798
 20
15.042283
 30
0.0
 11
16.241824
 21
14.981309
 31
0.0
  0
LINE
  5
85
330
18
100
AcDbEntity
  8
0
100
AcDbLine
 10
16.241824
 20
14.981309
 30
0.0
 11
16.096614
 21
14.892957
 31
0.0
  0
LINE
  5
86
330
18
100
AcDbEntity
  8
0
100
AcDbLine
 10
16.096614
 20
14.892957
 30
0.0
 11
15.950948
 21
14.807018
 31
0.0
  0
LINE
  5
87
330
18
100
AcDbEntity
  8
0
100
AcDbLine
 10
16.244483
 20
15.097419
 30
0.0
 11
16.119512
 21
15.026267
 31
0.0
  0
LINE
  5
88
330
18
100
AcDbEntity
  8
0
100
AcDbLine
 10
16.119512
 20
15.026267
 30
0.0
 11
16.040385
 21
14.989099
 31
0.0
  0
LINE
  5
89
330
18
100
AcDbEntity
  8
0
100
AcDbLine
 10
16.040385
 20
14.989099
 30
0.0
 11
15.940244
 21
14.924849
 31
0.0
  0
LINE
  5
8A
330
18
100
AcDbEntity
  8
0
100
AcDbLine
 10
15.940244
 20
14.924849
 30
0.0
 11
15.879152
 21
14.890707
 31
0.0
  0
LINE
  5
8B
330
18
100
AcDbEntity
  8
0
100
AcDbLine
 10
15.879152
 20
14.890707
 30
0.0
 11
15.851648
 21
14.842598
 31
0.0
  0
LINE
  5
8C
330
18
100
AcDbEntity
  8
0
100
AcDbLine
 10
15.851648
 20
14.842598
 30
0.0
 11
15.78656
 21
14.665632
 31
0.0
  0
LINE
  5
8D
330
18
100
AcDbEntity
  8
0
100
AcDbLine
 10
16.136152
 20
15.16283
 30
0.0
 11
16.036249
 21
15.102336
 31
0.0
  0
LINE
  5
8E
330
18
100
AcDbEntity
  8
0
100
AcDbLine
 10
16.036249
 20
15.102336
 30
0.0
 11
15.937101
 21
15.045102
 31
0.0
  0
LINE
  5
8F
330
18
100
AcDbEntity
  8
0
100
AcDbLine
 10
15.937101
 20
15.045102
 30
0.0
 11
15.852987
 21
14.986883
 31
0.0
  0
LINE
  5
90
330
18
100
AcDbEntity
  8
0
100
AcDbLine
 10
15.852987
 20
14.986883
 30
0.0
 11
15.793918
 21
14.936709
 31
0.0
  0
LINE
  5
91
330
18
100
AcDbEntity
  8
0
100
AcDbLine
 10
15.793918
 20
14.936709
 30
0.0
 11
15.752575
 21
14.910745
 31
0.0
  0
LINE
  5
92
330
18
100
AcDbEntity
  8
0
100
AcDbLine
 10
15.752575
 20
14.910745
 30
0.0
 11
15.700892
 21
14.779515
 31
0.0
  0
LINE
  5
93
330
18
100
AcDbEntity
  8
0
100
AcDbLine
 10
16.016717
 20
15.234946
 30
0.0
 11
15.943972
 21
15.173384
 31
0.0
  0
LINE
  5
94
330
18
100
AcDbEntity
  8
0
100
AcDbLine
 10
15.943972
 20
15.173384
 30
0.0
 11
15.84884
 21
15.110142
 31
0.0
  0
LINE
  5
95
330
18
100
AcDbEntity
  8
0
100
AcDbLine
 10
15.84884
 20
15.110142
 30
0.0
 11
15.771727
 21
15.063956
 31
0.0
  0
LINE
  5
96
330
18
100
AcDbEntity
  8
0
100
AcDbLine
 10
15.771727
 20
15.063956
 30
0.0
 11
15.721665
 21
15.023814
 31
0.0
  0
LINE
  5
97
330
18
100
AcDbEntity
  8
0
100
AcDbLine
 10
15.721665
 20
15.023814
 30
0.0
 11
15.665057
 21
14.970944
 31
0.0
  0
LINE
  5
98
330
18
100
AcDbEntity
  8
0
100
AcDbLine
 10
15.665057
 20
14.970944
 30
0.0
 11
15.611504
 21
14.889291
 31
0.0
  0
LINE
  5
99
330
18
100
AcDbEntity
  8
0
100
AcDbLine
 10
15.917367
 20
15.294934
 30
0.0
 11
15.841689
 21
15.230391
 31
0.0
  0
LINE
  5
9A
330
18
100
AcDbEntity
  8
0
100
AcDbLine
 10
15.841689
 20
15.230391
 30
0.0
 11
15.77059
 21
15.18321
 31
0.0
  0
LINE
  5
9B
330
18
100
AcDbEntity
  8
0
100
AcDbLine
 10
15.77059
 20
15.18321
 30
0.0
 11
15.699518
 21
15.111977
 31
0.0
  0
LINE
  5
9C
330
18
100
AcDbEntity
  8
0
100
AcDbLine
 10
15.699518
 20
15.111977
 30
0.0
 11
15.629425
 21
15.061791
 31
0.0
  0
LINE
  5
9D
330
18
100
AcDbEntity
  8
0
100
AcDbLine
 10
15.629425
 20
15.061791
 30
0.0
 11
15.58872
 21
15.023452
 31
0.0
  0
LINE
  5
9E
330
18
100
AcDbEntity
  8
0
100
AcDbLine
 10
15.58872
 20
15.023452
 30
0.0
 11
15.546955
 21
14.93369
 31
0.0
  0
LINE
  5
9F
330
18
100
AcDbEntity
  8
0
100
AcDbLine
 10
15.808495
 20
15.360671
 30
0.0
 11
15.750387
 21
15.325491
 31
0.0
  0
LINE
  5
A0
330
18
100
AcDbEntity
  8
0
100
AcDbLine
 10
15.750387
 20
15.325491
 30
0.0
 11
15.678302
 21
15.264279
 31
0.0
  0
LINE
  5
A1
330
18
100
AcDbEntity
  8
0
100
AcDbLine
 10
15.678302
 20
15.264279
 30
0.0
 11
15.589202
 21
15.184007
 31
0.0
  0
LINE
  5
A2
330
18
100
AcDbEntity
  8
0
100
AcDbLine
 10
15.589202
 20
15.184007
 30
0.0
 11
15.530139
 21
15.12782
 31
0.0
  0
LINE
  5
A3
330
18
100
AcDbEntity
  8
0
100
AcDbLine
 10
15.530139
 20
15.12782
 30
0.0
 11
15.490419
 21
15.091068
 31
0.0
  0
LINE
  5
A4
330
18
100
AcDbEntity
  8
0
100
AcDbLine
 10
15.677548
 20
15.439738
 30
0.0
 11
15.606023
 21
15.374433
 31
0.0
  0
LINE
  5
A5
330
18
100
AcDbEntity
  8
0
100
AcDbLine
 10
15.606023
 20
15.374433
 30
0.0
 11
15.525958
 21
15.280141
 31
0.0
  0
LINE
  5
A6
330
18
100
AcDbEntity
  8
0
100
AcDbLine
 10
15.525958
 20
15.280141
 30
0.0
 11
15.463881
 21
15.230966
 31
0.0
  0
LINE
  5
A7
330
18
100
AcDbEntity
  8
0
100
AcDbLine
 10
15.463881
 20
15.230966
 30
0.0
 11
15.433861
 21
15.191849
 31
0.0
  0
LINE
  5
A8
330
18
100
AcDbEntity
  8
0
100
AcDbLine
 10
15.433861
 20
15.191849
 30
0.0
 11
15.401542
 21
15.152201
 31
0.0
  0
LINE
  5
A9
330
18
100
AcDbEntity
  8
0
100
AcDbLine
 10
15.584437
 20
15.495959
 30
0.0
 11
15.496742
 21
15.416399
 31
0.0
  0
LINE
  5
AA
330
18
100
AcDbEntity
  8
0
100
AcDbLine
 10
15.496742
 20
15.416399
 30
0.0
 11
15.434675
 21
15.358205
 31
0.0
  0
LINE
  5
AB
330
18
100
AcDbEntity
  8
0
100
AcDbLine
 10
15.434675
 20
15.358205
 30
0.0
 11
15.372615
 21
15.293998
 31
0.0
  0
LINE
  5
AC
330
18
100
AcDbEntity
  8
0
100
AcDbLine
 10
15.372615
 20
15.293998
 30
0.0
 11
15.328572
 21
15.248852
 31
0.0
  0
LINE
  5
AD
330
18
100
AcDbEntity
  8
0
100
AcDbLine
 10
15.328572
 20
15.248852
 30
0.0
 11
15.300805
 21
15.221493
 31
0.0
  0
LINE
  5
AE
330
18
100
AcDbEntity
  8
0
100
AcDbLine
 10
15.356721
 20
15.489141
 30
0.0
 11
15.281283
 21
15.415154
 31
0.0
  0
LINE
  5
AF
330
18
100
AcDbEntity
  8
0
100
AcDbLine
 10
15.281283
 20
15.415154
 30
0.0
 11
15.221231
 21
15.347943
 31
0.0
  0
LINE
  5
B0
330
18
100
AcDbEntity
  8
0
100
AcDbLine
 10
15.221231
 20
15.347943
 30
0.0
 11
15.176795
 21
15.306792
 31
0.0
  0
LINE
  5
B1
330
18
100
AcDbEntity
  8
0
100
AcDbLine
 10
15.032519
 20
14.986323
 30
0.0
 11
15.059196
 21
15.071169
 31
0.0
  0
LINE
  5
B2
330
18
100
AcDbEntity
  8
0
100
AcDbLine
 10
15.059196
 20
15.071169
 30
0.0
 11
15.075158
 21
15.135324
 31
0.0
  0
LINE
  5
B3
330
18
100
AcDbEntity
  8
0
100
AcDbLine
 10
15.075158
 20
15.135324
 30
0.0
 11
15.09014
 21
15.179435
 31
0.0
  0
LINE
  5
B4
330
18
100
AcDbEntity
  8
0
100
AcDbLine
 10
15.09014
 20
15.179435
 30
0.0
 11
15.111156
 21
15.205514
 31
0.0
  0
LINE
  5
B5
330
18
100
AcDbEntity
  8
0
100
AcDbLine
 10
15.111156
 20
15.205514
 30
0.0
 11
15.125796
 21
15.223382
 31
0.0
  0
LINE
  5
B6
330
18
100
AcDbEntity
  8
0
100
AcDbLine
 10
15.121797
 20
14.924914
 30
0.0
 11
15.153499
 21
14.981083
 31
0.0
  0
LINE
  5
B7
330
18
100
AcDbEntity
  8
0
100
AcDbLine
 10
15.153499
 20
14.981083
 30
0.0
 11
15.185499
 21
15.042249
 31
0.0
  0
LINE
  5
B8
330
18
100
AcDbEntity
  8
0
100
AcDbLine
 10
15.185499
 20
15.042249
 30
0.0
 11
15.2235
 21
15.113444
 31
0.0
  0
LINE
  5
B9
330
18
100
AcDbEntity
  8
0
100
AcDbLine
 10
15.2235
 20
15.113444
 30
0.0
 11
15.244275
 21
15.141887
 31
0.0
  0
LINE
  5
BA
330
18
100
AcDbEntity
  8
0
100
AcDbLine
 10
15.223353
 20
14.855059
 30
0.0
 11
15.25476
 21
14.942113
 31
0.0
  0
LINE
  5
BB
330
18
100
AcDbEntity
  8
0
100
AcDbLine
 10
15.25476
 20
14.942113
 30
0.0
 11
15.28676
 21
15.002278
 31
0.0
  0
LINE
  5
BC
330
18
100
AcDbEntity
  8
0
100
AcDbLine
 10
15.28676
 20
15.002278
 30
0.0
 11
15.318778
 21
15.04741
 31
0.0
  0
LINE
  5
BD
330
18
100
AcDbEntity
  8
0
100
AcDbLine
 10
15.318778
 20
15.04741
 30
0.0
 11
15.341263
 21
15.075175
 31
0.0
  0
LINE
  5
BE
330
18
100
AcDbEntity
  8
0
100
AcDbLine
 10
15.326505
 20
14.784106
 30
0.0
 11
15.36007
 21
14.86607
 31
0.0
  0
LINE
  5
BF
330
18
100
AcDbEntity
  8
0
100
AcDbLine
 10
15.36007
 20
14.86607
 30
0.0
 11
15.39205
 21
14.944273
 31
0.0
  0
LINE
  5
C0
330
18
100
AcDbEntity
  8
0
100
AcDbLine
 10
15.39205
 20
14.944273
 30
0.0
 11
15.423554
 21
15.018571
 31
0.0
  0
LINE
  5
C1
330
18
100
AcDbEntity
  8
0
100
AcDbLine
 10
14.886741
 20
14.473848
 30
0.0
 11
15.018597
 21
14.638198
 31
0.0
  0
LINE
  5
C2
330
18
100
AcDbEntity
  8
0
100
AcDbLine
 10
15.018597
 20
14.638198
 30
0.0
 11
15.099679
 21
14.719463
 31
0.0
  0
LINE
  5
C3
330
18
100
AcDbEntity
  8
0
100
AcDbLine
 10
15.099679
 20
14.719463
 30
0.0
 11
15.164737
 21
14.791691
 31
0.0
  0
LINE
  5
C4
330
18
100
AcDbEntity
  8
0
100
AcDbLine
 10
15.164737
 20
14.791691
 30
0.0
 11
15.223353
 21
14.855059
 31
0.0
  0
LINE
  5
C5
330
18
100
AcDbEntity
  8
0
100
AcDbLine
 10
14.658173
 20
14.631068
 30
0.0
 11
14.797983
 21
14.765221
 31
0.0
  0
LINE
  5
C6
330
18
100
AcDbEntity
  8
0
100
AcDbLine
 10
14.797983
 20
14.765221
 30
0.0
 11
14.895077
 21
14.865545
 31
0.0
  0
LINE
  5
C7
330
18
100
AcDbEntity
  8
0
100
AcDbLine
 10
14.895077
 20
14.865545
 30
0.0
 11
14.960154
 21
14.920736
 31
0.0
  0
LINE
  5
C8
330
18
100
AcDbEntity
  8
0
100
AcDbLine
 10
14.960154
 20
14.920736
 30
0.0
 11
15.032519
 21
14.986323
 31
0.0
  0
LINE
  5
C9
330
18
100
AcDbEntity
  8
0
100
AcDbLine
 10
14.527716
 20
14.720802
 30
0.0
 11
14.661593
 21
14.852253
 31
0.0
  0
LINE
  5
CA
330
18
100
AcDbEntity
  8
0
100
AcDbLine
 10
14.661593
 20
14.852253
 30
0.0
 11
14.745692
 21
14.924502
 31
0.0
  0
LINE
  5
CB
330
18
100
AcDbEntity
  8
0
100
AcDbLine
 10
14.745692
 20
14.924502
 30
0.0
 11
14.852824
 21
15.009805
 31
0.0
  0
LINE
  5
CC
330
18
100
AcDbEntity
  8
0
100
AcDbLine
 10
14.852824
 20
15.009805
 30
0.0
 11
14.912634
 21
15.068785
 31
0.0
  0
LINE
  5
CD
330
18
100
AcDbEntity
  8
0
100
AcDbLine
 10
14.912634
 20
15.068785
 30
0.0
 11
15.007035
 21
15.305072
 31
0.0
  0
LINE
  5
CE
330
18
100
AcDbEntity
  8
0
100
AcDbLine
 10
14.424635
 20
14.791705
 30
0.0
 11
14.494226
 21
14.861083
 31
0.0
  0
LINE
  5
CF
330
18
100
AcDbEntity
  8
0
100
AcDbLine
 10
14.494226
 20
14.861083
 30
0.0
 11
14.591347
 21
14.937356
 31
0.0
  0
LINE
  5
D0
330
18
100
AcDbEntity
  8
0
100
AcDbLine
 10
14.591347
 20
14.937356
 30
0.0
 11
14.658425
 21
14.995556
 31
0.0
  0
LINE
  5
D1
330
18
100
AcDbEntity
  8
0
100
AcDbLine
 10
14.658425
 20
14.995556
 30
0.0
 11
14.723498
 21
15.054755
 31
0.0
  0
LINE
  5
D2
330
18
100
AcDbEntity
  8
0
100
AcDbLine
 10
14.723498
 20
15.054755
 30
0.0
 11
14.782568
 21
15.103927
 31
0.0
  0
LINE
  5
D3
330
18
100
AcDbEntity
  8
0
100
AcDbLine
 10
14.782568
 20
15.103927
 30
0.0
 11
14.811804
 21
15.138141
 31
0.0
  0
LINE
  5
D4
330
18
100
AcDbEntity
  8
0
100
AcDbLine
 10
14.811804
 20
15.138141
 30
0.0
 11
14.908501
 21
15.372847
 31
0.0
  0
LINE
  5
D5
330
18
100
AcDbEntity
  8
0
100
AcDbLine
 10
14.317125
 20
14.865655
 30
0.0
 11
14.426932
 21
14.994292
 31
0.0
  0
LINE
  5
D6
330
18
100
AcDbEntity
  8
0
100
AcDbLine
 10
14.426932
 20
14.994292
 30
0.0
 11
14.524043
 21
15.079584
 31
0.0
  0
LINE
  5
D7
330
18
100
AcDbEntity
  8
0
100
AcDbLine
 10
14.524043
 20
15.079584
 30
0.0
 11
14.600138
 21
15.139798
 31
0.0
  0
LINE
  5
D8
330
18
100
AcDbEntity
  8
0
100
AcDbLine
 10
14.600138
 20
15.139798
 30
0.0
 11
14.697754
 21
15.216589
 31
0.0
  0
LINE
  5
D9
330
18
100
AcDbEntity
  8
0
100
AcDbLine
 10
14.697754
 20
15.216589
 30
0.0
 11
14.799421
 21
15.447878
 31
0.0
  0
LINE
  5
DA
330
18
100
AcDbEntity
  8
0
100
AcDbLine
 10
14.215991
 20
14.93522
 30
0.0
 11
14.295617
 21
15.02521
 31
0.0
  0
LINE
  5
DB
330
18
100
AcDbEntity
  8
0
100
AcDbLine
 10
14.295617
 20
15.02521
 30
0.0
 11
14.40174
 21
15.116525
 31
0.0
  0
LINE
  5
DC
330
18
100
AcDbEntity
  8
0
100
AcDbLine
 10
14.40174
 20
15.116525
 30
0.0
 11
14.46783
 21
15.162698
 31
0.0
  0
LINE
  5
DD
330
18
100
AcDbEntity
  8
0
100
AcDbLine
 10
14.46783
 20
15.162698
 30
0.0
 11
14.517886
 21
15.207851
 31
0.0
  0
LINE
  5
DE
330
18
100
AcDbEntity
  8
0
100
AcDbLine
 10
14.517886
 20
15.207851
 30
0.0
 11
14.612472
 21
15.27525
 31
0.0
  0
LINE
  5
DF
330
18
100
AcDbEntity
  8
0
100
AcDbLine
 10
14.103208
 20
15.012798
 30
0.0
 11
14.180303
 21
15.085209
 31
0.0
  0
LINE
  5
E0
330
18
100
AcDbEntity
  8
0
100
AcDbLine
 10
14.180303
 20
15.085209
 30
0.0
 11
14.251371
 21
15.159447
 31
0.0
  0
LINE
  5
E1
330
18
100
AcDbEntity
  8
0
100
AcDbLine
 10
14.251371
 20
15.159447
 30
0.0
 11
14.280468
 21
15.179836
 31
0.0
  0
LINE
  5
E2
330
18
100
AcDbEntity
  8
0
100
AcDbLine
 10
12.371329
 20
8.329728999999999
 30
0.0
 11
12.339141
 21
8.186394
 31
0.0
  0
LINE
  5
E3
330
18
100
AcDbEntity
  8
0
100
AcDbLine
 10
12.339141
 20
8.186394
 30
0.0
 11
12.315216
 21
8.075128999999999
 31
0.0
  0
LINE
  5
E4
330
18
100
AcDbEntity
  8
0
100
AcDbLine
 10
12.315216
 20
8.075128999999999
 30
0.0
 11
12.303042
 21
7.97093
 31
0.0
  0
LINE
  5
E5
330
18
100
AcDbEntity
  8
0
100
AcDbLine
 10
12.371329
 20
8.858866000000001
 30
0.0
 11
12.311587
 21
8.626303
 31
0.0
  0
LINE
  5
E6
330
18
100
AcDbEntity
  8
0
100
AcDbLine
 10
12.311587
 20
8.626303
 30
0.0
 11
12.279681
 21
8.481958000000001
 31
0.0
  0
LINE
  5
E7
330
18
100
AcDbEntity
  8
0
100
AcDbLine
 10
12.279681
 20
8.481958000000001
 30
0.0
 11
12.2488
 21
8.317572
 31
0.0
  0
LINE
  5
E8
330
18
100
AcDbEntity
  8
0
100
AcDbLine
 10
12.2488
 20
8.317572
 30
0.0
 11
12.231889
 21
8.207317999999999
 31
0.0
  0
LINE
  5
E9
330
18
100
AcDbEntity
  8
0
100
AcDbLine
 10
12.231889
 20
8.207317999999999
 30
0.0
 11
12.207414
 21
8.096263
 31
0.0
  0
LINE
  5
EA
330
18
100
AcDbEntity
  8
0
100
AcDbLine
 10
12.371329
 20
9.347892999999999
 30
0.0
 11
12.300996
 21
9.130367999999999
 31
0.0
  0
LINE
  5
EB
330
18
100
AcDbEntity
  8
0
100
AcDbLine
 10
12.300996
 20
9.130367999999999
 30
0.0
 11
12.258099
 21
8.957951
 31
0.0
  0
LINE
  5
EC
330
18
100
AcDbEntity
  8
0
100
AcDbLine
 10
12.258099
 20
8.957951
 30
0.0
 11
12.223277
 21
8.733432000000001
 31
0.0
  0
LINE
  5
ED
330
18
100
AcDbEntity
  8
0
100
AcDbLine
 10
12.223277
 20
8.733432000000001
 30
0.0
 11
12.177452
 21
8.491864
 31
0.0
  0
LINE
  5
EE
330
18
100
AcDbEntity
  8
0
100
AcDbLine
 10
12.177452
 20
8.491864
 30
0.0
 11
12.153582
 21
8.330492999999999
 31
0.0
  0
LINE
  5
EF
330
18
100
AcDbEntity
  8
0
100
AcDbLine
 10
12.153582
 20
8.330492999999999
 30
0.0
 11
12.134635
 21
8.191647999999999
 31
0.0
  0
LINE
  5
F0
330
18
100
AcDbEntity
  8
0
100
AcDbLine
 10
12.371329
 20
9.678597
 30
0.0
 11
12.296557
 21
9.512178000000001
 31
0.0
  0
LINE
  5
F1
330
18
100
AcDbEntity
  8
0
100
AcDbLine
 10
12.296557
 20
9.512178000000001
 30
0.0
 11
12.268672
 21
9.356814999999999
 31
0.0
  0
LINE
  5
F2
330
18
100
AcDbEntity
  8
0
100
AcDbLine
 10
12.268672
 20
9.356814999999999
 30
0.0
 11
12.211828
 21
9.110224000000001
 31
0.0
  0
LINE
  5
F3
330
18
100
AcDbEntity
  8
0
100
AcDbLine
 10
12.211828
 20
9.110224000000001
 30
0.0
 11
12.144012
 21
8.818524999999999
 31
0.0
  0
LINE
  5
F4
330
18
100
AcDbEntity
  8
0
100
AcDbLine
 10
12.144012
 20
8.818524999999999
 30
0.0
 11
12.096181
 21
8.577957000000001
 31
0.0
  0
LINE
  5
F5
330
18
100
AcDbEntity
  8
0
100
AcDbLine
 10
12.096181
 20
8.577957000000001
 30
0.0
 11
12.029332
 21
8.329660000000001
 31
0.0
  0
LINE
  5
F6
330
18
100
AcDbEntity
  8
0
100
AcDbLine
 10
12.315598
 20
9.972480000000001
 30
0.0
 11
12.287122
 21
9.879954
 31
0.0
  0
LINE
  5
F7
330
18
100
AcDbEntity
  8
0
100
AcDbLine
 10
12.287122
 20
9.879954
 30
0.0
 11
12.244267
 21
9.670458
 31
0.0
  0
LINE
  5
F8
330
18
100
AcDbEntity
  8
0
100
AcDbLine
 10
12.244267
 20
9.670458
 30
0.0
 11
12.180399
 21
9.431875999999999
 31
0.0
  0
LINE
  5
F9
330
18
100
AcDbEntity
  8
0
100
AcDbLine
 10
12.180399
 20
9.431875999999999
 30
0.0
 11
12.119512
 21
9.216347000000001
 31
0.0
  0
LINE
  5
FA
330
18
100
AcDbEntity
  8
0
100
AcDbLine
 10
12.119512
 20
9.216347000000001
 30
0.0
 11
12.08166
 21
9.01287
 31
0.0
  0
LINE
  5
FB
330
18
100
AcDbEntity
  8
0
100
AcDbLine
 10
12.08166
 20
9.01287
 30
0.0
 11
12.033772
 21
8.822409
 31
0.0
  0
LINE
  5
FC
330
18
100
AcDbEntity
  8
0
100
AcDbLine
 10
12.033772
 20
8.822409
 30
0.0
 11
12.004921
 21
8.635978
 31
0.0
  0
LINE
  5
FD
330
18
100
AcDbEntity
  8
0
100
AcDbLine
 10
12.004921
 20
8.635978
 30
0.0
 11
11.955997
 21
8.425774000000001
 31
0.0
  0
LINE
  5
FE
330
18
100
AcDbEntity
  8
0
100
AcDbLine
 10
12.191899
 20
10.10424
 30
0.0
 11
12.16178
 21
9.945952999999999
 31
0.0
  0
LINE
  5
FF
330
18
100
AcDbEntity
  8
0
100
AcDbLine
 10
12.16178
 20
9.945952999999999
 30
0.0
 11
12.10491
 21
9.722412
 31
0.0
  0
LINE
  5
100
330
18
100
AcDbEntity
  8
0
100
AcDbLine
 10
12.10491
 20
9.722412
 30
0.0
 11
12.053047
 21
9.502884
 31
0.0
  0
LINE
  5
101
330
18
100
AcDbEntity
  8
0
100
AcDbLine
 10
12.053047
 20
9.502884
 30
0.0
 11
12.023176
 21
9.331484
 31
0.0
  0
LINE
  5
102
330
18
100
AcDbEntity
  8
0
100
AcDbLine
 10
12.023176
 20
9.331484
 30
0.0
 11
11.997353
 21
9.125014
 31
0.0
  0
LINE
  5
103
330
18
100
AcDbEntity
  8
0
100
AcDbLine
 10
11.997353
 20
9.125014
 30
0.0
 11
11.977513
 21
8.945608
 31
0.0
  0
LINE
  5
104
330
18
100
AcDbEntity
  8
0
100
AcDbLine
 10
11.977513
 20
8.945608
 30
0.0
 11
11.943655
 21
8.755163
 31
0.0
  0
LINE
  5
105
330
18
100
AcDbEntity
  8
0
100
AcDbLine
 10
11.943655
 20
8.755163
 30
0.0
 11
11.906784
 21
8.570727999999999
 31
0.0
  0
LINE
  5
106
330
18
100
AcDbEntity
  8
0
100
AcDbLine
 10
11.906784
 20
8.570727999999999
 30
0.0
 11
11.88508
 21
8.518719000000001
 31
0.0
  0
LINE
  5
107
330
18
100
AcDbEntity
  8
0
100
AcDbLine
 10
12.109053
 20
10.192485
 30
0.0
 11
12.073463
 21
10.060098
 31
0.0
  0
LINE
  5
108
330
18
100
AcDbEntity
  8
0
100
AcDbLine
 10
12.073463
 20
10.060098
 30
0.0
 11
12.040621
 21
9.857628
 31
0.0
  0
LINE
  5
109
330
18
100
AcDbEntity
  8
0
100
AcDbLine
 10
12.040621
 20
9.857628
 30
0.0
 11
12.007765
 21
9.667183999999999
 31
0.0
  0
LINE
  5
10A
330
18
100
AcDbEntity
  8
0
100
AcDbLine
 10
12.007765
 20
9.667183999999999
 30
0.0
 11
11.967932
 21
9.443662
 31
0.0
  0
LINE
  5
10B
330
18
100
AcDbEntity
  8
0
100
AcDbLine
 10
11.967932
 20
9.443662
 30
0.0
 11
11.937128
 21
9.211130000000001
 31
0.0
  0
LINE
  5
10C
330
18
100
AcDbEntity
  8
0
100
AcDbLine
 10
11.937128
 20
9.211130000000001
 30
0.0
 11
11.901241
 21
9.042730000000001
 31
0.0
  0
LINE
  5
10D
330
18
100
AcDbEntity
  8
0
100
AcDbLine
 10
11.901241
 20
9.042730000000001
 30
0.0
 11
11.856381
 21
8.833232000000001
 31
0.0
  0
LINE
  5
10E
330
18
100
AcDbEntity
  8
0
100
AcDbLine
 10
11.856381
 20
8.833232000000001
 30
0.0
 11
11.832463
 21
8.714952
 31
0.0
  0
LINE
  5
10F
330
18
100
AcDbEntity
  8
0
100
AcDbLine
 10
11.832463
 20
8.714952
 30
0.0
 11
11.805782
 21
8.622648
 31
0.0
  0
LINE
  5
110
330
18
100
AcDbEntity
  8
0
100
AcDbLine
 10
12.025643
 20
10.281331
 30
0.0
 11
12.021184
 21
10.208356
 31
0.0
  0
LINE
  5
111
330
18
100
AcDbEntity
  8
0
100
AcDbLine
 10
12.021184
 20
10.208356
 30
0.0
 11
11.981373
 21
9.964789999999999
 31
0.0
  0
LINE
  5
112
330
18
100
AcDbEntity
  8
0
100
AcDbLine
 10
11.981373
 20
9.964789999999999
 30
0.0
 11
11.941503
 21
9.774338999999999
 31
0.0
  0
LINE
  5
113
330
18
100
AcDbEntity
  8
0
100
AcDbLine
 10
11.941503
 20
9.774338999999999
 30
0.0
 11
11.89567
 21
9.538784
 31
0.0
  0
LINE
  5
114
330
18
100
AcDbEntity
  8
0
100
AcDbLine
 10
11.89567
 20
9.538784
 30
0.0
 11
11.838828
 21
9.291191
 31
0.0
  0
LINE
  5
115
330
18
100
AcDbEntity
  8
0
100
AcDbLine
 10
11.838828
 20
9.291191
 30
0.0
 11
11.806933
 21
9.136825
 31
0.0
  0
LINE
  5
116
330
18
100
AcDbEntity
  8
0
100
AcDbLine
 10
11.806933
 20
9.136825
 30
0.0
 11
11.771037
 21
8.976442000000001
 31
0.0
  0
LINE
  5
117
330
18
100
AcDbEntity
  8
0
100
AcDbLine
 10
11.771037
 20
8.976442000000001
 30
0.0
 11
11.749154
 21
8.831107000000001
 31
0.0
  0
LINE
  5
118
330
18
100
AcDbEntity
  8
0
100
AcDbLine
 10
11.749154
 20
8.831107000000001
 30
0.0
 11
11.724383
 21
8.729331
 31
0.0
  0
LINE
  5
119
330
18
100
AcDbEntity
  8
0
100
AcDbLine
 10
11.945833
 20
10.37663
 30
0.0
 11
11.915921
 21
10.24231
 31
0.0
  0
LINE
  5
11A
330
18
100
AcDbEntity
  8
0
100
AcDbLine
 10
11.915921
 20
10.24231
 30
0.0
 11
11.845096
 21
9.952610999999999
 31
0.0
  0
LINE
  5
11B
330
18
100
AcDbEntity
  8
0
100
AcDbLine
 10
11.845096
 20
9.952610999999999
 30
0.0
 11
11.819211
 21
9.801258000000001
 31
0.0
  0
LINE
  5
11C
330
18
100
AcDbEntity
  8
0
100
AcDbLine
 10
11.819211
 20
9.801258000000001
 30
0.0
 11
11.793358
 21
9.621846000000002
 31
0.0
  0
LINE
  5
11D
330
18
100
AcDbEntity
  8
0
100
AcDbLine
 10
11.793358
 20
9.621846000000002
 30
0.0
 11
11.751518
 21
9.400325000000001
 31
0.0
  0
LINE
  5
11E
330
18
100
AcDbEntity
  8
0
100
AcDbLine
 10
11.751518
 20
9.400325000000001
 30
0.0
 11
11.712661
 21
9.199852999999999
 31
0.0
  0
LINE
  5
11F
330
18
100
AcDbEntity
  8
0
100
AcDbLine
 10
11.712661
 20
9.199852999999999
 30
0.0
 11
11.669825
 21
8.973321
 31
0.0
  0
LINE
  5
120
330
18
100
AcDbEntity
  8
0
100
AcDbLine
 10
11.669825
 20
8.973321
 30
0.0
 11
11.650874
 21
8.893127999999999
 31
0.0
  0
LINE
  5
121
330
18
100
AcDbEntity
  8
0
100
AcDbLine
 10
11.650874
 20
8.893127999999999
 30
0.0
 11
11.642096
 21
8.837178999999999
 31
0.0
  0
LINE
  5
122
330
18
100
AcDbEntity
  8
0
100
AcDbLine
 10
11.869861
 20
10.447265
 30
0.0
 11
11.837656
 21
10.328405
 31
0.0
  0
LINE
  5
123
330
18
100
AcDbEntity
  8
0
100
AcDbLine
 10
11.837656
 20
10.328405
 30
0.0
 11
11.78485
 21
10.056766
 31
0.0
  0
LINE
  5
124
330
18
100
AcDbEntity
  8
0
100
AcDbLine
 10
11.78485
 20
10.056766
 30
0.0
 11
11.738991
 21
9.84426
 31
0.0
  0
LINE
  5
125
330
18
100
AcDbEntity
  8
0
100
AcDbLine
 10
11.738991
 20
9.84426
 30
0.0
 11
11.718094
 21
9.712956
 31
0.0
  0
LINE
  5
126
330
18
100
AcDbEntity
  8
0
100
AcDbLine
 10
11.718094
 20
9.712956
 30
0.0
 11
11.674208
 21
9.528511999999999
 31
0.0
  0
LINE
  5
127
330
18
100
AcDbEntity
  8
0
100
AcDbLine
 10
11.674208
 20
9.528511999999999
 30
0.0
 11
11.635313
 21
9.362113000000001
 31
0.0
  0
LINE
  5
128
330
18
100
AcDbEntity
  8
0
100
AcDbLine
 10
11.635313
 20
9.362113000000001
 30
0.0
 11
11.591357
 21
9.239802000000001
 31
0.0
  0
LINE
  5
129
330
18
100
AcDbEntity
  8
0
100
AcDbLine
 10
11.591357
 20
9.239802000000001
 30
0.0
 11
11.5546
 21
9.110488999999999
 31
0.0
  0
LINE
  5
12A
330
18
100
AcDbEntity
  8
0
100
AcDbLine
 10
11.799087
 20
10.522652
 30
0.0
 11
11.738389
 21
10.377398
 31
0.0
  0
LINE
  5
12B
330
18
100
AcDbEntity
  8
0
100
AcDbLine
 10
11.738389
 20
10.377398
 30
0.0
 11
11.704514
 21
10.201985
 31
0.0
  0
LINE
  5
12C
330
18
100
AcDbEntity
  8
0
100
AcDbLine
 10
11.704514
 20
10.201985
 30
0.0
 11
11.667613
 21
10.044607
 31
0.0
  0
LINE
  5
12D
330
18
100
AcDbEntity
  8
0
100
AcDbLine
 10
11.667613
 20
10.044607
 30
0.0
 11
11.644668
 21
9.952385000000001
 31
0.0
  0
LINE
  5
12E
330
18
100
AcDbEntity
  8
0
100
AcDbLine
 10
11.644668
 20
9.952385000000001
 30
0.0
 11
11.630744
 21
9.858167999999999
 31
0.0
  0
LINE
  5
12F
330
18
100
AcDbEntity
  8
0
100
AcDbLine
 10
11.630744
 20
9.858167999999999
 30
0.0
 11
11.604811
 21
9.749907
 31
0.0
  0
LINE
  5
130
330
18
100
AcDbEntity
  8
0
100
AcDbLine
 10
11.604811
 20
9.749907
 30
0.0
 11
11.5546
 21
9.625591
 31
0.0
  0
LINE
  5
131
330
18
100
AcDbEntity
  8
0
100
AcDbLine
 10
11.69128
 20
10.637484
 30
0.0
 11
11.679067
 21
10.550702
 31
0.0
  0
LINE
  5
132
330
18
100
AcDbEntity
  8
0
100
AcDbLine
 10
11.679067
 20
10.550702
 30
0.0
 11
11.656136
 21
10.446453
 31
0.0
  0
LINE
  5
133
330
18
100
AcDbEntity
  8
0
100
AcDbLine
 10
11.656136
 20
10.446453
 30
0.0
 11
11.63919
 21
10.366263
 31
0.0
  0
LINE
  5
134
330
18
100
AcDbEntity
  8
0
100
AcDbLine
 10
11.63919
 20
10.366263
 30
0.0
 11
11.604219
 21
10.274026
 31
0.0
  0
LINE
  5
135
330
18
100
AcDbEntity
  8
0
100
AcDbLine
 10
11.604219
 20
10.274026
 30
0.0
 11
11.592236
 21
10.235931
 31
0.0
  0
LINE
  5
136
330
18
100
AcDbEntity
  8
0
100
AcDbLine
 10
11.592236
 20
10.235931
 30
0.0
 11
11.5546
 21
10.153722
 31
0.0
  0
LINE
  5
137
330
18
100
AcDbEntity
  8
0
100
AcDbLine
 10
11.621976
 20
10.711305
 30
0.0
 11
11.620779
 21
10.695946
 31
0.0
  0
LINE
  5
138
330
18
100
AcDbEntity
  8
0
100
AcDbLine
 10
11.620779
 20
10.695946
 30
0.0
 11
11.592831
 21
10.596703
 31
0.0
  0
LINE
  5
139
330
18
100
AcDbEntity
  8
0
100
AcDbLine
 10
11.592831
 20
10.596703
 30
0.0
 11
11.5546
 21
10.500461
 31
0.0
  0
LINE
  5
13A
330
18
100
AcDbEntity
  8
0
100
AcDbLine
 10
12.011448
 20
10.498164
 30
0.0
 11
12.126976
 21
10.694494
 31
0.0
  0
LINE
  5
13B
330
18
100
AcDbEntity
  8
0
100
AcDbLine
 10
11.933258
 20
10.586217
 30
0.0
 11
12.029771
 21
10.798034
 31
0.0
  0
LINE
  5
13C
330
18
100
AcDbEntity
  8
0
100
AcDbLine
 10
11.83947
 20
10.691834
 30
0.0
 11
11.961031
 21
10.871254
 31
0.0
  0
LINE
  5
13D
330
18
100
AcDbEntity
  8
0
100
AcDbLine
 10
11.666225
 20
10.886932
 30
0.0
 11
11.778008
 21
11.066205
 31
0.0
  0
LINE
  5
13E
330
18
100
AcDbEntity
  8
0
100
AcDbLine
 10
11.585558
 20
10.977775
 30
0.0
 11
11.70437
 21
11.149283
 31
0.0
  0
LINE
  5
13F
330
18
100
AcDbEntity
  8
0
100
AcDbLine
 10
11.500678
 20
11.07336
 30
0.0
 11
11.613589
 21
11.241339
 31
0.0
  0
LINE
  5
140
330
18
100
AcDbEntity
  8
0
100
AcDbLine
 10
12.371329
 20
10.81804
 30
0.0
 11
12.324298
 21
10.681709
 31
0.0
  0
LINE
  5
141
330
18
100
AcDbEntity
  8
0
100
AcDbLine
 10
12.324298
 20
10.681709
 30
0.0
 11
12.305307
 21
10.637593
 31
0.0
  0
LINE
  5
142
330
18
100
AcDbEntity
  8
0
100
AcDbLine
 10
12.305307
 20
10.637593
 30
0.0
 11
12.289335
 21
10.582457
 31
0.0
  0
LINE
  5
143
330
18
100
AcDbEntity
  8
0
100
AcDbLine
 10
12.289335
 20
10.582457
 30
0.0
 11
12.280413
 21
10.531057
 31
0.0
  0
LINE
  5
144
330
18
100
AcDbEntity
  8
0
100
AcDbLine
 10
12.371329
 20
11.287033
 30
0.0
 11
12.304754
 21
11.127639
 31
0.0
  0
LINE
  5
145
330
18
100
AcDbEntity
  8
0
100
AcDbLine
 10
12.304754
 20
11.127639
 30
0.0
 11
12.273845
 21
10.988307
 31
0.0
  0
LINE
  5
146
330
18
100
AcDbEntity
  8
0
100
AcDbLine
 10
12.273845
 20
10.988307
 30
0.0
 11
12.242954
 21
10.83294
 31
0.0
  0
LINE
  5
147
330
18
100
AcDbEntity
  8
0
100
AcDbLine
 10
12.242954
 20
10.83294
 30
0.0
 11
12.218018
 21
10.728689
 31
0.0
  0
LINE
  5
148
330
18
100
AcDbEntity
  8
0
100
AcDbLine
 10
12.218018
 20
10.728689
 30
0.0
 11
12.204083
 21
10.644494
 31
0.0
  0
LINE
  5
149
330
18
100
AcDbEntity
  8
0
100
AcDbLine
 10
12.204083
 20
10.644494
 30
0.0
 11
12.204259
 21
10.612175
 31
0.0
  0
LINE
  5
14A
330
18
100
AcDbEntity
  8
0
100
AcDbLine
 10
12.371329
 20
11.695537
 30
0.0
 11
12.309194
 21
11.632724
 31
0.0
  0
LINE
  5
14B
330
18
100
AcDbEntity
  8
0
100
AcDbLine
 10
12.309194
 20
11.632724
 30
0.0
 11
12.277287
 21
11.490384
 31
0.0
  0
LINE
  5
14C
330
18
100
AcDbEntity
  8
0
100
AcDbLine
 10
12.277287
 20
11.490384
 30
0.0
 11
12.237402
 21
11.311957
 31
0.0
  0
LINE
  5
14D
330
18
100
AcDbEntity
  8
0
100
AcDbLine
 10
12.237402
 20
11.311957
 30
0.0
 11
12.209535
 21
11.141562
 31
0.0
  0
LINE
  5
14E
330
18
100
AcDbEntity
  8
0
100
AcDbLine
 10
12.209535
 20
11.141562
 30
0.0
 11
12.171649
 21
10.968149
 31
0.0
  0
LINE
  5
14F
330
18
100
AcDbEntity
  8
0
100
AcDbLine
 10
12.171649
 20
10.968149
 30
0.0
 11
12.150727
 21
10.859894
 31
0.0
  0
LINE
  5
150
330
18
100
AcDbEntity
  8
0
100
AcDbLine
 10
12.150727
 20
10.859894
 30
0.0
 11
12.129787
 21
10.766671
 31
0.0
  0
LINE
  5
151
330
18
100
AcDbEntity
  8
0
100
AcDbLine
 10
12.129787
 20
10.766671
 30
0.0
 11
12.115437
 21
10.706785
 31
0.0
  0
LINE
  5
152
330
18
100
AcDbEntity
  8
0
100
AcDbLine
 10
12.271428
 20
11.794518
 30
0.0
 11
12.198966
 21
11.626586
 31
0.0
  0
LINE
  5
153
330
18
100
AcDbEntity
  8
0
100
AcDbLine
 10
12.198966
 20
11.626586
 30
0.0
 11
12.15708
 21
11.446154
 31
0.0
  0
LINE
  5
154
330
18
100
AcDbEntity
  8
0
100
AcDbLine
 10
12.15708
 20
11.446154
 30
0.0
 11
12.108209
 21
11.238655
 31
0.0
  0
LINE
  5
155
330
18
100
AcDbEntity
  8
0
100
AcDbLine
 10
12.108209
 20
11.238655
 30
0.0
 11
12.07334
 21
11.056226
 31
0.0
  0
LINE
  5
156
330
18
100
AcDbEntity
  8
0
100
AcDbLine
 10
12.07334
 20
11.056226
 30
0.0
 11
12.057451
 21
10.927934
 31
0.0
  0
LINE
  5
157
330
18
100
AcDbEntity
  8
0
100
AcDbLine
 10
12.057451
 20
10.927934
 30
0.0
 11
12.029771
 21
10.798034
 31
0.0
  0
LINE
  5
158
330
18
100
AcDbEntity
  8
0
100
AcDbLine
 10
12.180779
 20
11.884331
 30
0.0
 11
12.15264
 21
11.827964
 31
0.0
  0
LINE
  5
159
330
18
100
AcDbEntity
  8
0
100
AcDbLine
 10
12.15264
 20
11.827964
 30
0.0
 11
12.113706
 21
11.695638
 31
0.0
  0
LINE
  5
15A
330
18
100
AcDbEntity
  8
0
100
AcDbLine
 10
12.113706
 20
11.695638
 30
0.0
 11
12.083827
 21
11.531253
 31
0.0
  0
LINE
  5
15B
330
18
100
AcDbEntity
  8
0
100
AcDbLine
 10
12.083827
 20
11.531253
 30
0.0
 11
12.03893
 21
11.354825
 31
0.0
  0
LINE
  5
15C
330
18
100
AcDbEntity
  8
0
100
AcDbLine
 10
12.03893
 20
11.354825
 30
0.0
 11
12.010033
 21
11.20848
 31
0.0
  0
LINE
  5
15D
330
18
100
AcDbEntity
  8
0
100
AcDbLine
 10
12.010033
 20
11.20848
 30
0.0
 11
11.993161
 21
11.063151
 31
0.0
  0
LINE
  5
15E
330
18
100
AcDbEntity
  8
0
100
AcDbLine
 10
11.993161
 20
11.063151
 30
0.0
 11
11.978259
 21
10.947887
 31
0.0
  0
LINE
  5
15F
330
18
100
AcDbEntity
  8
0
100
AcDbLine
 10
11.978259
 20
10.947887
 30
0.0
 11
11.961031
 21
10.871254
 31
0.0
  0
LINE
  5
160
330
18
100
AcDbEntity
  8
0
100
AcDbLine
 10
12.085635
 20
11.978598
 30
0.0
 11
12.045403
 21
11.834858
 31
0.0
  0
LINE
  5
161
330
18
100
AcDbEntity
  8
0
100
AcDbLine
 10
12.045403
 20
11.834858
 30
0.0
 11
12.014451
 21
11.733607
 31
0.0
  0
LINE
  5
162
330
18
100
AcDbEntity
  8
0
100
AcDbLine
 10
12.014451
 20
11.733607
 30
0.0
 11
11.987502
 21
11.637371
 31
0.0
  0
LINE
  5
163
330
18
100
AcDbEntity
  8
0
100
AcDbLine
 10
11.987502
 20
11.637371
 30
0.0
 11
11.956621
 21
11.472985
 31
0.0
  0
LINE
  5
164
330
18
100
AcDbEntity
  8
0
100
AcDbLine
 10
11.956621
 20
11.472985
 30
0.0
 11
11.926744
 21
11.307598
 31
0.0
  0
LINE
  5
165
330
18
100
AcDbEntity
  8
0
100
AcDbLine
 10
11.926744
 20
11.307598
 30
0.0
 11
11.89486
 21
11.144213
 31
0.0
  0
LINE
  5
166
330
18
100
AcDbEntity
  8
0
100
AcDbLine
 10
11.89486
 20
11.144213
 30
0.0
 11
11.878905
 21
11.074045
 31
0.0
  0
LINE
  5
167
330
18
100
AcDbEntity
  8
0
100
AcDbLine
 10
11.878905
 20
11.074045
 30
0.0
 11
11.861823
 21
10.976927
 31
0.0
  0
LINE
  5
168
330
18
100
AcDbEntity
  8
0
100
AcDbLine
 10
12.019743
 20
12.043882
 30
0.0
 11
11.980173
 21
11.914956
 31
0.0
  0
LINE
  5
169
330
18
100
AcDbEntity
  8
0
100
AcDbLine
 10
11.980173
 20
11.914956
 30
0.0
 11
11.934211
 21
11.794647
 31
0.0
  0
LINE
  5
16A
330
18
100
AcDbEntity
  8
0
100
AcDbLine
 10
11.934211
 20
11.794647
 30
0.0
 11
11.916248
 21
11.727483
 31
0.0
  0
LINE
  5
16B
330
18
100
AcDbEntity
  8
0
100
AcDbLine
 10
11.916248
 20
11.727483
 30
0.0
 11
11.893319
 21
11.621231
 31
0.0
  0
LINE
  5
16C
330
18
100
AcDbEntity
  8
0
100
AcDbLine
 10
11.893319
 20
11.621231
 30
0.0
 11
11.857431
 21
11.453832
 31
0.0
  0
LINE
  5
16D
330
18
100
AcDbEntity
  8
0
100
AcDbLine
 10
11.857431
 20
11.453832
 30
0.0
 11
11.819519
 21
11.303468
 31
0.0
  0
LINE
  5
16E
330
18
100
AcDbEntity
  8
0
100
AcDbLine
 10
11.819519
 20
11.303468
 30
0.0
 11
11.796625
 21
11.166149
 31
0.0
  0
LINE
  5
16F
330
18
100
AcDbEntity
  8
0
100
AcDbLine
 10
11.796625
 20
11.166149
 30
0.0
 11
11.778008
 21
11.066205
 31
0.0
  0
LINE
  5
170
330
18
100
AcDbEntity
  8
0
100
AcDbLine
 10
11.950237
 20
12.112747
 30
0.0
 11
11.918952
 21
11.995058
 31
0.0
  0
LINE
  5
171
330
18
100
AcDbEntity
  8
0
100
AcDbLine
 10
11.918952
 20
11.995058
 30
0.0
 11
11.878054
 21
11.827654
 31
0.0
  0
LINE
  5
172
330
18
100
AcDbEntity
  8
0
100
AcDbLine
 10
11.878054
 20
11.827654
 30
0.0
 11
11.82216
 21
11.627163
 31
0.0
  0
LINE
  5
173
330
18
100
AcDbEntity
  8
0
100
AcDbLine
 10
11.82216
 20
11.627163
 30
0.0
 11
11.777254
 21
11.458753
 31
0.0
  0
LINE
  5
174
330
18
100
AcDbEntity
  8
0
100
AcDbLine
 10
11.777254
 20
11.458753
 30
0.0
 11
11.751341
 21
11.332454
 31
0.0
  0
LINE
  5
175
330
18
100
AcDbEntity
  8
0
100
AcDbLine
 10
11.751341
 20
11.332454
 30
0.0
 11
11.726396
 21
11.23622
 31
0.0
  0
LINE
  5
176
330
18
100
AcDbEntity
  8
0
100
AcDbLine
 10
11.726396
 20
11.23622
 30
0.0
 11
11.703444
 21
11.145629
 31
0.0
  0
LINE
  5
177
330
18
100
AcDbEntity
  8
0
100
AcDbLine
 10
11.856583
 20
12.205537
 30
0.0
 11
11.823601
 21
12.126231
 31
0.0
  0
LINE
  5
178
330
18
100
AcDbEntity
  8
0
100
AcDbLine
 10
11.823601
 20
12.126231
 30
0.0
 11
11.804674
 21
12.024993
 31
0.0
  0
LINE
  5
179
330
18
100
AcDbEntity
  8
0
100
AcDbLine
 10
11.804674
 20
12.024993
 30
0.0
 11
11.77479
 21
11.865619
 31
0.0
  0
LINE
  5
17A
330
18
100
AcDbEntity
  8
0
100
AcDbLine
 10
11.77479
 20
11.865619
 30
0.0
 11
11.743913
 21
11.698227
 31
0.0
  0
LINE
  5
17B
330
18
100
AcDbEntity
  8
0
100
AcDbLine
 10
11.743913
 20
11.698227
 30
0.0
 11
11.704983
 21
11.561892
 31
0.0
  0
LINE
  5
17C
330
18
100
AcDbEntity
  8
0
100
AcDbLine
 10
11.704983
 20
11.561892
 30
0.0
 11
11.668041
 21
11.440591
 31
0.0
  0
LINE
  5
17D
330
18
100
AcDbEntity
  8
0
100
AcDbLine
 10
11.668041
 20
11.440591
 30
0.0
 11
11.645098
 21
11.346364
 31
0.0
  0
LINE
  5
17E
330
18
100
AcDbEntity
  8
0
100
AcDbLine
 10
11.645098
 20
11.346364
 30
0.0
 11
11.613589
 21
11.241339
 31
0.0
  0
LINE
  5
17F
330
18
100
AcDbEntity
  8
0
100
AcDbLine
 10
11.755426
 20
12.305762
 30
0.0
 11
11.724327
 21
12.181237
 31
0.0
  0
LINE
  5
180
330
18
100
AcDbEntity
  8
0
100
AcDbLine
 10
11.724327
 20
12.181237
 30
0.0
 11
11.692412
 21
12.044909
 31
0.0
  0
LINE
  5
181
330
18
100
AcDbEntity
  8
0
100
AcDbLine
 10
11.692412
 20
12.044909
 30
0.0
 11
11.663505
 21
11.907583
 31
0.0
  0
LINE
  5
182
330
18
100
AcDbEntity
  8
0
100
AcDbLine
 10
11.663505
 20
11.907583
 30
0.0
 11
11.633591
 21
11.774265
 31
0.0
  0
LINE
  5
183
330
18
100
AcDbEntity
  8
0
100
AcDbLine
 10
11.633591
 20
11.774265
 30
0.0
 11
11.602741
 21
11.582821
 31
0.0
  0
LINE
  5
184
330
18
100
AcDbEntity
  8
0
100
AcDbLine
 10
11.602741
 20
11.582821
 30
0.0
 11
11.586835
 21
11.469561
 31
0.0
  0
LINE
  5
185
330
18
100
AcDbEntity
  8
0
100
AcDbLine
 10
11.586835
 20
11.469561
 30
0.0
 11
11.5546
 21
11.361313
 31
0.0
  0
LINE
  5
186
330
18
100
AcDbEntity
  8
0
100
AcDbLine
 10
11.673878
 20
12.386558
 30
0.0
 11
11.64201
 21
12.306411
 31
0.0
  0
LINE
  5
187
330
18
100
AcDbEntity
  8
0
100
AcDbLine
 10
11.64201
 20
12.306411
 30
0.0
 11
11.610118
 21
12.150041
 31
0.0
  0
LINE
  5
188
330
18
100
AcDbEntity
  8
0
100
AcDbLine
 10
11.610118
 20
12.150041
 30
0.0
 11
11.590204
 21
12.035775
 31
0.0
  0
LINE
  5
189
330
18
100
AcDbEntity
  8
0
100
AcDbLine
 10
11.590204
 20
12.035775
 30
0.0
 11
11.5546
 21
11.903456
 31
0.0
  0
LINE
  5
18A
330
18
100
AcDbEntity
  8
0
100
AcDbLine
 10
15.042838
 20
15.398934
 30
0.0
 11
15.518655
 21
15.535679
 31
0.0
  0
LINE
  5
18B
330
18
100
AcDbEntity
  8
0
100
AcDbLine
 10
15.518655
 20
15.535679
 30
0.0
 11
16.456296
 21
14.969526
 31
0.0
  0
LINE
  5
18C
330
18
100
AcDbEntity
  8
0
100
AcDbLine
 10
14.981427
 20
15.322685
 30
0.0
 11
15.042838
 21
15.398934
 31
0.0
  0
LINE
  5
18D
330
18
100
AcDbEntity
  8
0
100
AcDbLine
 10
14.612472
 20
15.27525
 30
0.0
 11
14.735346
 21
15.491951
 31
0.0
  0
LINE
  5
18E
330
18
100
AcDbEntity
  8
0
100
AcDbLine
 10
13.984164
 20
15.094681
 30
0.0
 11
14.612472
 21
15.27525
 31
0.0
  0
LINE
  5
18F
330
18
100
AcDbEntity
  8
0
100
AcDbLine
 10
15.50274
 20
14.662884
 30
0.0
 11
15.625615
 21
14.879585
 31
0.0
  0
LINE
  5
190
330
18
100
AcDbEntity
  8
0
100
AcDbLine
 10
15.625615
 20
14.879585
 30
0.0
 11
15.810294
 21
14.634081
 31
0.0
  0
LINE
  5
191
330
18
100
AcDbEntity
  8
0
100
AcDbLine
 10
15.810294
 20
14.634081
 30
0.0
 11
15.918531
 21
14.796593
 31
0.0
  0
LINE
  5
192
330
18
100
AcDbEntity
  8
0
100
AcDbLine
 10
13.984164
 20
13.322229
 30
0.0
 11
11.5546
 21
12.504737
 31
0.0
  0
LINE
  5
193
330
18
100
AcDbEntity
  8
0
100
AcDbLine
 10
11.5546
 20
12.504737
 30
0.0
 11
12.371329
 21
11.695537
 31
0.0
  0
TEXT
  5
194
330
18
100
AcDbEntity
  8
0
100
AcDbText
 10
10.300503
 20
6.844484
 30
0.0
 40
0.25
  1
Simpson Strong-Tie
100
AcDbText
  0
TEXT
  5
195
330
18
100
AcDbEntity
  8
0
100
AcDbText
 10
10.300503
 20
6.439722
 30
0.0
 40
0.25
  1
HUC (on post)
100
AcDbText
  0
POINT
  5
196
330
18
100
AcDbEntity
  8
0
100
AcDbPoint
 10
9.997060000000001
 20
6.253645
 30
0.0
  0
ENDSEC
  0
SECTION
  2
OBJECTS
  0
DICTIONARY
  5
C
330
0
100
AcDbDictionary
281
     1
  3
ACAD_COLOR
350
19C
  3
ACAD_GROUP
350
D
  3
ACAD_LAYOUT
350
15
  3
ACAD_MATERIAL
350
19E
  3
ACAD_MLINESTYLE
350
12
  3
ACAD_PLOTSETTINGS
350
14
  3
ACAD_PLOTSTYLENAME
350
E
  3
ACDBHEADERROUNDTRIPXREC
350
19B
  0
DICTIONARY
  5
19C
102
{ACAD_REACTORS
330
C
102
}
330
C
100
AcDbDictionary
281
     1
  0
DICTIONARY
  5
D
102
{ACAD_REACTORS
330
C
102
}
330
C
100
AcDbDictionary
281
     1
  0
DICTIONARY
  5
15
102
{ACAD_REACTORS
330
C
102
}
330
C
100
AcDbDictionary
281
     1
  3
Layout1
350
17
  3
Model
350
19
  0
DICTIONARY
  5
19E
102
{ACAD_REACTORS
330
C
102
}
330
C
100
AcDbDictionary
281
     1
  0
DICTIONARY
  5
12
102
{ACAD_REACTORS
330
C
102
}
330
C
100
AcDbDictionary
281
     1
  3
Standard
350
13
  0
DICTIONARY
  5
14
102
{ACAD_REACTORS
330
C
102
}
330
C
100
AcDbDictionary
281
     1
  0
ACDBDICTIONARYWDFLT
  5
E
102
{ACAD_REACTORS
330
C
102
}
330
C
100
AcDbDictionary
281
     1
  3
Normal
350
F
100
AcDbDictionaryWithDefault
340
F
  0
DICTIONARY
  5
19B
102
{ACAD_REACTORS
330
C
102
}
330
C
100
AcDbDictionary
281
     1
  3
COLORDICT
350
19D
  3
MATERIALDICT
350
19F
  0
LAYOUT
  5
17
102
{ACAD_REACTORS
330
15
102
}
102
{ACAD_XDICTIONARY
360
1A0
102
}
330
15
100
AcDbPlotSettings
  1

  2

  4

  6

 40
0.0
 41
0.0
 42
0.0
 43
0.0
 44
0.0
 45
0.0
 46
0.0
 47
0.0
 48
0.0
 49
0.0
140
0.0
141
0.0
142
1.0
143
1.0
 70
   688
 72
     0
 73
     0
 74
     5
  7

 75
    16
147
1.0
148
0.0
149
0.0
100
AcDbLayout
  1
Layout1
 70
     1
 71
     1
 10
0.0
 20
0.0
 11
12.0
 21
9.0
 12
0.0
 22
0.0
 32
0.0
 14
1.000000000000000E+20
 24
1.000000000000000E+20
 34
1.000000000000000E+20
 15
-1.000000000000000E+20
 25
-1.000000000000000E+20
 35
-1.000000000000000E+20
146
0.0
 13
0.0
 23
0.0
 33
0.0
 16
1.0
 26
0.0
 36
0.0
 17
0.0
 27
1.0
 37
0.0
 76
     0
330
16
  0
LAYOUT
  5
19
102
{ACAD_REACTORS
330
15
102
}
102
{ACAD_XDICTIONARY
360
1A2
102
}
330
15
100
AcDbPlotSettings
  1

  2

  4

  6

 40
0.0
 41
0.0
 42
0.0
 43
0.0
 44
0.0
 45
0.0
 46
0.0
 47
0.0
 48
0.0
 49
0.0
140
0.0
141
0.0
142
1.0
143
1.0
 70
  1712
 72
     0
 73
     0
 74
     0
  7

 75
     0
147
1.0
148
0.0
149
0.0
100
AcDbLayout
  1
Model
 70
     1
 71
     0
 10
0.0
 20
0.0
 11
0.0
 21
0.0
 12
0.0
 22
0.0
 32
0.0
 14
0.0
 24
0.0
 34
0.0
 15
0.0
 25
0.0
 35
0.0
146
0.0
 13
0.0
 23
0.0
 33
0.0
 16
1.0
 26
0.0
 36
0.0
 17
0.0
 27
1.0
 37
0.0
 76
     0
330
18
  0
MLINESTYLE
  5
13
102
{ACAD_REACTORS
330
12
102
}
330
12
100
AcDbMlineStyle
  2
Standard
 70
     0
  3

 62
   256
 51
90.0
 52
90.0
 71
     2
 49
0.5
 62
   256
  6
BYLAYER
 49
-0.5
 62
   256
  6
BYLAYER
  0
ACDBPLACEHOLDER
  5
F
102
{ACAD_REACTORS
330
E
102
}
330
E
  0
XRECORD
  5
19D
102
{ACAD_REACTORS
330
19B
102
}
330
19B
100
AcDbXrecord
340
19C
  0
XRECORD
  5
19F
102
{ACAD_REACTORS
330
19B
102
}
330
19B
100
AcDbXrecord
340
19E
  0
DICTIONARY
  5
1A0
330
17
100
AcDbDictionary
280
     1
281
     1
  3
ACAD_XREC_ROUNDTRIP
360
1A1
  0
DICTIONARY
  5
1A2
330
19
100
AcDbDictionary
280
     1
281
     1
  3
ACAD_XREC_ROUNDTRIP
360
1A3
  0
XRECORD
  5
1A1
102
{ACAD_REACTORS
330
1A0
102
}
330
1A0
100
AcDbXrecord
102
SHADEPLOT
 70
 27424
102
SHADEPLOTRESLEVEL
 70
 25504
102
SHADEPLOTCUSTOMDPI
 70
 16888
  0
XRECORD
  5
1A3
102
{ACAD_REACTORS
330
1A2
102
}
330
1A2
100
AcDbXrecord
102
SHADEPLOT
 70
     0
102
SHADEPLOTRESLEVEL
 70
     0
102
SHADEPLOTCUSTOMDPI
 70
     0
  0
ENDSEC
  0
EOF
