  0
SECTION
  2
HEADER
  9
$ACADVER
  1
AC1015
  9
$ACADMAINTVER
 70
     6
  9
$DWGCODEPAGE
  3
ANSI_1252
  9
$INSBASE
 10
0.0
 20
0.0
 30
0.0
  9
$EXTMIN
 10
4.224110299131674
 20
4.625045580591248
 30
0.0
  9
$EXTMAX
 10
13.21140736597954
 20
12.52132500425684
 30
0.0
  9
$LIMMIN
 10
0.0
 20
0.0
  9
$LIMMAX
 10
12.0
 20
9.0
  9
$ORTHOMODE
 70
     1
  9
$REGENMODE
 70
     0
  9
$FILLMODE
 70
     1
  9
$QTEXTMODE
 70
     0
  9
$MIRRTEXT
 70
     1
  9
$LTSCALE
 40
0.25
  9
$ATTMODE
 70
     1
  9
$TEXTSIZE
 40
0.2
  9
$TRACEWID
 40
0.05
  9
$TEXTSTYLE
  7
STANDARD
  9
$CLAYER
  8
0
  9
$CELTYPE
  6
BYLAYER
  9
$CECOLOR
 62
   256
  9
$CELTSCALE
 40
1.0
  9
$DISPSILH
 70
     0
  9
$DIMSCALE
 40
1.0
  9
$DIMASZ
 40
0.18
  9
$DIMEXO
 40
0.0625
  9
$DIMDLI
 40
0.38
  9
$DIMRND
 40
0.0
  9
$DIMDLE
 40
0.0
  9
$DIMEXE
 40
0.18
  9
$DIMTP
 40
0.0
  9
$DIMTM
 40
0.0
  9
$DIMTXT
 40
0.18
  9
$DIMCEN
 40
0.09
  9
$DIMTSZ
 40
0.0
  9
$DIMTOL
 70
     0
  9
$DIMLIM
 70
     0
  9
$DIMTIH
 70
     1
  9
$DIMTOH
 70
     1
  9
$DIMSE1
 70
     0
  9
$DIMSE2
 70
     0
  9
$DIMTAD
 70
     0
  9
$DIMZIN
 70
     0
  9
$DIMBLK
  1

  9
$DIMASO
 70
     1
  9
$DIMSHO
 70
     1
  9
$DIMPOST
  1

  9
$DIMAPOST
  1

  9
$DIMALT
 70
     0
  9
$DIMALTD
 70
     2
  9
$DIMALTF
 40
25.4
  9
$DIMLFAC
 40
1.0
  9
$DIMTOFL
 70
     0
  9
$DIMTVP
 40
0.0
  9
$DIMTIX
 70
     0
  9
$DIMSOXD
 70
     0
  9
$DIMSAH
 70
     0
  9
$DIMBLK1
  1

  9
$DIMBLK2
  1

  9
$DIMSTYLE
  2
STANDARD
  9
$DIMCLRD
 70
     0
  9
$DIMCLRE
 70
     0
  9
$DIMCLRT
 70
     0
  9
$DIMTFAC
 40
1.0
  9
$DIMGAP
 40
0.09
  9
$DIMJUST
 70
     0
  9
$DIMSD1
 70
     0
  9
$DIMSD2
 70
     0
  9
$DIMTOLJ
 70
     1
  9
$DIMTZIN
 70
     0
  9
$DIMALTZ
 70
     0
  9
$DIMALTTZ
 70
     0
  9
$DIMUPT
 70
     0
  9
$DIMDEC
 70
     4
  9
$DIMTDEC
 70
     4
  9
$DIMALTU
 70
     2
  9
$DIMALTTD
 70
     2
  9
$DIMTXSTY
  7
STANDARD
  9
$DIMAUNIT
 70
     0
  9
$DIMADEC
 70
     0
  9
$DIMALTRND
 40
0.0
  9
$DIMAZIN
 70
     0
  9
$DIMDSEP
 70
    46
  9
$DIMATFIT
 70
     3
  9
$DIMFRAC
 70
     0
  9
$DIMLDRBLK
  1

  9
$DIMLUNIT
 70
     2
  9
$DIMLWD
 70
    -2
  9
$DIMLWE
 70
    -2
  9
$DIMTMOVE
 70
     0
  9
$LUNITS
 70
     2
  9
$LUPREC
 70
     4
  9
$SKETCHINC
 40
0.1
  9
$FILLETRAD
 40
0.0
  9
$AUNITS
 70
     0
  9
$AUPREC
 70
     0
  9
$MENU
  1
.
  9
$ELEVATION
 40
0.0
  9
$PELEVATION
 40
0.0
  9
$THICKNESS
 40
0.0
  9
$LIMCHECK
 70
     0
  9
$CHAMFERA
 40
0.5
  9
$CHAMFERB
 40
0.5
  9
$CHAMFERC
 40
1.0
  9
$CHAMFERD
 40
0.0
  9
$SKPOLY
 70
     1
  9
$TDCREATE
 40
2451890.587386782
  9
$TDUCREATE
 40
2451890.920720116
  9
$TDUPDATE
 40
2451893.675261482
  9
$TDUUPDATE
 40
2451894.008594815
  9
$TDINDWG
 40
1.0548889583
  9
$TDUSRTIMER
 40
1.0548889583
  9
$USRTIMER
 70
     1
  9
$ANGBASE
 50
0.0
  9
$ANGDIR
 70
     0
  9
$PDMODE
 70
     0
  9
$PDSIZE
 40
0.0
  9
$PLINEWID
 40
0.0
  9
$SPLFRAME
 70
     0
  9
$SPLINETYPE
 70
     6
  9
$SPLINESEGS
 70
     8
  9
$HANDSEED
  5
131B
  9
$SURFTAB1
 70
     6
  9
$SURFTAB2
 70
     6
  9
$SURFTYPE
 70
     6
  9
$SURFU
 70
     6
  9
$SURFV
 70
     6
  9
$UCSBASE
  2

  9
$UCSNAME
  2

  9
$UCSORG
 10
0.0
 20
0.0
 30
0.0
  9
$UCSXDIR
 10
1.0
 20
0.0
 30
0.0
  9
$UCSYDIR
 10
0.0
 20
1.0
 30
0.0
  9
$UCSORTHOREF
  2

  9
$UCSORTHOVIEW
 70
     0
  9
$UCSORGTOP
 10
0.0
 20
0.0
 30
0.0
  9
$UCSORGBOTTOM
 10
0.0
 20
0.0
 30
0.0
  9
$UCSORGLEFT
 10
0.0
 20
0.0
 30
0.0
  9
$UCSORGRIGHT
 10
0.0
 20
0.0
 30
0.0
  9
$UCSORGFRONT
 10
0.0
 20
0.0
 30
0.0
  9
$UCSORGBACK
 10
0.0
 20
0.0
 30
0.0
  9
$PUCSBASE
  2

  9
$PUCSNAME
  2

  9
$PUCSORG
 10
0.0
 20
0.0
 30
0.0
  9
$PUCSXDIR
 10
1.0
 20
0.0
 30
0.0
  9
$PUCSYDIR
 10
0.0
 20
1.0
 30
0.0
  9
$PUCSORTHOREF
  2

  9
$PUCSORTHOVIEW
 70
     0
  9
$PUCSORGTOP
 10
0.0
 20
0.0
 30
0.0
  9
$PUCSORGBOTTOM
 10
0.0
 20
0.0
 30
0.0
  9
$PUCSORGLEFT
 10
0.0
 20
0.0
 30
0.0
  9
$PUCSORGRIGHT
 10
0.0
 20
0.0
 30
0.0
  9
$PUCSORGFRONT
 10
0.0
 20
0.0
 30
0.0
  9
$PUCSORGBACK
 10
0.0
 20
0.0
 30
0.0
  9
$USERI1
 70
     0
  9
$USERI2
 70
     0
  9
$USERI3
 70
     0
  9
$USERI4
 70
     0
  9
$USERI5
 70
     0
  9
$USERR1
 40
0.0
  9
$USERR2
 40
0.0
  9
$USERR3
 40
0.0
  9
$USERR4
 40
0.0
  9
$USERR5
 40
0.0
  9
$WORLDVIEW
 70
     1
  9
$SHADEDGE
 70
     3
  9
$SHADEDIF
 70
    70
  9
$TILEMODE
 70
     1
  9
$MAXACTVP
 70
    48
  9
$PINSBASE
 10
0.0
 20
0.0
 30
0.0
  9
$PLIMCHECK
 70
     0
  9
$PEXTMIN
 10
1.000000000000000E+20
 20
1.000000000000000E+20
 30
1.000000000000000E+20
  9
$PEXTMAX
 10
-1.000000000000000E+20
 20
-1.000000000000000E+20
 30
-1.000000000000000E+20
  9
$PLIMMIN
 10
0.0
 20
0.0
  9
$PLIMMAX
 10
12.0
 20
9.0
  9
$UNITMODE
 70
     0
  9
$VISRETAIN
 70
     1
  9
$PLINEGEN
 70
     0
  9
$PSLTSCALE
 70
     1
  9
$TREEDEPTH
 70
  3020
  9
$CMLSTYLE
  2
STANDARD
  9
$CMLJUST
 70
     0
  9
$CMLSCALE
 40
1.0
  9
$PROXYGRAPHICS
 70
     1
  9
$MEASUREMENT
 70
     0
  9
$CELWEIGHT
370
    -1
  9
$ENDCAPS
280
     0
  9
$JOINSTYLE
280
     0
  9
$LWDISPLAY
290
     0
  9
$INSUNITS
 70
     1
  9
$HYPERLINKBASE
  1

  9
$STYLESHEET
  1

  9
$XEDIT
290
     1
  9
$CEPSNTYPE
380
     0
  9
$PSTYLEMODE
290
     0
  9
$FINGERPRINTGUID
  2
{FAEB1C30-E019-11D5-929B-00C0DF256EC4}
  9
$VERSIONGUID
  2
{FAEB1C32-E019-11D5-929B-00C0DF256EC4}
  9
$EXTNAMES
290
     1
  9
$PSVPSCALE
 40
0.0
  9
$OLESTARTUP
290
     0
  0
ENDSEC
  0
SECTION
  2
CLASSES
  0
CLASS
  1
LWPOLYLINE
  2
AcDbPolyline
  3
AutoCAD 2000
 90
        0
280
     0
281
     1
  0
CLASS
  1
DICTIONARYVAR
  2
AcDbDictionaryVar
  3
AutoCAD 2000
 90
        0
280
     0
281
     0
  0
CLASS
  1
HATCH
  2
AcDbHatch
  3
AutoCAD 2000
 90
        0
280
     0
281
     1
  0
CLASS
  1
ACDBPLACEHOLDER
  2
AcDbPlaceHolder
  3
ObjectDBX Classes
 90
        0
280
     0
281
     0
  0
CLASS
  1
LAYOUT
  2
AcDbLayout
  3
ObjectDBX Classes
 90
        0
280
     0
281
     0
  0
ENDSEC
  0
SECTION
  2
TABLES
  0
TABLE
  2
VPORT
  5
8
330
0
100
AcDbSymbolTable
 70
     2
  0
VPORT
  5
130D
330
8
100
AcDbSymbolTableRecord
100
AcDbViewportTableRecord
  2
*ACTIVE
 70
     0
 10
0.0
 20
0.0
 11
1.0
 21
1.0
 12
8.717758832555607
 22
8.573185292424043
 13
0.0
 23
0.0
 14
0.5
 24
0.5
 15
0.5
 25
0.5
 16
0.0
 26
0.0
 36
1.0
 17
0.0
 27
0.0
 37
0.0
 40
7.967738965961206
 41
1.519637462235649
 42
50.0
 43
0.0
 44
0.0
 50
0.0
 51
0.0
 71
     0
 72
  2000
 73
     1
 74
     0
 75
     0
 76
     0
 77
     0
 78
     0
281
     0
 65
     1
110
0.0
120
0.0
130
0.0
111
1.0
121
0.0
131
0.0
112
0.0
122
1.0
132
0.0
 79
     0
146
0.0
  0
ENDTAB
  0
TABLE
  2
LTYPE
  5
5
330
0
100
AcDbSymbolTable
 70
     4
  0
LTYPE
  5
13
330
5
100
AcDbSymbolTableRecord
100
AcDbLinetypeTableRecord
  2
BYBLOCK
 70
     0
  3

 72
    65
 73
     0
 40
0.0
  0
LTYPE
  5
14
330
5
100
AcDbSymbolTableRecord
100
AcDbLinetypeTableRecord
  2
BYLAYER
 70
     0
  3

 72
    65
 73
     0
 40
0.0
  0
LTYPE
  5
15
330
5
100
AcDbSymbolTableRecord
100
AcDbLinetypeTableRecord
  2
CONTINUOUS
 70
     0
  3
Solid line
 72
    65
 73
     0
 40
0.0
  0
LTYPE
  5
12AD
330
5
100
AcDbSymbolTableRecord
100
AcDbLinetypeTableRecord
  2
HIDDEN
 70
     0
  3
Hidden __ __ __ __ __ __ __ __ __ __ __ __ __ _
 72
    65
 73
     2
 40
0.375
 49
0.25
 74
     0
 49
-0.125
 74
     0
  0
ENDTAB
  0
TABLE
  2
LAYER
  5
2
330
0
100
AcDbSymbolTable
 70
     1
  0
LAYER
  5
F
330
2
100
AcDbSymbolTableRecord
100
AcDbLayerTableRecord
  2
0
 70
     0
 62
     7
  6
CONTINUOUS
370
    -3
390
0
  0
ENDTAB
  0
TABLE
  2
STYLE
  5
3
330
0
100
AcDbSymbolTable
 70
     1
  0
STYLE
  5
10
330
3
100
AcDbSymbolTableRecord
100
AcDbTextStyleTableRecord
  2
STANDARD
 70
     0
 40
0.0
 41
1.0
 50
0.0
 71
     0
 42
0.2
  3
txt
  4

  0
ENDTAB
  0
TABLE
  2
VIEW
  5
6
330
0
100
AcDbSymbolTable
 70
     1
  0
VIEW
  5
9D4
330
6
100
AcDbSymbolTableRecord
100
AcDbViewTableRecord
  2
INITIAL
 70
     0
 40
7.967738965961206
 10
8.717758832555607
 20
8.573185292424043
 41
12.10807462198939
 11
0.0
 21
0.0
 31
1.0
 12
0.0
 22
0.0
 32
0.0
 42
50.0
 43
0.0
 44
0.0
 50
0.0
 71
     0
281
     0
 72
     0
  0
ENDTAB
  0
TABLE
  2
UCS
  5
7
330
0
100
AcDbSymbolTable
 70
     0
  0
ENDTAB
  0
TABLE
  2
APPID
  5
9
330
0
100
AcDbSymbolTable
 70
     1
  0
APPID
  5
11
330
9
100
AcDbSymbolTableRecord
100
AcDbRegAppTableRecord
  2
ACAD
 70
     0
  0
ENDTAB
  0
TABLE
  2
DIMSTYLE
  5
A
330
0
100
AcDbSymbolTable
 70
     1
100
AcDbDimStyleTable
  0
DIMSTYLE
105
1D
330
A
100
AcDbSymbolTableRecord
100
AcDbDimStyleTableRecord
  2
STANDARD
 70
     0
  3

  4

340
10
  0
ENDTAB
  0
TABLE
  2
BLOCK_RECORD
  5
1
330
0
100
AcDbSymbolTable
 70
     0
  0
BLOCK_RECORD
  5
19
330
1
100
AcDbSymbolTableRecord
100
AcDbBlockTableRecord
  2
*MODEL_SPACE
340
130F
  0
BLOCK_RECORD
  5
16
330
1
100
AcDbSymbolTableRecord
100
AcDbBlockTableRecord
  2
*PAPER_SPACE
340
1310
  0
ENDTAB
  0
ENDSEC
  0
SECTION
  2
BLOCKS
  0
BLOCK
  5
1A
330
19
100
AcDbEntity
  8
0
100
AcDbBlockBegin
  2
*MODEL_SPACE
 70
     0
 10
0.0
 20
0.0
 30
0.0
  3
*MODEL_SPACE
  1

  4

  0
ENDBLK
  5
1B
330
19
100
AcDbEntity
  8
0
100
AcDbBlockEnd
  0
BLOCK
  5
17
330
16
100
AcDbEntity
 67
     1
  8
0
100
AcDbBlockBegin
  2
*PAPER_SPACE
 70
     0
 10
0.0
 20
0.0
 30
0.0
  3
*PAPER_SPACE
  1

  4

  0
ENDBLK
  5
18
330
16
100
AcDbEntity
 67
     1
  8
0
100
AcDbBlockEnd
  0
ENDSEC
  0
SECTION
  2
ENTITIES
  0
LINE
  5
1144
330
19
100
AcDbEntity
  8
0
100
AcDbLine
 10
8.78057529921395
 20
11.16321657033915
 30
0.0
 11
8.78057529921395
 21
9.391036116172916
 31
0.0
  0
LINE
  5
1145
330
19
100
AcDbEntity
  8
0
100
AcDbLine
 10
9.771326596017701
 20
11.15965077949934
 30
0.0
 11
9.771326596017701
 21
9.120014586547383
 31
0.0
  0
LINE
  5
1146
330
19
100
AcDbEntity
  8
0
100
AcDbLine
 10
9.771326596017701
 20
4.625156887009292
 30
0.0
 11
9.448386296065257
 21
4.772326393845044
 31
0.0
  0
LINE
  5
1147
330
19
100
AcDbEntity
  8
0
100
AcDbLine
 10
9.771326596017701
 20
4.625156887009292
 30
0.0
 11
10.64207448047762
 21
4.921258674789845
 31
0.0
  0
LINE
  5
1148
330
19
100
AcDbEntity
  8
0
100
AcDbLine
 10
10.64207448047762
 20
4.921258674789845
 30
0.0
 11
10.64207448047762
 21
5.880664295482305
 31
0.0
  0
LINE
  5
1149
330
19
100
AcDbEntity
  8
0
100
AcDbLine
 10
10.60118446212613
 20
5.868006427365448
 30
0.0
 11
11.61846654194607
 21
6.182915124478629
 31
0.0
  0
LINE
  5
114A
330
19
100
AcDbEntity
  8
0
100
AcDbLine
 10
12.98916593073875
 20
6.6072272864848
 30
0.0
 11
12.98916593073875
 21
8.631811513913915
 31
0.0
  0
LINE
  5
114B
330
19
100
AcDbEntity
  8
0
100
AcDbLine
 10
10.23864160899688
 20
4.784069487624627
 30
0.0
 11
10.23864160899687
 21
5.439075590318246
 31
0.0
  0
LINE
  5
114C
330
19
100
AcDbEntity
  8
0
100
AcDbLine
 10
9.074783493183688
 20
4.942583683692836
 30
0.0
 11
9.179952903411996
 21
5.079602028653598
 31
0.0
  0
LINE
  5
114D
330
19
100
AcDbEntity
  8
0
100
AcDbLine
 10
9.179952903411996
 20
5.079602028653598
 30
0.0
 11
9.331003069253791
 21
4.625223441235244
 31
0.0
  0
LINE
  5
114E
330
19
100
AcDbEntity
  8
0
100
AcDbLine
 10
9.331003069253791
 20
4.625223441235244
 30
0.0
 11
9.448386296065259
 21
4.772326393845045
 31
0.0
  0
LINE
  5
114F
330
19
100
AcDbEntity
  8
0
100
AcDbLine
 10
9.074783493183688
 20
4.942583683692835
 30
0.0
 11
8.78057529921395
 21
5.076659470517646
 31
0.0
  0
LINE
  5
1150
330
19
100
AcDbEntity
  8
0
100
AcDbLine
 10
9.074783493183688
 20
4.942583683692835
 30
0.0
 11
9.215370116455956
 21
4.973062435376591
 31
0.0
  0
LINE
  5
1151
330
19
100
AcDbEntity
  8
0
100
AcDbLine
 10
8.78057529921395
 20
10.26909969394904
 30
0.0
 11
9.771326596017701
 21
10.04825490254085
 31
0.0
  0
LINE
  5
1152
330
19
100
AcDbEntity
  8
0
100
AcDbLine
 10
8.78057529921395
 20
10.82825340197406
 30
0.0
 11
9.771326596017701
 21
10.62311527450352
 31
0.0
  0
LINE
  5
1153
330
19
100
AcDbEntity
  8
0
100
AcDbLine
 10
9.98851653877108
 20
11.29974214656248
 30
0.0
 11
9.988516538771078
 21
10.44068042456566
 31
0.0
  0
LINE
  5
1154
330
19
100
AcDbEntity
  8
0
100
AcDbLine
 10
9.988516538771078
 20
5.399731494512199
 30
0.0
 11
9.771326596017701
 21
5.483828593138281
 31
0.0
  0
LINE
  5
1155
330
19
100
AcDbEntity
  8
0
100
AcDbLine
 10
9.988516538771078
 20
5.399731494512199
 30
0.0
 11
10.19939970554286
 21
5.462398602906909
 31
0.0
  0
LINE
  5
1156
330
19
100
AcDbEntity
  8
0
100
AcDbLine
 10
10.60114149483804
 20
5.581782224851906
 30
0.0
 11
10.60114149483804
 21
10.52165287990488
 31
0.0
  0
LINE
  5
1157
330
19
100
AcDbEntity
  8
0
100
AcDbLine
 10
13.13803943786649
 20
10.85696219657199
 30
0.0
 11
9.988516538771078
 21
10.44068042456566
 31
0.0
  0
LINE
  5
1158
330
19
100
AcDbEntity
  8
0
100
AcDbLine
 10
9.988516538771078
 20
10.44068042456566
 30
0.0
 11
9.771326596017701
 21
10.48875035354324
 31
0.0
  0
LINE
  5
1159
330
19
100
AcDbEntity
  8
0
100
AcDbLine
 10
13.13803943786649
 20
11.51128275631968
 30
0.0
 11
13.13803943786648
 21
11.29487815764949
 31
0.0
  0
LINE
  5
115A
330
19
100
AcDbEntity
  8
0
100
AcDbLine
 10
13.13803943786649
 20
11.51128275631968
 30
0.0
 11
9.98851653877108
 21
11.12321701438727
 31
0.0
  0
LINE
  5
115B
330
19
100
AcDbEntity
  8
0
100
AcDbLine
 10
9.98851653877108
 20
11.12321701438727
 30
0.0
 11
9.359807703088661
 21
11.22868336219668
 31
0.0
  0
LINE
  5
115C
330
19
100
AcDbEntity
  8
0
100
AcDbLine
 10
5.377920020410652
 20
10.77863704162109
 30
0.0
 11
12.70869622327361
 21
11.60718599125966
 31
0.0
  0
LINE
  5
115D
330
19
100
AcDbEntity
  8
0
100
AcDbLine
 10
12.70869622327361
 20
11.60718599125966
 30
0.0
 11
12.70869622327361
 21
11.45838160320774
 31
0.0
  0
LINE
  5
115E
330
19
100
AcDbEntity
  8
0
100
AcDbLine
 10
13.13803943786649
 20
11.51128275631968
 30
0.0
 11
12.70869622327361
 21
11.55549111640326
 31
0.0
  0
LINE
  5
115F
330
19
100
AcDbEntity
  8
0
100
AcDbLine
 10
10.19939970554286
 20
5.462398602906909
 30
0.0
 11
10.26888513789746
 21
5.607852485009237
 31
0.0
  0
LINE
  5
1160
330
19
100
AcDbEntity
  8
0
100
AcDbLine
 10
10.26888513789746
 20
5.607852485009237
 30
0.0
 11
10.36792969469978
 21
5.387665148245251
 31
0.0
  0
LINE
  5
1161
330
19
100
AcDbEntity
  8
0
100
AcDbLine
 10
10.36792969469978
 20
5.387665148245251
 30
0.0
 11
10.43776071194777
 21
5.533231165098155
 31
0.0
  0
LINE
  5
1162
330
19
100
AcDbEntity
  8
0
100
AcDbLine
 10
10.43776071194777
 20
5.533231165098155
 30
0.0
 11
10.60114149483804
 21
5.581782224851906
 31
0.0
  0
LINE
  5
1163
330
19
100
AcDbEntity
  8
0
100
AcDbLine
 10
10.36792969469978
 20
5.387665148245251
 30
0.0
 11
10.18829049670399
 21
5.459097334222727
 31
0.0
  0
LINE
  5
1164
330
19
100
AcDbEntity
  8
0
100
AcDbLine
 10
9.988516538771078
 20
6.967962759257636
 30
0.0
 11
9.859112031231856
 21
6.932693843647916
 31
0.0
  0
LINE
  5
1165
330
19
100
AcDbEntity
  8
0
100
AcDbLine
 10
5.434115724600506
 20
5.726670774748194
 30
0.0
 11
5.434115724600507
 21
6.793505236780122
 31
0.0
  0
LINE
  5
1166
330
19
100
AcDbEntity
  8
0
100
AcDbLine
 10
5.434115724600506
 20
8.184597897058394
 30
0.0
 11
9.988516538771078
 21
9.060601946166088
 31
0.0
  0
LINE
  5
1167
330
19
100
AcDbEntity
  8
0
100
AcDbLine
 10
9.771326596017703
 20
6.881442595953052
 30
0.0
 11
9.771326596017701
 21
4.625156887009292
 31
0.0
  0
LINE
  5
1168
330
19
100
AcDbEntity
  8
0
100
AcDbLine
 10
8.78057529921395
 20
6.638741015366452
 30
0.0
 11
8.78057529921395
 21
5.076659470517646
 31
0.0
  0
LINE
  5
1169
330
19
100
AcDbEntity
  8
0
100
AcDbLine
 10
9.988516538771078
 20
9.060601946166088
 30
0.0
 11
8.78057529921395
 21
9.391036116172916
 31
0.0
  0
LINE
  5
116A
330
19
100
AcDbEntity
  8
0
100
AcDbLine
 10
8.78057529921395
 20
9.391036116172916
 30
0.0
 11
7.812677705229614
 21
9.21505658616927
 31
0.0
  0
LINE
  5
116B
330
19
100
AcDbEntity
  8
0
100
AcDbLine
 10
4.391729148705286
 20
8.593072480737604
 30
0.0
 11
5.434115724600506
 21
8.184597897058394
 31
0.0
  0
LINE
  5
116C
330
19
100
AcDbEntity
  8
0
100
AcDbLine
 10
4.391729148705286
 20
8.593072480737604
 30
0.0
 11
4.391729148705286
 21
7.745406393076753
 31
0.0
  0
LINE
  5
116D
330
19
100
AcDbEntity
  8
0
100
AcDbLine
 10
4.391729148705286
 20
6.254240298075238
 30
0.0
 11
5.434115724600506
 21
5.726670774748194
 31
0.0
  0
LINE
  5
116E
330
19
100
AcDbEntity
  8
0
100
AcDbLine
 10
5.434115724600506
 20
7.285890477111587
 30
0.0
 11
5.60447149026819
 21
7.20880622748799
 31
0.0
  0
LINE
  5
116F
330
19
100
AcDbEntity
  8
0
100
AcDbLine
 10
5.60447149026819
 20
7.20880622748799
 30
0.0
 11
5.304185232813602
 21
6.86858476361324
 31
0.0
  0
LINE
  5
1170
330
19
100
AcDbEntity
  8
0
100
AcDbLine
 10
5.304185232813602
 20
6.86858476361324
 30
0.0
 11
5.434115724600506
 21
6.793505236780122
 31
0.0
  0
LINE
  5
1171
330
19
100
AcDbEntity
  8
0
100
AcDbLine
 10
5.434115724600505
 20
7.285890477111587
 30
0.0
 11
5.434115724600506
 21
8.184597897058394
 31
0.0
  0
LINE
  5
1172
330
19
100
AcDbEntity
  8
0
100
AcDbLine
 10
5.434115724600506
 20
7.285890477111587
 30
0.0
 11
4.391729148705286
 21
7.745406393076752
 31
0.0
  0
LINE
  5
1173
330
19
100
AcDbEntity
  8
0
100
AcDbLine
 10
5.304185232813602
 20
6.86858476361324
 30
0.0
 11
4.224411791277746
 21
7.351124719261395
 31
0.0
  0
LINE
  5
1174
330
19
100
AcDbEntity
  8
0
100
AcDbLine
 10
4.224411791277746
 20
7.351124719261395
 30
0.0
 11
4.530485999514136
 21
7.684238125113294
 31
0.0
  0
LINE
  5
1175
330
19
100
AcDbEntity
  8
0
100
AcDbLine
 10
4.391729148705287
 20
7.276352265034876
 30
0.0
 11
4.391729148705286
 21
6.254240298075238
 31
0.0
  0
LINE
  5
1176
330
19
100
AcDbEntity
  8
0
100
AcDbLine
 10
12.98916593073875
 20
8.935052949267391
 30
0.0
 11
12.86140211536664
 21
8.849002508314205
 31
0.0
  0
LINE
  5
1177
330
19
100
AcDbEntity
  8
0
100
AcDbLine
 10
12.86140211536664
 20
8.849002508314205
 30
0.0
 11
13.0795504756979
 21
8.698852168293806
 31
0.0
  0
LINE
  5
1178
330
19
100
AcDbEntity
  8
0
100
AcDbLine
 10
13.0795504756979
 20
8.698852168293806
 30
0.0
 11
12.98916593073875
 21
8.631811513913917
 31
0.0
  0
LINE
  5
1179
330
19
100
AcDbEntity
  8
0
100
AcDbLine
 10
12.98916593073875
 20
8.935052949267389
 30
0.0
 11
12.98916593073875
 21
10.83728514409851
 31
0.0
  0
LINE
  5
117A
330
19
100
AcDbEntity
  8
0
100
AcDbLine
 10
13.13803943786649
 20
11.29487815764949
 30
0.0
 11
13.03689490911059
 21
11.21783176731469
 31
0.0
  0
LINE
  5
117B
330
19
100
AcDbEntity
  8
0
100
AcDbLine
 10
13.03689490911059
 20
11.21783176731469
 30
0.0
 11
13.21102365003949
 21
11.16676564620869
 31
0.0
  0
LINE
  5
117C
330
19
100
AcDbEntity
  8
0
100
AcDbLine
 10
13.21102365003949
 20
11.16676564620869
 30
0.0
 11
13.13803943786649
 21
11.11873718216646
 31
0.0
  0
LINE
  5
117D
330
19
100
AcDbEntity
  8
0
100
AcDbLine
 10
13.13803943786649
 20
11.11873718216646
 30
0.0
 11
13.13803943786649
 21
10.85696219657199
 31
0.0
  0
LINE
  5
117E
330
19
100
AcDbEntity
  8
0
100
AcDbLine
 10
5.377920020410653
 20
11.3821092976134
 30
0.0
 11
5.377920020410652
 21
10.77863704162109
 31
0.0
  0
LINE
  5
117F
330
19
100
AcDbEntity
  8
0
100
AcDbLine
 10
10.87898845819538
 20
11.40038627388334
 30
0.0
 11
10.87898845819538
 21
11.90569317930386
 31
0.0
  0
LINE
  5
1180
330
19
100
AcDbEntity
  8
0
100
AcDbLine
 10
10.87898845819538
 20
11.90569317930386
 30
0.0
 11
5.377920020410653
 21
11.3821092976134
 31
0.0
  0
LINE
  5
1181
330
19
100
AcDbEntity
  8
0
100
AcDbLine
 10
5.377920020410652
 20
10.77863704162109
 30
0.0
 11
5.080986242273445
 21
10.83972963114967
 31
0.0
  0
LINE
  5
1182
330
19
100
AcDbEntity
  8
0
100
AcDbLine
 10
4.315031454439191
 20
11.02498973747023
 30
0.0
 11
4.315031454439191
 21
11.5774217128235
 31
0.0
  0
LINE
  5
1183
330
19
100
AcDbEntity
  8
0
100
AcDbLine
 10
4.315031454439191
 20
11.5774217128235
 30
0.0
 11
4.613726893136841
 21
11.52253455963359
 31
0.0
  0
LINE
  5
1184
330
19
100
AcDbEntity
  8
0
100
AcDbLine
 10
7.175508705419828
 20
10.9818065526839
 30
0.0
 11
7.175508705419829
 21
8.519541474606312
 31
0.0
  0
LINE
  5
1185
330
19
100
AcDbEntity
  8
0
100
AcDbLine
 10
7.812677705229614
 20
8.642096042500864
 30
0.0
 11
7.812677705229613
 21
11.05382153321604
 31
0.0
  0
LINE
  5
1186
330
19
100
AcDbEntity
  8
0
100
AcDbLine
 10
7.175508705419829
 20
8.519541474606312
 30
0.0
 11
6.106702484678142
 21
8.904882535343624
 31
0.0
  0
LINE
  5
1187
330
19
100
AcDbEntity
  8
0
100
AcDbLine
 10
6.106702484678142
 20
8.904882535343624
 30
0.0
 11
6.106702484678141
 21
10.86100648362479
 31
0.0
  0
LINE
  5
1188
330
19
100
AcDbEntity
  8
0
100
AcDbLine
 10
6.106702484678142
 20
8.904882535343624
 30
0.0
 11
4.391729148705286
 21
8.593072480737604
 31
0.0
  0
LINE
  5
1189
330
19
100
AcDbEntity
  8
0
100
AcDbLine
 10
11.60584991559103
 20
11.72444326974062
 30
0.0
 11
11.91447712092925
 21
11.69162928114489
 31
0.0
  0
LINE
  5
118A
330
19
100
AcDbEntity
  8
0
100
AcDbLine
 10
11.60584991559103
 20
11.72444326974062
 30
0.0
 11
10.87898845819537
 21
11.64739358829039
 31
0.0
  0
LINE
  5
118B
330
19
100
AcDbEntity
  8
0
100
AcDbLine
 10
9.988516538771078
 20
9.060601946166088
 30
0.0
 11
9.98851653877108
 21
8.823413451736382
 31
0.0
  0
LINE
  5
118C
330
19
100
AcDbEntity
  8
0
100
AcDbLine
 10
9.988516538771078
 20
6.806830688177511
 30
0.0
 11
9.988516538771078
 21
5.473788904011674
 31
0.0
  0
LINE
  5
118D
330
19
100
AcDbEntity
  8
0
100
AcDbLine
 10
11.91447712092925
 20
11.69162928114489
 30
0.0
 11
11.83401663164013
 21
11.64434630210857
 31
0.0
  0
LINE
  5
118E
330
19
100
AcDbEntity
  8
0
100
AcDbLine
 10
11.83401663164013
 20
11.64434630210857
 30
0.0
 11
12.29038011079292
 21
11.68430915181897
 31
0.0
  0
LINE
  5
118F
330
19
100
AcDbEntity
  8
0
100
AcDbLine
 10
12.29038011079292
 20
11.68430915181897
 30
0.0
 11
12.24436753261528
 21
11.65655453718301
 31
0.0
  0
LINE
  5
1190
330
19
100
AcDbEntity
  8
0
100
AcDbLine
 10
12.24436753261528
 20
11.65655453718301
 30
0.0
 11
12.70869622327361
 21
11.60718599125966
 31
0.0
  0
LINE
  5
1191
330
19
100
AcDbEntity
  8
0
100
AcDbLine
 10
11.91447712092925
 20
11.69162928114489
 30
0.0
 11
11.91447712092925
 21
11.65139206845047
 31
0.0
  0
LINE
  5
1192
330
19
100
AcDbEntity
  8
0
100
AcDbLine
 10
12.29038011079292
 20
11.68430915181897
 30
0.0
 11
12.29038011079292
 21
11.65166236893126
 31
0.0
  0
LINE
  5
1193
330
19
100
AcDbEntity
  8
0
100
AcDbLine
 10
5.888884177789228
 20
11.43074214047851
 30
0.0
 11
5.888884177789228
 21
12.0735742194758
 31
0.0
  0
LINE
  5
1194
330
19
100
AcDbEntity
  8
0
100
AcDbLine
 10
5.888884177789228
 20
12.0735742194758
 30
0.0
 11
10.22887039024664
 21
12.38516738389218
 31
0.0
  0
LINE
  5
1195
330
19
100
AcDbEntity
  8
0
100
AcDbLine
 10
10.22887039024664
 20
12.38516738389218
 30
0.0
 11
10.22887039024663
 21
11.84381586484696
 31
0.0
  0
LINE
  5
1196
330
19
100
AcDbEntity
  8
0
100
AcDbLine
 10
4.315031454439191
 20
11.5774217128235
 30
0.0
 11
4.879570189347853
 21
11.65239577449495
 31
0.0
  0
LINE
  5
1197
330
19
100
AcDbEntity
  8
0
100
AcDbLine
 10
4.879570189347853
 20
11.65239577449495
 30
0.0
 11
5.145770901129749
 21
11.59393591381737
 31
0.0
  0
LINE
  5
1198
330
19
100
AcDbEntity
  8
0
100
AcDbLine
 10
5.888884177789228
 20
12.0735742194758
 30
0.0
 11
5.586698139170981
 21
12.11283575838546
 31
0.0
  0
LINE
  5
1199
330
19
100
AcDbEntity
  8
0
100
AcDbLine
 10
4.879570189347853
 20
11.65239577449495
 30
0.0
 11
4.879570189347852
 21
12.20470939901768
 31
0.0
  0
LINE
  5
119A
330
19
100
AcDbEntity
  8
0
100
AcDbLine
 10
4.879570189347852
 20
12.20470939901768
 30
0.0
 11
9.187074606216193
 21
12.52042960866919
 31
0.0
  0
LINE
  5
119B
330
19
100
AcDbEntity
  8
0
100
AcDbLine
 10
9.187074606216193
 20
12.52042960866919
 30
0.0
 11
9.373638141101349
 21
12.49620701228547
 31
0.0
  0
LINE
  5
119C
330
19
100
AcDbEntity
  8
0
100
AcDbLine
 10
10.87898845819538
 20
11.90569317930386
 30
0.0
 11
10.5254588235195
 21
11.97482089460375
 31
0.0
  0
LINE
  5
119D
330
19
100
AcDbEntity
  8
0
100
AcDbLine
 10
9.373638141101347
 20
12.49620701228547
 30
0.0
 11
9.274131990740447
 21
12.44836009560962
 31
0.0
  0
LINE
  5
119E
330
19
100
AcDbEntity
  8
0
100
AcDbLine
 10
9.274131990740447
 20
12.44836009560962
 30
0.0
 11
9.891620029209713
 21
12.47729013426746
 31
0.0
  0
LINE
  5
119F
330
19
100
AcDbEntity
  8
0
100
AcDbLine
 10
9.891620029209713
 20
12.47729013426746
 30
0.0
 11
9.830644489288684
 21
12.43687129952813
 31
0.0
  0
LINE
  5
11A0
330
19
100
AcDbEntity
  8
0
100
AcDbLine
 10
9.830644489288684
 20
12.43687129952813
 30
0.0
 11
10.22887039024664
 21
12.38516738389218
 31
0.0
  0
LINE
  5
11A1
330
19
100
AcDbEntity
  8
0
100
AcDbLine
 10
9.373638141101349
 20
12.49620701228547
 30
0.0
 11
9.373638141101351
 21
12.45302207543318
 31
0.0
  0
LINE
  5
11A2
330
19
100
AcDbEntity
  8
0
100
AcDbLine
 10
9.891620029209713
 20
12.47729013426746
 30
0.0
 11
9.891620029209713
 21
12.4289545011372
 31
0.0
  0
LINE
  5
11A3
330
19
100
AcDbEntity
  8
0
100
AcDbLine
 10
10.5254588235195
 20
11.97482089460375
 30
0.0
 11
10.5820927305578
 21
12.02283057003694
 31
0.0
  0
LINE
  5
11A4
330
19
100
AcDbEntity
  8
0
100
AcDbLine
 10
10.5820927305578
 20
12.02283057003694
 30
0.0
 11
10.22887039024663
 21
12.01910582186361
 31
0.0
  0
LINE
  5
11A5
330
19
100
AcDbEntity
  8
0
100
AcDbLine
 10
10.5820927305578
 20
12.02283057003694
 30
0.0
 11
10.5820927305578
 21
11.96374693582331
 31
0.0
  0
LINE
  5
11A6
330
19
100
AcDbEntity
  8
0
100
AcDbLine
 10
9.331003069253791
 20
4.625223441235244
 30
0.0
 11
9.609763550950049
 21
4.698783974334692
 31
0.0
  0
LINE
  5
11A7
330
19
100
AcDbEntity
  8
0
100
AcDbLine
 10
9.988516538771078
 20
10.31558513819151
 30
0.0
 11
9.988516538771078
 21
9.216721984917104
 31
0.0
  0
LINE
  5
11AA
330
19
100
AcDbEntity
  8
0
100
AcDbLine
 10
10.85205545042598
 20
10.36449104299945
 30
0.0
 11
10.80792781186231
 21
9.744011619930499
 31
0.0
  0
LINE
  5
11AB
330
19
100
AcDbEntity
  8
0
100
AcDbLine
 10
11.02219187259504
 20
10.38548196542536
 30
0.0
 11
10.99060986972095
 21
10.57313006880967
 31
0.0
  0
LINE
  5
11AC
330
19
100
AcDbEntity
  8
0
100
AcDbLine
 10
11.66468824154064
 20
10.33934945383594
 30
0.0
 11
11.59886205090564
 21
10.65352456153839
 31
0.0
  0
LINE
  5
11AD
330
19
100
AcDbEntity
  8
0
100
AcDbLine
 10
12.02700973139802
 20
10.59049183381011
 30
0.0
 11
11.95760765128456
 21
10.70094103032105
 31
0.0
  0
LINE
  5
11AE
330
19
100
AcDbEntity
  8
0
100
AcDbLine
 10
12.21813016517044
 20
10.39531027352282
 30
0.0
 11
12.18079605383382
 21
10.73044050267959
 31
0.0
  0
LINE
  5
11AF
330
19
100
AcDbEntity
  8
0
100
AcDbLine
 10
12.85157290585755
 20
10.03893609734037
 30
0.0
 11
12.85648698478864
 21
9.440466559090234
 31
0.0
  0
LINE
  5
11B0
330
19
100
AcDbEntity
  8
0
100
AcDbLine
 10
12.75439816057054
 20
9.381435631520603
 30
0.0
 11
12.92676896642507
 21
8.893027855717282
 31
0.0
  0
LINE
  5
11B1
330
19
100
AcDbEntity
  8
0
100
AcDbLine
 10
12.83832263886791
 20
8.439685338452621
 30
0.0
 11
12.94178040028315
 21
8.793678568257336
 31
0.0
  0
LINE
  5
11B2
330
19
100
AcDbEntity
  8
0
100
AcDbLine
 10
12.33817841439687
 20
10.09005314820393
 30
0.0
 11
12.51923947822191
 21
9.551604204038094
 31
0.0
  0
LINE
  5
11B3
330
19
100
AcDbEntity
  8
0
100
AcDbLine
 10
12.05898403747166
 20
10.25222205967446
 30
0.0
 11
11.97581696195686
 21
9.572702244213671
 31
0.0
  0
LINE
  5
11B4
330
19
100
AcDbEntity
  8
0
100
AcDbLine
 10
11.55954643626091
 20
9.943054794290086
 30
0.0
 11
11.55644748320573
 21
9.299551181302871
 31
0.0
  0
LINE
  5
11B5
330
19
100
AcDbEntity
  8
0
100
AcDbLine
 10
11.09620961998243
 20
10.11726075614932
 30
0.0
 11
11.30429230048485
 21
9.581810107405726
 31
0.0
  0
LINE
  5
11B6
330
19
100
AcDbEntity
  8
0
100
AcDbLine
 10
11.00811178942123
 20
9.925123463277819
 30
0.0
 11
11.30425338954913
 21
9.322607070863743
 31
0.0
  0
LINE
  5
11B7
330
19
100
AcDbEntity
  8
0
100
AcDbLine
 10
10.94299247725529
 20
9.469776542753566
 30
0.0
 11
10.93688771701422
 21
8.803255350200104
 31
0.0
  0
LINE
  5
11B8
330
19
100
AcDbEntity
  8
0
100
AcDbLine
 10
10.75871152098029
 20
8.559090814409805
 30
0.0
 11
10.60114149483804
 21
8.884412972356804
 31
0.0
  0
LINE
  5
11B9
330
19
100
AcDbEntity
  8
0
100
AcDbLine
 10
10.78663281324379
 20
7.888561378157569
 30
0.0
 11
10.60114149483804
 21
8.426404540274074
 31
0.0
  0
LINE
  5
11BA
330
19
100
AcDbEntity
  8
0
100
AcDbLine
 10
10.9238339577617
 20
8.51302996504562
 30
0.0
 11
11.13090038010612
 21
7.874498722275432
 31
0.0
  0
LINE
  5
11BB
330
19
100
AcDbEntity
  8
0
100
AcDbLine
 10
11.30005750199435
 20
8.038601896193384
 30
0.0
 11
11.35498884281921
 21
7.294010393148208
 31
0.0
  0
LINE
  5
11BC
330
19
100
AcDbEntity
  8
0
100
AcDbLine
 10
10.98977121752523
 20
7.750422698764735
 30
0.0
 11
11.12378882652925
 21
7.167946322962339
 31
0.0
  0
LINE
  5
11BD
330
19
100
AcDbEntity
  8
0
100
AcDbLine
 10
10.78455116999352
 20
7.355143846671058
 30
0.0
 11
10.68535487556545
 21
6.564539419313793
 31
0.0
  0
LINE
  5
11BE
330
19
100
AcDbEntity
  8
0
100
AcDbLine
 10
10.65744545188852
 20
7.314130785630959
 30
0.0
 11
10.60114149483804
 21
7.436494635744448
 31
0.0
  0
LINE
  5
11BF
330
19
100
AcDbEntity
  8
0
100
AcDbLine
 10
10.8064593455325
 20
6.628571412037598
 30
0.0
 11
11.00966923874302
 21
5.994456515641615
 31
0.0
  0
LINE
  5
11C0
330
19
100
AcDbEntity
  8
0
100
AcDbLine
 10
10.94857156427604
 20
6.634554782178062
 30
0.0
 11
11.26783859047162
 21
6.074375129957319
 31
0.0
  0
LINE
  5
11C1
330
19
100
AcDbEntity
  8
0
100
AcDbLine
 10
11.61846654194607
 20
6.182915124478628
 30
0.0
 11
11.70713498109844
 21
6.42928019924224
 31
0.0
  0
LINE
  5
11C2
330
19
100
AcDbEntity
  8
0
100
AcDbLine
 10
11.70713498109844
 20
6.42928019924224
 30
0.0
 11
11.88923138296114
 21
6.12101140756181
 31
0.0
  0
LINE
  5
11C3
330
19
100
AcDbEntity
  8
0
100
AcDbLine
 10
11.88923138296114
 20
6.12101140756181
 30
0.0
 11
11.9550982520452
 21
6.28712245825282
 31
0.0
  0
LINE
  5
11C4
330
19
100
AcDbEntity
  8
0
100
AcDbLine
 10
11.9550982520452
 20
6.287122458252819
 30
0.0
 11
12.98916593073875
 21
6.6072272864848
 31
0.0
  0
LINE
  5
11C5
330
19
100
AcDbEntity
  8
0
100
AcDbLine
 10
11.88923138296114
 20
6.12101140756181
 30
0.0
 11
11.72211038303545
 21
6.187088235893993
 31
0.0
  0
LINE
  5
11C6
330
19
100
AcDbEntity
  8
0
100
AcDbLine
 10
11.72211038303545
 20
6.187088235893993
 30
0.0
 11
11.64974355464554
 21
6.269818239563868
 31
0.0
  0
LINE
  5
11C7
330
19
100
AcDbEntity
  8
0
100
AcDbLine
 10
11.6842231671644
 20
7.136837889538396
 30
0.0
 11
11.88229650606536
 21
6.591380903898808
 31
0.0
  0
LINE
  5
11C8
330
19
100
AcDbEntity
  8
0
100
AcDbLine
 10
11.64914885638868
 20
6.824598563212724
 30
0.0
 11
11.57103830434848
 21
6.168233292561495
 31
0.0
  0
LINE
  5
11C9
330
19
100
AcDbEntity
  8
0
100
AcDbLine
 10
12.29162915016007
 20
6.671382171661942
 30
0.0
 11
12.34796692739869
 21
6.408738443775778
 31
0.0
  0
LINE
  5
11CA
330
19
100
AcDbEntity
  8
0
100
AcDbLine
 10
12.27767706743888
 20
7.063691573505795
 30
0.0
 11
12.58771660708697
 21
6.482955085120037
 31
0.0
  0
LINE
  5
11CB
330
19
100
AcDbEntity
  8
0
100
AcDbLine
 10
12.87612392016279
 20
6.917487279781136
 30
0.0
 11
12.98916593073875
 21
7.422174354419109
 31
0.0
  0
LINE
  5
11CC
330
19
100
AcDbEntity
  8
0
100
AcDbLine
 10
12.8292551889643
 20
8.037371552771324
 30
0.0
 11
12.98916593073875
 21
7.546486220985542
 31
0.0
  0
LINE
  5
11CD
330
19
100
AcDbEntity
  8
0
100
AcDbLine
 10
12.70019477641473
 20
8.308603376761999
 30
0.0
 11
12.63803635108805
 21
7.577039642267112
 31
0.0
  0
LINE
  5
11CE
330
19
100
AcDbEntity
  8
0
100
AcDbLine
 10
12.405021659628
 20
8.695951075093209
 30
0.0
 11
12.5240142890549
 21
8.025407967431129
 31
0.0
  0
LINE
  5
11CF
330
19
100
AcDbEntity
  8
0
100
AcDbLine
 10
12.08561354008644
 20
7.643174311179409
 30
0.0
 11
12.08050881259387
 21
6.971649048766309
 31
0.0
  0
LINE
  5
11D0
330
19
100
AcDbEntity
  8
0
100
AcDbLine
 10
11.94841810450891
 20
7.056735513436514
 30
0.0
 11
11.67928114447253
 21
7.549161617762241
 31
0.0
  0
LINE
  5
11D1
330
19
100
AcDbEntity
  8
0
100
AcDbLine
 10
11.57616960197969
 20
7.344016387396495
 30
0.0
 11
11.72939260388248
 21
8.030531173862276
 31
0.0
  0
LINE
  5
11D2
330
19
100
AcDbEntity
  8
0
100
AcDbLine
 10
11.52527099320311
 20
8.285761722700466
 30
0.0
 11
11.45511260635891
 21
7.596232114932409
 31
0.0
  0
LINE
  5
11D3
330
19
100
AcDbEntity
  8
0
100
AcDbLine
 10
11.17008028703754
 20
8.869272084423074
 30
0.0
 11
11.41017468219657
 21
8.244746858837091
 31
0.0
  0
LINE
  5
11D4
330
19
100
AcDbEntity
  8
0
100
AcDbLine
 10
11.65041630792318
 20
8.600989879626184
 30
0.0
 11
11.8524834679367
 21
7.993483689703408
 31
0.0
  0
LINE
  5
11D5
330
19
100
AcDbEntity
  8
0
100
AcDbLine
 10
12.04072879921075
 20
8.645966564488965
 30
0.0
 11
12.08066716057165
 21
8.02647530558195
 31
0.0
  0
LINE
  5
11D6
330
19
100
AcDbEntity
  8
0
100
AcDbLine
 10
12.51120586400323
 20
9.36946273159348
 30
0.0
 11
12.66123045710011
 21
8.749954946806431
 31
0.0
  0
LINE
  5
11D7
330
19
100
AcDbEntity
  8
0
100
AcDbLine
 10
12.07487098358137
 20
9.415564294716656
 30
0.0
 11
11.94167688088005
 21
8.817115488934197
 31
0.0
  0
LINE
  5
11D8
330
19
100
AcDbEntity
  8
0
100
AcDbLine
 10
11.8426927186575
 20
9.439617963496939
 30
0.0
 11
11.63744232360063
 21
8.84218075857901
 31
0.0
  0
LINE
  5
11D9
330
19
100
AcDbEntity
  8
0
100
AcDbLine
 10
5.434115724600505
 20
7.667421470469819
 30
0.0
 11
5.371336009648622
 21
7.523087384716579
 31
0.0
  0
LINE
  5
11DA
330
19
100
AcDbEntity
  8
0
100
AcDbLine
 10
5.371336009648622
 20
7.523087384716579
 30
0.0
 11
5.383955658115666
 21
7.308002570099602
 31
0.0
  0
LINE
  5
11DB
330
19
100
AcDbEntity
  8
0
100
AcDbLine
 10
5.393123478729807
 20
8.200661314367594
 30
0.0
 11
5.269293908600427
 21
7.775300257782304
 31
0.0
  0
LINE
  5
11DC
330
19
100
AcDbEntity
  8
0
100
AcDbLine
 10
5.269293908600427
 20
7.775300257782304
 30
0.0
 11
5.274974182839267
 21
7.356044940936796
 31
0.0
  0
LINE
  5
11DD
330
19
100
AcDbEntity
  8
0
100
AcDbLine
 10
5.121701043818546
 20
7.423612433169201
 30
0.0
 11
5.098165416152328
 21
7.812354953234276
 31
0.0
  0
LINE
  5
11DE
330
19
100
AcDbEntity
  8
0
100
AcDbLine
 10
5.098165416152328
 20
7.812354953234276
 30
0.0
 11
5.226561606803823
 21
8.265931045257368
 31
0.0
  0
LINE
  5
11DF
330
19
100
AcDbEntity
  8
0
100
AcDbLine
 10
5.007562859560993
 20
7.473928039201124
 30
0.0
 11
4.969089980075459
 21
7.983508384737699
 31
0.0
  0
LINE
  5
11E0
330
19
100
AcDbEntity
  8
0
100
AcDbLine
 10
4.969089980075459
 20
7.983508384737699
 30
0.0
 11
5.036623100734889
 21
8.340361255685323
 31
0.0
  0
LINE
  5
11E1
330
19
100
AcDbEntity
  8
0
100
AcDbLine
 10
4.87097936447066
 20
7.534138225425228
 30
0.0
 11
4.836270532834724
 21
8.418872370136119
 31
0.0
  0
LINE
  5
11E2
330
19
100
AcDbEntity
  8
0
100
AcDbLine
 10
4.711218599181178
 20
7.604565661939597
 30
0.0
 11
4.666608498461225
 21
8.485356945493743
 31
0.0
  0
LINE
  5
11E3
330
19
100
AcDbEntity
  8
0
100
AcDbLine
 10
4.5757712364392
 20
7.664275006241153
 30
0.0
 11
4.583781708882797
 21
7.940532516548296
 31
0.0
  0
LINE
  5
11E4
330
19
100
AcDbEntity
  8
0
100
AcDbLine
 10
4.583781708882797
 20
7.940532516548296
 30
0.0
 11
4.509544601980576
 21
8.546904754348505
 31
0.0
  0
LINE
  5
11E5
330
19
100
AcDbEntity
  8
0
100
AcDbLine
 10
4.46217760293708
 20
7.714350557628324
 30
0.0
 11
4.486691245583951
 21
7.844471832582017
 31
0.0
  0
LINE
  5
11E6
330
19
100
AcDbEntity
  8
0
100
AcDbLine
 10
4.486691245583951
 20
7.844471832582017
 30
0.0
 11
4.391729148705286
 21
8.20592085682326
 31
0.0
  0
LINE
  5
11E7
330
19
100
AcDbEntity
  8
0
100
AcDbLine
 10
4.679528618053142
 20
7.618535575829235
 30
0.0
 11
4.402566503667631
 21
7.452177153794921
 31
0.0
  0
LINE
  5
11E8
330
19
100
AcDbEntity
  8
0
100
AcDbLine
 10
4.402566503667631
 20
7.452177153794921
 30
0.0
 11
4.265181383603228
 21
7.332905196057943
 31
0.0
  0
LINE
  5
11E9
330
19
100
AcDbEntity
  8
0
100
AcDbLine
 10
4.786955479750824
 20
7.571178526252997
 30
0.0
 11
4.394172291396122
 21
7.275260448992428
 31
0.0
  0
LINE
  5
11EA
330
19
100
AcDbEntity
  8
0
100
AcDbLine
 10
4.918150662029253
 20
7.513343673282915
 30
0.0
 11
4.518731772210265
 21
7.219596062339129
 31
0.0
  0
LINE
  5
11EB
330
19
100
AcDbEntity
  8
0
100
AcDbLine
 10
5.062124466331597
 20
7.449875612499262
 30
0.0
 11
4.638038706400063
 21
7.166278986258265
 31
0.0
  0
LINE
  5
11EC
330
19
100
AcDbEntity
  8
0
100
AcDbLine
 10
5.225782458082146
 20
7.377730159244852
 30
0.0
 11
4.952962957999452
 21
7.220913437749202
 31
0.0
  0
LINE
  5
11ED
330
19
100
AcDbEntity
  8
0
100
AcDbLine
 10
4.952962957999452
 20
7.220913437749202
 30
0.0
 11
4.791846798652877
 21
7.097543687575208
 31
0.0
  0
LINE
  5
11EE
330
19
100
AcDbEntity
  8
0
100
AcDbLine
 10
5.35535667055251
 20
7.320609879393158
 30
0.0
 11
5.112074982291248
 21
7.136823700651498
 31
0.0
  0
LINE
  5
11EF
330
19
100
AcDbEntity
  8
0
100
AcDbLine
 10
5.112074982291248
 20
7.136823700651498
 30
0.0
 11
4.895379816616092
 21
7.051275816951323
 31
0.0
  0
LINE
  5
11F0
330
19
100
AcDbEntity
  8
0
100
AcDbLine
 10
5.496473697232847
 20
7.257674129343298
 30
0.0
 11
5.308220368626247
 21
7.081751138669996
 31
0.0
  0
LINE
  5
11F1
330
19
100
AcDbEntity
  8
0
100
AcDbLine
 10
5.308220368626247
 20
7.081751138669996
 30
0.0
 11
5.173112285239361
 21
7.066759661558767
 31
0.0
  0
LINE
  5
11F2
330
19
100
AcDbEntity
  8
0
100
AcDbLine
 10
5.173112285239361
 20
7.066759661558767
 30
0.0
 11
5.033151339058845
 21
6.989707100985735
 31
0.0
  0
LINE
  5
11F3
330
19
100
AcDbEntity
  8
0
100
AcDbLine
 10
5.543226131386083
 20
7.139415820377683
 30
0.0
 11
5.261169552276847
 21
6.988685294714683
 31
0.0
  0
LINE
  5
11F4
330
19
100
AcDbEntity
  8
0
100
AcDbLine
 10
5.261169552276847
 20
6.988685294714683
 30
0.0
 11
5.182357289307387
 21
6.92302845355303
 31
0.0
  0
LINE
  5
11F5
330
19
100
AcDbEntity
  8
0
100
AcDbLine
 10
5.342711595693308
 20
6.846322544361788
 30
0.0
 11
5.39915138604464
 21
6.147005281429212
 31
0.0
  0
LINE
  5
11F6
330
19
100
AcDbEntity
  8
0
100
AcDbLine
 10
5.39915138604464
 20
6.147005281429212
 30
0.0
 11
5.290028830121096
 21
5.899828027630456
 31
0.0
  0
LINE
  5
11F7
330
19
100
AcDbEntity
  8
0
100
AcDbLine
 10
5.290028830121096
 20
5.899828027630456
 30
0.0
 11
5.31373472687266
 21
5.787597639174065
 31
0.0
  0
LINE
  5
11F8
330
19
100
AcDbEntity
  8
0
100
AcDbLine
 10
5.233993651297377
 20
6.899952679630451
 30
0.0
 11
5.243057488231127
 21
6.336176879932711
 31
0.0
  0
LINE
  5
11F9
330
19
100
AcDbEntity
  8
0
100
AcDbLine
 10
5.243057488231127
 20
6.336176879932711
 30
0.0
 11
5.137941222947807
 21
6.110015487615187
 31
0.0
  0
LINE
  5
11FA
330
19
100
AcDbEntity
  8
0
100
AcDbLine
 10
5.137941222947807
 20
6.110015487615187
 30
0.0
 11
5.183648089501627
 21
5.853436692416006
 31
0.0
  0
LINE
  5
11FB
330
19
100
AcDbEntity
  8
0
100
AcDbLine
 10
5.120566199049478
 20
6.95064227401345
 30
0.0
 11
5.116982000164509
 21
6.491317317932354
 31
0.0
  0
LINE
  5
11FC
330
19
100
AcDbEntity
  8
0
100
AcDbLine
 10
5.116982000164509
 20
6.491317317932354
 30
0.0
 11
4.984846221497634
 21
6.2761686051408
 31
0.0
  0
LINE
  5
11FD
330
19
100
AcDbEntity
  8
0
100
AcDbLine
 10
4.984846221497634
 20
6.2761686051408
 30
0.0
 11
5.010575374176268
 21
5.941031728688132
 31
0.0
  0
LINE
  5
11FE
330
19
100
AcDbEntity
  8
0
100
AcDbLine
 10
4.984170630377055
 20
7.011596089995606
 30
0.0
 11
4.987909118087281
 21
6.679484076158609
 31
0.0
  0
LINE
  5
11FF
330
19
100
AcDbEntity
  8
0
100
AcDbLine
 10
4.987909118087281
 20
6.679484076158609
 30
0.0
 11
4.853774175335031
 21
6.480348206635562
 31
0.0
  0
LINE
  5
1200
330
19
100
AcDbEntity
  8
0
100
AcDbLine
 10
4.853774175335031
 20
6.480348206635562
 30
0.0
 11
4.828722276629517
 21
6.265183418669794
 31
0.0
  0
LINE
  5
1201
330
19
100
AcDbEntity
  8
0
100
AcDbLine
 10
4.828722276629517
 20
6.265183418669794
 30
0.0
 11
4.858981838050234
 21
6.017755788113771
 31
0.0
  0
LINE
  5
1202
330
19
100
AcDbEntity
  8
0
100
AcDbLine
 10
4.843680536582985
 20
7.074379708318324
 30
0.0
 11
4.852835588813192
 21
6.894672901768061
 31
0.0
  0
LINE
  5
1203
330
19
100
AcDbEntity
  8
0
100
AcDbLine
 10
4.852835588813192
 20
6.894672901768061
 30
0.0
 11
4.717681984138578
 21
6.576443895420456
 31
0.0
  0
LINE
  5
1204
330
19
100
AcDbEntity
  8
0
100
AcDbLine
 10
4.717681984138578
 20
6.576443895420456
 30
0.0
 11
4.710959567226911
 21
6.092672369606562
 31
0.0
  0
LINE
  5
1205
330
19
100
AcDbEntity
  8
0
100
AcDbLine
 10
4.690517931273853
 20
7.142826545339708
 30
0.0
 11
4.710714506188547
 21
6.829643280060116
 31
0.0
  0
LINE
  5
1206
330
19
100
AcDbEntity
  8
0
100
AcDbLine
 10
4.710714506188547
 20
6.829643280060116
 30
0.0
 11
4.538520929118717
 21
6.438362605901919
 31
0.0
  0
LINE
  5
1207
330
19
100
AcDbEntity
  8
0
100
AcDbLine
 10
4.538520929118717
 20
6.438362605901919
 30
0.0
 11
4.532306675128464
 21
6.183091627974726
 31
0.0
  0
LINE
  5
1208
330
19
100
AcDbEntity
  8
0
100
AcDbLine
 10
4.563041285994211
 20
7.199794583627369
 30
0.0
 11
4.57562084538787
 21
6.910727059736651
 31
0.0
  0
LINE
  5
1209
330
19
100
AcDbEntity
  8
0
100
AcDbLine
 10
4.57562084538787
 20
6.910727059736651
 30
0.0
 11
4.43947171502294
 21
6.627525640994858
 31
0.0
  0
LINE
  5
120A
330
19
100
AcDbEntity
  8
0
100
AcDbLine
 10
4.43947171502294
 20
6.627525640994858
 30
0.0
 11
4.391729148705287
 21
6.348667149441691
 31
0.0
  0
LINE
  5
120B
330
19
100
AcDbEntity
  8
0
100
AcDbLine
 10
4.478490304258141
 20
7.237579572040216
 30
0.0
 11
4.455552164164309
 21
7.079877571272871
 31
0.0
  0
LINE
  5
120C
330
19
100
AcDbEntity
  8
0
100
AcDbLine
 10
4.455552164164309
 20
7.079877571272871
 30
0.0
 11
4.391729148705286
 21
6.886628841677899
 31
0.0
  0
LINE
  5
120D
330
19
100
AcDbEntity
  8
0
100
AcDbLine
 10
9.769955056949851
 20
11.27503959376545
 30
0.0
 11
9.98851653877108
 21
11.20908843046477
 31
0.0
  0
LINE
  5
120E
330
19
100
AcDbEntity
  8
0
100
AcDbLine
 10
9.60885873528288
 20
11.25683194638758
 30
0.0
 11
9.988516538771078
 21
11.16876030646263
 31
0.0
  0
LINE
  5
120F
330
19
100
AcDbEntity
  8
0
100
AcDbLine
 10
5.145770901129747
 20
12.17012325582194
 30
0.0
 11
5.424073865408843
 21
12.1667169838909
 31
0.0
  0
LINE
  5
1210
330
19
100
AcDbEntity
  8
0
100
AcDbLine
 10
5.424073865408843
 20
12.1667169838909
 30
0.0
 11
5.18478584973138
 21
12.09969631080232
 31
0.0
  0
LINE
  5
1211
330
19
100
AcDbEntity
  8
0
100
AcDbLine
 10
5.18478584973138
 20
12.09969631080232
 30
0.0
 11
5.58669813917098
 21
12.11283575838546
 31
0.0
  0
LINE
  5
1212
330
19
100
AcDbEntity
  8
0
100
AcDbLine
 10
5.145770901129747
 20
12.17012325582194
 30
0.0
 11
4.879570189347852
 21
12.20470939901768
 31
0.0
  0
LINE
  5
1213
330
19
100
AcDbEntity
  8
0
100
AcDbLine
 10
5.145770901129747
 20
12.17012325582194
 30
0.0
 11
5.145770901129749
 21
11.59393591381737
 31
0.0
  0
LINE
  5
1214
330
19
100
AcDbEntity
  8
0
100
AcDbLine
 10
5.18478584973138
 20
12.09969631080232
 30
0.0
 11
5.18478584973138
 21
11.49622766045656
 31
0.0
  0
LINE
  5
1215
330
19
100
AcDbEntity
  8
0
100
AcDbLine
 10
5.58669813917098
 20
12.11283575838546
 30
0.0
 11
5.58669813917098
 21
11.49710467421511
 31
0.0
  0
LINE
  5
1216
330
19
100
AcDbEntity
  8
0
100
AcDbLine
 10
5.18478584973138
 20
11.49622766045656
 30
0.0
 11
5.58669813917098
 21
11.49710467421511
 31
0.0
  0
LINE
  5
1217
330
19
100
AcDbEntity
  8
0
100
AcDbLine
 10
5.58669813917098
 20
11.49710467421511
 30
0.0
 11
5.888884177789228
 21
11.43074214047851
 31
0.0
  0
LINE
  5
1218
330
19
100
AcDbEntity
  8
0
100
AcDbLine
 10
5.145770901129749
 20
11.59393591381737
 30
0.0
 11
5.18478584973138
 21
11.59462517902401
 31
0.0
  0
LINE
  5
1219
330
19
100
AcDbEntity
  8
0
100
AcDbLine
 10
4.613726893136847
 20
11.52253455963359
 30
0.0
 11
4.9285919255513
 21
11.54130139730572
 31
0.0
  0
LINE
  5
121A
330
19
100
AcDbEntity
  8
0
100
AcDbLine
 10
4.9285919255513
 20
11.54130139730572
 30
0.0
 11
4.661364889848119
 21
11.42324900698866
 31
0.0
  0
LINE
  5
121B
330
19
100
AcDbEntity
  8
0
100
AcDbLine
 10
4.661364889848119
 20
11.42324900698866
 30
0.0
 11
5.080986242273446
 21
11.436672734668
 31
0.0
  0
LINE
  5
121C
330
19
100
AcDbEntity
  8
0
100
AcDbLine
 10
4.613726893136847
 20
11.52253455963359
 30
0.0
 11
4.613726893136846
 21
10.96759223198364
 31
0.0
  0
LINE
  5
121D
330
19
100
AcDbEntity
  8
0
100
AcDbLine
 10
4.661364889848119
 20
11.42324900698866
 30
0.0
 11
4.661364889848119
 21
10.84879828293547
 31
0.0
  0
LINE
  5
121E
330
19
100
AcDbEntity
  8
0
100
AcDbLine
 10
5.080986242273446
 20
11.436672734668
 30
0.0
 11
5.080986242273445
 21
10.83972963114967
 31
0.0
  0
LINE
  5
121F
330
19
100
AcDbEntity
  8
0
100
AcDbLine
 10
5.080986242273446
 20
11.436672734668
 30
0.0
 11
5.377920020410653
 21
11.3821092976134
 31
0.0
  0
LINE
  5
1220
330
19
100
AcDbEntity
  8
0
100
AcDbLine
 10
5.080986242273445
 20
10.83972963114967
 30
0.0
 11
4.661364889848119
 21
10.84879828293547
 31
0.0
  0
LINE
  5
1221
330
19
100
AcDbEntity
  8
0
100
AcDbLine
 10
4.613726893136847
 20
10.96759223198364
 30
0.0
 11
4.315031454439191
 21
11.02498973747023
 31
0.0
  0
LINE
  5
1222
330
19
100
AcDbEntity
  8
0
100
AcDbLine
 10
4.613726893136846
 20
10.96759223198364
 30
0.0
 11
4.661364889848119
 21
10.96759223198364
 31
0.0
  0
LINE
  5
1224
330
19
100
AcDbEntity
  8
0
100
AcDbLine
 10
5.888884177789228
 20
11.99351300783873
 30
0.0
 11
5.58669813917098
 21
12.05660536239378
 31
0.0
  0
LINE
  5
1225
330
19
100
AcDbEntity
  8
0
100
AcDbLine
 10
5.58669813917098
 20
12.05660536239378
 30
0.0
 11
5.18478584973138
 21
12.06667164316372
 31
0.0
  0
LINE
  5
1226
330
19
100
AcDbEntity
  8
0
100
AcDbLine
 10
5.18478584973138
 20
11.98961233259544
 30
0.0
 11
5.586698139170981
 21
11.94851934639009
 31
0.0
  0
LINE
  5
1227
330
19
100
AcDbEntity
  8
0
100
AcDbLine
 10
5.586698139170981
 20
11.94851934639009
 30
0.0
 11
5.888884177789229
 21
11.89288071122106
 31
0.0
  0
LINE
  5
1228
330
19
100
AcDbEntity
  8
0
100
AcDbLine
 10
5.888884177789228
 20
11.80036231127942
 30
0.0
 11
5.586698139170981
 21
11.86845753381193
 31
0.0
  0
LINE
  5
1229
330
19
100
AcDbEntity
  8
0
100
AcDbLine
 10
5.586698139170981
 20
11.86845753381193
 30
0.0
 11
5.18478584973138
 21
11.90544457205528
 31
0.0
  0
LINE
  5
122A
330
19
100
AcDbEntity
  8
0
100
AcDbLine
 10
5.888884177789228
 20
11.73916116815382
 30
0.0
 11
5.58669813917098
 21
11.80440601050263
 31
0.0
  0
LINE
  5
122B
330
19
100
AcDbEntity
  8
0
100
AcDbLine
 10
5.58669813917098
 20
11.80440601050263
 30
0.0
 11
5.184785849731381
 21
11.80704999179843
 31
0.0
  0
LINE
  5
122C
330
19
100
AcDbEntity
  8
0
100
AcDbLine
 10
5.888884177789229
 20
11.66299275967174
 30
0.0
 11
5.58669813917098
 21
11.72634606624476
 31
0.0
  0
LINE
  5
122D
330
19
100
AcDbEntity
  8
0
100
AcDbLine
 10
5.58669813917098
 20
11.72634606624476
 30
0.0
 11
5.184785849731381
 21
11.7466162921011
 31
0.0
  0
LINE
  5
122E
330
19
100
AcDbEntity
  8
0
100
AcDbLine
 10
5.888884177789228
 20
11.61320017226484
 30
0.0
 11
5.58669813917098
 21
11.66229754764092
 31
0.0
  0
LINE
  5
122F
330
19
100
AcDbEntity
  8
0
100
AcDbLine
 10
5.58669813917098
 20
11.66229754764092
 30
0.0
 11
5.18478584973138
 21
11.67545087442035
 31
0.0
  0
LINE
  5
1230
330
19
100
AcDbEntity
  8
0
100
AcDbLine
 10
5.888884177789228
 20
11.54763026845618
 30
0.0
 11
5.58669813917098
 21
11.60825401381562
 31
0.0
  0
LINE
  5
1231
330
19
100
AcDbEntity
  8
0
100
AcDbLine
 10
5.58669813917098
 20
11.60825401381562
 30
0.0
 11
5.18478584973138
 21
11.61552954581291
 31
0.0
  0
LINE
  5
1232
330
19
100
AcDbEntity
  8
0
100
AcDbLine
 10
5.888884177789228
 20
11.47010361607149
 30
0.0
 11
5.58669813917098
 21
11.53319657156763
 31
0.0
  0
LINE
  5
1233
330
19
100
AcDbEntity
  8
0
100
AcDbLine
 10
5.58669813917098
 20
11.53319657156763
 30
0.0
 11
5.18478584973138
 21
11.50383851558051
 31
0.0
  0
LINE
  5
1234
330
19
100
AcDbEntity
  8
0
100
AcDbLine
 10
4.986131896318899
 20
12.19086436294767
 30
0.0
 11
5.145770901129747
 21
12.14574093475702
 31
0.0
  0
LINE
  5
1235
330
19
100
AcDbEntity
  8
0
100
AcDbLine
 10
5.145770901129747
 20
12.14574093475702
 30
0.0
 11
5.339976447345003
 21
12.14316266777652
 31
0.0
  0
LINE
  5
1236
330
19
100
AcDbEntity
  8
0
100
AcDbLine
 10
4.879570189347852
 20
12.13477197369551
 30
0.0
 11
5.145770901129747
 21
12.05166859793646
 31
0.0
  0
LINE
  5
1237
330
19
100
AcDbEntity
  8
0
100
AcDbLine
 10
5.145770901129747
 20
12.05166859793646
 30
0.0
 11
5.18478584973138
 21
12.05166859793646
 31
0.0
  0
LINE
  5
1238
330
19
100
AcDbEntity
  8
0
100
AcDbLine
 10
4.879570189347852
 20
12.04570205414658
 30
0.0
 11
4.955688209159373
 21
12.04168930338961
 31
0.0
  0
LINE
  5
1239
330
19
100
AcDbEntity
  8
0
100
AcDbLine
 10
4.955688209159373
 20
12.04168930338961
 30
0.0
 11
5.145770901129747
 21
11.94158236620049
 31
0.0
  0
LINE
  5
123A
330
19
100
AcDbEntity
  8
0
100
AcDbLine
 10
5.145770901129747
 20
11.94158236620049
 30
0.0
 11
5.18478584973138
 21
11.95024005374541
 31
0.0
  0
LINE
  5
123B
330
19
100
AcDbEntity
  8
0
100
AcDbLine
 10
4.879570189347852
 20
11.93261332040071
 30
0.0
 11
4.952669181269449
 21
11.93060273843458
 31
0.0
  0
LINE
  5
123C
330
19
100
AcDbEntity
  8
0
100
AcDbLine
 10
4.952669181269449
 20
11.93060273843458
 30
0.0
 11
5.145770901129748
 21
11.83449818576858
 31
0.0
  0
LINE
  5
123D
330
19
100
AcDbEntity
  8
0
100
AcDbLine
 10
5.145770901129748
 20
11.83449818576858
 30
0.0
 11
5.184785849731381
 21
11.83898836003966
 31
0.0
  0
LINE
  5
123E
330
19
100
AcDbEntity
  8
0
100
AcDbLine
 10
4.879570189347853
 20
11.85755497674109
 30
0.0
 11
5.145770901129749
 21
11.72141005296381
 31
0.0
  0
LINE
  5
123F
330
19
100
AcDbEntity
  8
0
100
AcDbLine
 10
5.145770901129749
 20
11.72141005296381
 30
0.0
 11
5.184785849731381
 21
11.71960390830578
 31
0.0
  0
LINE
  5
1240
330
19
100
AcDbEntity
  8
0
100
AcDbLine
 10
4.879570189347853
 20
11.75347510114235
 30
0.0
 11
5.145770901129749
 21
11.64034580387276
 31
0.0
  0
LINE
  5
1241
330
19
100
AcDbEntity
  8
0
100
AcDbLine
 10
5.145770901129749
 20
11.64034580387276
 30
0.0
 11
5.18478584973138
 21
11.64034580387276
 31
0.0
  0
LINE
  5
1243
330
19
100
AcDbEntity
  8
0
100
AcDbLine
 10
5.377920020410653
 20
11.31305700962047
 30
0.0
 11
5.080986242273446
 21
11.38415488439814
 31
0.0
  0
LINE
  5
1244
330
19
100
AcDbEntity
  8
0
100
AcDbLine
 10
5.080986242273446
 20
11.38415488439814
 30
0.0
 11
4.661364889848119
 21
11.37429549868126
 31
0.0
  0
LINE
  5
1245
330
19
100
AcDbEntity
  8
0
100
AcDbLine
 10
5.377920020410652
 20
11.24500189990587
 30
0.0
 11
5.080986242273446
 21
11.29908825078398
 31
0.0
  0
LINE
  5
1246
330
19
100
AcDbEntity
  8
0
100
AcDbLine
 10
5.080986242273446
 20
11.29908825078398
 30
0.0
 11
4.661364889848119
 21
11.30574335708018
 31
0.0
  0
LINE
  5
1247
330
19
100
AcDbEntity
  8
0
100
AcDbLine
 10
5.377920020410653
 20
11.17094584252385
 30
0.0
 11
5.080986242273445
 21
11.23904151576217
 31
0.0
  0
LINE
  5
1248
330
19
100
AcDbEntity
  8
0
100
AcDbLine
 10
5.080986242273445
 20
11.23904151576217
 30
0.0
 11
4.985588684216938
 21
11.22204276186082
 31
0.0
  0
LINE
  5
1249
330
19
100
AcDbEntity
  8
0
100
AcDbLine
 10
4.985588684216938
 20
11.22204276186082
 30
0.0
 11
4.661364889848118
 21
11.23784331208129
 31
0.0
  0
LINE
  5
124A
330
19
100
AcDbEntity
  8
0
100
AcDbLine
 10
5.377920020410652
 20
11.0728697690627
 30
0.0
 11
5.284800993168689
 21
11.07488260455793
 31
0.0
  0
LINE
  5
124B
330
19
100
AcDbEntity
  8
0
100
AcDbLine
 10
5.284800993168689
 20
11.07488260455793
 30
0.0
 11
5.080986242273445
 21
11.13495938663434
 31
0.0
  0
LINE
  5
124C
330
19
100
AcDbEntity
  8
0
100
AcDbLine
 10
5.080986242273445
 20
11.13495938663434
 30
0.0
 11
4.995581800408907
 21
11.12396443487059
 31
0.0
  0
LINE
  5
124D
330
19
100
AcDbEntity
  8
0
100
AcDbLine
 10
4.995581800408907
 20
11.12396443487059
 30
0.0
 11
4.661364889848119
 21
11.13510899952358
 31
0.0
  0
LINE
  5
124E
330
19
100
AcDbEntity
  8
0
100
AcDbLine
 10
5.377920020410652
 20
10.94777207892419
 30
0.0
 11
5.080986242273445
 21
11.01686643279356
 31
0.0
  0
LINE
  5
124F
330
19
100
AcDbEntity
  8
0
100
AcDbLine
 10
5.080986242273445
 20
11.01686643279356
 30
0.0
 11
4.661364889848119
 21
11.00942338781638
 31
0.0
  0
LINE
  5
1250
330
19
100
AcDbEntity
  8
0
100
AcDbLine
 10
5.377920020410653
 20
11.02483184019828
 30
0.0
 11
5.080986242273445
 21
11.07090951591304
 31
0.0
  0
LINE
  5
1251
330
19
100
AcDbEntity
  8
0
100
AcDbLine
 10
5.080986242273445
 20
11.07090951591304
 30
0.0
 11
4.661364889848119
 21
11.0622140485302
 31
0.0
  0
LINE
  5
1252
330
19
100
AcDbEntity
  8
0
100
AcDbLine
 10
5.377920020410652
 20
10.85669999058442
 30
0.0
 11
5.080986242273445
 21
10.94080745544434
 31
0.0
  0
LINE
  5
1253
330
19
100
AcDbEntity
  8
0
100
AcDbLine
 10
5.080986242273445
 20
10.94080745544434
 30
0.0
 11
4.885470629617607
 21
10.95785082922178
 31
0.0
  0
LINE
  5
1254
330
19
100
AcDbEntity
  8
0
100
AcDbLine
 10
4.885470629617607
 20
10.95785082922178
 30
0.0
 11
4.661364889848119
 21
10.91853869829442
 31
0.0
  0
LINE
  5
1255
330
19
100
AcDbEntity
  8
0
100
AcDbLine
 10
5.377920020410652
 20
10.79464943418378
 30
0.0
 11
5.080986242273445
 21
10.88576599216436
 31
0.0
  0
LINE
  5
1256
330
19
100
AcDbEntity
  8
0
100
AcDbLine
 10
5.080986242273445
 20
10.88576599216436
 30
0.0
 11
4.794170542554105
 21
10.8459281520124
 31
0.0
  0
LINE
  5
1257
330
19
100
AcDbEntity
  8
0
100
AcDbLine
 10
4.315031454439191
 20
11.56941484048343
 30
0.0
 11
4.613726893136847
 21
11.49931609704263
 31
0.0
  0
LINE
  5
1258
330
19
100
AcDbEntity
  8
0
100
AcDbLine
 10
4.613726893136847
 20
11.49931609704263
 30
0.0
 11
4.847311783148291
 21
11.50539442003923
 31
0.0
  0
LINE
  5
1259
330
19
100
AcDbEntity
  8
0
100
AcDbLine
 10
4.315031454439191
 20
11.51337154163166
 30
0.0
 11
4.613726893136847
 21
11.42926242418373
 31
0.0
  0
LINE
  5
125A
330
19
100
AcDbEntity
  8
0
100
AcDbLine
 10
4.613726893136847
 20
11.42926242418373
 30
0.0
 11
4.717548397906861
 21
11.44806909079972
 31
0.0
  0
LINE
  5
125B
330
19
100
AcDbEntity
  8
0
100
AcDbLine
 10
4.315031454439191
 20
11.4313062081452
 30
0.0
 11
4.613726893136846
 21
11.35920920203066
 31
0.0
  0
LINE
  5
125C
330
19
100
AcDbEntity
  8
0
100
AcDbLine
 10
4.613726893136846
 20
11.35920920203066
 30
0.0
 11
4.661364889848119
 21
11.35549474874358
 31
0.0
  0
LINE
  5
125D
330
19
100
AcDbEntity
  8
0
100
AcDbLine
 10
4.315031454439191
 20
11.32822531364806
 30
0.0
 11
4.613726893136846
 21
11.23010777525156
 31
0.0
  0
LINE
  5
125E
330
19
100
AcDbEntity
  8
0
100
AcDbLine
 10
4.613726893136846
 20
11.23010777525156
 30
0.0
 11
4.661364889848119
 21
11.22582227107858
 31
0.0
  0
LINE
  5
125F
330
19
100
AcDbEntity
  8
0
100
AcDbLine
 10
4.315031454439191
 20
11.19211794868903
 30
0.0
 11
4.41513944327523
 21
11.20611585316849
 31
0.0
  0
LINE
  5
1260
330
19
100
AcDbEntity
  8
0
100
AcDbLine
 10
4.41513944327523
 20
11.20611585316849
 30
0.0
 11
4.613726893136847
 21
11.14904427733688
 31
0.0
  0
LINE
  5
1261
330
19
100
AcDbEntity
  8
0
100
AcDbLine
 10
4.613726893136847
 20
11.14904427733688
 30
0.0
 11
4.661364889848119
 21
11.15679126521309
 31
0.0
  0
LINE
  5
1262
330
19
100
AcDbEntity
  8
0
100
AcDbLine
 10
4.315031454439191
 20
11.12206547771232
 30
0.0
 11
4.549217296623731
 21
11.02495383123998
 31
0.0
  0
LINE
  5
1263
330
19
100
AcDbEntity
  8
0
100
AcDbLine
 10
4.549217296623731
 20
11.02495383123998
 30
0.0
 11
4.66136488984812
 21
11.03615158713774
 31
0.0
  0
LINE
  5
1265
330
19
100
AcDbEntity
  8
0
100
AcDbLine
 10
9.552559128561063
 20
10.09701956817715
 30
0.0
 11
9.431918722917629
 21
10.20257723102253
 31
0.0
  0
LINE
  5
1266
330
19
100
AcDbEntity
  8
0
100
AcDbLine
 10
9.431918722917629
 20
10.20257723102253
 30
0.0
 11
9.14200458241125
 21
10.18853479848635
 31
0.0
  0
LINE
  5
1267
330
19
100
AcDbEntity
  8
0
100
AcDbLine
 10
9.14200458241125
 20
10.18853479848635
 30
0.0
 11
8.78057529921395
 21
10.31591520318687
 31
0.0
  0
LINE
  5
1268
330
19
100
AcDbEntity
  8
0
100
AcDbLine
 10
9.771326596017699
 20
10.0606834593527
 30
0.0
 11
9.439937614079545
 21
10.28664187882964
 31
0.0
  0
LINE
  5
1269
330
19
100
AcDbEntity
  8
0
100
AcDbLine
 10
9.439937614079545
 20
10.28664187882964
 30
0.0
 11
9.142706591215681
 21
10.2986959058042
 31
0.0
  0
LINE
  5
126A
330
19
100
AcDbEntity
  8
0
100
AcDbLine
 10
9.142706591215681
 20
10.2986959058042
 30
0.0
 11
8.78057529921395
 21
10.37844975099315
 31
0.0
  0
LINE
  5
126B
330
19
100
AcDbEntity
  8
0
100
AcDbLine
 10
9.771326596017701
 20
10.17376866918344
 30
0.0
 11
9.516005455309873
 21
10.34167357681687
 31
0.0
  0
LINE
  5
126C
330
19
100
AcDbEntity
  8
0
100
AcDbLine
 10
9.516005455309873
 20
10.34167357681687
 30
0.0
 11
9.30383941347217
 21
10.34270621061963
 31
0.0
  0
LINE
  5
126D
330
19
100
AcDbEntity
  8
0
100
AcDbLine
 10
9.30383941347217
 20
10.34270621061963
 30
0.0
 11
8.78057529921395
 21
10.44146021883182
 31
0.0
  0
LINE
  5
126E
330
19
100
AcDbEntity
  8
0
100
AcDbLine
 10
9.771326596017701
 20
10.30472627404634
 30
0.0
 11
9.621096481067324
 21
10.39970326975581
 31
0.0
  0
LINE
  5
126F
330
19
100
AcDbEntity
  8
0
100
AcDbLine
 10
9.621096481067324
 20
10.39970326975581
 30
0.0
 11
9.208778762254401
 21
10.43479260405884
 31
0.0
  0
LINE
  5
1270
330
19
100
AcDbEntity
  8
0
100
AcDbLine
 10
9.208778762254401
 20
10.43479260405884
 30
0.0
 11
8.873523659185754
 21
10.48488212911893
 31
0.0
  0
LINE
  5
1271
330
19
100
AcDbEntity
  8
0
100
AcDbLine
 10
8.873523659185754
 20
10.48488212911893
 30
0.0
 11
8.780575299213949
 21
10.52010579732719
 31
0.0
  0
LINE
  5
1272
330
19
100
AcDbEntity
  8
0
100
AcDbLine
 10
8.780575299213952
 20
10.61640923417683
 30
0.0
 11
9.04266004860631
 21
10.51087712140447
 31
0.0
  0
LINE
  5
1273
330
19
100
AcDbEntity
  8
0
100
AcDbLine
 10
9.04266004860631
 20
10.51087712140447
 30
0.0
 11
9.680154751456646
 21
10.47975711986451
 31
0.0
  0
LINE
  5
1274
330
19
100
AcDbEntity
  8
0
100
AcDbLine
 10
9.680154751456646
 20
10.47975711986451
 30
0.0
 11
9.771326596017703
 21
10.45327303392821
 31
0.0
  0
LINE
  5
1275
330
19
100
AcDbEntity
  8
0
100
AcDbLine
 10
9.771326596017701
 20
10.55098128775448
 30
0.0
 11
9.617120688187526
 21
10.58184654502371
 31
0.0
  0
LINE
  5
1276
330
19
100
AcDbEntity
  8
0
100
AcDbLine
 10
9.617120688187526
 20
10.58184654502371
 30
0.0
 11
9.083702705995195
 21
10.58092583649936
 31
0.0
  0
LINE
  5
1277
330
19
100
AcDbEntity
  8
0
100
AcDbLine
 10
9.083702705995195
 20
10.58092583649936
 30
0.0
 11
8.780575299213952
 21
10.71959691090985
 31
0.0
  0
LINE
  5
1278
330
19
100
AcDbEntity
  8
0
100
AcDbLine
 10
9.727355986224115
 20
10.63221952557631
 30
0.0
 11
9.160770129268213
 21
10.62795111285234
 31
0.0
  0
LINE
  5
1279
330
19
100
AcDbEntity
  8
0
100
AcDbLine
 10
9.160770129268213
 20
10.62795111285234
 30
0.0
 11
8.910591425106478
 21
10.74307882303094
 31
0.0
  0
LINE
  5
127A
330
19
100
AcDbEntity
  8
0
100
AcDbLine
 10
8.910591425106478
 20
10.74307882303094
 30
0.0
 11
8.78057529921395
 21
10.77457707389327
 31
0.0
  0
LINE
  5
127B
330
19
100
AcDbEntity
  8
0
100
AcDbLine
 10
8.944693091901435
 20
10.79427230421005
 30
0.0
 11
9.136763033422568
 21
10.70601586463895
 31
0.0
  0
LINE
  5
127C
330
19
100
AcDbEntity
  8
0
100
AcDbLine
 10
9.136763033422568
 20
10.70601586463895
 30
0.0
 11
9.371113269163557
 21
10.70598068454585
 31
0.0
  0
LINE
  5
127D
330
19
100
AcDbEntity
  8
0
100
AcDbLine
 10
9.771326596017701
 20
10.67089453022277
 30
0.0
 11
9.576000896663828
 21
10.66355806609167
 31
0.0
  0
LINE
  5
127E
330
19
100
AcDbEntity
  8
0
100
AcDbLine
 10
9.771326596017701
 20
10.7459539255293
 30
0.0
 11
9.559100760541334
 21
10.75198852589787
 31
0.0
  0
LINE
  5
127F
330
19
100
AcDbEntity
  8
0
100
AcDbLine
 10
9.559100760541334
 20
10.75198852589787
 30
0.0
 11
9.267353584048042
 21
10.72746444901853
 31
0.0
  0
LINE
  5
1280
330
19
100
AcDbEntity
  8
0
100
AcDbLine
 10
9.771326596017701
 20
10.84203083490507
 30
0.0
 11
9.667201048895961
 21
10.85605382867513
 31
0.0
  0
LINE
  5
1281
330
19
100
AcDbEntity
  8
0
100
AcDbLine
 10
9.667201048895961
 20
10.85605382867513
 30
0.0
 11
9.140943653710888
 21
10.75363801698326
 31
0.0
  0
LINE
  5
1282
330
19
100
AcDbEntity
  8
0
100
AcDbLine
 10
9.771326596017703
 20
10.9214740724615
 30
0.0
 11
9.487072862652386
 21
10.94214828856331
 31
0.0
  0
LINE
  5
1283
330
19
100
AcDbEntity
  8
0
100
AcDbLine
 10
9.487072862652386
 20
10.94214828856331
 30
0.0
 11
9.31692832777858
 21
10.86711503419428
 31
0.0
  0
LINE
  5
1284
330
19
100
AcDbEntity
  8
0
100
AcDbLine
 10
9.31692832777858
 20
10.86711503419428
 30
0.0
 11
8.875628580047284
 21
10.80857232549908
 31
0.0
  0
LINE
  5
1285
330
19
100
AcDbEntity
  8
0
100
AcDbLine
 10
9.771326596017701
 20
11.00916160012351
 30
0.0
 11
9.652215731430927
 21
11.03219405298179
 31
0.0
  0
LINE
  5
1286
330
19
100
AcDbEntity
  8
0
100
AcDbLine
 10
9.652215731430927
 20
11.03219405298179
 30
0.0
 11
9.272905553435486
 21
10.94518279068635
 31
0.0
  0
LINE
  5
1287
330
19
100
AcDbEntity
  8
0
100
AcDbLine
 10
9.272905553435486
 20
10.94518279068635
 30
0.0
 11
8.78057529921395
 21
10.87753012374024
 31
0.0
  0
LINE
  5
1288
330
19
100
AcDbEntity
  8
0
100
AcDbLine
 10
9.771326596017701
 20
11.12925176499111
 30
0.0
 11
9.570167975471414
 21
11.14229260401015
 31
0.0
  0
LINE
  5
1289
330
19
100
AcDbEntity
  8
0
100
AcDbLine
 10
9.570167975471414
 20
11.14229260401015
 30
0.0
 11
9.195855256983595
 21
11.01224688176884
 31
0.0
  0
LINE
  5
128A
330
19
100
AcDbEntity
  8
0
100
AcDbLine
 10
9.195855256983595
 20
11.01224688176884
 30
0.0
 11
8.78057529921395
 21
10.9720214543131
 31
0.0
  0
LINE
  5
128B
330
19
100
AcDbEntity
  8
0
100
AcDbLine
 10
9.521009099653854
 20
11.20164171494664
 30
0.0
 11
9.082780044412299
 21
11.10133362766834
 31
0.0
  0
LINE
  5
128C
330
19
100
AcDbEntity
  8
0
100
AcDbLine
 10
9.082780044412299
 20
11.10133362766834
 30
0.0
 11
8.78057529921395
 21
11.07504039224591
 31
0.0
  0
LINE
  5
128D
330
19
100
AcDbEntity
  8
0
100
AcDbLine
 10
9.441025773868068
 20
11.21505897390264
 30
0.0
 11
9.066778619024541
 21
11.17539404187328
 31
0.0
  0
LINE
  5
128E
330
19
100
AcDbEntity
  8
0
100
AcDbLine
 10
9.066778619024541
 20
11.17539404187328
 30
0.0
 11
8.78057529921395
 21
11.15829923635108
 31
0.0
  0
ELLIPSE
  5
1290
330
19
100
AcDbEntity
  8
0
100
AcDbEllipse
 10
12.90731307166037
 20
11.34895391694085
 30
0.0
 11
0.02152601873641302
 21
0.06104458935885404
 31
0.0
210
0.0
220
0.0
230
1.0
 40
0.7050118961694905
 41
0.0
 42
6.283185307179586
  0
ELLIPSE
  5
1291
330
19
100
AcDbEntity
  8
0
100
AcDbEllipse
 10
12.53345822855272
 20
10.93568626884298
 30
0.0
 11
0.02152601873641302
 21
0.06104458935885404
 31
0.0
210
0.0
220
0.0
230
1.0
 40
0.7050118961694905
 41
0.0
 42
6.283185307179586
  0
ELLIPSE
  5
1292
330
19
100
AcDbEntity
  8
0
100
AcDbEllipse
 10
12.04511909120883
 20
11.22498613794437
 30
0.0
 11
0.02152601873641302
 21
0.06104458935885404
 31
0.0
210
0.0
220
0.0
230
1.0
 40
0.7050118961694905
 41
0.0
 42
6.283185307179586
  0
ELLIPSE
  5
1293
330
19
100
AcDbEntity
  8
0
100
AcDbEllipse
 10
11.60271130042378
 20
10.81673270058706
 30
0.0
 11
0.02152601873641302
 21
0.06104458935885404
 31
0.0
210
0.0
220
0.0
230
1.0
 40
0.7050118961694905
 41
0.0
 42
6.283185307179586
  0
ELLIPSE
  5
1294
330
19
100
AcDbEntity
  8
0
100
AcDbEllipse
 10
11.09636165807874
 20
11.13005408812031
 30
0.0
 11
0.02152601873641302
 21
0.06104458935885404
 31
0.0
210
0.0
220
0.0
230
1.0
 40
0.7050118961694905
 41
0.0
 42
6.283185307179586
  0
ELLIPSE
  5
1295
330
19
100
AcDbEntity
  8
0
100
AcDbEllipse
 10
10.64894904625769
 20
10.71579669839013
 30
0.0
 11
0.02152601873641302
 21
0.06104458935885404
 31
0.0
210
0.0
220
0.0
230
1.0
 40
0.7050118961694905
 41
0.0
 42
6.283185307179586
  0
ELLIPSE
  5
1296
330
19
100
AcDbEntity
  8
0
100
AcDbEllipse
 10
10.18863140810441
 20
11.00209000912927
 30
0.0
 11
0.02152601873641302
 21
0.06104458935885404
 31
0.0
210
0.0
220
0.0
230
1.0
 40
0.7050118961694905
 41
0.0
 42
6.283185307179586
  0
ELLIPSE
  5
1297
330
19
100
AcDbEntity
  8
0
100
AcDbEllipse
 10
10.1394618403923
 20
10.12841300424393
 30
0.0
 11
0.02152601873641302
 21
0.06104458935885404
 31
0.0
210
0.0
220
0.0
230
1.0
 40
0.7050118961694905
 41
0.0
 42
6.283185307179586
  0
ELLIPSE
  5
1298
330
19
100
AcDbEntity
  8
0
100
AcDbEllipse
 10
10.46065338616717
 20
9.728051208772277
 30
0.0
 11
0.02152601873641302
 21
0.06104458935885404
 31
0.0
210
0.0
220
0.0
230
1.0
 40
0.7050118961694905
 41
0.0
 42
6.283185307179586
  0
ELLIPSE
  5
1299
330
19
100
AcDbEntity
  8
0
100
AcDbEllipse
 10
10.14732809251682
 20
9.195681184380552
 30
0.0
 11
0.02152601873641302
 21
0.06104458935885404
 31
0.0
210
0.0
220
0.0
230
1.0
 40
0.7050118961694905
 41
0.0
 42
6.283185307179586
  0
ELLIPSE
  5
129A
330
19
100
AcDbEntity
  8
0
100
AcDbEllipse
 10
10.46251493474246
 20
8.795320290320538
 30
0.0
 11
0.02152601873641302
 21
0.06104458935885404
 31
0.0
210
0.0
220
0.0
230
1.0
 40
0.7050118961694905
 41
0.0
 42
6.283185307179586
  0
ELLIPSE
  5
129B
330
19
100
AcDbEntity
  8
0
100
AcDbEllipse
 10
10.1351813703788
 20
8.280966479870338
 30
0.0
 11
0.02152601873641302
 21
0.06104458935885404
 31
0.0
210
0.0
220
0.0
230
1.0
 40
0.7050118961694905
 41
0.0
 42
6.283185307179586
  0
ELLIPSE
  5
129C
330
19
100
AcDbEntity
  8
0
100
AcDbEllipse
 10
10.46137999071877
 20
7.901620395644645
 30
0.0
 11
0.02152601873641302
 21
0.06104458935885404
 31
0.0
210
0.0
220
0.0
230
1.0
 40
0.7050118961694905
 41
0.0
 42
6.283185307179586
  0
ELLIPSE
  5
129D
330
19
100
AcDbEntity
  8
0
100
AcDbEllipse
 10
10.14605733580632
 20
7.397272621619897
 30
0.0
 11
0.02152601873641302
 21
0.06104458935885404
 31
0.0
210
0.0
220
0.0
230
1.0
 40
0.7050118961694905
 41
0.0
 42
6.283185307179586
  0
ELLIPSE
  5
129E
330
19
100
AcDbEntity
  8
0
100
AcDbEllipse
 10
10.48826579470933
 20
6.999910022982128
 30
0.0
 11
0.02152601873641302
 21
0.06104458935885404
 31
0.0
210
0.0
220
0.0
230
1.0
 40
0.7050118961694905
 41
0.0
 42
6.283185307179586
  0
ELLIPSE
  5
129F
330
19
100
AcDbEntity
  8
0
100
AcDbEllipse
 10
10.13591308292968
 20
6.488562320188373
 30
0.0
 11
0.02152601873641302
 21
0.06104458935885404
 31
0.0
210
0.0
220
0.0
230
1.0
 40
0.7050118961694905
 41
0.0
 42
6.283185307179586
  0
ELLIPSE
  5
12A0
330
19
100
AcDbEntity
  8
0
100
AcDbEllipse
 10
10.475125199469
 20
6.131231529251324
 30
0.0
 11
0.02152601873641302
 21
0.06104458935885404
 31
0.0
210
0.0
220
0.0
230
1.0
 40
0.7050118961694905
 41
0.0
 42
6.283185307179586
  0
ELLIPSE
  5
12A1
330
19
100
AcDbEntity
  8
0
100
AcDbEllipse
 10
10.14278861689262
 20
5.622883173526726
 30
0.0
 11
0.02152601873641302
 21
0.06104458935885404
 31
0.0
210
0.0
220
0.0
230
1.0
 40
0.7050118961694905
 41
0.0
 42
6.283185307179586
  0
LINE
  5
12A2
330
19
100
AcDbEntity
  8
0
100
AcDbLine
 10
9.988516538771076
 20
8.823413451736382
 30
0.0
 11
9.588820352330174
 21
8.72739813882256
 31
0.0
  0
LINE
  5
12A3
330
19
100
AcDbEntity
  8
0
100
AcDbLine
 10
9.588820352330174
 20
8.72739813882256
 30
0.0
 11
9.588820352330174
 21
8.445386818044446
 31
0.0
  0
LINE
  5
12A4
330
19
100
AcDbEntity
  8
0
100
AcDbLine
 10
9.536283489895132
 20
8.377600102337109
 30
0.0
 11
9.482175932012554
 21
8.363660974047035
 31
0.0
  0
LINE
  5
12A5
330
19
100
AcDbEntity
  8
0
100
AcDbLine
 10
9.429639069577512
 20
8.295874258339698
 30
0.0
 11
9.429639069577512
 21
7.984183249719402
 31
0.0
  0
LINE
  5
12A6
330
19
100
AcDbEntity
  8
0
100
AcDbLine
 10
9.1575708475258
 20
6.741490327824685
 30
0.0
 11
9.1575708475258
 21
7.011118609304125
 31
0.0
  0
LINE
  5
12A7
330
19
100
AcDbEntity
  8
0
100
AcDbLine
 10
9.1575708475258
 20
7.011118609304125
 30
0.0
 11
9.590655008791584
 21
7.615526897818637
 31
0.0
  0
LINE
  5
12A8
330
19
100
AcDbEntity
  8
0
100
AcDbLine
 10
9.590655008791584
 20
7.615526897818637
 30
0.0
 11
9.590655008791584
 21
7.936273691584779
 31
0.0
  0
LINE
  5
12AA
330
19
100
AcDbEntity
  8
0
  6
HIDDEN
100
AcDbLine
 10
9.988516538771076
 20
8.823413451736382
 30
0.0
 11
9.479766153455858
 21
8.964424854785902
 31
0.0
  0
LINE
  5
12AB
330
19
100
AcDbEntity
  8
0
  6
HIDDEN
100
AcDbLine
 10
9.479766153455858
 20
8.964424854785902
 30
0.0
 11
9.479766153455858
 21
8.593309769004947
 31
0.0
  0
LINE
  5
12AC
330
19
100
AcDbEntity
  8
0
  6
HIDDEN
100
AcDbLine
 10
9.588820352330174
 20
8.569266606573144
 30
0.0
 11
9.479766153455858
 21
8.593309769004947
 31
0.0
  0
ARC
  5
12B1
330
19
100
AcDbEntity
  8
0
100
AcDbCircle
 10
9.479639069577512
 20
7.984183249719402
 30
0.0
 40
0.05
100
AcDbArc
 50
180.0
 51
249.0973235493057
  0
LINE
  5
12B2
330
19
100
AcDbEntity
  8
0
  6
HIDDEN
100
AcDbLine
 10
8.78057529921395
 20
9.162861587889628
 30
0.0
 11
8.78057529921395
 21
7.788875572087786
 31
0.0
  0
LINE
  5
12B3
330
19
100
AcDbEntity
  8
0
  6
HIDDEN
100
AcDbLine
 10
9.170548108549205
 20
9.053273853863896
 30
0.0
 11
9.170548108549205
 21
8.680204301264643
 31
0.0
  0
LINE
  5
12B4
330
19
100
AcDbEntity
  8
0
  6
HIDDEN
100
AcDbLine
 10
9.170548108549205
 20
9.053273853863894
 30
0.0
 11
8.78057529921395
 21
9.162861587889626
 31
0.0
  0
LINE
  5
12B7
330
19
100
AcDbEntity
  8
0
  6
HIDDEN
100
AcDbLine
 10
9.170548108549205
 20
8.680204301264643
 30
0.0
 11
9.063870221105388
 21
8.710182257870251
 31
0.0
  0
LINE
  5
12B8
330
19
100
AcDbEntity
  8
0
  6
HIDDEN
100
AcDbLine
 10
8.427961779000325
 20
9.065837378346187
 30
0.0
 11
8.78057529921395
 21
9.162861587889626
 31
0.0
  0
LINE
  5
12B9
330
19
100
AcDbEntity
  8
0
  6
HIDDEN
100
AcDbLine
 10
8.427961779000325
 20
9.065837378346187
 30
0.0
 11
8.427961779000327
 21
8.792160653846077
 31
0.0
  0
LINE
  5
12BA
330
19
100
AcDbEntity
  8
0
  6
HIDDEN
100
AcDbLine
 10
8.352792087901007
 20
8.695292414676073
 30
0.0
 11
8.350957627879646
 21
8.694822186153427
 31
0.0
  0
LINE
  5
12BB
330
19
100
AcDbEntity
  8
0
  6
HIDDEN
100
AcDbLine
 10
8.27578793678032
 20
8.597953946983424
 30
0.0
 11
8.27578793678032
 21
8.346239608683398
 31
0.0
  0
LINE
  5
12BC
330
19
100
AcDbEntity
  8
0
  6
HIDDEN
100
AcDbLine
 10
8.33713706269805
 20
8.297544667047704
 30
0.0
 11
8.377509501213062
 21
8.306954102051048
 31
0.0
  0
LINE
  5
12BD
330
19
100
AcDbEntity
  8
0
  6
HIDDEN
100
AcDbLine
 10
8.438858627130792
 20
8.258259160415355
 30
0.0
 11
8.438858627130792
 21
8.035026630551478
 31
0.0
  0
LINE
  5
12BE
330
19
100
AcDbEntity
  8
0
  6
HIDDEN
100
AcDbLine
 10
8.438858627130792
 20
8.035026630551478
 30
0.0
 11
7.972364115805389
 21
7.460648319899883
 31
0.0
  0
LINE
  5
12BF
330
19
100
AcDbEntity
  8
0
  6
HIDDEN
100
AcDbLine
 10
7.972364115805389
 20
7.460648319899883
 30
0.0
 11
7.972364115805389
 21
7.195439227691206
 31
0.0
  0
LINE
  5
12C0
330
19
100
AcDbEntity
  8
0
  6
HIDDEN
100
AcDbLine
 10
7.972364115805389
 20
7.195439227691206
 30
0.0
 11
9.1575708475258
 21
6.741490327824685
 31
0.0
  0
ARC
  5
12C1
330
19
100
AcDbEntity
  8
0
  6
HIDDEN
100
AcDbCircle
 10
8.325787936780321
 20
8.346239608683398
 30
0.0
 40
0.05
100
AcDbArc
 50
180.0
 51
283.1194848124022
  0
ARC
  5
12C2
330
19
100
AcDbEntity
  8
0
  6
HIDDEN
100
AcDbCircle
 10
8.388858627130791
 20
8.258259160415355
 30
0.0
 40
0.05
100
AcDbArc
 50
0.0
 51
103.1194848124033
  0
ARC
  5
12C3
330
19
100
AcDbEntity
  8
0
  6
HIDDEN
100
AcDbCircle
 10
8.37578793678032
 20
8.597953946983424
 30
0.0
 40
0.1
100
AcDbArc
 50
104.3771204297146
 51
180.0
  0
ARC
  5
12C4
330
19
100
AcDbEntity
  8
0
  6
HIDDEN
100
AcDbCircle
 10
8.327961779000328
 20
8.792160653846077
 30
0.0
 40
0.1
100
AcDbArc
 50
284.3771204297169
 51
0.0
  0
LINE
  5
12C5
330
19
100
AcDbEntity
  8
0
  6
HIDDEN
100
AcDbLine
 10
7.972364115805389
 20
7.195439227691206
 30
0.0
 11
8.629867436095344
 21
7.382488469185446
 31
0.0
  0
LINE
  5
12C6
330
19
100
AcDbEntity
  8
0
  6
HIDDEN
100
AcDbLine
 10
8.629867436095344
 20
7.382488469185446
 30
0.0
 11
9.252731416665323
 21
7.143923827947041
 31
0.0
  0
LINE
  5
12C7
330
19
100
AcDbEntity
  8
0
  6
HIDDEN
100
AcDbLine
 10
8.629867436095344
 20
7.382488469185446
 30
0.0
 11
8.629867436095344
 21
7.673716891793897
 31
0.0
  0
LINE
  5
12C8
330
19
100
AcDbEntity
  8
0
  6
HIDDEN
100
AcDbLine
 10
8.629867436095344
 20
7.673716891793897
 30
0.0
 11
9.126400188223679
 21
8.053126799641845
 31
0.0
  0
LINE
  5
12C9
330
19
100
AcDbEntity
  8
0
  6
HIDDEN
100
AcDbLine
 10
9.126400188223675
 20
8.247253430307245
 30
0.0
 11
9.126400188223679
 21
8.053126799641845
 31
0.0
  0
LINE
  5
12CA
330
19
100
AcDbEntity
  8
0
  6
HIDDEN
100
AcDbLine
 10
9.126400188223675
 20
8.247253430307245
 30
0.0
 11
9.03681673802698
 21
8.272427614450997
 31
0.0
  0
LINE
  5
12CC
330
19
100
AcDbEntity
  8
0
  6
HIDDEN
100
AcDbLine
 10
9.000343479566181
 20
8.662046748489633
 30
0.0
 11
9.000343479566185
 21
8.320563123831615
 31
0.0
  0
ARC
  5
12CD
330
19
100
AcDbEntity
  8
0
  6
HIDDEN
100
AcDbCircle
 10
9.050343479566182
 20
8.662046748489633
 30
0.0
 40
0.05
100
AcDbArc
 50
74.30390513117402
 51
180.0000000000002
  0
ARC
  5
12CE
330
19
100
AcDbEntity
  8
0
  6
HIDDEN
100
AcDbCircle
 10
9.050343479566186
 20
8.320563123831615
 30
0.0
 40
0.05
100
AcDbArc
 50
180.0000000000008
 51
254.3039051311743
  0
LINE
  5
12DB
330
19
100
AcDbEntity
  8
0
  6
Continuous
100
AcDbLine
 10
9.1575708475258
 20
6.741490327824685
 30
0.0
 11
9.199253545473873
 21
6.725525336763987
 31
0.0
  0
LINE
  5
12DC
330
19
100
AcDbEntity
  8
0
100
AcDbLine
 10
9.859112031231856
 20
6.905368324393324
 30
0.0
 11
9.199253545473871
 21
6.725525336763988
 31
0.0
  0
LINE
  5
12DF
330
19
100
AcDbEntity
  8
0
100
AcDbLine
 10
10.03019923671915
 20
8.807448460675683
 30
0.0
 11
9.988516538771076
 21
8.823413451736382
 31
0.0
  0
ARC
  5
12E0
330
19
100
AcDbEntity
  8
0
100
AcDbCircle
 10
9.499639069577512
 20
8.295874258339698
 30
0.0
 40
0.07
100
AcDbArc
 50
104.4463525406211
 51
180.0
  0
ARC
  5
12E1
330
19
100
AcDbEntity
  8
0
100
AcDbCircle
 10
9.518820352330174
 20
8.445386818044446
 30
0.0
 40
0.07
100
AcDbArc
 50
284.446352540621
 51
0.0
  0
LINE
  5
12E3
330
19
100
AcDbEntity
  8
0
100
AcDbLine
 10
10.03019923671915
 20
8.807448460675683
 30
0.0
 11
9.630503050278245
 21
8.711433147761863
 31
0.0
  0
LINE
  5
12E4
330
19
100
AcDbEntity
  8
0
100
AcDbLine
 10
9.630503050278245
 20
8.711433147761863
 30
0.0
 11
9.630503050278245
 21
8.429421826983749
 31
0.0
  0
LINE
  5
12E5
330
19
100
AcDbEntity
  8
0
100
AcDbLine
 10
9.199253545473871
 20
6.995153618243427
 30
0.0
 11
9.632337706739655
 21
7.599561906757939
 31
0.0
  0
ARC
  5
12E6
330
19
100
AcDbEntity
  8
0
100
AcDbCircle
 10
9.541321767525583
 20
8.279909267278999
 30
0.0
 40
0.07
100
AcDbArc
 50
104.4463525406211
 51
180.0
  0
LINE
  5
12E7
330
19
100
AcDbEntity
  8
0
100
AcDbLine
 10
9.632337706739655
 20
7.599561906757939
 30
0.0
 11
9.632337706739655
 21
7.948368335599919
 31
0.0
  0
LINE
  5
12E8
330
19
100
AcDbEntity
  8
0
100
AcDbLine
 10
9.535255068868628
 20
7.920198855146333
 30
0.0
 11
9.632337706739655
 21
7.948368335599919
 31
0.0
  0
LINE
  5
12E9
330
19
100
AcDbEntity
  8
0
100
AcDbLine
 10
9.471321767525582
 20
8.279909267278999
 30
0.0
 11
9.471321767525582
 21
7.968218258658705
 31
0.0
  0
ARC
  5
12EA
330
19
100
AcDbEntity
  8
0
100
AcDbCircle
 10
9.521321767525583
 20
7.968218258658705
 30
0.0
 40
0.05
100
AcDbArc
 50
180.0
 51
286.1806051526333
  0
LINE
  5
12EB
330
19
100
AcDbEntity
  8
0
100
AcDbLine
 10
9.577966187843202
 20
8.36163511127641
 30
0.0
 11
9.523858629960625
 21
8.347695982986338
 31
0.0
  0
ARC
  5
12EC
330
19
100
AcDbEntity
  8
0
100
AcDbCircle
 10
9.560503050278244
 20
8.429421826983749
 30
0.0
 40
0.07
100
AcDbArc
 50
284.446352540621
 51
0.0
  0
LINE
  5
12ED
330
19
100
AcDbEntity
  8
0
100
AcDbLine
 10
9.199253545473871
 20
6.725525336763987
 30
0.0
 11
9.199253545473871
 21
6.995153618243427
 31
0.0
  0
LINE
  5
12EE
330
19
100
AcDbEntity
  8
0
100
AcDbLine
 10
10.03019923671915
 20
7.366265032048674
 30
0.0
 11
10.03019923671915
 21
8.807448460675683
 31
0.0
  0
LINE
  5
12EF
330
19
100
AcDbEntity
  8
0
100
AcDbLine
 10
9.588820352330174
 20
8.72739813882256
 30
0.0
 11
9.630503050278245
 21
8.711433147761863
 31
0.0
  0
LINE
  5
12F0
330
19
100
AcDbEntity
  8
0
100
AcDbLine
 10
9.505427424158485
 20
7.920811826089603
 30
0.0
 11
9.461799987662063
 21
7.937473859267225
 31
0.0
  0
ELLIPSE
  5
12F1
330
19
100
AcDbEntity
  8
0
100
AcDbEllipse
 10
9.649793655051976
 20
8.231000147734132
 30
0.0
 11
0.01614451405230977
 21
0.04578344201914053
 31
0.0
210
0.0
220
0.0
230
1.0
 40
0.7050118961694903
 41
6.24544462916901
 42
9.424777960769379
  0
ELLIPSE
  5
12F2
330
19
100
AcDbEntity
  8
0
100
AcDbEllipse
 10
9.670635004026012
 20
8.223017652203783
 30
0.0
 11
0.01614451405230977
 21
0.04578344201914053
 31
0.0
210
0.0
220
0.0
230
1.0
 40
0.7050118961694903
 41
0.0
 42
6.283185307179586
  0
LINE
  5
12F3
330
19
100
AcDbEntity
  8
0
100
AcDbLine
 10
9.665938169104287
 20
8.276783589753272
 30
0.0
 11
9.687985921230292
 21
8.268339026830819
 31
0.0
  0
LINE
  5
12F4
330
19
100
AcDbEntity
  8
0
100
AcDbLine
 10
9.633649140999665
 20
8.185216705714993
 30
0.0
 11
9.654490489973703
 21
8.177234210184643
 31
0.0
  0
LINE
  5
12F5
330
19
100
AcDbEntity
  8
0
100
AcDbLine
 10
9.700845654042318
 20
8.31105519972501
 30
0.0
 11
9.67696204516729
 21
8.272561308292046
 31
0.0
  0
ELLIPSE
  5
12F6
330
19
100
AcDbEntity
  8
0
100
AcDbEllipse
 10
9.650653067584928
 20
7.289262324193813
 30
0.0
 11
0.01614451405230977
 21
0.04578344201914053
 31
0.0
210
0.0
220
0.0
230
1.0
 40
0.7050118961694903
 41
6.24544462916901
 42
9.424777960769379
  0
LINE
  5
12F7
330
19
100
AcDbEntity
  8
0
100
AcDbLine
 10
9.70170506657527
 20
7.36931737618469
 30
0.0
 11
9.677821457700242
 21
7.330823484751726
 31
0.0
  0
LINE
  5
12F8
330
19
100
AcDbEntity
  8
0
100
AcDbLine
 10
9.634508553532617
 20
7.243478882174673
 30
0.0
 11
9.655349902506655
 21
7.235496386644324
 31
0.0
  0
LINE
  5
12F9
330
19
100
AcDbEntity
  8
0
100
AcDbLine
 10
9.666797581637239
 20
7.335045766212953
 30
0.0
 11
9.688845333763243
 21
7.3266012032905
 31
0.0
  0
ELLIPSE
  5
12FA
330
19
100
AcDbEntity
  8
0
100
AcDbEllipse
 10
9.671494416558964
 20
7.281279828663464
 30
0.0
 11
0.01614451405230977
 21
0.04578344201914053
 31
0.0
210
0.0
220
0.0
230
1.0
 40
0.7050118961694903
 41
0.0
 42
6.283185307179586
  0
LINE
  5
1300
330
19
100
AcDbEntity
  8
0
100
AcDbLine
 10
11.26858622604371
 20
7.012579369838285
 30
0.0
 11
11.34543311883983
 21
6.386730700953979
 31
0.0
  0
LINE
  5
1301
330
19
100
AcDbEntity
  8
0
100
AcDbLine
 10
11.36366716197875
 20
9.13469242194617
 30
0.0
 11
11.52251359655933
 21
8.487867879814292
 31
0.0
  0
LINE
  5
1302
330
19
100
AcDbEntity
  8
0
100
AcDbLine
 10
12.35407961264677
 20
9.62705564991294
 30
0.0
 11
12.34401409481647
 21
9.069247248217598
 31
0.0
  0
LINE
  5
1303
330
19
100
AcDbEntity
  8
0
100
AcDbLine
 10
11.8963118686599
 20
10.39085045793279
 30
0.0
 11
11.87230437396038
 21
9.867081753392593
 31
0.0
  0
LINE
  5
1304
330
19
100
AcDbEntity
  8
0
100
AcDbLine
 10
9.859112031231856
 20
6.905368324393324
 30
0.0
 11
9.859112031231856
 21
7.185897620962019
 31
0.0
  0
LINE
  5
1305
330
19
100
AcDbEntity
  8
0
100
AcDbLine
 10
9.859112031231856
 20
7.185897620962019
 30
0.0
 11
10.03019923671915
 21
7.366265032048672
 31
0.0
  0
LINE
  5
1306
330
19
100
AcDbEntity
  8
0
100
AcDbLine
 10
9.988516538771078
 20
7.322321358443233
 30
0.0
 11
9.988516538771078
 21
6.967962759257636
 31
0.0
  0
LINE
  5
1307
330
19
100
AcDbEntity
  8
0
100
AcDbLine
 10
9.157570847525799
 20
6.741490327824685
 30
0.0
 11
5.434115724600506
 21
5.726670774748194
 31
0.0
  0
ENDSEC
  0
SECTION
  2
OBJECTS
  0
DICTIONARY
  5
C
330
0
100
AcDbDictionary
281
     1
  3
ACAD_COLOR
350
1313
  3
ACAD_GROUP
350
D
  3
ACAD_LAYOUT
350
130E
  3
ACAD_MATERIAL
350
1315
  3
ACAD_MLINESTYLE
350
E
  3
ACDBHEADERROUNDTRIPXREC
350
1312
  3
ACDBVARIABLEDICTIONARY
350
AC
  0
DICTIONARY
  5
1313
102
{ACAD_REACTORS
330
C
102
}
330
C
100
AcDbDictionary
281
     1
  0
DICTIONARY
  5
D
102
{ACAD_REACTORS
330
C
102
}
330
C
100
AcDbDictionary
281
     1
  0
DICTIONARY
  5
130E
102
{ACAD_REACTORS
330
C
102
}
330
C
100
AcDbDictionary
281
     1
  3
Layout1
350
1310
  3
Model
350
130F
  0
DICTIONARY
  5
1315
102
{ACAD_REACTORS
330
C
102
}
330
C
100
AcDbDictionary
281
     1
  0
DICTIONARY
  5
E
102
{ACAD_REACTORS
330
C
102
}
330
C
100
AcDbDictionary
281
     1
  3
STANDARD
350
1C
  0
DICTIONARY
  5
1312
102
{ACAD_REACTORS
330
C
102
}
330
C
100
AcDbDictionary
281
     1
  3
COLORDICT
350
1314
  3
MATERIALDICT
350
1316
  0
DICTIONARY
  5
AC
102
{ACAD_REACTORS
330
C
102
}
330
C
100
AcDbDictionary
281
     1
  3
SORTENTS
350
1311
  0
LAYOUT
  5
1310
102
{ACAD_REACTORS
330
130E
102
}
102
{ACAD_XDICTIONARY
360
1317
102
}
330
130E
100
AcDbPlotSettings
  1

  2

  4

  6

 40
0.0
 41
0.0
 42
0.0
 43
0.0
 44
0.0
 45
0.0
 46
0.0
 47
0.0
 48
0.0
 49
0.0
140
0.0
141
0.0
142
1.0
143
1.0
 70
   688
 72
     0
 73
     0
 74
     5
  7

 75
    16
147
1.0
148
0.0
149
0.0
100
AcDbLayout
  1
Layout1
 70
     1
 71
     1
 10
0.0
 20
0.0
 11
0.0
 21
0.0
 12
0.0
 22
0.0
 32
0.0
 14
0.0
 24
0.0
 34
0.0
 15
0.0
 25
0.0
 35
0.0
146
0.0
 13
0.0
 23
0.0
 33
0.0
 16
1.0
 26
0.0
 36
0.0
 17
0.0
 27
1.0
 37
0.0
 76
     0
330
16
  0
LAYOUT
  5
130F
102
{ACAD_REACTORS
330
130E
102
}
102
{ACAD_XDICTIONARY
360
1319
102
}
330
130E
100
AcDbPlotSettings
  1

  2

  4

  6

 40
0.0
 41
0.0
 42
0.0
 43
0.0
 44
0.0
 45
0.0
 46
0.0
 47
0.0
 48
0.0
 49
0.0
140
0.0
141
0.0
142
1.0
143
1.0
 70
   688
 72
     0
 73
     0
 74
     5
  7

 75
    16
147
1.0
148
0.0
149
0.0
100
AcDbLayout
  1
Model
 70
     1
 71
     0
 10
0.0
 20
0.0
 11
0.0
 21
0.0
 12
0.0
 22
0.0
 32
0.0
 14
0.0
 24
0.0
 34
0.0
 15
0.0
 25
0.0
 35
0.0
146
0.0
 13
0.0
 23
0.0
 33
0.0
 16
1.0
 26
0.0
 36
0.0
 17
0.0
 27
1.0
 37
0.0
 76
     0
330
19
  0
MLINESTYLE
  5
1C
102
{ACAD_REACTORS
330
E
102
}
330
E
100
AcDbMlineStyle
  2
STANDARD
 70
     0
  3

 62
     0
 51
90.0
 52
90.0
 71
     2
 49
0.5
 62
   256
  6
BYLAYER
 49
-0.5
 62
   256
  6
BYLAYER
  0
XRECORD
  5
1314
102
{ACAD_REACTORS
330
1312
102
}
330
1312
100
AcDbXrecord
340
1313
  0
XRECORD
  5
1316
102
{ACAD_REACTORS
330
1312
102
}
330
1312
100
AcDbXrecord
340
1315
  0
DICTIONARYVAR
  5
1311
102
{ACAD_REACTORS
330
AC
102
}
330
AC
100
DictionaryVariables
280
     0
  1
96
  0
DICTIONARY
  5
1317
330
1310
100
AcDbDictionary
280
     1
281
     1
  3
ACAD_XREC_ROUNDTRIP
360
1318
  0
DICTIONARY
  5
1319
330
130F
100
AcDbDictionary
280
     1
281
     1
  3
ACAD_XREC_ROUNDTRIP
360
131A
  0
XRECORD
  5
1318
102
{ACAD_REACTORS
330
1317
102
}
330
1317
100
AcDbXrecord
102
SHADEPLOT
 70
 27424
102
SHADEPLOTRESLEVEL
 70
 25504
102
SHADEPLOTCUSTOMDPI
 70
 16888
  0
XRECORD
  5
131A
102
{ACAD_REACTORS
330
1319
102
}
330
1319
100
AcDbXrecord
102
SHADEPLOT
 70
     0
102
SHADEPLOTRESLEVEL
 70
     0
102
SHADEPLOTCUSTOMDPI
 70
     0
  0
ENDSEC
  0
EOF
