  0
SECTION
  2
HEADER
  9
$ACADVER
  1
AC1015
  9
$ACADMAINTVER
 70
     6
  9
$DWGCODEPAGE
  3
ASCII
  9
$INSBASE
 10
0.0
 20
0.0
 30
0.0
  9
$EXTMIN
 10
-0.295
 20
0.998
 30
0.0
  9
$EXTMAX
 10
6.21
 20
7.302000000000001
 30
0.0
  9
$LIMMIN
 10
0.0
 20
0.0
  9
$LIMMAX
 10
12.0
 20
9.0
  9
$ORTHOMODE
 70
     0
  9
$REGENMODE
 70
     1
  9
$FILLMODE
 70
     1
  9
$QTEXTMODE
 70
     0
  9
$MIRRTEXT
 70
     1
  9
$LTSCALE
 40
1.0
  9
$ATTMODE
 70
     1
  9
$TEXTSIZE
 40
0.175
  9
$TRACEWID
 40
0.05
  9
$TEXTSTYLE
  7
STANDARD
  9
$CLAYER
  8
0
  9
$CELTYPE
  6
ByLayer
  9
$CECOLOR
 62
   256
  9
$CELTSCALE
 40
1.0
  9
$DISPSILH
 70
     0
  9
$DIMSCALE
 40
1.0
  9
$DIMASZ
 40
0.18
  9
$DIMEXO
 40
0.063
  9
$DIMDLI
 40
0.38
  9
$DIMRND
 40
0.0
  9
$DIMDLE
 40
0.0
  9
$DIMEXE
 40
0.18
  9
$DIMTP
 40
0.0
  9
$DIMTM
 40
0.0
  9
$DIMTXT
 40
0.18
  9
$DIMCEN
 40
0.09
  9
$DIMTSZ
 40
0.0
  9
$DIMTOL
 70
     0
  9
$DIMLIM
 70
     0
  9
$DIMTIH
 70
     1
  9
$DIMTOH
 70
     1
  9
$DIMSE1
 70
     0
  9
$DIMSE2
 70
     0
  9
$DIMTAD
 70
     0
  9
$DIMZIN
 70
     0
  9
$DIMBLK
  1

  9
$DIMASO
 70
     0
  9
$DIMSHO
 70
     1
  9
$DIMPOST
  1

  9
$DIMAPOST
  1

  9
$DIMALT
 70
     0
  9
$DIMALTD
 70
     2
  9
$DIMALTF
 40
25.4
  9
$DIMLFAC
 40
1.0
  9
$DIMTOFL
 70
     0
  9
$DIMTVP
 40
0.0
  9
$DIMTIX
 70
     0
  9
$DIMSOXD
 70
     0
  9
$DIMSAH
 70
     0
  9
$DIMBLK1
  1

  9
$DIMBLK2
  1

  9
$DIMSTYLE
  2
Standard
  9
$DIMCLRD
 70
     0
  9
$DIMCLRE
 70
     0
  9
$DIMCLRT
 70
     0
  9
$DIMTFAC
 40
1.0
  9
$DIMGAP
 40
0.09
  9
$DIMJUST
 70
     0
  9
$DIMSD1
 70
     0
  9
$DIMSD2
 70
     0
  9
$DIMTOLJ
 70
     1
  9
$DIMTZIN
 70
     0
  9
$DIMALTZ
 70
     0
  9
$DIMALTTZ
 70
     0
  9
$DIMUPT
 70
     0
  9
$DIMDEC
 70
     4
  9
$DIMTDEC
 70
     4
  9
$DIMALTU
 70
     2
  9
$DIMALTTD
 70
     2
  9
$DIMTXSTY
  7
STANDARD
  9
$DIMAUNIT
 70
     0
  9
$DIMADEC
 70
     0
  9
$DIMALTRND
 40
0.0
  9
$DIMAZIN
 70
     0
  9
$DIMDSEP
 70
    46
  9
$DIMATFIT
 70
     3
  9
$DIMFRAC
 70
     0
  9
$DIMLDRBLK
  1

  9
$DIMLUNIT
 70
     2
  9
$DIMLWD
 70
    -2
  9
$DIMLWE
 70
    -2
  9
$DIMTMOVE
 70
     0
  9
$LUNITS
 70
     2
  9
$LUPREC
 70
     4
  9
$SKETCHINC
 40
0.1
  9
$FILLETRAD
 40
0.066
  9
$AUNITS
 70
     0
  9
$AUPREC
 70
     0
  9
$MENU
  1
acad
  9
$ELEVATION
 40
0.0
  9
$PELEVATION
 40
0.0
  9
$THICKNESS
 40
0.0
  9
$LIMCHECK
 70
     0
  9
$CHAMFERA
 40
0.0
  9
$CHAMFERB
 40
0.0
  9
$CHAMFERC
 40
1.0
  9
$CHAMFERD
 40
0.0
  9
$SKPOLY
 70
     0
  9
$TDCREATE
 40
2453955.561565718
  9
$TDUCREATE
 40
2453955.894899051
  9
$TDUPDATE
 40
2453955.603232396
  9
$TDUUPDATE
 40
2453955.894899062
  9
$TDINDWG
 40
0.0000000116
  9
$TDUSRTIMER
 40
0.0000000116
  9
$USRTIMER
 70
     1
  9
$ANGBASE
 50
0.0
  9
$ANGDIR
 70
     0
  9
$PDMODE
 70
     0
  9
$PDSIZE
 40
0.0
  9
$PLINEWID
 40
0.0
  9
$SPLFRAME
 70
     0
  9
$SPLINETYPE
 70
     6
  9
$SPLINESEGS
 70
     8
  9
$HANDSEED
  5
410
  9
$SURFTAB1
 70
     6
  9
$SURFTAB2
 70
     6
  9
$SURFTYPE
 70
     6
  9
$SURFU
 70
     6
  9
$SURFV
 70
     6
  9
$UCSBASE
  2

  9
$UCSNAME
  2

  9
$UCSORG
 10
0.0
 20
0.0
 30
0.0
  9
$UCSXDIR
 10
1.0
 20
0.0
 30
0.0
  9
$UCSYDIR
 10
0.0
 20
1.0
 30
0.0
  9
$UCSORTHOREF
  2

  9
$UCSORTHOVIEW
 70
     0
  9
$UCSORGTOP
 10
0.0
 20
0.0
 30
0.0
  9
$UCSORGBOTTOM
 10
0.0
 20
0.0
 30
0.0
  9
$UCSORGLEFT
 10
0.0
 20
0.0
 30
0.0
  9
$UCSORGRIGHT
 10
0.0
 20
0.0
 30
0.0
  9
$UCSORGFRONT
 10
0.0
 20
0.0
 30
0.0
  9
$UCSORGBACK
 10
0.0
 20
0.0
 30
0.0
  9
$PUCSBASE
  2

  9
$PUCSNAME
  2

  9
$PUCSORG
 10
0.0
 20
0.0
 30
0.0
  9
$PUCSXDIR
 10
1.0
 20
0.0
 30
0.0
  9
$PUCSYDIR
 10
0.0
 20
1.0
 30
0.0
  9
$PUCSORTHOREF
  2

  9
$PUCSORTHOVIEW
 70
     0
  9
$PUCSORGTOP
 10
0.0
 20
0.0
 30
0.0
  9
$PUCSORGBOTTOM
 10
0.0
 20
0.0
 30
0.0
  9
$PUCSORGLEFT
 10
0.0
 20
0.0
 30
0.0
  9
$PUCSORGRIGHT
 10
0.0
 20
0.0
 30
0.0
  9
$PUCSORGFRONT
 10
0.0
 20
0.0
 30
0.0
  9
$PUCSORGBACK
 10
0.0
 20
0.0
 30
0.0
  9
$USERI1
 70
     0
  9
$USERI2
 70
     0
  9
$USERI3
 70
     0
  9
$USERI4
 70
     0
  9
$USERI5
 70
     0
  9
$USERR1
 40
0.0
  9
$USERR2
 40
0.0
  9
$USERR3
 40
0.0
  9
$USERR4
 40
0.0
  9
$USERR5
 40
0.0
  9
$WORLDVIEW
 70
     1
  9
$SHADEDGE
 70
     3
  9
$SHADEDIF
 70
    70
  9
$TILEMODE
 70
     1
  9
$MAXACTVP
 70
    16
  9
$PINSBASE
 10
0.0
 20
0.0
 30
0.0
  9
$PLIMCHECK
 70
     0
  9
$PEXTMIN
 10
1.000000000000000E+20
 20
1.000000000000000E+20
 30
1.000000000000000E+20
  9
$PEXTMAX
 10
-1.000000000000000E+20
 20
-1.000000000000000E+20
 30
-1.000000000000000E+20
  9
$PLIMMIN
 10
0.0
 20
0.0
  9
$PLIMMAX
 10
12.0
 20
9.0
  9
$UNITMODE
 70
     0
  9
$VISRETAIN
 70
     0
  9
$PLINEGEN
 70
     0
  9
$PSLTSCALE
 70
     1
  9
$TREEDEPTH
 70
  3020
  9
$CMLSTYLE
  2
Standard
  9
$CMLJUST
 70
     0
  9
$CMLSCALE
 40
1.0
  9
$PROXYGRAPHICS
 70
     1
  9
$MEASUREMENT
 70
     0
  9
$CELWEIGHT
370
    -1
  9
$ENDCAPS
280
     0
  9
$JOINSTYLE
280
     0
  9
$LWDISPLAY
290
     0
  9
$INSUNITS
 70
     1
  9
$HYPERLINKBASE
  1

  9
$STYLESHEET
  1

  9
$XEDIT
290
     1
  9
$CEPSNTYPE
380
     0
  9
$PSTYLEMODE
290
     0
  9
$FINGERPRINTGUID
  2
{FAEB1C30-E019-11D5-929B-00C0DF256EC4}
  9
$VERSIONGUID
  2
{FAEB1C32-E019-11D5-929B-00C0DF256EC4}
  9
$EXTNAMES
290
     1
  9
$PSVPSCALE
 40
0.0
  9
$OLESTARTUP
290
     0
  0
ENDSEC
  0
SECTION
  2
CLASSES
  0
CLASS
  1
ACDBDICTIONARYWDFLT
  2
AcDbDictionaryWithDefault
  3
AutoCAD 2000
 90
        0
280
     0
281
     0
  0
CLASS
  1
ACDBPLACEHOLDER
  2
AcDbPlaceHolder
  3
ObjectDBX Classes
 90
        0
280
     0
281
     0
  0
CLASS
  1
LAYOUT
  2
AcDbLayout
  3
ObjectDBX Classes
 90
        0
280
     0
281
     0
  0
ENDSEC
  0
SECTION
  2
TABLES
  0
TABLE
  2
VPORT
  5
8
330
0
100
AcDbSymbolTable
 70
     2
  0
VPORT
  5
1E
330
8
100
AcDbSymbolTableRecord
100
AcDbViewportTableRecord
  2
*ACTIVE
 70
     0
 10
0.0
 20
0.0
 11
1.0
 21
1.0
 12
5.948341404358354
 22
4.5
 13
0.0
 23
0.0
 14
1.0
 24
1.0
 15
0.0
 25
0.0
 16
0.0
 26
0.0
 36
1.0
 17
0.0
 27
0.0
 37
0.0
 40
9.0
 41
0.7207678883071553
 42
50.0
 43
0.0
 44
0.0
 50
0.0
 51
0.0
 71
     0
 72
  2000
 73
     1
 74
     0
 75
     0
 76
     0
 77
     0
 78
     0
281
     0
 65
     1
110
0.0
120
0.0
130
0.0
111
1.0
121
0.0
131
0.0
112
0.0
122
1.0
132
0.0
 79
     0
146
0.0
  0
ENDTAB
  0
TABLE
  2
LTYPE
  5
5
330
0
100
AcDbSymbolTable
 70
     1
  0
LTYPE
  5
10
330
5
100
AcDbSymbolTableRecord
100
AcDbLinetypeTableRecord
  2
ByBlock
 70
     0
  3

 72
    65
 73
     0
 40
0.0
  0
LTYPE
  5
11
330
5
100
AcDbSymbolTableRecord
100
AcDbLinetypeTableRecord
  2
ByLayer
 70
     0
  3

 72
    65
 73
     0
 40
0.0
  0
LTYPE
  5
1B
330
5
100
AcDbSymbolTableRecord
100
AcDbLinetypeTableRecord
  2
CONTINUOUS
 70
     0
  3
Solid line
 72
    65
 73
     0
 40
0.0
  0
ENDTAB
  0
TABLE
  2
LAYER
  5
2
330
0
100
AcDbSymbolTable
 70
     1
  0
LAYER
  5
1C
330
2
100
AcDbSymbolTableRecord
100
AcDbLayerTableRecord
  2
0
 70
     0
 62
     7
  6
CONTINUOUS
370
    -3
390
F
  0
ENDTAB
  0
TABLE
  2
STYLE
  5
3
330
0
100
AcDbSymbolTable
 70
     1
  0
STYLE
  5
21
330
3
100
AcDbSymbolTableRecord
100
AcDbTextStyleTableRecord
  2
STANDARD
 70
     0
 40
0.0
 41
1.0
 50
0.0
 71
     0
 42
0.175
  3
romans
  4

  0
ENDTAB
  0
TABLE
  2
VIEW
  5
6
330
0
100
AcDbSymbolTable
 70
     1
  0
VIEW
  5
20
330
6
100
AcDbSymbolTableRecord
100
AcDbViewTableRecord
  2
1
 70
     0
 40
7.401
 10
4.749
 20
3.703
 41
9.59
 11
0.0
 21
0.0
 31
1.0
 12
0.0
 22
0.0
 32
0.0
 42
50.0
 43
0.0
 44
0.0
 50
0.0
 71
     0
281
     0
 72
     0
  0
ENDTAB
  0
TABLE
  2
UCS
  5
7
330
0
100
AcDbSymbolTable
 70
     0
  0
ENDTAB
  0
TABLE
  2
APPID
  5
9
330
0
100
AcDbSymbolTable
 70
     1
  0
APPID
  5
1F
330
9
100
AcDbSymbolTableRecord
100
AcDbRegAppTableRecord
  2
ACAD
 70
     0
  0
ENDTAB
  0
TABLE
  2
DIMSTYLE
  5
A
330
0
100
AcDbSymbolTable
 70
     1
100
AcDbDimStyleTable
  0
DIMSTYLE
105
22
330
A
100
AcDbSymbolTableRecord
100
AcDbDimStyleTableRecord
  2
Standard
 70
     0
  3

  4

340
21
  0
ENDTAB
  0
TABLE
  2
BLOCK_RECORD
  5
1
330
0
100
AcDbSymbolTable
 70
     0
  0
BLOCK_RECORD
  5
18
330
1
100
AcDbSymbolTableRecord
100
AcDbBlockTableRecord
  2
*Model_Space
340
19
  0
BLOCK_RECORD
  5
16
330
1
100
AcDbSymbolTableRecord
100
AcDbBlockTableRecord
  2
*Paper_Space
340
17
  0
ENDTAB
  0
ENDSEC
  0
SECTION
  2
BLOCKS
  0
BLOCK
  5
405
330
18
100
AcDbEntity
  8
0
100
AcDbBlockBegin
  2
*Model_Space
 70
     0
 10
0.0
 20
0.0
 30
0.0
  3
*Model_Space
  1

  4

  0
ENDBLK
  5
406
330
18
100
AcDbEntity
  8
0
100
AcDbBlockEnd
  0
BLOCK
  5
403
330
16
100
AcDbEntity
 67
     1
  8
0
100
AcDbBlockBegin
  2
*Paper_Space
 70
     0
 10
0.0
 20
0.0
 30
0.0
  3
*Paper_Space
  1

  4

  0
ENDBLK
  5
404
330
16
100
AcDbEntity
 67
     1
  8
0
100
AcDbBlockEnd
  0
ENDSEC
  0
SECTION
  2
ENTITIES
  0
TEXT
  5
23
330
18
100
AcDbEntity
  8
0
100
AcDbText
 10
0.4868333333333336
 20
1.1145
 30
0.0
 40
0.175
  1
HU46TF
 72
     1
 11
0.991
 21
1.202
 31
0.0
100
AcDbText
 73
     2
  0
LWPOLYLINE
  5
24
330
18
100
AcDbEntity
  8
0
100
AcDbPolyline
 90
        4
 70
     0
 43
0.0
 10
5.057
 20
3.685
 10
5.035
 20
3.753
 10
5.022
 20
3.802
 10
4.997
 20
3.91
  0
LWPOLYLINE
  5
2B
330
18
100
AcDbEntity
  8
0
100
AcDbPolyline
 90
        6
 70
     0
 43
0.0
 10
5.111000000000001
 20
3.719
 10
5.095
 20
3.821
 10
5.035
 20
3.977
 10
5.035
 20
4.061
 10
5.011
 20
4.142
 10
4.997
 20
4.201000000000001
  0
LWPOLYLINE
  5
34
330
18
100
AcDbEntity
  8
0
100
AcDbPolyline
 90
        7
 70
     0
 43
0.0
 10
5.196000000000001
 20
3.771
 10
5.165
 20
3.994
 10
5.124
 20
4.158
 10
5.095
 20
4.336
 10
5.046
 20
4.513999999999999
 10
5.025
 20
4.66
 10
4.997
 20
4.743
  0
LWPOLYLINE
  5
3E
330
18
100
AcDbEntity
  8
0
100
AcDbPolyline
 90
       12
 70
     0
 43
0.0
 10
5.29
 20
3.829
 10
5.278
 20
3.985
 10
5.207999999999999
 20
4.19
 10
5.202999999999999
 20
4.371
 10
5.186
 20
4.533
 10
5.167000000000001
 20
4.67
 10
5.157
 20
4.773
 10
5.124
 20
4.881
 10
5.097
 20
4.954
 10
5.068000000000001
 20
5.002
 10
5.035
 20
5.064
 10
5.034
 20
5.084
  0
LWPOLYLINE
  5
4D
330
18
100
AcDbEntity
  8
0
100
AcDbPolyline
 90
       12
 70
     0
 43
0.0
 10
5.382000000000001
 20
3.886
 10
5.367000000000001
 20
4.074
 10
5.316
 20
4.234
 10
5.265
 20
4.42
 10
5.273
 20
4.581
 10
5.254
 20
4.749
 10
5.246
 20
4.87
 10
5.227
 20
4.948
 10
5.202999999999999
 20
5.021
 10
5.176
 20
5.083
 10
5.149
 20
5.121
 10
5.145
 20
5.14
  0
LWPOLYLINE
  5
5C
330
18
100
AcDbEntity
  8
0
100
AcDbPolyline
 90
       11
 70
     0
 43
0.0
 10
5.487
 20
3.951
 10
5.456
 20
4.153000000000001
 10
5.417999999999999
 20
4.333
 10
5.391
 20
4.463
 10
5.348
 20
4.603
 10
5.332000000000001
 20
4.738
 10
5.321000000000001
 20
4.884
 10
5.321000000000001
 20
4.991000000000001
 10
5.316
 20
5.067
 10
5.313
 20
5.126
 10
5.307
 20
5.222
  0
LWPOLYLINE
  5
6A
330
18
100
AcDbEntity
  8
0
100
AcDbPolyline
 90
       10
 70
     0
 43
0.0
 10
5.684
 20
4.073
 10
5.642
 20
4.201000000000001
 10
5.602
 20
4.42
 10
5.582999999999999
 20
4.533
 10
5.553
 20
4.662
 10
5.529
 20
4.757
 10
5.507000000000001
 20
4.862
 10
5.48
 20
4.986000000000001
 10
5.468999999999999
 20
5.107
 10
5.419
 20
5.279
  0
LWPOLYLINE
  5
77
330
18
100
AcDbEntity
  8
0
100
AcDbPolyline
 90
       13
 70
     0
 43
0.0
 10
5.589
 20
4.013999999999999
 10
5.55
 20
4.142
 10
5.521
 20
4.271
 10
5.499
 20
4.439
 10
5.48
 20
4.533
 10
5.461
 20
4.638
 10
5.445
 20
4.759
 10
5.421
 20
4.886
 10
5.405
 20
4.986000000000001
 10
5.391
 20
5.053
 10
5.377999999999999
 20
5.137000000000001
 10
5.372000000000001
 20
5.196000000000001
 10
5.367999999999999
 20
5.252999999999999
  0
LWPOLYLINE
  5
87
330
18
100
AcDbEntity
  8
0
100
AcDbPolyline
 90
        7
 70
     0
 43
0.0
 10
5.763
 20
4.122
 10
5.7
 20
4.364
 10
5.64
 20
4.685
 10
5.579
 20
4.829
 10
5.546
 20
5.063
 10
5.53
 20
5.187
 10
5.511
 20
5.325
  0
LWPOLYLINE
  5
91
330
18
100
AcDbEntity
  8
0
100
AcDbPolyline
 90
        7
 70
     0
 43
0.0
 10
5.576000000000001
 20
5.358
 10
5.626
 20
5.08
 10
5.662999999999999
 20
4.883
 10
5.732
 20
4.713
 10
5.767
 20
4.528000000000001
 10
5.791
 20
4.356
 10
5.837000000000001
 20
4.168
  0
LWPOLYLINE
  5
9B
330
18
100
AcDbEntity
  8
0
100
AcDbPolyline
 90
        5
 70
     0
 43
0.0
 10
5.922000000000001
 20
4.22
 10
5.852
 20
4.617
 10
5.767
 20
4.953
 10
5.683
 20
5.311
 10
5.675
 20
5.409
  0
LWPOLYLINE
  5
A3
330
18
100
AcDbEntity
  8
0
100
AcDbPolyline
 90
        3
 70
     0
 43
0.0
 10
5.057
 20
3.685
 10
5.156000000000001
 20
3.557
 10
5.272
 20
3.475
  0
LWPOLYLINE
  5
A9
330
18
100
AcDbEntity
  8
0
100
AcDbPolyline
 90
        3
 70
     0
 43
0.0
 10
5.111000000000001
 20
3.719
 10
5.207999999999999
 20
3.642
 10
5.345
 20
3.52
  0
LWPOLYLINE
  5
AF
330
18
100
AcDbEntity
  8
0
100
AcDbPolyline
 90
        3
 70
     0
 43
0.0
 10
5.196000000000001
 20
3.771
 10
5.295
 20
3.679
 10
5.436
 20
3.576
  0
LWPOLYLINE
  5
B5
330
18
100
AcDbEntity
  8
0
100
AcDbPolyline
 90
        3
 70
     0
 43
0.0
 10
5.29
 20
3.829
 10
5.412000000000001
 20
3.704
 10
5.515
 20
3.626
  0
LWPOLYLINE
  5
BB
330
18
100
AcDbEntity
  8
0
100
AcDbPolyline
 90
        3
 70
     0
 43
0.0
 10
5.382000000000001
 20
3.886
 10
5.451000000000001
 20
3.794
 10
5.587999999999999
 20
3.671
  0
LWPOLYLINE
  5
C1
330
18
100
AcDbEntity
  8
0
100
AcDbPolyline
 90
        3
 70
     0
 43
0.0
 10
5.487
 20
3.951
 10
5.608
 20
3.807
 10
5.688
 20
3.732
  0
LWPOLYLINE
  5
C7
330
18
100
AcDbEntity
  8
0
100
AcDbPolyline
 90
        3
 70
     0
 43
0.0
 10
5.589
 20
4.013999999999999
 10
5.68
 20
3.905
 10
5.78
 20
3.789
  0
LWPOLYLINE
  5
CD
330
18
100
AcDbEntity
  8
0
100
AcDbPolyline
 90
        3
 70
     0
 43
0.0
 10
5.684
 20
4.073
 10
5.759
 20
3.967
 10
5.875
 20
3.848
  0
LWPOLYLINE
  5
D3
330
18
100
AcDbEntity
  8
0
100
AcDbPolyline
 90
        3
 70
     0
 43
0.0
 10
5.763
 20
4.122
 10
5.859
 20
4.016
 10
5.966
 20
3.905
  0
LWPOLYLINE
  5
D9
330
18
100
AcDbEntity
  8
0
100
AcDbPolyline
 90
        3
 70
     0
 43
0.0
 10
5.837000000000001
 20
4.168
 10
5.928999999999999
 20
4.07
 10
6.051
 20
3.957
  0
LWPOLYLINE
  5
DF
330
18
100
AcDbEntity
  8
0
100
AcDbPolyline
 90
        3
 70
     0
 43
0.0
 10
6.146
 20
4.015
 10
6.042000000000001
 20
4.102
 10
5.922000000000001
 20
4.22
  0
LWPOLYLINE
  5
E5
330
18
100
AcDbEntity
  8
0
100
AcDbPolyline
 90
        3
 70
     0
 43
0.0
 10
6.033
 20
5.59
 10
6.071000000000001
 20
5.468999999999999
 10
6.106
 20
5.337000000000001
  0
LWPOLYLINE
  5
EB
330
18
100
AcDbEntity
  8
0
100
AcDbPolyline
 90
        3
 70
     0
 43
0.0
 10
5.955
 20
5.55
 10
6.02
 20
5.275
 10
6.106
 20
4.97
  0
LWPOLYLINE
  5
F1
330
18
100
AcDbEntity
  8
0
100
AcDbPolyline
 90
        4
 70
     0
 43
0.0
 10
5.862
 20
5.502999999999999
 10
5.922000000000001
 20
5.24
 10
5.98
 20
4.993
 10
6.106
 20
4.641
  0
LWPOLYLINE
  5
F8
330
18
100
AcDbEntity
  8
0
100
AcDbPolyline
 90
        6
 70
     0
 43
0.0
 10
6.186
 20
4.121
 10
6.105
 20
4.176
 10
6.0
 20
4.269
 10
5.922999999999999
 20
4.784
 10
5.816
 20
5.191
 10
5.766
 20
5.454
  0
LWPOLYLINE
  5
101
330
18
100
AcDbEntity
  8
0
100
AcDbPolyline
 90
        4
 70
     0
 43
0.0
 10
5.956
 20
3.898
 10
6.001
 20
3.834
 10
6.052000000000001
 20
3.77
 10
6.106
 20
3.559
  0
LWPOLYLINE
  5
108
330
18
100
AcDbEntity
  8
0
100
AcDbPolyline
 90
        5
 70
     0
 43
0.0
 10
5.839
 20
3.826
 10
5.927000000000001
 20
3.767
 10
5.992999999999999
 20
3.733
 10
6.029
 20
3.549
 10
6.106
 20
3.255
  0
LWPOLYLINE
  5
110
330
18
100
AcDbEntity
  8
0
100
AcDbPolyline
 90
        8
 70
     0
 43
0.0
 10
5.66
 20
3.715
 10
5.738
 20
3.665
 10
5.801
 20
3.614
 10
5.851
 20
3.436
 10
5.901
 20
3.184
 10
5.962000000000001
 20
2.948
 10
5.987
 20
2.692
 10
6.106
 20
2.329
  0
LWPOLYLINE
  5
11B
330
18
100
AcDbEntity
  8
0
100
AcDbPolyline
 90
        6
 70
     0
 43
0.0
 10
5.718999999999999
 20
3.752
 10
5.843999999999999
 20
3.698
 10
5.917000000000001
 20
3.686
 10
5.992999999999999
 20
3.22
 10
6.058
 20
3.05
 10
6.106
 20
2.728
  0
LWPOLYLINE
  5
124
330
18
100
AcDbEntity
  8
0
100
AcDbPolyline
 90
        7
 70
     0
 43
0.0
 10
6.058
 20
1.766
 10
6.0
 20
2.024
 10
5.949
 20
2.438
 10
5.902
 20
2.812
 10
5.817
 20
3.188
 10
5.742999999999999
 20
3.577
 10
5.585
 20
3.669
  0
LWPOLYLINE
  5
12E
330
18
100
AcDbEntity
  8
0
100
AcDbPolyline
 90
        8
 70
     0
 43
0.0
 10
5.5
 20
3.616
 10
5.589
 20
3.571
 10
5.658
 20
3.524
 10
5.732
 20
3.179
 10
5.823
 20
2.79
 10
5.855
 20
2.344
 10
5.925
 20
1.995
 10
5.943
 20
1.683
  0
LWPOLYLINE
  5
139
330
18
100
AcDbEntity
  8
0
100
AcDbPolyline
 90
        8
 70
     0
 43
0.0
 10
5.778
 20
1.564
 10
5.744
 20
1.815
 10
5.711
 20
2.125
 10
5.68
 20
2.383
 10
5.657
 20
2.768
 10
5.613
 20
3.208
 10
5.565
 20
3.467
 10
5.417999999999999
 20
3.566
  0
LWPOLYLINE
  5
144
330
18
100
AcDbEntity
  8
0
100
AcDbPolyline
 90
        8
 70
     0
 43
0.0
 10
5.308
 20
3.497
 10
5.402
 20
3.455
 10
5.445
 20
3.392
 10
5.521
 20
3.02
 10
5.57
 20
2.598
 10
5.608
 20
2.201
 10
5.657
 20
1.74
 10
5.649
 20
1.47
  0
LWPOLYLINE
  5
14F
330
18
100
AcDbEntity
  8
0
100
AcDbPolyline
 90
        8
 70
     0
 43
0.0
 10
5.55
 20
1.399
 10
5.536000000000001
 20
1.789
 10
5.535
 20
2.088
 10
5.497000000000001
 20
2.367
 10
5.483
 20
2.726
 10
5.435
 20
3.03
 10
5.374
 20
3.348
 10
5.214
 20
3.439
  0
LWPOLYLINE
  5
15A
330
18
100
AcDbEntity
  8
0
100
AcDbPolyline
 90
        8
 70
     0
 43
0.0
 10
5.114
 20
3.377
 10
5.267
 20
3.281
 10
5.343999999999999
 20
2.956
 10
5.377000000000001
 20
2.601
 10
5.416
 20
2.14
 10
5.445
 20
1.811
 10
5.452000000000001
 20
1.575
 10
5.416
 20
1.302
  0
LWPOLYLINE
  5
165
330
18
100
AcDbEntity
  8
0
100
AcDbPolyline
 90
       13
 70
     0
 43
0.0
 10
5.013
 20
3.363
 10
5.078
 20
3.311
 10
5.159
 20
3.214
 10
5.273
 20
2.775
 10
5.324
 20
2.297
 10
5.332000000000001
 20
2.222
 10
5.337000000000001
 20
2.089
 10
5.339
 20
2.019
 10
5.34
 20
1.953
 10
5.343999999999999
 20
1.838
 10
5.334
 20
1.602
 10
5.349
 20
1.383
 10
5.327000000000001
 20
1.237
  0
LWPOLYLINE
  5
175
330
18
100
AcDbEntity
  8
0
100
AcDbPolyline
 90
       12
 70
     0
 43
0.0
 10
5.26
 20
1.188
 10
5.266
 20
1.332
 10
5.257999999999999
 20
1.572
 10
5.256
 20
1.925
 10
5.241000000000001
 20
2.181
 10
5.22
 20
2.388
 10
5.204
 20
2.589
 10
5.184
 20
2.803
 10
5.152
 20
2.983
 10
5.099
 20
3.177
 10
4.995
 20
3.266
 10
4.946000000000001
 20
3.308
  0
LWPOLYLINE
  5
184
330
18
100
AcDbEntity
  8
0
100
AcDbPolyline
 90
        7
 70
     0
 43
0.0
 10
5.015
 20
3.125
 10
5.081
 20
2.654
 10
5.135
 20
2.249
 10
5.167999999999999
 20
1.971
 10
5.188
 20
1.646
 10
5.191
 20
1.322
 10
5.212999999999999
 20
1.155
  0
LWPOLYLINE
  5
18E
330
18
100
AcDbEntity
  8
0
100
AcDbPolyline
 90
        7
 70
     0
 43
0.0
 10
4.997
 20
2.519
 10
5.057
 20
2.251
 10
5.102
 20
1.868
 10
5.117
 20
1.606
 10
5.137000000000001
 20
1.335
 10
5.138999999999999
 20
1.262
 10
5.155
 20
1.113
  0
LWPOLYLINE
  5
198
330
18
100
AcDbEntity
  8
0
100
AcDbPolyline
 90
        3
 70
     0
 43
0.0
 10
5.052
 20
1.038
 10
5.043
 20
1.174
 10
4.997
 20
1.321
  0
LWPOLYLINE
  5
19E
330
18
100
AcDbEntity
  8
0
100
AcDbPolyline
 90
        3
 70
     0
 43
0.0
 10
0.29
 20
4.278000000000001
 10
0.369
 20
4.32
 10
0.443
 20
4.384
  0
LWPOLYLINE
  5
1A4
330
18
100
AcDbEntity
  8
0
100
AcDbPolyline
 90
       13
 70
     0
 43
0.0
 10
1.12
 20
4.092
 10
1.049
 20
4.053999999999999
 10
1.018
 20
4.03
 10
0.977
 20
3.983
 10
0.912
 20
3.796
 10
0.863
 20
3.658
 10
0.856
 20
3.555
 10
0.831
 20
3.4
 10
0.821
 20
3.266
 10
0.8090000000000001
 20
3.146
 10
0.7979999999999999
 20
3.065
 10
0.7859999999999999
 20
3.018
 10
0.736
 20
2.902
  0
LWPOLYLINE
  5
1B4
330
18
100
AcDbEntity
  8
0
100
AcDbPolyline
 90
        4
 70
     0
 43
0.0
 10
1.277
 20
4.057
 10
1.203
 20
3.993
 10
1.164
 20
3.958
 10
1.107
 20
3.927
  0
LWPOLYLINE
  5
1BB
330
18
100
AcDbEntity
  8
0
100
AcDbPolyline
 90
       12
 70
     0
 43
0.0
 10
1.004
 20
4.142
 10
0.9300000000000001
 20
4.09
 10
0.892
 20
4.061
 10
0.8690000000000001
 20
4.029
 10
0.7929999999999999
 20
3.827
 10
0.7440000000000001
 20
3.732
 10
0.732
 20
3.562
 10
0.708
 20
3.329
 10
0.71
 20
3.156
 10
0.6920000000000001
 20
3.079
 10
0.669
 20
3.035
 10
0.644
 20
2.952
  0
LWPOLYLINE
  5
1CA
330
18
100
AcDbEntity
  8
0
100
AcDbPolyline
 90
       12
 70
     0
 43
0.0
 10
0.897
 20
4.188
 10
0.8070000000000001
 20
4.131
 10
0.745
 20
4.082
 10
0.69
 20
3.914
 10
0.648
 20
3.817
 10
0.628
 20
3.725
 10
0.616
 20
3.51
 10
0.607
 20
3.402
 10
0.583
 20
3.306
 10
0.5760000000000001
 20
3.212
 10
0.5510000000000001
 20
3.146
 10
0.506
 20
3.027
  0
LWPOLYLINE
  5
1D9
330
18
100
AcDbEntity
  8
0
100
AcDbPolyline
 90
       11
 70
     0
 43
0.0
 10
0.8170000000000001
 20
4.223
 10
0.75
 20
4.188
 10
0.67
 20
4.15
 10
0.6409999999999999
 20
4.127
 10
0.5710000000000001
 20
3.898
 10
0.5429999999999999
 20
3.747
 10
0.478
 20
3.528
 10
0.475
 20
3.36
 10
0.472
 20
3.356
 10
0.414
 20
3.22
 10
0.369
 20
3.105
  0
LWPOLYLINE
  5
1E7
330
18
100
AcDbEntity
  8
0
100
AcDbPolyline
 90
        4
 70
     0
 43
0.0
 10
0.537
 20
4.172
 10
0.599
 20
4.218999999999999
 10
0.638
 20
4.254
 10
0.675
 20
4.284
  0
LWPOLYLINE
  5
1EE
330
18
100
AcDbEntity
  8
0
100
AcDbPolyline
 90
        3
 70
     0
 43
0.0
 10
0.434
 20
4.216
 10
0.523
 20
4.257
 10
0.604
 20
4.314
  0
LWPOLYLINE
  5
1F4
330
18
100
AcDbEntity
  8
0
100
AcDbPolyline
 90
        3
 70
     0
 43
0.0
 10
0.378
 20
4.24
 10
0.472
 20
4.297
 10
0.527
 20
4.348
  0
LWPOLYLINE
  5
1FA
330
18
100
AcDbEntity
  8
0
100
AcDbPolyline
 90
        3
 70
     0
 43
0.0
 10
0.18
 20
4.326000000000001
 10
0.266
 20
4.394
 10
0.304
 20
4.444
  0
LWPOLYLINE
  5
200
330
18
100
AcDbEntity
  8
0
100
AcDbPolyline
 90
        8
 70
     0
 43
0.0
 10
0.5329999999999999
 20
4.173
 10
0.505
 20
4.021
 10
0.429
 20
3.789
 10
0.383
 20
3.633
 10
0.35
 20
3.476
 10
0.324
 20
3.353
 10
0.299
 20
3.26
 10
0.274
 20
3.153
  0
LWPOLYLINE
  5
20B
330
18
100
AcDbEntity
  8
0
100
AcDbPolyline
 90
        9
 70
     0
 43
0.0
 10
0.436
 20
4.215
 10
0.389
 20
4.041
 10
0.349
 20
3.867
 10
0.303
 20
3.731
 10
0.289
 20
3.6
 10
0.26
 20
3.457
 10
0.24
 20
3.331
 10
0.231
 20
3.266
 10
0.22
 20
3.182
  0
LWPOLYLINE
  5
217
330
18
100
AcDbEntity
  8
0
100
AcDbPolyline
 90
        8
 70
     0
 43
0.0
 10
0.157
 20
3.216
 10
0.178
 20
3.453
 10
0.212
 20
3.601
 10
0.234
 20
3.742
 10
0.27
 20
3.854
 10
0.32
 20
4.04
 10
0.347
 20
4.127
 10
0.378
 20
4.24
  0
LWPOLYLINE
  5
222
330
18
100
AcDbEntity
  8
0
100
AcDbPolyline
 90
        4
 70
     0
 43
0.0
 10
0.29
 20
4.278000000000001
 10
0.249
 20
4.122
 10
0.175
 20
3.815
 10
0.125
 20
3.571
  0
LWPOLYLINE
  5
229
330
18
100
AcDbEntity
  8
0
100
AcDbPolyline
 90
        3
 70
     0
 43
0.0
 10
0.125
 20
4.115
 10
0.145
 20
4.228
 10
0.18
 20
4.326000000000001
  0
LWPOLYLINE
  5
22F
330
18
100
AcDbEntity
  8
0
100
AcDbPolyline
 90
        6
 70
     0
 43
0.0
 10
1.107
 20
3.927
 10
1.035
 20
3.71
 10
0.9490000000000001
 20
3.439
 10
0.8809999999999999
 20
3.176
 10
0.836
 20
2.956
 10
0.823
 20
2.854
  0
LWPOLYLINE
  5
238
330
18
100
AcDbEntity
  8
0
100
AcDbPolyline
 90
        3
 70
     0
 43
0.0
 10
1.122
 20
2.693
 10
1.159
 20
2.825
 10
1.218
 20
3.041
  0
LWPOLYLINE
  5
23E
330
18
100
AcDbEntity
  8
0
100
AcDbPolyline
 90
        5
 70
     0
 43
0.0
 10
1.218
 20
3.539
 10
1.145
 20
3.218
 10
1.101
 20
3.033
 10
1.067
 20
2.842
 10
1.045
 20
2.734
  0
LWPOLYLINE
  5
246
330
18
100
AcDbEntity
  8
0
100
AcDbPolyline
 90
        8
 70
     0
 43
0.0
 10
1.236
 20
3.933
 10
1.214
 20
3.926
 10
1.198
 20
3.915
 10
1.181
 20
3.895
 10
1.122
 20
3.698
 10
1.046
 20
3.328
 10
0.985
 20
3.06
 10
0.9370000000000001
 20
2.793
  0
LWPOLYLINE
  5
251
330
18
100
AcDbEntity
  8
0
100
AcDbPolyline
 90
        3
 70
     0
 43
0.0
 10
1.146
 20
4.318000000000001
 10
1.178
 20
4.446000000000001
 10
1.218
 20
4.572
  0
LWPOLYLINE
  5
257
330
18
100
AcDbEntity
  8
0
100
AcDbPolyline
 90
        5
 70
     0
 43
0.0
 10
1.057
 20
4.356
 10
1.113
 20
4.498
 10
1.143
 20
4.633
 10
1.17
 20
4.734
 10
1.218
 20
4.829
  0
LWPOLYLINE
  5
25F
330
18
100
AcDbEntity
  8
0
100
AcDbPolyline
 90
        5
 70
     0
 43
0.0
 10
0.966
 20
4.395
 10
1.048
 20
4.582
 10
1.083
 20
4.748
 10
1.134
 20
4.897
 10
1.218
 20
5.015
  0
LWPOLYLINE
  5
267
330
18
100
AcDbEntity
  8
0
100
AcDbPolyline
 90
        6
 70
     0
 43
0.0
 10
0.8640000000000001
 20
4.439
 10
0.91
 20
4.593
 10
0.955
 20
4.736000000000001
 10
1.006
 20
4.88
 10
1.053
 20
4.981
 10
1.098
 20
5.077
  0
LWPOLYLINE
  5
270
330
18
100
AcDbEntity
  8
0
100
AcDbPolyline
 90
        7
 70
     0
 43
0.0
 10
0.721
 20
4.5
 10
0.78
 20
4.648
 10
0.8370000000000001
 20
4.758
 10
0.863
 20
4.847
 10
0.915
 20
4.939
 10
0.9440000000000001
 20
5.005
 10
0.988
 20
5.124
  0
LWPOLYLINE
  5
27A
330
18
100
AcDbEntity
  8
0
100
AcDbPolyline
 90
        6
 70
     0
 43
0.0
 10
0.616
 20
4.546
 10
0.66
 20
4.678999999999999
 10
0.7190000000000001
 20
4.823
 10
0.769
 20
4.919
 10
0.8029999999999999
 20
5.032
 10
0.853
 20
5.182
  0
LWPOLYLINE
  5
283
330
18
100
AcDbEntity
  8
0
100
AcDbPolyline
 90
        6
 70
     0
 43
0.0
 10
0.496
 20
4.597
 10
0.544
 20
4.693000000000001
 10
0.589
 20
4.838
 10
0.642
 20
4.953
 10
0.6559999999999999
 20
5.058
 10
0.7190000000000001
 20
5.24
  0
LWPOLYLINE
  5
28C
330
18
100
AcDbEntity
  8
0
100
AcDbPolyline
 90
        4
 70
     0
 43
0.0
 10
1.133
 20
4.323
 10
1.094
 20
4.24
 10
1.068
 20
4.18
 10
1.051
 20
4.122
  0
LWPOLYLINE
  5
293
330
18
100
AcDbEntity
  8
0
100
AcDbPolyline
 90
        3
 70
     0
 43
0.0
 10
1.065
 20
4.353
 10
1.013
 20
4.27
 10
0.955
 20
4.163
  0
LWPOLYLINE
  5
299
330
18
100
AcDbEntity
  8
0
100
AcDbPolyline
 90
        4
 70
     0
 43
0.0
 10
0.978
 20
4.39
 10
0.919
 20
4.312
 10
0.89
 20
4.261
 10
0.861
 20
4.204
  0
LWPOLYLINE
  5
2A0
330
18
100
AcDbEntity
  8
0
100
AcDbPolyline
 90
        4
 70
     0
 43
0.0
 10
0.872
 20
4.436
 10
0.83
 20
4.384
 10
0.7929999999999999
 20
4.326000000000001
 10
0.753
 20
4.25
  0
LWPOLYLINE
  5
2A7
330
18
100
AcDbEntity
  8
0
100
AcDbPolyline
 90
        4
 70
     0
 43
0.0
 10
0.735
 20
4.495
 10
0.7
 20
4.439
 10
0.638
 20
4.356
 10
0.625
 20
4.305
  0
LWPOLYLINE
  5
2AE
330
18
100
AcDbEntity
  8
0
100
AcDbPolyline
 90
        4
 70
     0
 43
0.0
 10
0.628
 20
4.541
 10
0.579
 20
4.477
 10
0.535
 20
4.422
 10
0.503
 20
4.358000000000001
  0
LWPOLYLINE
  5
2B5
330
18
100
AcDbEntity
  8
0
100
AcDbPolyline
 90
        4
 70
     0
 43
0.0
 10
0.512
 20
4.59
 10
0.473
 20
4.539
 10
0.4320000000000001
 20
4.487
 10
0.387
 20
4.408
  0
LWPOLYLINE
  5
2BC
330
18
100
AcDbEntity
  8
0
100
AcDbPolyline
 90
        4
 70
     0
 43
0.0
 10
0.408
 20
4.635
 10
0.373
 20
4.596
 10
0.322
 20
4.523
 10
0.274
 20
4.456
  0
LWPOLYLINE
  5
2C3
330
18
100
AcDbEntity
  8
0
100
AcDbPolyline
 90
        6
 70
     0
 43
0.0
 10
0.595
 20
5.292999999999999
 10
0.5610000000000001
 20
5.152
 10
0.51
 20
4.991000000000001
 10
0.475
 20
4.848
 10
0.455
 20
4.745
 10
0.402
 20
4.638
  0
LWPOLYLINE
  5
2CC
330
18
100
AcDbEntity
  8
0
100
AcDbPolyline
 90
        4
 70
     0
 43
0.0
 10
0.296
 20
4.684
 10
0.257
 20
4.64
 10
0.217
 20
4.584
 10
0.162
 20
4.505
  0
LWPOLYLINE
  5
2D3
330
18
100
AcDbEntity
  8
0
100
AcDbPolyline
 90
        5
 70
     0
 43
0.0
 10
0.505
 20
5.332000000000001
 10
0.465
 20
5.158
 10
0.379
 20
4.927
 10
0.359
 20
4.808
 10
0.305
 20
4.68
  0
LWPOLYLINE
  5
2DB
330
18
100
AcDbEntity
  8
0
100
AcDbPolyline
 90
        3
 70
     0
 43
0.0
 10
0.181
 20
4.733000000000001
 10
0.139
 20
4.674
 10
0.057
 20
4.55
  0
LWPOLYLINE
  5
2E1
330
18
100
AcDbEntity
  8
0
100
AcDbPolyline
 90
        6
 70
     0
 43
0.0
 10
0.359
 20
5.395
 10
0.356
 20
5.235
 10
0.297
 20
5.016
 10
0.23
 20
4.853
 10
0.209
 20
4.762
 10
0.2
 20
4.725
  0
LWPOLYLINE
  5
2EA
330
18
100
AcDbEntity
  8
0
100
AcDbPolyline
 90
        4
 70
     0
 43
0.0
 10
0.236
 20
5.448
 10
0.202
 20
5.263
 10
0.171
 20
5.149
 10
0.125
 20
5.03
  0
LINE
  5
2F1
330
18
100
AcDbEntity
  8
0
100
AcDbLine
 10
1.218
 20
3.879
 30
0.0
 11
1.218
 21
2.64
 31
0.0
  0
LINE
  5
2F2
330
18
100
AcDbEntity
  8
0
100
AcDbLine
 10
1.28
 20
4.066
 30
0.0
 11
1.218
 21
3.879
 31
0.0
  0
LINE
  5
2F3
330
18
100
AcDbEntity
  8
0
100
AcDbLine
 10
1.15
 20
4.079
 30
0.0
 11
1.28
 21
4.066
 31
0.0
  0
LINE
  5
2F4
330
18
100
AcDbEntity
  8
0
100
AcDbLine
 10
1.218
 20
4.287
 30
0.0
 11
1.15
 21
4.079
 31
0.0
  0
LINE
  5
2F5
330
18
100
AcDbEntity
  8
0
100
AcDbLine
 10
0.125
 20
4.349
 30
0.0
 11
0.125
 21
3.234
 31
0.0
  0
LINE
  5
2F6
330
18
100
AcDbEntity
  8
0
100
AcDbLine
 10
0.174
 20
4.499
 30
0.0
 11
0.125
 21
4.349
 31
0.0
  0
LINE
  5
2F7
330
18
100
AcDbEntity
  8
0
100
AcDbLine
 10
0.125
 20
4.757
 30
0.0
 11
0.057
 21
4.55
 31
0.0
  0
LINE
  5
2F8
330
18
100
AcDbEntity
  8
0
100
AcDbLine
 10
0.057
 20
4.55
 30
0.0
 11
1.15
 21
4.079
 31
0.0
  0
LINE
  5
2F9
330
18
100
AcDbEntity
  8
0
100
AcDbLine
 10
0.125
 20
4.349
 30
0.0
 11
1.218
 21
3.879
 31
0.0
  0
LINE
  5
2FA
330
18
100
AcDbEntity
  8
0
100
AcDbLine
 10
0.125
 20
4.757
 30
0.0
 11
1.218
 21
4.287
 31
0.0
  0
LINE
  5
2FB
330
18
100
AcDbEntity
  8
0
100
AcDbLine
 10
-0.216
 20
5.096
 30
0.0
 11
-0.216
 21
3.829
 31
0.0
  0
LINE
  5
2FC
330
18
100
AcDbEntity
  8
0
100
AcDbLine
 10
-0.295
 20
5.195
 30
0.0
 11
-0.216
 21
5.096
 31
0.0
  0
LINE
  5
2FD
330
18
100
AcDbEntity
  8
0
100
AcDbLine
 10
-0.137
 20
5.295
 30
0.0
 11
-0.295
 21
5.195
 31
0.0
  0
LINE
  5
2FE
330
18
100
AcDbEntity
  8
0
100
AcDbLine
 10
-0.216
 20
5.394
 30
0.0
 11
-0.137
 21
5.295
 31
0.0
  0
LWPOLYLINE
  5
2FF
330
18
100
AcDbEntity
  8
0
100
AcDbPolyline
 90
       16
 70
     1
 43
0.0
 10
2.157
 20
6.417000000000001
 42
0.197
 10
2.153
 20
6.422999999999999
 42
0.099
 10
2.139
 20
6.426
 42
0.056
 10
2.124
 20
6.425
 42
0.043
 10
2.105
 20
6.42
 42
0.043
 10
2.087
 20
6.411000000000001
 42
0.056
 10
2.075
 20
6.402
 42
0.099
 10
2.066
 20
6.391
 42
0.197
 10
2.066
 20
6.384
 42
0.197
 10
2.071
 20
6.379
 42
0.099
 10
2.084
 20
6.375
 42
0.056
 10
2.1
 20
6.376
 42
0.043
 10
2.119
 20
6.382000000000001
 42
0.043
 10
2.137
 20
6.39
 42
0.056
 10
2.149
 20
6.399
 42
0.099
 10
2.157
 20
6.41
 42
0.197
  0
LWPOLYLINE
  5
312
330
18
100
AcDbEntity
  8
0
100
AcDbPolyline
 90
       16
 70
     1
 43
0.0
 10
2.444
 20
6.512000000000001
 42
0.197
 10
2.44
 20
6.517
 42
0.099
 10
2.426
 20
6.521
 42
0.056
 10
2.411
 20
6.52
 42
0.043
 10
2.392
 20
6.513999999999999
 42
0.043
 10
2.374
 20
6.506
 42
0.056
 10
2.362
 20
6.497000000000001
 42
0.099
 10
2.353
 20
6.486000000000001
 42
0.197
 10
2.353
 20
6.479
 42
0.197
 10
2.358
 20
6.473
 42
0.099
 10
2.371
 20
6.47
 42
0.056
 10
2.387
 20
6.471
 42
0.043
 10
2.406
 20
6.476
 42
0.043
 10
2.424
 20
6.484
 42
0.056
 10
2.436
 20
6.494
 42
0.099
 10
2.444
 20
6.505
 42
0.197
  0
LINE
  5
325
330
18
100
AcDbEntity
  8
0
100
AcDbLine
 10
0.125
 20
3.644
 30
0.0
 11
-0.216
 21
3.829
 31
0.0
  0
LINE
  5
326
330
18
100
AcDbEntity
  8
0
100
AcDbLine
 10
3.06
 20
5.847
 30
0.0
 11
3.308
 21
5.756
 31
0.0
  0
LINE
  5
327
330
18
100
AcDbEntity
  8
0
100
AcDbLine
 10
3.041
 20
5.819
 30
0.0
 11
3.287
 21
5.728
 31
0.0
  0
LINE
  5
328
330
18
100
AcDbEntity
  8
0
100
AcDbLine
 10
1.617
 20
6.319
 30
0.0
 11
1.865
 21
6.229
 31
0.0
  0
LINE
  5
329
330
18
100
AcDbEntity
  8
0
100
AcDbLine
 10
1.598
 20
6.291
 30
0.0
 11
1.844
 21
6.201000000000001
 31
0.0
  0
LINE
  5
32A
330
18
100
AcDbEntity
  8
0
100
AcDbLine
 10
3.016
 20
5.782
 30
0.0
 11
1.947
 21
6.169
 31
0.0
  0
LINE
  5
32B
330
18
100
AcDbEntity
  8
0
100
AcDbLine
 10
3.159
 20
3.707
 30
0.0
 11
3.06
 21
3.656
 31
0.0
  0
ARC
  5
32C
330
18
100
AcDbEntity
  8
0
100
AcDbCircle
 10
3.051
 20
3.577
 30
0.0
 40
0.005
100
AcDbArc
 50
297.15
 51
0.0
  0
LINE
  5
32D
330
18
100
AcDbEntity
  8
0
100
AcDbLine
 10
3.054
 20
3.572
 30
0.0
 11
3.016
 21
3.553
 31
0.0
  0
LINE
  5
32E
330
18
100
AcDbEntity
  8
0
100
AcDbLine
 10
3.056
 20
3.656
 30
0.0
 11
3.056
 21
3.577
 31
0.0
  0
ARC
  5
32F
330
18
100
AcDbEntity
  8
0
100
AcDbCircle
 10
3.021
 20
3.651
 30
0.0
 40
0.005
100
AcDbArc
 50
90.18100000000001
 51
180.0
  0
LINE
  5
330
330
18
100
AcDbEntity
  8
0
100
AcDbLine
 10
3.016
 20
3.651
 30
0.0
 11
3.016
 21
3.502
 31
0.0
  0
ARC
  5
331
330
18
100
AcDbEntity
  8
0
100
AcDbCircle
 10
3.342
 20
4.22
 30
0.0
 40
0.04
100
AcDbArc
 50
336.199
 51
0.0
  0
LINE
  5
332
330
18
100
AcDbEntity
  8
0
100
AcDbLine
 10
3.159
 20
3.707
 30
0.0
 11
3.378
 21
4.204
 31
0.0
  0
ARC
  5
333
330
18
100
AcDbEntity
  8
0
100
AcDbCircle
 10
3.307
 20
4.228
 30
0.0
 40
0.04
100
AcDbArc
 50
336.199
 51
0.0
  0
LINE
  5
334
330
18
100
AcDbEntity
  8
0
100
AcDbLine
 10
3.021
 20
3.656
 30
0.0
 11
3.06
 21
3.656
 31
0.0
  0
LINE
  5
335
330
18
100
AcDbEntity
  8
0
100
AcDbLine
 10
3.033
 20
5.275
 30
0.0
 11
3.033
 21
3.721
 31
0.0
  0
LINE
  5
336
330
18
100
AcDbEntity
  8
0
100
AcDbLine
 10
3.0
 20
5.257999999999999
 30
0.0
 11
3.0
 21
3.69
 31
0.0
  0
ARC
  5
337
330
18
100
AcDbEntity
  8
0
100
AcDbCircle
 10
2.977
 20
3.502
 30
0.0
 40
0.04
100
AcDbArc
 50
297.15
 51
0.0
  0
LINE
  5
338
330
18
100
AcDbEntity
  8
0
100
AcDbLine
 10
2.995
 20
3.467
 30
0.0
 11
2.458
 21
3.192
 31
0.0
  0
ARC
  5
339
330
18
100
AcDbEntity
  8
0
100
AcDbCircle
 10
2.549
 20
3.395
 30
0.0
 40
0.108
100
AcDbArc
 50
162.495
 51
180.0
  0
ARC
  5
33A
330
18
100
AcDbEntity
  8
0
100
AcDbCircle
 10
2.438
 20
3.226
 30
0.0
 40
0.04
100
AcDbArc
 50
241.503
 51
0.0
  0
LINE
  5
33B
330
18
100
AcDbEntity
  8
0
100
AcDbLine
 10
2.419
 20
3.191
 30
0.0
 11
2.357
 21
3.224
 31
0.0
  0
ARC
  5
33C
330
18
100
AcDbEntity
  8
0
100
AcDbCircle
 10
2.424
 20
3.26
 30
0.0
 40
0.018
100
AcDbArc
 50
241.503
 51
0.0
  0
ARC
  5
33D
330
18
100
AcDbEntity
  8
0
100
AcDbCircle
 10
2.585
 20
3.36
 30
0.0
 40
0.108
100
AcDbArc
 50
162.495
 51
180.0
  0
LINE
  5
33E
330
18
100
AcDbEntity
  8
0
100
AcDbLine
 10
2.478
 20
3.36
 30
0.0
 11
2.478
 21
3.226
 31
0.0
  0
LINE
  5
33F
330
18
100
AcDbEntity
  8
0
100
AcDbLine
 10
2.442
 20
3.395
 30
0.0
 11
2.442
 21
3.26
 31
0.0
  0
ARC
  5
340
330
18
100
AcDbEntity
  8
0
100
AcDbCircle
 10
2.695
 20
4.423
 30
0.0
 40
0.108
100
AcDbArc
 50
342.495
 51
0.0
  0
ARC
  5
341
330
18
100
AcDbEntity
  8
0
100
AcDbCircle
 10
2.662
 20
4.44
 30
0.0
 40
0.099
100
AcDbArc
 50
342.495
 51
0.0
  0
LINE
  5
342
330
18
100
AcDbEntity
  8
0
100
AcDbLine
 10
2.798
 20
4.391
 30
0.0
 11
2.483
 21
3.392
 31
0.0
  0
LINE
  5
343
330
18
100
AcDbEntity
  8
0
100
AcDbLine
 10
2.757
 20
4.41
 30
0.0
 11
2.447
 21
3.427
 31
0.0
  0
LINE
  5
344
330
18
100
AcDbEntity
  8
0
100
AcDbLine
 10
2.803
 20
5.237
 30
0.0
 11
2.803
 21
4.423
 31
0.0
  0
LINE
  5
345
330
18
100
AcDbEntity
  8
0
100
AcDbLine
 10
2.761
 20
5.255
 30
0.0
 11
2.761
 21
4.44
 31
0.0
  0
LINE
  5
346
330
18
100
AcDbEntity
  8
0
100
AcDbLine
 10
2.761
 20
5.255
 30
0.0
 11
3.016
 21
5.363
 31
0.0
  0
LINE
  5
347
330
18
100
AcDbEntity
  8
0
100
AcDbLine
 10
2.761
 20
5.255
 30
0.0
 11
2.803
 21
5.237
 31
0.0
  0
ARC
  5
348
330
18
100
AcDbEntity
  8
0
100
AcDbCircle
 10
2.987
 20
5.347
 30
0.0
 40
0.03
100
AcDbArc
 50
292.871
 51
0.0
  0
LINE
  5
349
330
18
100
AcDbEntity
  8
0
100
AcDbLine
 10
2.803
 20
5.237
 30
0.0
 11
2.998
 21
5.32
 31
0.0
  0
LINE
  5
34A
330
18
100
AcDbEntity
  8
0
100
AcDbLine
 10
3.381
 20
5.678
 30
0.0
 11
3.381
 21
4.22
 31
0.0
  0
LINE
  5
34B
330
18
100
AcDbEntity
  8
0
100
AcDbLine
 10
3.835
 20
6.148
 30
0.0
 11
4.193000000000001
 21
6.031000000000001
 31
0.0
  0
ARC
  5
34C
330
18
100
AcDbEntity
  8
0
100
AcDbCircle
 10
3.411
 20
5.678
 30
0.0
 40
0.03
100
AcDbArc
 50
110.103
 51
180.0
  0
LINE
  5
34D
330
18
100
AcDbEntity
  8
0
100
AcDbLine
 10
4.193000000000001
 20
6.031000000000001
 30
0.0
 11
4.193000000000001
 21
5.995
 31
0.0
  0
LINE
  5
34E
330
18
100
AcDbEntity
  8
0
100
AcDbLine
 10
3.016
 20
5.808
 30
0.0
 11
3.016
 21
5.347
 31
0.0
  0
ARC
  5
34F
330
18
100
AcDbEntity
  8
0
100
AcDbCircle
 10
3.074
 20
5.808
 30
0.0
 40
0.058
100
AcDbArc
 50
110.103
 51
180.0
  0
LINE
  5
350
330
18
100
AcDbEntity
  8
0
100
AcDbLine
 10
3.835
 20
6.148
 30
0.0
 11
3.054
 21
5.863
 31
0.0
  0
LINE
  5
351
330
18
100
AcDbEntity
  8
0
100
AcDbLine
 10
4.193000000000001
 20
5.995
 30
0.0
 11
3.401
 21
5.706
 31
0.0
  0
LINE
  5
352
330
18
100
AcDbEntity
  8
0
100
AcDbLine
 10
1.578
 20
6.303
 30
0.0
 11
-0.216
 21
6.952000000000001
 31
0.0
  0
ARC
  5
353
330
18
100
AcDbEntity
  8
0
100
AcDbCircle
 10
1.97
 20
6.151
 30
0.0
 40
0.03
100
AcDbArc
 50
110.103
 51
160.558
  0
LINE
  5
354
330
18
100
AcDbEntity
  8
0
100
AcDbLine
 10
1.895
 20
6.144
 30
0.0
 11
1.895
 21
6.143
 31
0.0
  0
ARC
  5
355
330
18
100
AcDbEntity
  8
0
100
AcDbCircle
 10
1.631
 20
6.281000000000001
 30
0.0
 40
0.058
100
AcDbArc
 50
110.103
 51
180.0
  0
LINE
  5
356
330
18
100
AcDbEntity
  8
0
100
AcDbLine
 10
1.573
 20
6.281000000000001
 30
0.0
 11
1.573
 21
6.026
 31
0.0
  0
LINE
  5
357
330
18
100
AcDbEntity
  8
0
100
AcDbLine
 10
2.75
 20
6.502999999999999
 30
0.0
 11
2.75
 21
6.468
 31
0.0
  0
LINE
  5
358
330
18
100
AcDbEntity
  8
0
100
AcDbLine
 10
2.75
 20
6.468
 30
0.0
 11
1.96
 21
6.178999999999999
 31
0.0
  0
LINE
  5
359
330
18
100
AcDbEntity
  8
0
100
AcDbLine
 10
2.392
 20
6.621
 30
0.0
 11
1.611
 21
6.335
 31
0.0
  0
LINE
  5
35A
330
18
100
AcDbEntity
  8
0
100
AcDbLine
 10
1.956
 20
6.166
 30
0.0
 11
0.125
 21
5.496
 31
0.0
  0
LINE
  5
35B
330
18
100
AcDbEntity
  8
0
100
AcDbLine
 10
2.392
 20
6.621
 30
0.0
 11
2.75
 21
6.502999999999999
 31
0.0
  0
LINE
  5
35C
330
18
100
AcDbEntity
  8
0
100
AcDbLine
 10
2.442
 20
3.268
 30
0.0
 11
1.218
 21
2.64
 31
0.0
  0
LINE
  5
35D
330
18
100
AcDbEntity
  8
0
100
AcDbLine
 10
1.218
 20
5.025
 30
0.0
 11
1.218
 21
4.287
 31
0.0
  0
LINE
  5
35E
330
18
100
AcDbEntity
  8
0
100
AcDbLine
 10
1.218
 20
2.64
 30
0.0
 11
0.125
 21
3.234
 31
0.0
  0
LINE
  5
35F
330
18
100
AcDbEntity
  8
0
100
AcDbLine
 10
0.125
 20
5.496
 30
0.0
 11
0.125
 21
4.757
 31
0.0
  0
LINE
  5
360
330
18
100
AcDbEntity
  8
0
100
AcDbLine
 10
0.125
 20
5.496
 30
0.0
 11
1.218
 21
5.025
 31
0.0
  0
LINE
  5
361
330
18
100
AcDbEntity
  8
0
100
AcDbLine
 10
1.218
 20
5.025
 30
0.0
 11
3.015
 21
5.783
 31
0.0
  0
LINE
  5
362
330
18
100
AcDbEntity
  8
0
100
AcDbLine
 10
4.997
 20
3.113
 30
0.0
 11
4.997
 21
0.998
 31
0.0
  0
LINE
  5
363
330
18
100
AcDbEntity
  8
0
100
AcDbLine
 10
6.106
 20
3.803
 30
0.0
 11
6.106
 21
1.801
 31
0.0
  0
LINE
  5
364
330
18
100
AcDbEntity
  8
0
100
AcDbLine
 10
6.106
 20
3.803
 30
0.0
 11
6.064
 21
3.965
 31
0.0
  0
LINE
  5
365
330
18
100
AcDbEntity
  8
0
100
AcDbLine
 10
6.106
 20
4.334
 30
0.0
 11
6.21
 21
4.055
 31
0.0
  0
LINE
  5
366
330
18
100
AcDbEntity
  8
0
100
AcDbLine
 10
5.101
 20
3.369
 30
0.0
 11
4.932
 21
3.358
 31
0.0
  0
LINE
  5
367
330
18
100
AcDbEntity
  8
0
100
AcDbLine
 10
4.997
 20
3.113
 30
0.0
 11
4.932
 21
3.358
 31
0.0
  0
LINE
  5
368
330
18
100
AcDbEntity
  8
0
100
AcDbLine
 10
4.997
 20
3.648
 30
0.0
 11
5.101
 21
3.369
 31
0.0
  0
LINE
  5
369
330
18
100
AcDbEntity
  8
0
100
AcDbLine
 10
6.106
 20
4.334
 30
0.0
 11
4.997
 21
3.648
 31
0.0
  0
LINE
  5
36A
330
18
100
AcDbEntity
  8
0
100
AcDbLine
 10
6.21
 20
4.055
 30
0.0
 11
5.101
 21
3.369
 31
0.0
  0
LINE
  5
36B
330
18
100
AcDbEntity
  8
0
100
AcDbLine
 10
4.997
 20
3.113
 30
0.0
 11
6.106
 21
3.803
 31
0.0
  0
LINE
  5
36C
330
18
100
AcDbEntity
  8
0
100
AcDbLine
 10
-0.216
 20
6.952000000000001
 30
0.0
 11
-0.216
 21
5.394
 31
0.0
  0
LINE
  5
36D
330
18
100
AcDbEntity
  8
0
100
AcDbLine
 10
4.997
 20
0.998
 30
0.0
 11
1.606
 21
2.839
 31
0.0
  0
LINE
  5
36E
330
18
100
AcDbEntity
  8
0
100
AcDbLine
 10
0.991
 20
7.302000000000001
 30
0.0
 11
6.106
 21
5.627000000000001
 31
0.0
  0
LINE
  5
36F
330
18
100
AcDbEntity
  8
0
100
AcDbLine
 10
-0.216
 20
6.952000000000001
 30
0.0
 11
0.991
 21
7.302000000000001
 31
0.0
  0
LINE
  5
370
330
18
100
AcDbEntity
  8
0
100
AcDbLine
 10
4.997
 20
5.065
 30
0.0
 11
3.381
 21
5.65
 31
0.0
  0
LINE
  5
371
330
18
100
AcDbEntity
  8
0
100
AcDbLine
 10
4.997
 20
0.998
 30
0.0
 11
6.106
 21
1.801
 31
0.0
  0
LINE
  5
372
330
18
100
AcDbEntity
  8
0
100
AcDbLine
 10
6.106
 20
5.627000000000001
 30
0.0
 11
6.106
 21
4.334
 31
0.0
  0
LINE
  5
373
330
18
100
AcDbEntity
  8
0
100
AcDbLine
 10
4.997
 20
5.065
 30
0.0
 11
6.106
 21
5.627000000000001
 31
0.0
  0
LINE
  5
374
330
18
100
AcDbEntity
  8
0
100
AcDbLine
 10
4.997
 20
5.065
 30
0.0
 11
4.997
 21
3.648
 31
0.0
  0
LINE
  5
375
330
18
100
AcDbEntity
  8
0
100
AcDbLine
 10
2.75
 20
6.502999999999999
 30
0.0
 11
1.938
 21
6.206
 31
0.0
  0
ARC
  5
376
330
18
100
AcDbEntity
  8
0
100
AcDbCircle
 10
1.961
 20
6.144
 30
0.0
 40
0.066
100
AcDbArc
 50
110.103
 51
180.0
  0
LINE
  5
377
330
18
100
AcDbEntity
  8
0
100
AcDbLine
 10
4.193000000000001
 20
6.031000000000001
 30
0.0
 11
3.39
 21
5.737
 31
0.0
  0
LINE
  5
378
330
18
100
AcDbEntity
  8
0
100
AcDbLine
 10
3.338
 20
5.671
 30
0.0
 11
3.338
 21
5.671
 31
0.0
  0
LWPOLYLINE
  5
379
330
18
100
AcDbEntity
  8
0
100
AcDbPolyline
 90
       16
 70
     1
 43
0.0
 10
3.428
 20
5.937
 42
0.142
 10
3.42
 20
5.946000000000001
 42
0.107
 10
3.406
 20
5.952000000000001
 42
0.079
 10
3.389
 20
5.952000000000001
 42
0.066
 10
3.371
 20
5.946000000000001
 42
0.066
 10
3.354
 20
5.936
 42
0.079
 10
3.343
 20
5.924
 42
0.107
 10
3.338
 20
5.909
 42
0.142
 10
3.34
 20
5.898
 42
0.142
 10
3.347
 20
5.888999999999999
 42
0.107
 10
3.362
 20
5.882999999999999
 42
0.079
 10
3.378
 20
5.882999999999999
 42
0.066
 10
3.397
 20
5.888999999999999
 42
0.066
 10
3.413
 20
5.899
 42
0.079
 10
3.424
 20
5.911000000000001
 42
0.107
 10
3.43
 20
5.926
 42
0.142
  0
LWPOLYLINE
  5
38C
330
18
100
AcDbEntity
  8
0
100
AcDbPolyline
 90
       16
 70
     1
 43
0.0
 10
3.958
 20
6.023
 42
0.142
 10
3.951
 20
6.032
 42
0.107
 10
3.936
 20
6.037999999999999
 42
0.079
 10
3.92
 20
6.037999999999999
 42
0.066
 10
3.901
 20
6.032
 42
0.066
 10
3.885
 20
6.022
 42
0.079
 10
3.874
 20
6.009
 42
0.107
 10
3.868
 20
5.995
 42
0.142
 10
3.87
 20
5.983
 42
0.142
 10
3.878
 20
5.974
 42
0.107
 10
3.892
 20
5.968999999999999
 42
0.079
 10
3.908
 20
5.968999999999999
 42
0.066
 10
3.927
 20
5.974
 42
0.066
 10
3.944
 20
5.984
 42
0.079
 10
3.955
 20
5.997000000000001
 42
0.107
 10
3.96
 20
6.011
 42
0.142
  0
LINE
  5
39F
330
18
100
AcDbEntity
  8
0
100
AcDbLine
 10
3.346
 20
5.675
 30
0.0
 11
3.346
 21
4.228
 31
0.0
  0
ARC
  5
3A0
330
18
100
AcDbEntity
  8
0
100
AcDbCircle
 10
3.412
 20
5.675
 30
0.0
 40
0.066
100
AcDbArc
 50
110.103
 51
180.0
  0
LINE
  5
3A1
330
18
100
AcDbEntity
  8
0
100
AcDbLine
 10
2.415
 20
3.244
 30
0.0
 11
2.406
 21
3.249
 31
0.0
  0
LINE
  5
3A2
330
18
100
AcDbEntity
  8
0
100
AcDbLine
 10
3.109
 20
3.681
 30
0.0
 11
3.343
 21
4.212
 31
0.0
  0
LWPOLYLINE
  5
3A3
330
18
100
AcDbEntity
  8
0
100
AcDbPolyline
 90
       16
 70
     1
 43
0.0
 10
3.222
 20
5.303999999999999
 42
0.143
 10
3.207
 20
5.3
 42
0.107
 10
3.194
 20
5.286000000000001
 42
0.079
 10
3.185
 20
5.267
 42
0.066
 10
3.182
 20
5.242999999999999
 42
0.066
 10
3.185
 20
5.218999999999999
 42
0.079
 10
3.194
 20
5.2
 42
0.107
 10
3.207
 20
5.186
 42
0.143
 10
3.222
 20
5.182
 42
0.143
 10
3.236
 20
5.186
 42
0.107
 10
3.25
 20
5.2
 42
0.079
 10
3.258
 20
5.218999999999999
 42
0.066
 10
3.261
 20
5.242999999999999
 42
0.066
 10
3.258
 20
5.267
 42
0.079
 10
3.25
 20
5.286000000000001
 42
0.107
 10
3.236
 20
5.3
 42
0.143
  0
LWPOLYLINE
  5
3B6
330
18
100
AcDbEntity
  8
0
100
AcDbPolyline
 90
       16
 70
     1
 43
0.0
 10
3.225
 20
4.668
 42
0.143
 10
3.21
 20
4.664
 42
0.107
 10
3.196
 20
4.65
 42
0.079
 10
3.188
 20
4.631
 42
0.066
 10
3.185
 20
4.607
 42
0.066
 10
3.188
 20
4.582
 42
0.079
 10
3.196
 20
4.564
 42
0.107
 10
3.21
 20
4.55
 42
0.143
 10
3.225
 20
4.546
 42
0.143
 10
3.239
 20
4.55
 42
0.107
 10
3.253
 20
4.564
 42
0.079
 10
3.261
 20
4.582
 42
0.066
 10
3.264
 20
4.607
 42
0.066
 10
3.261
 20
4.631
 42
0.079
 10
3.253
 20
4.65
 42
0.107
 10
3.239
 20
4.664
 42
0.143
  0
LWPOLYLINE
  5
3C9
330
18
100
AcDbEntity
  8
0
100
AcDbPolyline
 90
       16
 70
     1
 43
0.0
 10
3.151
 20
4.296
 42
0.143
 10
3.136
 20
4.292
 42
0.107
 10
3.123
 20
4.278000000000001
 42
0.079
 10
3.114
 20
4.259
 42
0.066
 10
3.111
 20
4.235
 42
0.066
 10
3.114
 20
4.21
 42
0.079
 10
3.123
 20
4.191
 42
0.107
 10
3.136
 20
4.178
 42
0.143
 10
3.151
 20
4.174
 42
0.143
 10
3.165
 20
4.178
 42
0.107
 10
3.179
 20
4.191
 42
0.079
 10
3.187
 20
4.21
 42
0.066
 10
3.19
 20
4.235
 42
0.066
 10
3.187
 20
4.259
 42
0.079
 10
3.179
 20
4.278000000000001
 42
0.107
 10
3.165
 20
4.292
 42
0.143
  0
LWPOLYLINE
  5
3DC
330
18
100
AcDbEntity
  8
0
100
AcDbPolyline
 90
       16
 70
     1
 43
0.0
 10
2.887
 20
4.553999999999999
 42
0.143
 10
2.872
 20
4.55
 42
0.107
 10
2.859
 20
4.536000000000001
 42
0.079
 10
2.85
 20
4.517
 42
0.066
 10
2.847
 20
4.493
 42
0.066
 10
2.85
 20
4.468999999999999
 42
0.079
 10
2.859
 20
4.45
 42
0.107
 10
2.872
 20
4.436
 42
0.143
 10
2.887
 20
4.432
 42
0.143
 10
2.901
 20
4.436
 42
0.107
 10
2.915
 20
4.45
 42
0.079
 10
2.923
 20
4.468999999999999
 42
0.066
 10
2.926
 20
4.493
 42
0.066
 10
2.923
 20
4.517
 42
0.079
 10
2.915
 20
4.536000000000001
 42
0.107
 10
2.901
 20
4.55
 42
0.143
  0
LWPOLYLINE
  5
3EF
330
18
100
AcDbEntity
  8
0
100
AcDbPolyline
 90
       16
 70
     1
 43
0.0
 10
2.889
 20
5.02
 42
0.143
 10
2.875
 20
5.016
 42
0.107
 10
2.861
 20
5.002
 42
0.079
 10
2.853
 20
4.983000000000001
 42
0.066
 10
2.85
 20
4.959
 42
0.066
 10
2.853
 20
4.935
 42
0.079
 10
2.861
 20
4.916
 42
0.107
 10
2.875
 20
4.902
 42
0.143
 10
2.889
 20
4.898
 42
0.143
 10
2.904
 20
4.902
 42
0.107
 10
2.918
 20
4.916
 42
0.079
 10
2.926
 20
4.935
 42
0.066
 10
2.929
 20
4.959
 42
0.066
 10
2.926
 20
4.983000000000001
 42
0.079
 10
2.918
 20
5.002
 42
0.107
 10
2.904
 20
5.016
 42
0.143
  0
TEXT
  5
402
330
18
100
AcDbEntity
  8
0
100
AcDbText
 10
0.464
 20
1.395
 30
0.0
 40
0.175
  1
Simpson Strong-Tie
100
AcDbText
  0
ENDSEC
  0
SECTION
  2
OBJECTS
  0
DICTIONARY
  5
C
330
0
100
AcDbDictionary
281
     1
  3
ACAD_COLOR
350
408
  3
ACAD_GROUP
350
D
  3
ACAD_LAYOUT
350
15
  3
ACAD_MATERIAL
350
40A
  3
ACAD_MLINESTYLE
350
12
  3
ACAD_PLOTSETTINGS
350
14
  3
ACAD_PLOTSTYLENAME
350
E
  3
ACDBHEADERROUNDTRIPXREC
350
407
  0
DICTIONARY
  5
408
102
{ACAD_REACTORS
330
C
102
}
330
C
100
AcDbDictionary
281
     1
  0
DICTIONARY
  5
D
102
{ACAD_REACTORS
330
C
102
}
330
C
100
AcDbDictionary
281
     1
  0
DICTIONARY
  5
15
102
{ACAD_REACTORS
330
C
102
}
330
C
100
AcDbDictionary
281
     1
  3
Layout1
350
17
  3
Model
350
19
  0
DICTIONARY
  5
40A
102
{ACAD_REACTORS
330
C
102
}
330
C
100
AcDbDictionary
281
     1
  0
DICTIONARY
  5
12
102
{ACAD_REACTORS
330
C
102
}
330
C
100
AcDbDictionary
281
     1
  3
Standard
350
13
  0
DICTIONARY
  5
14
102
{ACAD_REACTORS
330
C
102
}
330
C
100
AcDbDictionary
281
     1
  0
ACDBDICTIONARYWDFLT
  5
E
102
{ACAD_REACTORS
330
C
102
}
330
C
100
AcDbDictionary
281
     1
  3
Normal
350
F
100
AcDbDictionaryWithDefault
340
F
  0
DICTIONARY
  5
407
102
{ACAD_REACTORS
330
C
102
}
330
C
100
AcDbDictionary
281
     1
  3
COLORDICT
350
409
  3
MATERIALDICT
350
40B
  0
LAYOUT
  5
17
102
{ACAD_REACTORS
330
15
102
}
102
{ACAD_XDICTIONARY
360
40C
102
}
330
15
100
AcDbPlotSettings
  1

  2

  4

  6

 40
0.0
 41
0.0
 42
0.0
 43
0.0
 44
0.0
 45
0.0
 46
0.0
 47
0.0
 48
0.0
 49
0.0
140
0.0
141
0.0
142
1.0
143
1.0
 70
   688
 72
     0
 73
     0
 74
     5
  7

 75
    16
147
1.0
148
0.0
149
0.0
100
AcDbLayout
  1
Layout1
 70
     1
 71
     1
 10
0.0
 20
0.0
 11
12.0
 21
9.0
 12
0.0
 22
0.0
 32
0.0
 14
1.000000000000000E+20
 24
1.000000000000000E+20
 34
1.000000000000000E+20
 15
-1.000000000000000E+20
 25
-1.000000000000000E+20
 35
-1.000000000000000E+20
146
0.0
 13
0.0
 23
0.0
 33
0.0
 16
1.0
 26
0.0
 36
0.0
 17
0.0
 27
1.0
 37
0.0
 76
     0
330
16
  0
LAYOUT
  5
19
102
{ACAD_REACTORS
330
15
102
}
102
{ACAD_XDICTIONARY
360
40E
102
}
330
15
100
AcDbPlotSettings
  1

  2

  4

  6

 40
0.0
 41
0.0
 42
0.0
 43
0.0
 44
0.0
 45
0.0
 46
0.0
 47
0.0
 48
0.0
 49
0.0
140
0.0
141
0.0
142
1.0
143
1.0
 70
  1712
 72
     0
 73
     0
 74
     0
  7

 75
     0
147
1.0
148
0.0
149
0.0
100
AcDbLayout
  1
Model
 70
     1
 71
     0
 10
0.0
 20
0.0
 11
0.0
 21
0.0
 12
0.0
 22
0.0
 32
0.0
 14
0.0
 24
0.0
 34
0.0
 15
0.0
 25
0.0
 35
0.0
146
0.0
 13
0.0
 23
0.0
 33
0.0
 16
1.0
 26
0.0
 36
0.0
 17
0.0
 27
1.0
 37
0.0
 76
     0
330
18
  0
MLINESTYLE
  5
13
102
{ACAD_REACTORS
330
12
102
}
330
12
100
AcDbMlineStyle
  2
Standard
 70
     0
  3

 62
   256
 51
90.0
 52
90.0
 71
     2
 49
0.5
 62
   256
  6
BYLAYER
 49
-0.5
 62
   256
  6
BYLAYER
  0
ACDBPLACEHOLDER
  5
F
102
{ACAD_REACTORS
330
E
102
}
330
E
  0
XRECORD
  5
409
102
{ACAD_REACTORS
330
407
102
}
330
407
100
AcDbXrecord
340
408
  0
XRECORD
  5
40B
102
{ACAD_REACTORS
330
407
102
}
330
407
100
AcDbXrecord
340
40A
  0
DICTIONARY
  5
40C
330
17
100
AcDbDictionary
280
     1
281
     1
  3
ACAD_XREC_ROUNDTRIP
360
40D
  0
DICTIONARY
  5
40E
330
19
100
AcDbDictionary
280
     1
281
     1
  3
ACAD_XREC_ROUNDTRIP
360
40F
  0
XRECORD
  5
40D
102
{ACAD_REACTORS
330
40C
102
}
330
40C
100
AcDbXrecord
102
SHADEPLOT
 70
     0
102
SHADEPLOTRESLEVEL
 70
     0
102
SHADEPLOTCUSTOMDPI
 70
     0
  0
XRECORD
  5
40F
102
{ACAD_REACTORS
330
40E
102
}
330
40E
100
AcDbXrecord
102
SHADEPLOT
 70
     0
102
SHADEPLOTRESLEVEL
 70
     0
102
SHADEPLOTCUSTOMDPI
 70
     0
  0
ENDSEC
  0
EOF
