  0
SECTION
  2
HEADER
  9
$ACADVER
  1
AC1015
  9
$ACADMAINTVER
 70
     6
  9
$DWGCODEPAGE
  3
ANSI_1252
  9
$INSBASE
 10
0.0
 20
0.0
 30
0.0
  9
$EXTMIN
 10
-0.920695088005798
 20
12.60810010282988
 30
-0.0015258207003612
  9
$EXTMAX
 10
116.9685648330746
 20
105.6838436652211
 30
0.0000000349246008
  9
$LIMMIN
 10
-1.052304416232639
 20
12.61094428168403
  9
$LIMMAX
 10
117.1001736111111
 20
105.8161078559028
  9
$ORTHOMODE
 70
     0
  9
$REGENMODE
 70
     1
  9
$FILLMODE
 70
     1
  9
$QTEXTMODE
 70
     0
  9
$MIRRTEXT
 70
     1
  9
$LTSCALE
 40
1.0
  9
$ATTMODE
 70
     1
  9
$TEXTSIZE
 40
0.2
  9
$TRACEWID
 40
0.05
  9
$TEXTSTYLE
  7
STANDARD
  9
$CLAYER
  8
0
  9
$CELTYPE
  6
CONTINUOUS
  9
$CECOLOR
 62
   256
  9
$CELTSCALE
 40
1.0
  9
$DISPSILH
 70
     0
  9
$DIMSCALE
 40
1.0
  9
$DIMASZ
 40
0.18
  9
$DIMEXO
 40
0.0625
  9
$DIMDLI
 40
0.38
  9
$DIMRND
 40
0.0
  9
$DIMDLE
 40
0.0
  9
$DIMEXE
 40
0.18
  9
$DIMTP
 40
0.0
  9
$DIMTM
 40
0.0
  9
$DIMTXT
 40
0.18
  9
$DIMCEN
 40
0.09
  9
$DIMTSZ
 40
0.0
  9
$DIMTOL
 70
     0
  9
$DIMLIM
 70
     0
  9
$DIMTIH
 70
     1
  9
$DIMTOH
 70
     1
  9
$DIMSE1
 70
     0
  9
$DIMSE2
 70
     0
  9
$DIMTAD
 70
     0
  9
$DIMZIN
 70
     0
  9
$DIMBLK
  1

  9
$DIMASO
 70
     1
  9
$DIMSHO
 70
     1
  9
$DIMPOST
  1

  9
$DIMAPOST
  1

  9
$DIMALT
 70
     0
  9
$DIMALTD
 70
     2
  9
$DIMALTF
 40
25.4
  9
$DIMLFAC
 40
1.0
  9
$DIMTOFL
 70
     0
  9
$DIMTVP
 40
0.0
  9
$DIMTIX
 70
     0
  9
$DIMSOXD
 70
     0
  9
$DIMSAH
 70
     0
  9
$DIMBLK1
  1

  9
$DIMBLK2
  1

  9
$DIMSTYLE
  2
STANDARD
  9
$DIMCLRD
 70
     0
  9
$DIMCLRE
 70
     0
  9
$DIMCLRT
 70
     0
  9
$DIMTFAC
 40
1.0
  9
$DIMGAP
 40
0.09
  9
$DIMJUST
 70
     0
  9
$DIMSD1
 70
     0
  9
$DIMSD2
 70
     0
  9
$DIMTOLJ
 70
     1
  9
$DIMTZIN
 70
     0
  9
$DIMALTZ
 70
     0
  9
$DIMALTTZ
 70
     0
  9
$DIMUPT
 70
     0
  9
$DIMDEC
 70
     4
  9
$DIMTDEC
 70
     4
  9
$DIMALTU
 70
     2
  9
$DIMALTTD
 70
     2
  9
$DIMTXSTY
  7
STANDARD
  9
$DIMAUNIT
 70
     0
  9
$DIMADEC
 70
     0
  9
$DIMALTRND
 40
0.0
  9
$DIMAZIN
 70
     0
  9
$DIMDSEP
 70
    46
  9
$DIMATFIT
 70
     3
  9
$DIMFRAC
 70
     0
  9
$DIMLDRBLK
  1

  9
$DIMLUNIT
 70
     2
  9
$DIMLWD
 70
    -2
  9
$DIMLWE
 70
    -2
  9
$DIMTMOVE
 70
     0
  9
$LUNITS
 70
     2
  9
$LUPREC
 70
     4
  9
$SKETCHINC
 40
0.1
  9
$FILLETRAD
 40
0.0
  9
$AUNITS
 70
     0
  9
$AUPREC
 70
     0
  9
$MENU
  1
acad
  9
$ELEVATION
 40
0.0
  9
$PELEVATION
 40
0.0
  9
$THICKNESS
 40
0.0
  9
$LIMCHECK
 70
     0
  9
$CHAMFERA
 40
0.0
  9
$CHAMFERB
 40
0.0
  9
$CHAMFERC
 40
0.0
  9
$CHAMFERD
 40
0.0
  9
$SKPOLY
 70
     0
  9
$TDCREATE
 40
2444971.666666667
  9
$TDUCREATE
 40
2444972.0
  9
$TDUPDATE
 40
2452215.612709722
  9
$TDUUPDATE
 40
2452215.946043056
  9
$TDINDWG
 40
0.001078125
  9
$TDUSRTIMER
 40
0.001078125
  9
$USRTIMER
 70
     1
  9
$ANGBASE
 50
0.0
  9
$ANGDIR
 70
     0
  9
$PDMODE
 70
     0
  9
$PDSIZE
 40
0.0
  9
$PLINEWID
 40
0.0
  9
$SPLFRAME
 70
     0
  9
$SPLINETYPE
 70
     6
  9
$SPLINESEGS
 70
     8
  9
$HANDSEED
  5
D8
  9
$SURFTAB1
 70
     6
  9
$SURFTAB2
 70
     6
  9
$SURFTYPE
 70
     6
  9
$SURFU
 70
     6
  9
$SURFV
 70
     6
  9
$UCSBASE
  2

  9
$UCSNAME
  2

  9
$UCSORG
 10
0.0
 20
0.0
 30
0.0
  9
$UCSXDIR
 10
1.0
 20
0.0
 30
0.0
  9
$UCSYDIR
 10
0.0
 20
1.0
 30
0.0
  9
$UCSORTHOREF
  2

  9
$UCSORTHOVIEW
 70
     0
  9
$UCSORGTOP
 10
0.0
 20
0.0
 30
0.0
  9
$UCSORGBOTTOM
 10
0.0
 20
0.0
 30
0.0
  9
$UCSORGLEFT
 10
0.0
 20
0.0
 30
0.0
  9
$UCSORGRIGHT
 10
0.0
 20
0.0
 30
0.0
  9
$UCSORGFRONT
 10
0.0
 20
0.0
 30
0.0
  9
$UCSORGBACK
 10
0.0
 20
0.0
 30
0.0
  9
$PUCSBASE
  2

  9
$PUCSNAME
  2

  9
$PUCSORG
 10
0.0
 20
0.0
 30
0.0
  9
$PUCSXDIR
 10
1.0
 20
0.0
 30
0.0
  9
$PUCSYDIR
 10
0.0
 20
1.0
 30
0.0
  9
$PUCSORTHOREF
  2

  9
$PUCSORTHOVIEW
 70
     0
  9
$PUCSORGTOP
 10
0.0
 20
0.0
 30
0.0
  9
$PUCSORGBOTTOM
 10
0.0
 20
0.0
 30
0.0
  9
$PUCSORGLEFT
 10
0.0
 20
0.0
 30
0.0
  9
$PUCSORGRIGHT
 10
0.0
 20
0.0
 30
0.0
  9
$PUCSORGFRONT
 10
0.0
 20
0.0
 30
0.0
  9
$PUCSORGBACK
 10
0.0
 20
0.0
 30
0.0
  9
$USERI1
 70
     0
  9
$USERI2
 70
     0
  9
$USERI3
 70
     0
  9
$USERI4
 70
     0
  9
$USERI5
 70
     0
  9
$USERR1
 40
0.0
  9
$USERR2
 40
0.0
  9
$USERR3
 40
0.0
  9
$USERR4
 40
0.0
  9
$USERR5
 40
0.0
  9
$WORLDVIEW
 70
     1
  9
$SHADEDGE
 70
     3
  9
$SHADEDIF
 70
    70
  9
$TILEMODE
 70
     1
  9
$MAXACTVP
 70
    16
  9
$PINSBASE
 10
0.0
 20
0.0
 30
0.0
  9
$PLIMCHECK
 70
     0
  9
$PEXTMIN
 10
1.000000000000000E+20
 20
1.000000000000000E+20
 30
1.000000000000000E+20
  9
$PEXTMAX
 10
-1.000000000000000E+20
 20
-1.000000000000000E+20
 30
-1.000000000000000E+20
  9
$PLIMMIN
 10
0.0
 20
0.0
  9
$PLIMMAX
 10
12.0
 20
9.0
  9
$UNITMODE
 70
     0
  9
$VISRETAIN
 70
     0
  9
$PLINEGEN
 70
     1
  9
$PSLTSCALE
 70
     0
  9
$TREEDEPTH
 70
  3020
  9
$CMLSTYLE
  2
STANDARD
  9
$CMLJUST
 70
     0
  9
$CMLSCALE
 40
1.0
  9
$PROXYGRAPHICS
 70
     0
  9
$MEASUREMENT
 70
     0
  9
$CELWEIGHT
370
    -1
  9
$ENDCAPS
280
     0
  9
$JOINSTYLE
280
     0
  9
$LWDISPLAY
290
     0
  9
$INSUNITS
 70
     0
  9
$HYPERLINKBASE
  1

  9
$STYLESHEET
  1

  9
$XEDIT
290
     1
  9
$CEPSNTYPE
380
     0
  9
$PSTYLEMODE
290
     1
  9
$FINGERPRINTGUID
  2
{48E22102-CED6-11D5-923F-00805F198AD5}
  9
$VERSIONGUID
  2
{48E22104-CED6-11D5-923F-00805F198AD5}
  9
$EXTNAMES
290
     1
  9
$PSVPSCALE
 40
0.0
  9
$OLESTARTUP
290
     0
  0
ENDSEC
  0
SECTION
  2
CLASSES
  0
CLASS
  1
LWPOLYLINE
  2
AcDbPolyline
  3
AutoCAD 2000
 90
        0
280
     0
281
     1
  0
CLASS
  1
IMAGE
  2
AcDbRasterImage
  3
ISM
 90
      127
280
     0
281
     1
  0
CLASS
  1
OLE2FRAME
  2
AcDbOle2Frame
  3
AutoCAD 2000
 90
        0
280
     0
281
     1
  0
CLASS
  1
HATCH
  2
AcDbHatch
  3
AutoCAD 2000
 90
        0
280
     0
281
     1
  0
CLASS
  1
DICTIONARYVAR
  2
AcDbDictionaryVar
  3
AutoCAD 2000
 90
        0
280
     0
281
     0
  0
CLASS
  1
RASTERVARIABLES
  2
AcDbRasterVariables
  3
ISM
 90
        0
280
     0
281
     0
  0
CLASS
  1
IMAGEDEF
  2
AcDbRasterImageDef
  3
ISM
 90
        0
280
     0
281
     0
  0
CLASS
  1
IMAGEDEF_REACTOR
  2
AcDbRasterImageDefReactor
  3
ISM
 90
        1
280
     0
281
     0
  0
CLASS
  1
IDBUFFER
  2
AcDbIdBuffer
  3
AutoCAD 2000
 90
        0
280
     0
281
     0
  0
CLASS
  1
SPATIAL_FILTER
  2
AcDbSpatialFilter
  3
AutoCAD 2000
 90
        0
280
     0
281
     0
  0
CLASS
  1
XRECORD
  2
AcDbXrecord
  3
AutoCAD 2000
 90
        0
280
     0
281
     0
  0
CLASS
  1
SORTENTSTABLE
  2
AcDbSortentsTable
  3
AutoCAD 2000
 90
        0
280
     0
281
     0
  0
CLASS
  1
LAYER_INDEX
  2
AcDbLayerIndex
  3
AutoCAD 2000
 90
        0
280
     0
281
     0
  0
CLASS
  1
SPATIAL_INDEX
  2
AcDbSpatialIndex
  3
AutoCAD 2000
 90
        0
280
     0
281
     0
  0
CLASS
  1
OBJECT_PTR
  2
CAseDLPNTableRecord
  3
ASE-LPNTableRecord
 90
        1
280
     1
281
     0
  0
CLASS
  1
LAYOUT
  2
AcDbLayout
  3
ObjectDBX Classes
 90
        0
280
     0
281
     0
  0
CLASS
  1
PLOTSETTINGS
  2
AcDbPlotSettings
  3
AutoCAD 2000
 90
        0
280
     0
281
     0
  0
CLASS
  1
ACDBDICTIONARYWDFLT
  2
AcDbDictionaryWithDefault
  3
AutoCAD 2000
 90
        0
280
     0
281
     0
  0
CLASS
  1
ACDBPLACEHOLDER
  2
AcDbPlaceHolder
  3
ObjectDBX Classes
 90
        0
280
     0
281
     0
  0
CLASS
  1
VBAPROJECT
  2
AcDbVbaProject
  3
ObjectDBX Classes
 90
        0
280
     0
281
     0
  0
CLASS
  1
WIPEOUT
  2
AcDbWipeout
  3
WipeOut|AutoCAD Express Tool|expresstools@autodesk.com
 90
      127
280
     0
281
     1
  0
CLASS
  1
WIPEOUTVARIABLES
  2
AcDbWipeoutVariables
  3
WipeOut|AutoCAD Express Tool|expresstools@autodesk.com
 90
        0
280
     0
281
     0
  0
CLASS
  1
RTEXT
  2
RText
  3
RText|AutoCAD Express Tool|expresstools@autodesk.com
 90
        0
280
     0
281
     1
  0
CLASS
  1
ARCALIGNEDTEXT
  2
AcDbArcAlignedText
  3
ATEXT|AutoCAD Express Tool|expresstools@autodesk.com
 90
        0
280
     0
281
     1
  0
CLASS
  1
LONG_TRANSACTION
  2
AcDbLongTransaction
  3
AutoCAD 2000
 90
        0
280
     1
281
     0
  0
CLASS
  1
LWPOLYLINE
  2
AcDbPolyline
  3
AutoCAD 2000
 90
        0
280
     0
281
     1
  0
CLASS
  1
HATCH
  2
AcDbHatch
  3
AutoCAD 2000
 90
        0
280
     0
281
     1
  0
CLASS
  1
XRECORD
  2
AcDbXrecord
  3
AutoCAD 2000
 90
        0
280
     0
281
     0
  0
ENDSEC
  0
SECTION
  2
TABLES
  0
TABLE
  2
VPORT
  5
7
330
0
100
AcDbSymbolTable
 70
     2
  0
VPORT
  5
A4
330
7
100
AcDbSymbolTableRecord
100
AcDbViewportTableRecord
  2
*Active
 70
     0
 10
0.0
 20
0.0
 11
1.0
 21
1.0
 12
58.0239348725344
 22
59.14597188402549
 13
0.0
 23
0.0
 14
1.0
 24
1.0
 15
0.0
 25
0.0
 16
0.0
 26
0.0
 36
1.0
 17
0.0
 27
0.0
 37
0.0
 40
94.54150330353126
 41
1.836842105263158
 42
50.0
 43
0.0
 44
0.0
 50
0.0
 51
0.0
 71
     0
 72
   100
 73
     1
 74
     1
 75
     0
 76
     0
 77
     0
 78
     0
281
     0
 65
     1
110
0.0
120
0.0
130
0.0
111
1.0
121
0.0
131
0.0
112
0.0
122
1.0
132
0.0
 79
     0
146
0.0
  0
ENDTAB
  0
TABLE
  2
LTYPE
  5
4
330
0
100
AcDbSymbolTable
 70
     2
  0
LTYPE
  5
11
330
4
100
AcDbSymbolTableRecord
100
AcDbLinetypeTableRecord
  2
BYBLOCK
 70
     0
  3

 72
    65
 73
     0
 40
0.0
  0
LTYPE
  5
12
330
4
100
AcDbSymbolTableRecord
100
AcDbLinetypeTableRecord
  2
BYLAYER
 70
     0
  3

 72
    65
 73
     0
 40
0.0
  0
LTYPE
  5
13
330
4
100
AcDbSymbolTableRecord
100
AcDbLinetypeTableRecord
  2
CONTINUOUS
 70
     0
  3
Solid line
 72
    65
 73
     0
 40
0.0
  0
LTYPE
  5
2E
330
4
100
AcDbSymbolTableRecord
100
AcDbLinetypeTableRecord
  2
AI9-LTYPE1
 70
     0
  3
Illustrator Dash Style No.1
 72
    65
 73
     0
 40
0.0
  0
ENDTAB
  0
TABLE
  2
LAYER
  5
2
330
0
100
AcDbSymbolTable
 70
     2
  0
LAYER
  5
14
330
2
100
AcDbSymbolTableRecord
100
AcDbLayerTableRecord
  2
0
 70
     0
 62
     7
  6
CONTINUOUS
370
    -3
390
0
  0
LAYER
  5
21
330
2
100
AcDbSymbolTableRecord
100
AcDbLayerTableRecord
  2
LAYER_1
 70
     0
 62
     5
  6
CONTINUOUS
370
    -3
390
0
  0
ENDTAB
  0
TABLE
  2
STYLE
  5
3
330
0
100
AcDbSymbolTable
 70
     5
  0
STYLE
  5
17
330
3
100
AcDbSymbolTableRecord
100
AcDbTextStyleTableRecord
  2
STANDARD
 70
     0
 40
0.0
 41
1.0
 50
0.0
 71
     0
 42
0.2
  3
txt
  4

  0
STYLE
  5
1D
330
3
100
AcDbSymbolTableRecord
100
AcDbTextStyleTableRecord
  2
STD
 70
     0
 40
0.0
 41
1.0
 50
0.0
 71
     0
 42
0.2
  3
txt
  4

  0
STYLE
  5
1E
330
3
100
AcDbSymbolTableRecord
100
AcDbTextStyleTableRecord
  2
TATESTD
 70
     4
 40
0.0
 41
1.0
 50
0.0
 71
     0
 42
0.2
  3
txt
  4

  0
STYLE
  5
1F
330
3
100
AcDbSymbolTableRecord
100
AcDbTextStyleTableRecord
  2
KANJISTD
 70
     0
 40
0.0
 41
1.0
 50
0.0
 71
     0
 42
0.2
  3
txt
  4
extfont
  0
STYLE
  5
20
330
3
100
AcDbSymbolTableRecord
100
AcDbTextStyleTableRecord
  2
KANJITATE
 70
     4
 40
0.0
 41
1.0
 50
0.0
 71
     0
 42
0.2
  3
txt
  4
extfont
  0
ENDTAB
  0
TABLE
  2
VIEW
  5
5
330
0
100
AcDbSymbolTable
 70
     0
  0
ENDTAB
  0
TABLE
  2
UCS
  5
6
330
0
100
AcDbSymbolTable
 70
     0
  0
ENDTAB
  0
TABLE
  2
APPID
  5
8
330
0
100
AcDbSymbolTable
 70
     1
  0
APPID
  5
16
330
8
100
AcDbSymbolTableRecord
100
AcDbRegAppTableRecord
  2
ACAD
 70
     0
  0
ENDTAB
  0
TABLE
  2
DIMSTYLE
  5
9
330
0
100
AcDbSymbolTable
 70
     1
100
AcDbDimStyleTable
  0
DIMSTYLE
105
18
330
9
100
AcDbSymbolTableRecord
100
AcDbDimStyleTableRecord
  2
STANDARD
 70
     0
  3

  4

289
     0
340
17
  0
ENDTAB
  0
TABLE
  2
BLOCK_RECORD
  5
1
330
0
100
AcDbSymbolTable
 70
     1
  0
BLOCK_RECORD
  5
A
330
1
100
AcDbSymbolTableRecord
100
AcDbBlockTableRecord
  2
*MODEL_SPACE
340
9F
  0
BLOCK_RECORD
  5
B
330
1
100
AcDbSymbolTableRecord
100
AcDbBlockTableRecord
  2
*PAPER_SPACE
340
A0
  0
BLOCK_RECORD
  5
30
330
1
100
AcDbSymbolTableRecord
100
AcDbBlockTableRecord
  2
AI9-BLK1
340
0
102
{BLKREFS
331
31
102
}
  0
ENDTAB
  0
ENDSEC
  0
SECTION
  2
BLOCKS
  0
BLOCK
  5
D
330
A
100
AcDbEntity
  8
0
100
AcDbBlockBegin
  2
*MODEL_SPACE
 70
     0
 10
0.0
 20
0.0
 30
0.0
  3
*MODEL_SPACE
  1

  4

  0
ENDBLK
  5
E
330
A
100
AcDbEntity
  8
0
100
AcDbBlockEnd
  0
BLOCK
  5
F
330
B
100
AcDbEntity
 67
     1
  8
0
100
AcDbBlockBegin
  2
*PAPER_SPACE
 70
     0
 10
0.0
 20
0.0
 30
0.0
  3
*PAPER_SPACE
  1

  4

  0
ENDBLK
  5
10
330
B
100
AcDbEntity
 67
     1
  8
0
100
AcDbBlockEnd
  0
BLOCK
  5
32
330
30
100
AcDbEntity
  8
LAYER_1
  6
AI9-LTYPE1
 62
     7
100
AcDbBlockBegin
  2
AI9-BLK1
 70
     0
 10
0.0
 20
0.0
 30
0.0
  3
AI9-BLK1
  1

  4

  0
HATCH
  5
3E
330
30
100
AcDbEntity
  8
LAYER_1
 62
     7
100
AcDbHatch
 10
0.0
 20
0.0
 30
0.0
210
0.0
220
0.0
230
1.0
  2
SOLID
 70
     1
 71
     0
 91
        1
 92
        1
 93
        1
 72
     4
 94
        3
 73
     0
 74
     0
 95
       56
 96
       52
 40
0.0
 40
0.0
 40
0.0
 40
0.0
 40
1.0
 40
1.0
 40
1.0
 40
2.0
 40
2.0
 40
2.0
 40
3.0
 40
3.0
 40
3.0
 40
4.0
 40
4.0
 40
4.0
 40
5.0
 40
5.0
 40
5.0
 40
6.0
 40
6.0
 40
6.0
 40
7.0
 40
7.0
 40
7.0
 40
8.0
 40
8.0
 40
8.0
 40
9.0
 40
9.0
 40
9.0
 40
10.0
 40
10.0
 40
10.0
 40
11.0
 40
11.0
 40
11.0
 40
12.0
 40
12.0
 40
12.0
 40
13.0
 40
13.0
 40
13.0
 40
14.0
 40
14.0
 40
14.0
 40
15.0
 40
15.0
 40
15.0
 40
16.0
 40
16.0
 40
16.0
 40
17.0
 40
17.0
 40
17.0
 40
17.0
 10
-10.08258870442708
 20
5.488812255859375
 10
-10.0365966796875
 20
6.149237060546875
 10
-10.35647379557292
 20
6.648431396484375
 10
-10.98951009114583
 20
6.648431396484375
 10
-11.91141764322917
 20
6.648431396484375
 10
-12.01063639322917
 20
6.005059814453125
 10
-12.01063639322917
 20
5.514133707682292
 10
-12.01063639322917
 20
5.073850504557291
 10
-11.83545328776042
 20
4.803065999348958
 10
-11.46958414713542
 20
4.650620524088541
 10
-11.16469319661458
 20
4.523496500651041
 10
-10.8675537109375
 20
4.396372477213541
 10
-10.56266276041667
 20
4.269765218098958
 10
-9.48004150390625
 20
3.820697021484375
 10
-9.282120768229166
 20
3.397467041015625
 10
-9.282120768229166
 20
2.559275309244792
 10
-9.282120768229166
 20
1.356764729817708
 10
-9.960115559895833
 20
0.6539652506510416
 10
-11.05772298177083
 20
0.6539652506510416
 10
-11.62202962239583
 20
0.6539652506510416
 10
-12.29278971354167
 20
0.8317321777343749
 10
-12.62041829427083
 20
1.661655680338542
 10
-12.74237467447917
 20
1.974814860026042
 10
-12.73462320963542
 20
2.482794189453125
 10
-12.74237467447917
 20
2.821791585286458
 10
-12.74237467447917
 20
2.821791585286458
 10
-12.10985514322917
 20
2.821791585286458
 10
-12.10985514322917
 20
2.821791585286458
 10
-12.14034423828125
 20
1.881797281901042
 10
-11.98014729817708
 20
1.289068603515625
 10
-11.02723388671875
 20
1.289068603515625
 10
-10.386962890625
 20
1.289068603515625
 10
-9.937377929687498
 20
1.653387451171875
 10
-9.937377929687498
 20
2.398044840494792
 10
-9.937377929687498
 20
3.363360595703125
 10
-10.28826090494792
 20
3.372145589192708
 10
-10.8675537109375
 20
3.617608642578125
 10
-11.17967936197917
 20
3.753000895182292
 10
-11.6830078125
 20
3.930767822265625
 10
-11.98789876302083
 20
4.108534749348958
 10
-12.52895100911458
 20
4.413425699869792
 10
-12.6658935546875
 20
4.921405029296874
 10
-12.6658935546875
 20
5.547723388671875
 10
-12.6658935546875
 20
6.597788492838541
 10
-12.00288492838542
 20
7.283534749348958
 10
-11.07322591145833
 20
7.283534749348958
 10
-10.02884521484375
 20
7.283534749348958
 10
-9.38857421875
 20
6.682537841796875
 10
-9.449552408854165
 20
5.488812255859375
 10
-9.449552408854165
 20
5.488812255859375
 10
-10.08258870442708
 20
5.488812255859375
 10
-10.08258870442708
 20
5.488812255859375
 97
        0
 75
     0
 76
     1
 98
        1
 10
0.0
 20
0.0
  0
HATCH
  5
3D
330
30
100
AcDbEntity
  8
LAYER_1
 62
     7
100
AcDbHatch
 10
0.0
 20
0.0
 30
0.0
210
0.0
220
0.0
230
1.0
  2
SOLID
 70
     1
 71
     0
 91
        2
 92
       16
 93
        1
 72
     4
 94
        3
 73
     0
 74
     0
 95
       20
 96
       16
 40
0.0
 40
0.0
 40
0.0
 40
0.0
 40
1.0
 40
1.0
 40
1.0
 40
2.0
 40
2.0
 40
2.0
 40
3.0
 40
3.0
 40
3.0
 40
4.0
 40
4.0
 40
4.0
 40
5.0
 40
5.0
 40
5.0
 40
5.0
 10
-7.606770833333333
 20
4.133856201171875
 10
-7.606770833333333
 20
4.133856201171875
 10
-6.989754231770832
 20
4.133856201171875
 10
-6.989754231770832
 20
4.133856201171875
 10
-6.120556640625
 20
4.142641194661458
 10
-5.587255859375
 20
4.278033447265624
 10
-5.59500732421875
 20
5.369956461588541
 10
-5.59500732421875
 20
6.394700113932291
 10
-6.181534830729166
 20
6.538360595703124
 10
-6.951513671875
 20
6.521824137369791
 10
-6.951513671875
 20
6.521824137369791
 10
-7.606770833333333
 20
6.521824137369791
 10
-7.606770833333333
 20
6.521824137369791
 10
-7.606770833333333
 20
6.521824137369791
 10
-7.606770833333333
 20
4.133856201171875
 10
-7.606770833333333
 20
4.133856201171875
 97
        0
 92
        1
 93
        1
 72
     4
 94
        3
 73
     0
 74
     0
 95
       32
 96
       28
 40
0.0
 40
0.0
 40
0.0
 40
0.0
 40
1.0
 40
1.0
 40
1.0
 40
2.0
 40
2.0
 40
2.0
 40
3.0
 40
3.0
 40
3.0
 40
4.0
 40
4.0
 40
4.0
 40
5.0
 40
5.0
 40
5.0
 40
6.0
 40
6.0
 40
6.0
 40
7.0
 40
7.0
 40
7.0
 40
8.0
 40
8.0
 40
8.0
 40
9.0
 40
9.0
 40
9.0
 40
9.0
 10
-8.23980712890625
 20
0.8064107259114582
 10
-8.23980712890625
 20
0.8064107259114582
 10
-8.23980712890625
 20
7.156410725911457
 10
-8.23980712890625
 20
7.156410725911457
 10
-8.23980712890625
 20
7.156410725911457
 10
-6.738090006510416
 20
7.156410725911457
 10
-6.738090006510416
 20
7.156410725911457
 10
-6.29573974609375
 20
7.156410725911457
 10
-5.739701334635416
 20
7.097499593098958
 10
-5.4043212890625
 20
6.741965738932291
 10
-5.061189778645833
 20
6.386431884765624
 10
-4.9392333984375
 20
5.894989013671874
 10
-4.9392333984375
 20
5.387009684244791
 10
-4.9392333984375
 20
4.684210205078125
 10
-5.12991943359375
 20
3.998463948567708
 10
-5.747452799479166
 20
3.685304768880208
 10
-6.14381103515625
 20
3.498752848307291
 10
-6.791316731770833
 20
3.498752848307291
 10
-7.22591552734375
 20
3.498752848307291
 10
-7.22591552734375
 20
3.498752848307291
 10
-7.606770833333333
 20
3.498752848307291
 10
-7.606770833333333
 20
3.498752848307291
 10
-7.606770833333333
 20
3.498752848307291
 10
-7.606770833333333
 20
0.8064107259114582
 10
-7.606770833333333
 20
0.8064107259114582
 10
-7.606770833333333
 20
0.8064107259114582
 10
-8.23980712890625
 20
0.8064107259114582
 10
-8.23980712890625
 20
0.8064107259114582
 97
        0
 75
     0
 76
     1
 98
        1
 10
0.0
 20
0.0
  0
HATCH
  5
3C
330
30
100
AcDbEntity
  8
LAYER_1
 62
     7
100
AcDbHatch
 10
0.0
 20
0.0
 30
0.0
210
0.0
220
0.0
230
1.0
  2
SOLID
 70
     1
 71
     0
 91
        1
 92
        1
 93
        1
 72
     4
 94
        3
 73
     0
 74
     0
 95
       41
 96
       37
 40
0.0
 40
0.0
 40
0.0
 40
0.0
 40
1.0
 40
1.0
 40
1.0
 40
2.0
 40
2.0
 40
2.0
 40
3.0
 40
3.0
 40
3.0
 40
4.0
 40
4.0
 40
4.0
 40
5.0
 40
5.0
 40
5.0
 40
6.0
 40
6.0
 40
6.0
 40
7.0
 40
7.0
 40
7.0
 40
8.0
 40
8.0
 40
8.0
 40
9.0
 40
9.0
 40
9.0
 40
10.0
 40
10.0
 40
10.0
 40
11.0
 40
11.0
 40
11.0
 40
12.0
 40
12.0
 40
12.0
 40
12.0
 10
-4.094840494791666
 20
0.8064107259114582
 10
-4.094840494791666
 20
0.8064107259114582
 10
-4.094840494791666
 20
7.156410725911457
 10
-4.094840494791666
 20
7.156410725911457
 10
-4.094840494791666
 20
7.156410725911457
 10
-1.2371337890625
 20
7.156410725911457
 10
-1.2371337890625
 20
7.156410725911457
 10
-1.2371337890625
 20
7.156410725911457
 10
-1.2371337890625
 20
6.521824137369791
 10
-1.2371337890625
 20
6.521824137369791
 10
-1.2371337890625
 20
6.521824137369791
 10
-3.462320963541667
 20
6.521824137369791
 10
-3.462320963541667
 20
6.521824137369791
 10
-3.462320963541667
 20
6.521824137369791
 10
-3.462320963541667
 20
4.421693929036458
 10
-3.462320963541667
 20
4.421693929036458
 10
-3.462320963541667
 20
4.421693929036458
 10
-1.374076334635417
 20
4.421693929036458
 10
-1.374076334635417
 20
4.421693929036458
 10
-1.374076334635417
 20
4.421693929036458
 10
-1.374076334635417
 20
3.786590576171875
 10
-1.374076334635417
 20
3.786590576171875
 10
-1.374076334635417
 20
3.786590576171875
 10
-3.462320963541667
 20
3.786590576171875
 10
-3.462320963541667
 20
3.786590576171875
 10
-3.462320963541667
 20
3.786590576171875
 10
-3.462320963541667
 20
1.441514078776041
 10
-3.462320963541667
 20
1.441514078776041
 10
-3.462320963541667
 20
1.441514078776041
 10
-1.221630859375
 20
1.441514078776041
 10
-1.221630859375
 20
1.441514078776041
 10
-1.221630859375
 20
1.441514078776041
 10
-1.221630859375
 20
0.8064107259114582
 10
-1.221630859375
 20
0.8064107259114582
 10
-1.221630859375
 20
0.8064107259114582
 10
-4.094840494791666
 20
0.8064107259114582
 10
-4.094840494791666
 20
0.8064107259114582
 97
        0
 75
     0
 76
     1
 98
        1
 10
0.0
 20
0.0
  0
HATCH
  5
3B
330
30
100
AcDbEntity
  8
LAYER_1
 62
     7
100
AcDbHatch
 10
0.0
 20
0.0
 30
0.0
210
0.0
220
0.0
230
1.0
  2
SOLID
 70
     1
 71
     0
 91
        1
 92
        1
 93
        1
 72
     4
 94
        3
 73
     0
 74
     0
 95
       44
 96
       40
 40
0.0
 40
0.0
 40
0.0
 40
0.0
 40
1.0
 40
1.0
 40
1.0
 40
2.0
 40
2.0
 40
2.0
 40
3.0
 40
3.0
 40
3.0
 40
4.0
 40
4.0
 40
4.0
 40
5.0
 40
5.0
 40
5.0
 40
6.0
 40
6.0
 40
6.0
 40
7.0
 40
7.0
 40
7.0
 40
8.0
 40
8.0
 40
8.0
 40
9.0
 40
9.0
 40
9.0
 40
10.0
 40
10.0
 40
10.0
 40
11.0
 40
11.0
 40
11.0
 40
12.0
 40
12.0
 40
12.0
 40
13.0
 40
13.0
 40
13.0
 40
13.0
 10
2.352311197916666
 20
5.251617431640624
 10
2.336808268229166
 20
6.005059814453125
 10
2.115633138020833
 20
6.648431396484375
 10
1.322916666666667
 20
6.648431396484375
 10
0.2258260091145833
 20
6.648431396484375
 10
0.2103230794270833
 20
4.913136800130208
 10
0.2103230794270833
 20
4.074428304036458
 10
0.179833984375
 20
3.210915120442708
 10
0.1648478190104167
 20
1.289068603515625
 10
1.322916666666667
 20
1.289068603515625
 10
2.077909342447917
 20
1.289068603515625
 10
2.237589518229167
 20
1.974814860026042
 10
2.314070638020833
 20
2.669346110026042
 10
2.329056803385416
 20
2.813006591796875
 10
2.336808268229166
 20
2.957183837890625
 10
2.352311197916666
 20
3.100844319661458
 10
2.352311197916666
 20
3.100844319661458
 10
2.984830729166666
 20
3.100844319661458
 10
2.984830729166666
 20
3.100844319661458
 10
2.969327799479166
 20
2.974237060546875
 10
2.969327799479166
 20
2.838328043619792
 10
2.954341634114583
 20
2.711720784505208
 10
2.91610107421875
 20
2.194956461588542
 10
2.893363444010416
 20
1.805832926432291
 10
2.618961588541667
 20
1.365549723307292
 10
2.321822102864583
 20
0.9082132975260416
 10
1.9254638671875
 20
0.6539652506510416
 10
1.37666015625
 20
0.6539652506510416
 10
-0.3839558919270833
 20
0.6539652506510416
 10
-0.44493408203125
 20
2.542222086588541
 10
-0.44493408203125
 20
4.057891845703125
 10
-0.44493408203125
 20
5.488812255859375
 10
-0.2547648111979167
 20
7.283534749348958
 10
1.36890869140625
 20
7.283534749348958
 10
2.45101318359375
 20
7.283534749348958
 10
3.01531982421875
 20
6.386431884765624
 10
2.984830729166666
 20
5.251617431640624
 10
2.984830729166666
 20
5.251617431640624
 10
2.352311197916666
 20
5.251617431640624
 10
2.352311197916666
 20
5.251617431640624
 97
        0
 75
     0
 76
     1
 98
        1
 10
0.0
 20
0.0
  0
HATCH
  5
3A
330
30
100
AcDbEntity
  8
LAYER_1
 62
     7
100
AcDbHatch
 10
0.0
 20
0.0
 30
0.0
210
0.0
220
0.0
230
1.0
  2
SOLID
 70
     1
 71
     0
 91
        1
 92
        1
 93
        1
 72
     4
 94
        3
 73
     0
 74
     0
 95
       17
 96
       13
 40
0.0
 40
0.0
 40
0.0
 40
0.0
 40
1.0
 40
1.0
 40
1.0
 40
2.0
 40
2.0
 40
2.0
 40
3.0
 40
3.0
 40
3.0
 40
4.0
 40
4.0
 40
4.0
 40
4.0
 10
4.133597819010416
 20
0.8064107259114582
 10
4.133597819010416
 20
0.8064107259114582
 10
4.133597819010416
 20
7.156410725911457
 10
4.133597819010416
 20
7.156410725911457
 10
4.133597819010416
 20
7.156410725911457
 10
4.766634114583333
 20
7.156410725911457
 10
4.766634114583333
 20
7.156410725911457
 10
4.766634114583333
 20
7.156410725911457
 10
4.766634114583333
 20
0.8064107259114582
 10
4.766634114583333
 20
0.8064107259114582
 10
4.766634114583333
 20
0.8064107259114582
 10
4.133597819010416
 20
0.8064107259114582
 10
4.133597819010416
 20
0.8064107259114582
 97
        0
 75
     0
 76
     1
 98
        1
 10
0.0
 20
0.0
  0
HATCH
  5
39
330
30
100
AcDbEntity
  8
LAYER_1
 62
     7
100
AcDbHatch
 10
0.0
 20
0.0
 30
0.0
210
0.0
220
0.0
230
1.0
  2
SOLID
 70
     1
 71
     0
 91
        1
 92
        1
 93
        1
 72
     4
 94
        3
 73
     0
 74
     0
 95
       35
 96
       31
 40
0.0
 40
0.0
 40
0.0
 40
0.0
 40
1.0
 40
1.0
 40
1.0
 40
2.0
 40
2.0
 40
2.0
 40
3.0
 40
3.0
 40
3.0
 40
4.0
 40
4.0
 40
4.0
 40
5.0
 40
5.0
 40
5.0
 40
6.0
 40
6.0
 40
6.0
 40
7.0
 40
7.0
 40
7.0
 40
8.0
 40
8.0
 40
8.0
 40
9.0
 40
9.0
 40
9.0
 40
10.0
 40
10.0
 40
10.0
 40
10.0
 10
6.0678466796875
 20
0.8064107259114582
 10
6.0678466796875
 20
0.8064107259114582
 10
6.0678466796875
 20
7.156410725911457
 10
6.0678466796875
 20
7.156410725911457
 10
6.0678466796875
 20
7.156410725911457
 10
8.750887044270833
 20
7.156410725911457
 10
8.750887044270833
 20
7.156410725911457
 10
8.750887044270833
 20
7.156410725911457
 10
8.750887044270833
 20
6.521824137369791
 10
8.750887044270833
 20
6.521824137369791
 10
8.750887044270833
 20
6.521824137369791
 10
6.700366210937499
 20
6.521824137369791
 10
6.700366210937499
 20
6.521824137369791
 10
6.700366210937499
 20
6.521824137369791
 10
6.700366210937499
 20
4.438747151692708
 10
6.700366210937499
 20
4.438747151692708
 10
6.700366210937499
 20
4.438747151692708
 10
8.606193033854165
 20
4.438747151692708
 10
8.606193033854165
 20
4.438747151692708
 10
8.606193033854165
 20
4.438747151692708
 10
8.606193033854165
 20
3.803643798828125
 10
8.606193033854165
 20
3.803643798828125
 10
8.606193033854165
 20
3.803643798828125
 10
6.700366210937499
 20
3.803643798828125
 10
6.700366210937499
 20
3.803643798828125
 10
6.700366210937499
 20
3.803643798828125
 10
6.700366210937499
 20
0.8064107259114582
 10
6.700366210937499
 20
0.8064107259114582
 10
6.700366210937499
 20
0.8064107259114582
 10
6.0678466796875
 20
0.8064107259114582
 10
6.0678466796875
 20
0.8064107259114582
 97
        0
 75
     0
 76
     1
 98
        1
 10
0.0
 20
0.0
  0
HATCH
  5
38
330
30
100
AcDbEntity
  8
LAYER_1
 62
     7
100
AcDbHatch
 10
0.0
 20
0.0
 30
0.0
210
0.0
220
0.0
230
1.0
  2
SOLID
 70
     1
 71
     0
 91
        1
 92
        1
 93
        1
 72
     4
 94
        3
 73
     0
 74
     0
 95
       32
 96
       28
 40
0.0
 40
0.0
 40
0.0
 40
0.0
 40
1.0
 40
1.0
 40
1.0
 40
2.0
 40
2.0
 40
2.0
 40
3.0
 40
3.0
 40
3.0
 40
4.0
 40
4.0
 40
4.0
 40
5.0
 40
5.0
 40
5.0
 40
6.0
 40
6.0
 40
6.0
 40
7.0
 40
7.0
 40
7.0
 40
8.0
 40
8.0
 40
8.0
 40
9.0
 40
9.0
 40
9.0
 40
9.0
 10
11.00501302083333
 20
3.973142496744791
 10
11.00501302083333
 20
3.973142496744791
 10
12.346533203125
 20
7.156410725911457
 10
12.346533203125
 20
7.156410725911457
 10
12.346533203125
 20
7.156410725911457
 10
13.047265625
 20
7.156410725911457
 10
13.047265625
 20
7.156410725911457
 10
13.047265625
 20
7.156410725911457
 10
11.31765543619792
 20
3.270343017578125
 10
11.31765543619792
 20
3.270343017578125
 10
11.31765543619792
 20
3.270343017578125
 10
11.31765543619792
 20
0.8064107259114582
 10
11.31765543619792
 20
0.8064107259114582
 10
11.31765543619792
 20
0.8064107259114582
 10
10.684619140625
 20
0.8064107259114582
 10
10.684619140625
 20
0.8064107259114582
 10
10.684619140625
 20
0.8064107259114582
 10
10.684619140625
 20
3.270343017578125
 10
10.684619140625
 20
3.270343017578125
 10
10.684619140625
 20
3.270343017578125
 10
8.9699951171875
 20
7.156410725911457
 10
8.9699951171875
 20
7.156410725911457
 10
8.9699951171875
 20
7.156410725911457
 10
9.671244303385416
 20
7.156410725911457
 10
9.671244303385416
 20
7.156410725911457
 10
9.671244303385416
 20
7.156410725911457
 10
11.00501302083333
 20
3.973142496744791
 10
11.00501302083333
 20
3.973142496744791
 97
        0
 75
     0
 76
     1
 98
        1
 10
0.0
 20
0.0
  0
HATCH
  5
37
330
30
100
AcDbEntity
  8
LAYER_1
 62
     7
100
AcDbHatch
 10
0.0
 20
0.0
 30
0.0
210
0.0
220
0.0
230
1.0
  2
SOLID
 70
     1
 71
     0
 91
        2
 92
       16
 93
        1
 72
     4
 94
        3
 73
     0
 74
     0
 95
       17
 96
       13
 40
0.0
 40
0.0
 40
0.0
 40
0.0
 40
1.0
 40
1.0
 40
1.0
 40
2.0
 40
2.0
 40
2.0
 40
3.0
 40
3.0
 40
3.0
 40
4.0
 40
4.0
 40
4.0
 40
4.0
 10
-11.00449625651042
 20
-1.289068603515625
 10
-11.00449625651042
 20
-1.289068603515625
 10
-11.01999918619792
 20
-1.289068603515625
 10
-11.01999918619792
 20
-1.289068603515625
 10
-11.01999918619792
 20
-1.289068603515625
 10
-11.77447509765625
 20
-4.667156982421875
 10
-11.77447509765625
 20
-4.667156982421875
 10
-11.77447509765625
 20
-4.667156982421875
 10
-10.26500651041667
 20
-4.667156982421875
 10
-10.26500651041667
 20
-4.667156982421875
 10
-10.26500651041667
 20
-4.667156982421875
 10
-11.00449625651042
 20
-1.289068603515625
 10
-11.00449625651042
 20
-1.289068603515625
 97
        0
 92
        1
 93
        1
 72
     4
 94
        3
 73
     0
 74
     0
 95
       29
 96
       25
 40
0.0
 40
0.0
 40
0.0
 40
0.0
 40
1.0
 40
1.0
 40
1.0
 40
2.0
 40
2.0
 40
2.0
 40
3.0
 40
3.0
 40
3.0
 40
4.0
 40
4.0
 40
4.0
 40
5.0
 40
5.0
 40
5.0
 40
6.0
 40
6.0
 40
6.0
 40
7.0
 40
7.0
 40
7.0
 40
8.0
 40
8.0
 40
8.0
 40
8.0
 10
-11.416357421875
 20
-0.7810892740885416
 10
-11.416357421875
 20
-0.7810892740885416
 10
-10.57764892578125
 20
-0.7810892740885416
 10
-10.57764892578125
 20
-0.7810892740885416
 10
-10.57764892578125
 20
-0.7810892740885416
 10
-8.969478352864583
 20
-7.131089274088541
 10
-8.969478352864583
 20
-7.131089274088541
 10
-8.969478352864583
 20
-7.131089274088541
 10
-9.670727539062499
 20
-7.131089274088541
 10
-9.670727539062499
 20
-7.131089274088541
 10
-9.670727539062499
 20
-7.131089274088541
 10
-10.1203125
 20
-5.302260335286458
 10
-10.1203125
 20
-5.302260335286458
 10
-10.1203125
 20
-5.302260335286458
 10
-11.92692057291667
 20
-5.302260335286458
 10
-11.92692057291667
 20
-5.302260335286458
 10
-11.92692057291667
 20
-5.302260335286458
 10
-12.34601643880208
 20
-7.131089274088541
 10
-12.34601643880208
 20
-7.131089274088541
 10
-12.34601643880208
 20
-7.131089274088541
 10
-13.047265625
 20
-7.131089274088541
 10
-13.047265625
 20
-7.131089274088541
 10
-13.047265625
 20
-7.131089274088541
 10
-11.416357421875
 20
-0.7810892740885416
 10
-11.416357421875
 20
-0.7810892740885416
 97
        0
 75
     0
 76
     1
 98
        1
 10
0.0
 20
0.0
  0
HATCH
  5
36
330
30
100
AcDbEntity
  8
LAYER_1
 62
     7
100
AcDbHatch
 10
0.0
 20
0.0
 30
0.0
210
0.0
220
0.0
230
1.0
  2
SOLID
 70
     1
 71
     0
 91
        1
 92
        1
 93
        1
 72
     4
 94
        3
 73
     0
 74
     0
 95
       53
 96
       49
 40
0.0
 40
0.0
 40
0.0
 40
0.0
 40
1.0
 40
1.0
 40
1.0
 40
2.0
 40
2.0
 40
2.0
 40
3.0
 40
3.0
 40
3.0
 40
4.0
 40
4.0
 40
4.0
 40
5.0
 40
5.0
 40
5.0
 40
6.0
 40
6.0
 40
6.0
 40
7.0
 40
7.0
 40
7.0
 40
8.0
 40
8.0
 40
8.0
 40
9.0
 40
9.0
 40
9.0
 40
10.0
 40
10.0
 40
10.0
 40
11.0
 40
11.0
 40
11.0
 40
12.0
 40
12.0
 40
12.0
 40
13.0
 40
13.0
 40
13.0
 40
14.0
 40
14.0
 40
14.0
 40
15.0
 40
15.0
 40
15.0
 40
16.0
 40
16.0
 40
16.0
 40
16.0
 10
-5.457548014322916
 20
-0.7810892740885416
 10
-5.457548014322916
 20
-0.7810892740885416
 10
-4.825028483072916
 20
-0.7810892740885416
 10
-4.825028483072916
 20
-0.7810892740885416
 10
-4.825028483072916
 20
-0.7810892740885416
 10
-4.825028483072916
 20
-7.131089274088541
 10
-4.825028483072916
 20
-7.131089274088541
 10
-4.825028483072916
 20
-7.131089274088541
 10
-5.86165771484375
 20
-7.131089274088541
 10
-5.86165771484375
 20
-7.131089274088541
 10
-5.86165771484375
 20
-7.131089274088541
 10
-7.462076822916666
 20
-2.050779215494792
 10
-7.462076822916666
 20
-2.050779215494792
 10
-7.553544108072916
 20
-1.762941487630208
 10
-7.622273763020833
 20
-1.475103759765625
 10
-7.67550048828125
 20
-1.094248453776042
 10
-7.67550048828125
 20
-1.094248453776042
 10
-7.69100341796875
 20
-1.094248453776042
 10
-7.69100341796875
 20
-1.094248453776042
 10
-7.683251953125
 20
-1.415675862630208
 10
-7.67550048828125
 20
-1.745888264973958
 10
-7.67550048828125
 20
-2.067832438151041
 10
-7.67550048828125
 20
-2.067832438151041
 10
-7.67550048828125
 20
-7.131089274088541
 10
-7.67550048828125
 20
-7.131089274088541
 10
-7.67550048828125
 20
-7.131089274088541
 10
-8.308020019531249
 20
-7.131089274088541
 10
-8.308020019531249
 20
-7.131089274088541
 10
-8.308020019531249
 20
-7.131089274088541
 10
-8.308020019531249
 20
-0.7810892740885416
 10
-8.308020019531249
 20
-0.7810892740885416
 10
-8.308020019531249
 20
-0.7810892740885416
 10
-7.279142252604166
 20
-0.7810892740885416
 10
-7.279142252604166
 20
-0.7810892740885416
 10
-7.279142252604166
 20
-0.7810892740885416
 10
-5.655985514322916
 20
-5.979738362630208
 10
-5.655985514322916
 20
-5.979738362630208
 10
-5.587255859375
 20
-6.174041748046874
 10
-5.534029134114583
 20
-6.377646891276041
 10
-5.457548014322916
 20
-6.673752848307291
 10
-5.457548014322916
 20
-6.673752848307291
 10
-5.442561848958333
 20
-6.673752848307291
 10
-5.442561848958333
 20
-6.673752848307291
 10
-5.449796549479166
 20
-6.445343017578124
 10
-5.457548014322916
 20
-6.199879964192708
 10
-5.457548014322916
 20
-5.962685139973958
 10
-5.457548014322916
 20
-5.962685139973958
 10
-5.457548014322916
 20
-0.7810892740885416
 10
-5.457548014322916
 20
-0.7810892740885416
 97
        0
 75
     0
 76
     1
 98
        1
 10
0.0
 20
0.0
  0
HATCH
  5
35
330
30
100
AcDbEntity
  8
LAYER_1
 62
     7
100
AcDbHatch
 10
0.0
 20
0.0
 30
0.0
210
0.0
220
0.0
230
1.0
  2
SOLID
 70
     1
 71
     0
 91
        1
 92
        1
 93
        1
 72
     4
 94
        3
 73
     0
 74
     0
 95
       53
 96
       49
 40
0.0
 40
0.0
 40
0.0
 40
0.0
 40
1.0
 40
1.0
 40
1.0
 40
2.0
 40
2.0
 40
2.0
 40
3.0
 40
3.0
 40
3.0
 40
4.0
 40
4.0
 40
4.0
 40
5.0
 40
5.0
 40
5.0
 40
6.0
 40
6.0
 40
6.0
 40
7.0
 40
7.0
 40
7.0
 40
8.0
 40
8.0
 40
8.0
 40
9.0
 40
9.0
 40
9.0
 40
10.0
 40
10.0
 40
10.0
 40
11.0
 40
11.0
 40
11.0
 40
12.0
 40
12.0
 40
12.0
 40
13.0
 40
13.0
 40
13.0
 40
14.0
 40
14.0
 40
14.0
 40
15.0
 40
15.0
 40
15.0
 40
16.0
 40
16.0
 40
16.0
 40
16.0
 10
-0.1855183919270833
 20
-7.181732177734374
 10
-0.1855183919270833
 20
-7.181732177734374
 10
-0.6733439127604166
 20
-7.181732177734374
 10
-0.6733439127604166
 20
-7.181732177734374
 10
-0.6733439127604166
 20
-7.181732177734374
 10
-0.6733439127604166
 20
-6.191094970703125
 10
-0.6733439127604166
 20
-6.191094970703125
 10
-0.6733439127604166
 20
-6.191094970703125
 10
-0.6888468424479166
 20
-6.191094970703125
 10
-0.6888468424479166
 20
-6.191094970703125
 10
-0.8562784830729165
 20
-6.910947672526041
 10
-1.366841634114583
 20
-7.283534749348958
 10
-1.9998779296875
 20
-7.283534749348958
 10
-3.699515787760416
 20
-7.283534749348958
 10
-3.828706868489583
 20
-5.403546142578125
 10
-3.828706868489583
 20
-3.913714599609375
 10
-3.828706868489583
 20
-2.431634521484375
 10
-3.592545572916666
 20
-0.6539652506510416
 10
-1.938899739583333
 20
-0.6539652506510416
 10
-0.8490437825520832
 20
-0.6539652506510416
 10
-0.2237589518229166
 20
-1.441514078776041
 10
-0.2392618815104166
 20
-2.626454671223958
 10
-0.2392618815104166
 20
-2.626454671223958
 10
-0.8795328776041665
 20
-2.626454671223958
 10
-0.8795328776041665
 20
-2.626454671223958
 10
-0.886767578125
 20
-1.847690836588542
 10
-1.183907063802083
 20
-1.305605061848958
 10
-1.90841064453125
 20
-1.289068603515625
 10
-3.158463541666666
 20
-1.263230387369792
 10
-3.17344970703125
 20
-2.855381266276042
 10
-3.17344970703125
 20
-3.939036051432292
 10
-3.17344970703125
 20
-4.904351806640625
 10
-3.218924967447916
 20
-6.589003499348958
 10
-2.09134521484375
 20
-6.648431396484375
 10
-0.9172566731770833
 20
-6.707859293619791
 10
-0.8108032226562499
 20
-5.513616943359375
 10
-0.8185546874999999
 20
-4.506443277994792
 10
-0.8185546874999999
 20
-4.506443277994792
 10
-2.09134521484375
 20
-4.506443277994792
 10
-2.09134521484375
 20
-4.506443277994792
 10
-2.09134521484375
 20
-4.506443277994792
 10
-2.09134521484375
 20
-3.871339925130208
 10
-2.09134521484375
 20
-3.871339925130208
 10
-2.09134521484375
 20
-3.871339925130208
 10
-0.1855183919270833
 20
-3.871339925130208
 10
-0.1855183919270833
 20
-3.871339925130208
 10
-0.1855183919270833
 20
-3.871339925130208
 10
-0.1855183919270833
 20
-7.181732177734374
 10
-0.1855183919270833
 20
-7.181732177734374
 97
        0
 75
     0
 76
     1
 98
        1
 10
0.0
 20
0.0
  0
HATCH
  5
34
330
30
100
AcDbEntity
  8
LAYER_1
 62
     7
100
AcDbHatch
 10
0.0
 20
0.0
 30
0.0
210
0.0
220
0.0
230
1.0
  2
SOLID
 70
     1
 71
     0
 91
        1
 92
        1
 93
        1
 72
     4
 94
        3
 73
     0
 74
     0
 95
       23
 96
       19
 40
0.0
 40
0.0
 40
0.0
 40
0.0
 40
1.0
 40
1.0
 40
1.0
 40
2.0
 40
2.0
 40
2.0
 40
3.0
 40
3.0
 40
3.0
 40
4.0
 40
4.0
 40
4.0
 40
5.0
 40
5.0
 40
5.0
 40
6.0
 40
6.0
 40
6.0
 40
6.0
 10
1.046964518229167
 20
-7.131089274088541
 10
1.046964518229167
 20
-7.131089274088541
 10
1.046964518229167
 20
-0.7810892740885416
 10
1.046964518229167
 20
-0.7810892740885416
 10
1.046964518229167
 20
-0.7810892740885416
 10
1.679484049479167
 20
-0.7810892740885416
 10
1.679484049479167
 20
-0.7810892740885416
 10
1.679484049479167
 20
-0.7810892740885416
 10
1.679484049479167
 20
-6.495985921223958
 10
1.679484049479167
 20
-6.495985921223958
 10
1.679484049479167
 20
-6.495985921223958
 10
4.011641438802083
 20
-6.495985921223958
 10
4.011641438802083
 20
-6.495985921223958
 10
4.011641438802083
 20
-6.495985921223958
 10
4.011641438802083
 20
-7.131089274088541
 10
4.011641438802083
 20
-7.131089274088541
 10
4.011641438802083
 20
-7.131089274088541
 10
1.046964518229167
 20
-7.131089274088541
 10
1.046964518229167
 20
-7.131089274088541
 97
        0
 75
     0
 76
     1
 98
        1
 10
0.0
 20
0.0
  0
HATCH
  5
33
330
30
100
AcDbEntity
  8
LAYER_1
 62
     7
100
AcDbHatch
 10
0.0
 20
0.0
 30
0.0
210
0.0
220
0.0
230
1.0
  2
SOLID
 70
     1
 71
     0
 91
        1
 92
        1
 93
        1
 72
     4
 94
        3
 73
     0
 74
     0
 95
       41
 96
       37
 40
0.0
 40
0.0
 40
0.0
 40
0.0
 40
1.0
 40
1.0
 40
1.0
 40
2.0
 40
2.0
 40
2.0
 40
3.0
 40
3.0
 40
3.0
 40
4.0
 40
4.0
 40
4.0
 40
5.0
 40
5.0
 40
5.0
 40
6.0
 40
6.0
 40
6.0
 40
7.0
 40
7.0
 40
7.0
 40
8.0
 40
8.0
 40
8.0
 40
9.0
 40
9.0
 40
9.0
 40
10.0
 40
10.0
 40
10.0
 40
11.0
 40
11.0
 40
11.0
 40
12.0
 40
12.0
 40
12.0
 40
12.0
 10
4.787821451822916
 20
-7.131089274088541
 10
4.787821451822916
 20
-7.131089274088541
 10
4.787821451822916
 20
-0.7810892740885416
 10
4.787821451822916
 20
-0.7810892740885416
 10
4.787821451822916
 20
-0.7810892740885416
 10
7.646044921874999
 20
-0.7810892740885416
 10
7.646044921874999
 20
-0.7810892740885416
 10
7.646044921874999
 20
-0.7810892740885416
 10
7.646044921874999
 20
-1.415675862630208
 10
7.646044921874999
 20
-1.415675862630208
 10
7.646044921874999
 20
-1.415675862630208
 10
5.420857747395833
 20
-1.415675862630208
 10
5.420857747395833
 20
-1.415675862630208
 10
5.420857747395833
 20
-1.415675862630208
 10
5.420857747395833
 20
-3.515806070963541
 10
5.420857747395833
 20
-3.515806070963541
 10
5.420857747395833
 20
-3.515806070963541
 10
7.509102376302082
 20
-3.515806070963541
 10
7.509102376302082
 20
-3.515806070963541
 10
7.509102376302082
 20
-3.515806070963541
 10
7.509102376302082
 20
-4.150909423828125
 10
7.509102376302082
 20
-4.150909423828125
 10
7.509102376302082
 20
-4.150909423828125
 10
5.420857747395833
 20
-4.150909423828125
 10
5.420857747395833
 20
-4.150909423828125
 10
5.420857747395833
 20
-4.150909423828125
 10
5.420857747395833
 20
-6.495985921223958
 10
5.420857747395833
 20
-6.495985921223958
 10
5.420857747395833
 20
-6.495985921223958
 10
7.661547851562499
 20
-6.495985921223958
 10
7.661547851562499
 20
-6.495985921223958
 10
7.661547851562499
 20
-6.495985921223958
 10
7.661547851562499
 20
-7.131089274088541
 10
7.661547851562499
 20
-7.131089274088541
 10
7.661547851562499
 20
-7.131089274088541
 10
4.787821451822916
 20
-7.131089274088541
 10
4.787821451822916
 20
-7.131089274088541
 97
        0
 75
     0
 76
     1
 98
        1
 10
0.0
 20
0.0
  0
ENDBLK
  5
3F
330
30
100
AcDbEntity
  8
LAYER_1
100
AcDbBlockEnd
  0
ENDSEC
  0
SECTION
  2
ENTITIES
  0
LINE
  5
99
330
A
100
AcDbEntity
  8
LAYER_1
 62
     7
100
AcDbLine
 10
38.18354356553819
 20
66.29035508897569
 30
0.0
 11
38.18354356553819
 21
65.05890570746527
 31
0.0
  0
LWPOLYLINE
  5
8F
330
A
100
AcDbEntity
  8
LAYER_1
 62
     7
100
AcDbPolyline
 90
        8
 70
     1
 43
0.0
 10
48.97048204210069
 20
55.8884060329861
 10
59.14143744574653
 20
66.13635932074652
 10
93.89125434027777
 20
31.61753607855902
 10
90.57776150173611
 20
28.22704535590277
 10
88.72877875434027
 20
28.84354519314236
 10
89.0367702907986
 20
25.29905870225694
 10
87.34178331163194
 20
25.22206081814236
 10
83.56630316840277
 20
21.52357855902778
  0
LINE
  5
8E
330
A
100
AcDbEntity
  8
LAYER_1
 62
     7
100
AcDbLine
 10
77.96371663411458
 20
66.82985704210068
 30
0.0
 11
38.1001722547743
 21
66.82985704210068
 31
0.0
  0
LWPOLYLINE
  5
7E
330
A
100
AcDbEntity
  8
LAYER_1
 62
     7
100
AcDbPolyline
 90
       14
 70
     0
 43
0.0
 10
24.51822781032986
 20
66.82985704210068
 10
0.9294867621527777
 20
66.82985704210068
 10
0.9294867621527777
 20
82.54827745225694
 10
2.084971788194444
 20
84.16626654730902
 10
-0.9200127495659721
 20
86.01576605902777
 10
0.9294867621527777
 20
88.21149766710069
 10
0.8137315538194444
 20
101.9651801215278
 10
115.234137641059
 20
101.9718980577257
 10
115.2294867621528
 20
86.78832872178819
 10
116.9678819444444
 20
85.43750678168402
 10
113.7313869900174
 20
81.50803087022568
 10
115.234137641059
 20
80.3520290798611
 10
115.234137641059
 20
66.82985704210068
 10
90.84027777777777
 20
66.82985704210068
  0
LWPOLYLINE
  5
78
330
A
100
AcDbEntity
  8
LAYER_1
 62
     7
100
AcDbPolyline
 90
        4
 70
     1
 43
0.0
 10
26.10572781032986
 20
64.94625108506943
 10
26.10572781032986
 20
63.94476182725694
 10
28.64820827907986
 20
63.94476182725694
 10
28.64820827907986
 20
64.94625108506943
  0
LWPOLYLINE
  5
72
330
A
100
AcDbEntity
  8
LAYER_1
 62
     7
100
AcDbPolyline
 90
        4
 70
     1
 43
0.0
 10
30.55558539496527
 20
64.93901638454861
 10
30.55558539496527
 20
63.93752712673611
 10
33.09806586371528
 20
63.93752712673611
 10
33.09806586371528
 20
64.93901638454861
  0
LWPOLYLINE
  5
6C
330
A
100
AcDbEntity
  8
LAYER_1
 62
     7
100
AcDbPolyline
 90
        4
 70
     1
 43
0.0
 10
63.34066433376736
 20
39.97774929470486
 10
65.03616807725693
 20
38.24400499131944
 10
64.41966824001736
 20
37.58926459418402
 10
62.76292182074652
 20
39.2072536892361
  0
LWPOLYLINE
  5
66
330
A
100
AcDbEntity
  8
LAYER_1
 62
     7
100
AcDbPolyline
 90
        4
 70
     1
 43
0.0
 10
60.49019232855903
 20
42.82873806423611
 10
62.18517930772569
 20
41.09499376085069
 10
61.5686794704861
 20
40.44025336371527
 10
59.91193305121527
 20
42.05824245876736
  0
LINE
  5
65
330
A
100
AcDbEntity
  8
LAYER_1
 62
     7
100
AcDbLine
 10
49.74097764756944
 20
38.39800075954861
 30
0.0
 11
55.66723090277777
 21
28.41721462673611
 31
0.0
  0
SPLINE
  5
64
330
A
100
AcDbEntity
  8
LAYER_1
 62
     7
100
AcDbSpline
210
0.0
220
0.0
230
1.0
 70
     8
 71
     3
 72
     8
 73
     4
 74
     0
 42
0.0000000001
 43
0.0000000001
 40
0.0
 40
0.0
 40
0.0
 40
0.0
 40
1.0
 40
1.0
 40
1.0
 40
1.0
 10
40.10952419704861
 20
35.54701199001736
 30
0.0
 10
44.50150417751735
 20
36.24050971137152
 30
0.0
 10
52.97695583767361
 20
39.01398383246527
 30
0.0
 10
57.44593370225694
 20
42.86697862413194
 30
0.0
  0
LINE
  5
63
330
A
100
AcDbEntity
  8
LAYER_1
 62
     7
100
AcDbLine
 10
93.81425645616319
 20
31.69453396267361
 30
0.0
 11
95.97123074001735
 21
33.69751247829861
 31
0.0
  0
LINE
  5
62
330
A
100
AcDbEntity
  8
LAYER_1
 62
     7
100
AcDbLine
 10
81.3318142361111
 20
19.28908962673611
 30
0.0
 11
83.48930528428819
 21
21.52357855902778
 31
0.0
  0
LINE
  5
61
330
A
100
AcDbEntity
  8
LAYER_1
 62
     7
100
AcDbLine
 10
37.95254991319444
 20
62.97737901475694
 30
0.0
 11
37.95254991319444
 21
32.61902533637152
 31
0.0
  0
LWPOLYLINE
  5
58
330
A
100
AcDbEntity
  8
LAYER_1
 62
     7
100
AcDbPolyline
 90
        7
 70
     1
 43
0.0
 10
24.69961208767361
 20
92.0257351345486
 10
38.18354356553819
 20
92.0257351345486
 10
38.17889268663194
 20
66.37200385199652
 10
66.92339138454861
 20
38.16649034288194
 10
66.07589789496527
 20
37.39599473741319
 10
38.03006456163194
 20
64.90542670355902
 10
24.62261420355902
 20
65.02738308376736
  0
LWPOLYLINE
  5
52
330
A
100
AcDbEntity
  8
LAYER_1
 62
     7
100
AcDbPolyline
 90
        4
 70
     1
 43
0.0
 10
86.10878363715277
 20
65.45423041449652
 10
86.10878363715277
 20
64.47961290147569
 10
88.65178087022569
 20
64.47961290147569
 10
88.65178087022569
 20
65.45423041449652
  0
LWPOLYLINE
  5
4C
330
A
100
AcDbEntity
  8
LAYER_1
 62
     7
100
AcDbPolyline
 90
        4
 70
     1
 43
0.0
 10
82.02531195746528
 20
65.48110215928818
 10
82.02531195746528
 20
64.47961290147569
 10
84.56779242621528
 20
64.47961290147569
 10
84.56779242621528
 20
65.48110215928818
  0
SPLINE
  5
4B
330
A
100
AcDbEntity
  8
LAYER_1
 62
     7
100
AcDbSpline
210
0.0
220
0.0
230
1.0
 70
    11
 71
     3
 72
    35
 73
    31
 74
     0
 42
0.0000000001
 43
0.0000000001
 40
0.0
 40
0.0
 40
0.0
 40
0.0
 40
1.0
 40
1.0
 40
1.0
 40
2.0
 40
2.0
 40
2.0
 40
3.0
 40
3.0
 40
3.0
 40
4.0
 40
4.0
 40
4.0
 40
5.0
 40
5.0
 40
5.0
 40
6.0
 40
6.0
 40
6.0
 40
7.0
 40
7.0
 40
7.0
 40
8.0
 40
8.0
 40
8.0
 40
9.0
 40
9.0
 40
9.0
 40
10.0
 40
10.0
 40
10.0
 40
10.0
 10
90.96326768663194
 20
65.44286159939236
 30
0.0
 10
90.96326768663194
 20
65.44286159939236
 30
0.0
 10
90.96326768663194
 20
92.10273301866319
 30
0.0
 10
90.96326768663194
 20
92.10273301866319
 30
0.0
 10
90.96326768663194
 20
92.10273301866319
 30
0.0
 10
78.09583604600694
 20
92.10273301866319
 30
0.0
 10
78.09583604600694
 20
92.10273301866319
 30
0.0
 10
78.09583604600694
 20
92.10273301866319
 30
0.0
 10
78.09997016059027
 20
66.82985704210068
 30
0.0
 10
78.09997016059027
 20
66.82985704210068
 30
0.0
 10
78.09997016059027
 20
66.82985704210068
 30
0.0
 10
62.45441351996527
 20
66.82985704210068
 30
0.0
 10
61.37540961371527
 20
66.82985704210068
 30
0.0
 10
60.29692247178819
 20
66.82985704210068
 30
0.0
 10
59.29543321397569
 20
65.98236355251736
 30
0.0
 10
60.06592881944444
 20
65.2118679470486
 30
0.0
 10
60.83642442491319
 20
64.44137234157985
 30
0.0
 10
77.17082790798611
 20
48.26044786241319
 30
0.0
 10
77.17082790798611
 20
48.26044786241319
 30
0.0
 10
77.17082790798611
 20
48.26044786241319
 30
0.0
 10
78.01883816189235
 20
49.26193712022569
 30
0.0
 10
78.01883816189235
 20
49.26193712022569
 30
0.0
 10
78.01883816189235
 20
49.26193712022569
 30
0.0
 10
62.7624050564236
 20
64.44137234157985
 30
0.0
 10
62.30041775173611
 20
64.82636176215277
 30
0.0
 10
61.83791368272569
 20
65.2118679470486
 30
0.0
 10
61.76091579861111
 20
65.36586371527777
 30
0.0
 10
62.7624050564236
 20
65.44286159939236
 30
0.0
 10
63.76441107855902
 20
65.51985948350693
 30
0.0
 10
90.96326768663194
 20
65.44286159939236
 30
0.0
 10
90.96326768663194
 20
65.44286159939236
 30
0.0
  0
LINE
  5
4A
330
A
100
AcDbEntity
  8
LAYER_1
 62
     7
100
AcDbLine
 10
115.2506740993924
 20
105.6838161892361
 30
0.0
 11
115.2506740993924
 21
102.1010891384549
 31
0.0
  0
LINE
  5
49
330
A
100
AcDbEntity
  8
LAYER_1
 62
     7
100
AcDbLine
 10
115.2356879340278
 20
66.85311143663193
 30
0.0
 11
115.2356879340278
 21
63.27038438585069
 31
0.0
  0
LINE
  5
48
330
A
100
AcDbEntity
  8
LAYER_1
 62
     7
100
AcDbLine
 10
0.8121812608506944
 20
105.547907172309
 30
0.0
 11
0.8121812608506944
 21
101.9651801215278
 31
0.0
  0
LINE
  5
47
330
A
100
AcDbEntity
  8
LAYER_1
 62
     7
100
AcDbLine
 10
0.9310370551215277
 20
66.80660264756943
 30
0.0
 11
0.9310370551215277
 21
63.22335883246527
 31
0.0
  0
CIRCLE
  5
46
330
A
100
AcDbEntity
  8
LAYER_1
 62
     7
100
AcDbCircle
 10
29.57321641710069
 20
86.67102322048611
 30
0.0
 40
1.15341796875
  0
CIRCLE
  5
45
330
A
100
AcDbEntity
  8
LAYER_1
 62
     7
100
AcDbCircle
 10
33.69337836371528
 20
75.29393988715277
 30
0.0
 40
1.15341796875
  0
CIRCLE
  5
44
330
A
100
AcDbEntity
  8
LAYER_1
 62
     7
100
AcDbCircle
 10
86.17803005642361
 20
86.90511745876735
 30
0.0
 40
1.15341796875
  0
CIRCLE
  5
43
330
A
100
AcDbEntity
  8
LAYER_1
 62
     7
100
AcDbCircle
 10
82.4325222439236
 20
74.63842434353298
 30
0.0
 40
1.153676350911458
  0
HATCH
  5
42
330
A
100
AcDbEntity
  8
LAYER_1
 62
     7
100
AcDbHatch
 10
0.0
 20
0.0
 30
0.0
210
0.0
220
0.0
230
1.0
  2
SOLID
 70
     1
 71
     0
 91
        1
 92
        1
 93
        1
 72
     4
 94
        3
 73
     0
 74
     0
 95
       17
 96
       13
 40
0.0
 40
0.0
 40
0.0
 40
0.0
 40
1.0
 40
1.0
 40
1.0
 40
2.0
 40
2.0
 40
2.0
 40
3.0
 40
3.0
 40
3.0
 40
4.0
 40
4.0
 40
4.0
 40
4.0
 10
49.74097764756944
 20
37.58668077256944
 10
50.17092556423611
 20
37.58668077256944
 10
50.51922471788194
 20
37.94996609157986
 10
50.51922471788194
 20
38.39800075954861
 10
50.51922471788194
 20
38.84603542751736
 10
50.17092556423611
 20
39.20880398220486
 10
49.74097764756944
 20
39.20880398220486
 10
49.31154649522569
 20
39.20880398220486
 10
48.96324734157986
 20
38.84603542751736
 10
48.96324734157986
 20
38.39800075954861
 10
48.96324734157986
 20
37.94996609157986
 10
49.31154649522569
 20
37.58668077256944
 10
49.74097764756944
 20
37.58668077256944
 97
        0
 75
     0
 76
     1
 98
        1
 10
0.0
 20
0.0
  0
HATCH
  5
41
330
A
100
AcDbEntity
  8
LAYER_1
 62
     7
100
AcDbHatch
 10
0.0
 20
0.0
 30
0.0
210
0.0
220
0.0
230
1.0
  2
SOLID
 70
     1
 71
     0
 91
        1
 92
        3
 72
     0
 73
     1
 93
        3
 10
38.23470323350694
 20
35.45037706163194
 10
40.48211127387152
 20
36.43843044704861
 10
40.54102240668402
 20
34.66954616970486
 97
        0
 75
     0
 76
     1
 98
        1
 10
0.0
 20
0.0
  0
HATCH
  5
40
330
A
100
AcDbEntity
  8
LAYER_1
 62
     7
100
AcDbHatch
 10
0.0
 20
0.0
 30
0.0
210
0.0
220
0.0
230
1.0
  2
SOLID
 70
     1
 71
     0
 91
        1
 92
        3
 72
     0
 73
     1
 93
        3
 10
59.08149278428819
 20
43.81317409939236
 10
57.63041856553819
 20
41.83293321397569
 10
56.69404161241319
 20
43.33465033637152
 97
        0
 75
     0
 76
     1
 98
        1
 10
0.0
 20
0.0
  0
INSERT
  5
31
330
A
100
AcDbEntity
  8
LAYER_1
  6
AI9-LTYPE1
 62
     7
100
AcDbBlockReference
  2
AI9-BLK1
 10
60.68346218532986
 20
19.89447903103298
 30
0.0
  0
LINE
  5
2F
330
A
100
AcDbEntity
  8
LAYER_1
  6
AI9-LTYPE1
 62
     7
100
AcDbLine
 10
66.84639350043402
 20
38.16649034288194
 30
0.0
 11
77.09383002387152
 21
48.1834499782986
 31
0.0
  0
LWPOLYLINE
  5
29
330
A
100
AcDbEntity
  8
LAYER_1
 62
     7
100
AcDbPolyline
 90
        3
 70
     0
 43
0.0
 10
78.09997016059027
 20
66.82985704210068
 10
78.11857367621528
 20
65.51985948350693
 10
78.09583604600694
 20
66.82985704210068
  0
LWPOLYLINE
  5
24
330
A
100
AcDbEntity
  8
LAYER_1
 62
     7
100
AcDbPolyline
 90
        3
 70
     0
 43
0.0
 10
48.85421006944444
 20
56.1984646267361
 10
59.10681423611111
 20
66.45106879340277
 10
59.63598090277777
 20
65.9219021267361
  0
HATCH
  5
23
330
A
100
AcDbEntity
  8
LAYER_1
 62
     7
100
AcDbHatch
 10
0.0
 20
0.0
 30
0.0
210
0.0
220
0.0
230
1.0
  2
SOLID
 70
     1
 71
     0
 91
        2
 92
       16
 93
        1
 72
     4
 94
        3
 73
     0
 74
     0
 95
       17
 96
       13
 40
0.0
 40
0.0
 40
0.0
 40
0.0
 40
1.0
 40
1.0
 40
1.0
 40
2.0
 40
2.0
 40
2.0
 40
3.0
 40
3.0
 40
3.0
 40
4.0
 40
4.0
 40
4.0
 40
4.0
 10
38.00577663845485
 20
26.92738308376736
 10
38.79332546657986
 20
26.92738308376736
 10
38.76128607855902
 20
28.05806342230903
 10
38.76128607855902
 20
28.97221950954861
 10
38.76128607855902
 20
29.64556342230902
 10
38.83104926215277
 20
30.77572699652778
 10
38.00577663845485
 20
30.83308783637153
 10
37.16758490668403
 20
30.88373074001736
 10
37.25646837022569
 20
29.41043565538194
 10
37.25646837022569
 20
28.97221950954861
 10
37.25646837022569
 20
28.05806342230903
 10
37.12934434678819
 20
26.92738308376736
 10
38.00577663845485
 20
26.92738308376736
 97
        0
 92
        1
 93
        1
 72
     4
 94
        3
 73
     0
 74
     0
 95
       17
 96
       13
 40
0.0
 40
0.0
 40
0.0
 40
0.0
 40
1.0
 40
1.0
 40
1.0
 40
2.0
 40
2.0
 40
2.0
 40
3.0
 40
3.0
 40
3.0
 40
4.0
 40
4.0
 40
4.0
 40
4.0
 10
36.71024848090278
 20
28.88953721788194
 10
36.71024848090278
 20
29.77888861762153
 10
36.76709255642361
 20
31.30902777777778
 10
38.00577663845485
 20
31.30902777777778
 10
39.33902859157985
 20
31.30902777777778
 10
39.30750596788194
 20
29.79800889756944
 10
39.30750596788194
 20
28.88953721788194
 10
39.30750596788194
 20
27.81001654730903
 10
39.25014512803819
 20
26.45144314236111
 10
38.00577663845485
 20
26.45144314236111
 10
36.73556993272569
 20
26.45144314236111
 10
36.71024848090278
 20
28.04514431423611
 10
36.71024848090278
 20
28.88953721788194
 97
        0
 75
     0
 76
     1
 98
        1
 10
0.0
 20
0.0
  0
HATCH
  5
22
330
A
100
AcDbEntity
  8
LAYER_1
 62
     7
100
AcDbHatch
 10
0.0
 20
0.0
 30
0.0
210
0.0
220
0.0
230
1.0
  2
SOLID
 70
     1
 71
     0
 91
        2
 92
       16
 93
        1
 72
     4
 94
        3
 73
     0
 74
     0
 95
       17
 96
       13
 40
0.0
 40
0.0
 40
0.0
 40
0.0
 40
1.0
 40
1.0
 40
1.0
 40
2.0
 40
2.0
 40
2.0
 40
3.0
 40
3.0
 40
3.0
 40
4.0
 40
4.0
 40
4.0
 40
4.0
 10
40.85676540798611
 20
30.91525336371528
 10
40.55187445746527
 20
30.91525336371528
 10
40.29814317491319
 20
30.66152208116319
 10
40.30434434678819
 20
30.35663113064236
 10
40.30434434678819
 20
30.04553900824653
 10
40.55187445746527
 20
29.79800889756944
 10
40.86296657986111
 20
29.79800889756944
 10
41.16785753038194
 20
29.79800889756944
 10
41.42210557725694
 20
30.04553900824653
 10
41.42210557725694
 20
30.35663113064236
 10
41.42210557725694
 20
30.66152208116319
 10
41.16785753038194
 20
30.91525336371528
 10
40.85676540798611
 20
30.91525336371528
 97
        0
 92
        1
 93
        1
 72
     4
 94
        3
 73
     0
 74
     0
 95
       17
 96
       13
 40
0.0
 40
0.0
 40
0.0
 40
0.0
 40
1.0
 40
1.0
 40
1.0
 40
2.0
 40
2.0
 40
2.0
 40
3.0
 40
3.0
 40
3.0
 40
4.0
 40
4.0
 40
4.0
 40
4.0
 10
40.86296657986111
 20
29.40423448350694
 10
40.33586697048611
 20
29.40423448350694
 10
39.91056993272569
 20
29.82953152126736
 10
39.91056993272569
 20
30.35663113064236
 10
39.90436876085069
 20
30.87752956814236
 10
40.33586697048611
 20
31.30902777777778
 10
40.86296657986111
 20
31.30902777777778
 10
41.38386501736111
 20
31.30902777777778
 10
41.81587999131944
 20
30.87752956814236
 10
41.81587999131944
 20
30.35663113064236
 10
41.81587999131944
 20
29.82953152126736
 10
41.38386501736111
 20
29.40423448350694
 10
40.86296657986111
 20
29.40423448350694
 97
        0
 75
     0
 76
     1
 98
        1
 10
0.0
 20
0.0
  0
ENDSEC
  0
SECTION
  2
OBJECTS
  0
DICTIONARY
  5
19
330
0
100
AcDbDictionary
281
     1
  3
ACAD_COLOR
350
D0
  3
ACAD_GROUP
350
1A
  3
ACAD_LAYOUT
350
9D
  3
ACAD_MATERIAL
350
D2
  3
ACAD_MLINESTYLE
350
1B
  3
ACAD_PLOTSETTINGS
350
9E
  3
ACAD_PLOTSTYLENAME
350
9B
  3
ACDBHEADERROUNDTRIPXREC
350
CF
  0
DICTIONARY
  5
D0
102
{ACAD_REACTORS
330
19
102
}
330
19
100
AcDbDictionary
281
     1
  0
DICTIONARY
  5
1A
102
{ACAD_REACTORS
330
19
102
}
330
19
100
AcDbDictionary
281
     1
  0
DICTIONARY
  5
9D
102
{ACAD_REACTORS
330
19
102
}
330
19
100
AcDbDictionary
281
     1
  3
Layout1
350
A0
  3
Model
350
9F
  0
DICTIONARY
  5
D2
102
{ACAD_REACTORS
330
19
102
}
330
19
100
AcDbDictionary
281
     1
  0
DICTIONARY
  5
1B
102
{ACAD_REACTORS
330
19
102
}
330
19
100
AcDbDictionary
281
     1
  3
STANDARD
350
1C
  0
DICTIONARY
  5
9E
102
{ACAD_REACTORS
330
19
102
}
330
19
100
AcDbDictionary
281
     1
  0
ACDBDICTIONARYWDFLT
  5
9B
102
{ACAD_REACTORS
330
19
102
}
330
19
100
AcDbDictionary
281
     1
  3
Normal
350
9C
100
AcDbDictionaryWithDefault
340
9C
  0
DICTIONARY
  5
CF
102
{ACAD_REACTORS
330
19
102
}
330
19
100
AcDbDictionary
281
     1
  3
COLORDICT
350
D1
  3
MATERIALDICT
350
D3
  0
LAYOUT
  5
A0
102
{ACAD_REACTORS
330
9D
102
}
102
{ACAD_XDICTIONARY
360
D4
102
}
330
9D
100
AcDbPlotSettings
  1

  2
Support Center HP LaserJet 4
  4

  6

 40
0.0
 41
0.0
 42
0.0
 43
0.0
 44
0.0
 45
0.0
 46
0.0
 47
0.0
 48
0.0
 49
0.0
140
0.0
141
0.0
142
1.0
143
1.0
 70
   688
 72
     0
 73
     0
 74
     5
  7

 75
    16
147
1.0
148
0.0
149
0.0
100
AcDbLayout
  1
Layout1
 70
     0
 71
     1
 10
0.0
 20
0.0
 11
12.0
 21
9.0
 12
0.0
 22
0.0
 32
0.0
 14
1.000000000000000E+20
 24
1.000000000000000E+20
 34
1.000000000000000E+20
 15
-1.000000000000000E+20
 25
-1.000000000000000E+20
 35
-1.000000000000000E+20
146
0.0
 13
0.0
 23
0.0
 33
0.0
 16
1.0
 26
0.0
 36
0.0
 17
0.0
 27
1.0
 37
0.0
 76
     0
330
B
  0
LAYOUT
  5
9F
102
{ACAD_REACTORS
330
9D
102
}
102
{ACAD_XDICTIONARY
360
D6
102
}
330
9D
100
AcDbPlotSettings
  1

  2
Support Center HP LaserJet 4
  4

  6

 40
0.0
 41
0.0
 42
0.0
 43
0.0
 44
0.0
 45
0.0
 46
0.0
 47
0.0
 48
0.0
 49
0.0
140
0.0
141
0.0
142
1.0
143
1.0
 70
  1712
 72
     0
 73
     0
 74
     0
  7

 75
     0
147
1.0
148
0.0
149
0.0
100
AcDbLayout
  1
Model
 70
     1
 71
     0
 10
0.0
 20
0.0
 11
12.0
 21
9.0
 12
0.0
 22
0.0
 32
0.0
 14
0.0
 24
0.0
 34
0.0
 15
0.0
 25
0.0
 35
0.0
146
0.0
 13
0.0
 23
0.0
 33
0.0
 16
1.0
 26
0.0
 36
0.0
 17
0.0
 27
1.0
 37
0.0
 76
     0
330
A
  0
MLINESTYLE
  5
1C
102
{ACAD_REACTORS
330
1B
102
}
330
1B
100
AcDbMlineStyle
  2
STANDARD
 70
     0
  3

 62
     0
 51
90.0000000000002
 52
90.0000000000002
 71
     2
 49
0.5
 62
   256
  6
BYLAYER
 49
-0.5
 62
   256
  6
BYLAYER
  0
ACDBPLACEHOLDER
  5
9C
102
{ACAD_REACTORS
330
9B
102
}
330
9B
  0
XRECORD
  5
D1
102
{ACAD_REACTORS
330
CF
102
}
330
CF
100
AcDbXrecord
340
D0
  0
XRECORD
  5
D3
102
{ACAD_REACTORS
330
CF
102
}
330
CF
100
AcDbXrecord
340
D2
  0
DICTIONARY
  5
D4
330
A0
100
AcDbDictionary
280
     1
281
     1
  3
ACAD_XREC_ROUNDTRIP
360
D5
  0
DICTIONARY
  5
D6
330
9F
100
AcDbDictionary
280
     1
281
     1
  3
ACAD_XREC_ROUNDTRIP
360
D7
  0
XRECORD
  5
D5
102
{ACAD_REACTORS
330
D4
102
}
330
D4
100
AcDbXrecord
102
SHADEPLOT
 70
     0
102
SHADEPLOTRESLEVEL
 70
     0
102
SHADEPLOTCUSTOMDPI
 70
     0
  0
XRECORD
  5
D7
102
{ACAD_REACTORS
330
D6
102
}
330
D6
100
AcDbXrecord
102
SHADEPLOT
 70
     0
102
SHADEPLOTRESLEVEL
 70
     0
102
SHADEPLOTCUSTOMDPI
 70
     0
  0
ENDSEC
  0
EOF
