  0
SECTION
  2
HEADER
  9
$ACADVER
  1
AC1015
  9
$ACADMAINTVER
 70
     6
  9
$DWGCODEPAGE
  3
ANSI_1252
  9
$INSBASE
 10
0.0
 20
0.0
 30
0.0
  9
$EXTMIN
 10
61.21044182493982
 20
80.72071783266939
 30
-0.0015258207003612
  9
$EXTMAX
 10
156.2096942622484
 20
198.6734900518931
 30
0.0000000349246008
  9
$LIMMIN
 10
62.29249403211805
 20
80.57096489800347
  9
$LIMMAX
 10
152.3984497070312
 20
198.8142211914062
  9
$ORTHOMODE
 70
     0
  9
$REGENMODE
 70
     1
  9
$FILLMODE
 70
     1
  9
$QTEXTMODE
 70
     0
  9
$MIRRTEXT
 70
     1
  9
$LTSCALE
 40
1.0
  9
$ATTMODE
 70
     1
  9
$TEXTSIZE
 40
0.2
  9
$TRACEWID
 40
0.05
  9
$TEXTSTYLE
  7
STANDARD
  9
$CLAYER
  8
0
  9
$CELTYPE
  6
CONTINUOUS
  9
$CECOLOR
 62
   256
  9
$CELTSCALE
 40
1.0
  9
$DISPSILH
 70
     0
  9
$DIMSCALE
 40
1.0
  9
$DIMASZ
 40
0.18
  9
$DIMEXO
 40
0.0625
  9
$DIMDLI
 40
0.38
  9
$DIMRND
 40
0.0
  9
$DIMDLE
 40
0.0
  9
$DIMEXE
 40
0.18
  9
$DIMTP
 40
0.0
  9
$DIMTM
 40
0.0
  9
$DIMTXT
 40
0.18
  9
$DIMCEN
 40
0.09
  9
$DIMTSZ
 40
0.0
  9
$DIMTOL
 70
     0
  9
$DIMLIM
 70
     0
  9
$DIMTIH
 70
     1
  9
$DIMTOH
 70
     1
  9
$DIMSE1
 70
     0
  9
$DIMSE2
 70
     0
  9
$DIMTAD
 70
     0
  9
$DIMZIN
 70
     0
  9
$DIMBLK
  1

  9
$DIMASO
 70
     1
  9
$DIMSHO
 70
     1
  9
$DIMPOST
  1

  9
$DIMAPOST
  1

  9
$DIMALT
 70
     0
  9
$DIMALTD
 70
     2
  9
$DIMALTF
 40
25.4
  9
$DIMLFAC
 40
1.0
  9
$DIMTOFL
 70
     0
  9
$DIMTVP
 40
0.0
  9
$DIMTIX
 70
     0
  9
$DIMSOXD
 70
     0
  9
$DIMSAH
 70
     0
  9
$DIMBLK1
  1

  9
$DIMBLK2
  1

  9
$DIMSTYLE
  2
STANDARD
  9
$DIMCLRD
 70
     0
  9
$DIMCLRE
 70
     0
  9
$DIMCLRT
 70
     0
  9
$DIMTFAC
 40
1.0
  9
$DIMGAP
 40
0.09
  9
$DIMJUST
 70
     0
  9
$DIMSD1
 70
     0
  9
$DIMSD2
 70
     0
  9
$DIMTOLJ
 70
     1
  9
$DIMTZIN
 70
     0
  9
$DIMALTZ
 70
     0
  9
$DIMALTTZ
 70
     0
  9
$DIMUPT
 70
     0
  9
$DIMDEC
 70
     4
  9
$DIMTDEC
 70
     4
  9
$DIMALTU
 70
     2
  9
$DIMALTTD
 70
     2
  9
$DIMTXSTY
  7
STANDARD
  9
$DIMAUNIT
 70
     0
  9
$DIMADEC
 70
     0
  9
$DIMALTRND
 40
0.0
  9
$DIMAZIN
 70
     0
  9
$DIMDSEP
 70
    46
  9
$DIMATFIT
 70
     3
  9
$DIMFRAC
 70
     0
  9
$DIMLDRBLK
  1

  9
$DIMLUNIT
 70
     2
  9
$DIMLWD
 70
    -2
  9
$DIMLWE
 70
    -2
  9
$DIMTMOVE
 70
     0
  9
$LUNITS
 70
     2
  9
$LUPREC
 70
     4
  9
$SKETCHINC
 40
0.1
  9
$FILLETRAD
 40
0.0
  9
$AUNITS
 70
     0
  9
$AUPREC
 70
     0
  9
$MENU
  1
acad
  9
$ELEVATION
 40
0.0
  9
$PELEVATION
 40
0.0
  9
$THICKNESS
 40
0.0
  9
$LIMCHECK
 70
     0
  9
$CHAMFERA
 40
0.0
  9
$CHAMFERB
 40
0.0
  9
$CHAMFERC
 40
0.0
  9
$CHAMFERD
 40
0.0
  9
$SKPOLY
 70
     0
  9
$TDCREATE
 40
2444971.666666667
  9
$TDUCREATE
 40
2444972.0
  9
$TDUPDATE
 40
2452215.578599305
  9
$TDUUPDATE
 40
2452215.911932639
  9
$TDINDWG
 40
0.0004989583
  9
$TDUSRTIMER
 40
0.0004989583
  9
$USRTIMER
 70
     1
  9
$ANGBASE
 50
0.0
  9
$ANGDIR
 70
     0
  9
$PDMODE
 70
     0
  9
$PDSIZE
 40
0.0
  9
$PLINEWID
 40
0.0
  9
$SPLFRAME
 70
     0
  9
$SPLINETYPE
 70
     6
  9
$SPLINESEGS
 70
     8
  9
$HANDSEED
  5
E8
  9
$SURFTAB1
 70
     6
  9
$SURFTAB2
 70
     6
  9
$SURFTYPE
 70
     6
  9
$SURFU
 70
     6
  9
$SURFV
 70
     6
  9
$UCSBASE
  2

  9
$UCSNAME
  2

  9
$UCSORG
 10
0.0
 20
0.0
 30
0.0
  9
$UCSXDIR
 10
1.0
 20
0.0
 30
0.0
  9
$UCSYDIR
 10
0.0
 20
1.0
 30
0.0
  9
$UCSORTHOREF
  2

  9
$UCSORTHOVIEW
 70
     0
  9
$UCSORGTOP
 10
0.0
 20
0.0
 30
0.0
  9
$UCSORGBOTTOM
 10
0.0
 20
0.0
 30
0.0
  9
$UCSORGLEFT
 10
0.0
 20
0.0
 30
0.0
  9
$UCSORGRIGHT
 10
0.0
 20
0.0
 30
0.0
  9
$UCSORGFRONT
 10
0.0
 20
0.0
 30
0.0
  9
$UCSORGBACK
 10
0.0
 20
0.0
 30
0.0
  9
$PUCSBASE
  2

  9
$PUCSNAME
  2

  9
$PUCSORG
 10
0.0
 20
0.0
 30
0.0
  9
$PUCSXDIR
 10
1.0
 20
0.0
 30
0.0
  9
$PUCSYDIR
 10
0.0
 20
1.0
 30
0.0
  9
$PUCSORTHOREF
  2

  9
$PUCSORTHOVIEW
 70
     0
  9
$PUCSORGTOP
 10
0.0
 20
0.0
 30
0.0
  9
$PUCSORGBOTTOM
 10
0.0
 20
0.0
 30
0.0
  9
$PUCSORGLEFT
 10
0.0
 20
0.0
 30
0.0
  9
$PUCSORGRIGHT
 10
0.0
 20
0.0
 30
0.0
  9
$PUCSORGFRONT
 10
0.0
 20
0.0
 30
0.0
  9
$PUCSORGBACK
 10
0.0
 20
0.0
 30
0.0
  9
$USERI1
 70
     0
  9
$USERI2
 70
     0
  9
$USERI3
 70
     0
  9
$USERI4
 70
     0
  9
$USERI5
 70
     0
  9
$USERR1
 40
0.0
  9
$USERR2
 40
0.0
  9
$USERR3
 40
0.0
  9
$USERR4
 40
0.0
  9
$USERR5
 40
0.0
  9
$WORLDVIEW
 70
     1
  9
$SHADEDGE
 70
     3
  9
$SHADEDIF
 70
    70
  9
$TILEMODE
 70
     1
  9
$MAXACTVP
 70
    16
  9
$PINSBASE
 10
0.0
 20
0.0
 30
0.0
  9
$PLIMCHECK
 70
     0
  9
$PEXTMIN
 10
1.000000000000000E+20
 20
1.000000000000000E+20
 30
1.000000000000000E+20
  9
$PEXTMAX
 10
-1.000000000000000E+20
 20
-1.000000000000000E+20
 30
-1.000000000000000E+20
  9
$PLIMMIN
 10
0.0
 20
0.0
  9
$PLIMMAX
 10
12.0
 20
9.0
  9
$UNITMODE
 70
     0
  9
$VISRETAIN
 70
     0
  9
$PLINEGEN
 70
     1
  9
$PSLTSCALE
 70
     0
  9
$TREEDEPTH
 70
  3020
  9
$CMLSTYLE
  2
STANDARD
  9
$CMLJUST
 70
     0
  9
$CMLSCALE
 40
1.0
  9
$PROXYGRAPHICS
 70
     0
  9
$MEASUREMENT
 70
     0
  9
$CELWEIGHT
370
    -1
  9
$ENDCAPS
280
     0
  9
$JOINSTYLE
280
     0
  9
$LWDISPLAY
290
     0
  9
$INSUNITS
 70
     0
  9
$HYPERLINKBASE
  1

  9
$STYLESHEET
  1

  9
$XEDIT
290
     1
  9
$CEPSNTYPE
380
     0
  9
$PSTYLEMODE
290
     1
  9
$FINGERPRINTGUID
  2
{890B557D-CEC8-11D5-923F-00805F198AD5}
  9
$VERSIONGUID
  2
{890B557F-CEC8-11D5-923F-00805F198AD5}
  9
$EXTNAMES
290
     1
  9
$PSVPSCALE
 40
0.0
  9
$OLESTARTUP
290
     0
  0
ENDSEC
  0
SECTION
  2
CLASSES
  0
CLASS
  1
LWPOLYLINE
  2
AcDbPolyline
  3
AutoCAD 2000
 90
        0
280
     0
281
     1
  0
CLASS
  1
IMAGE
  2
AcDbRasterImage
  3
ISM
 90
      127
280
     0
281
     1
  0
CLASS
  1
OLE2FRAME
  2
AcDbOle2Frame
  3
AutoCAD 2000
 90
        0
280
     0
281
     1
  0
CLASS
  1
HATCH
  2
AcDbHatch
  3
AutoCAD 2000
 90
        0
280
     0
281
     1
  0
CLASS
  1
DICTIONARYVAR
  2
AcDbDictionaryVar
  3
AutoCAD 2000
 90
        0
280
     0
281
     0
  0
CLASS
  1
RASTERVARIABLES
  2
AcDbRasterVariables
  3
ISM
 90
        0
280
     0
281
     0
  0
CLASS
  1
IMAGEDEF
  2
AcDbRasterImageDef
  3
ISM
 90
        0
280
     0
281
     0
  0
CLASS
  1
IMAGEDEF_REACTOR
  2
AcDbRasterImageDefReactor
  3
ISM
 90
        1
280
     0
281
     0
  0
CLASS
  1
IDBUFFER
  2
AcDbIdBuffer
  3
AutoCAD 2000
 90
        0
280
     0
281
     0
  0
CLASS
  1
SPATIAL_FILTER
  2
AcDbSpatialFilter
  3
AutoCAD 2000
 90
        0
280
     0
281
     0
  0
CLASS
  1
XRECORD
  2
AcDbXrecord
  3
AutoCAD 2000
 90
        0
280
     0
281
     0
  0
CLASS
  1
SORTENTSTABLE
  2
AcDbSortentsTable
  3
AutoCAD 2000
 90
        0
280
     0
281
     0
  0
CLASS
  1
LAYER_INDEX
  2
AcDbLayerIndex
  3
AutoCAD 2000
 90
        0
280
     0
281
     0
  0
CLASS
  1
SPATIAL_INDEX
  2
AcDbSpatialIndex
  3
AutoCAD 2000
 90
        0
280
     0
281
     0
  0
CLASS
  1
OBJECT_PTR
  2
CAseDLPNTableRecord
  3
ASE-LPNTableRecord
 90
        1
280
     1
281
     0
  0
CLASS
  1
LAYOUT
  2
AcDbLayout
  3
ObjectDBX Classes
 90
        0
280
     0
281
     0
  0
CLASS
  1
PLOTSETTINGS
  2
AcDbPlotSettings
  3
AutoCAD 2000
 90
        0
280
     0
281
     0
  0
CLASS
  1
ACDBDICTIONARYWDFLT
  2
AcDbDictionaryWithDefault
  3
AutoCAD 2000
 90
        0
280
     0
281
     0
  0
CLASS
  1
ACDBPLACEHOLDER
  2
AcDbPlaceHolder
  3
ObjectDBX Classes
 90
        0
280
     0
281
     0
  0
CLASS
  1
VBAPROJECT
  2
AcDbVbaProject
  3
ObjectDBX Classes
 90
        0
280
     0
281
     0
  0
CLASS
  1
WIPEOUT
  2
AcDbWipeout
  3
WipeOut|AutoCAD Express Tool|expresstools@autodesk.com
 90
      127
280
     0
281
     1
  0
CLASS
  1
WIPEOUTVARIABLES
  2
AcDbWipeoutVariables
  3
WipeOut|AutoCAD Express Tool|expresstools@autodesk.com
 90
        0
280
     0
281
     0
  0
CLASS
  1
RTEXT
  2
RText
  3
RText|AutoCAD Express Tool|expresstools@autodesk.com
 90
        0
280
     0
281
     1
  0
CLASS
  1
ARCALIGNEDTEXT
  2
AcDbArcAlignedText
  3
ATEXT|AutoCAD Express Tool|expresstools@autodesk.com
 90
        0
280
     0
281
     1
  0
CLASS
  1
LONG_TRANSACTION
  2
AcDbLongTransaction
  3
AutoCAD 2000
 90
        0
280
     1
281
     0
  0
CLASS
  1
LWPOLYLINE
  2
AcDbPolyline
  3
AutoCAD 2000
 90
        0
280
     0
281
     1
  0
CLASS
  1
HATCH
  2
AcDbHatch
  3
AutoCAD 2000
 90
        0
280
     0
281
     1
  0
CLASS
  1
XRECORD
  2
AcDbXrecord
  3
AutoCAD 2000
 90
        0
280
     0
281
     0
  0
ENDSEC
  0
SECTION
  2
TABLES
  0
TABLE
  2
VPORT
  5
7
330
0
100
AcDbSymbolTable
 70
     2
  0
VPORT
  5
B4
330
7
100
AcDbSymbolTableRecord
100
AcDbViewportTableRecord
  2
*Active
 70
     0
 10
0.0
 20
0.0
 11
1.0
 21
1.0
 12
108.7100680435941
 22
139.6971039422812
 13
0.0
 23
0.0
 14
1.0
 24
1.0
 15
0.0
 25
0.0
 16
0.0
 26
0.0
 36
1.0
 17
0.0
 27
0.0
 37
0.0
 40
119.81029619118
 41
1.836842105263158
 42
50.0
 43
0.0
 44
0.0
 50
0.0
 51
0.0
 71
     0
 72
   100
 73
     1
 74
     1
 75
     0
 76
     0
 77
     0
 78
     0
281
     0
 65
     1
110
0.0
120
0.0
130
0.0
111
1.0
121
0.0
131
0.0
112
0.0
122
1.0
132
0.0
 79
     0
146
0.0
  0
ENDTAB
  0
TABLE
  2
LTYPE
  5
4
330
0
100
AcDbSymbolTable
 70
     1
  0
LTYPE
  5
11
330
4
100
AcDbSymbolTableRecord
100
AcDbLinetypeTableRecord
  2
BYBLOCK
 70
     0
  3

 72
    65
 73
     0
 40
0.0
  0
LTYPE
  5
12
330
4
100
AcDbSymbolTableRecord
100
AcDbLinetypeTableRecord
  2
BYLAYER
 70
     0
  3

 72
    65
 73
     0
 40
0.0
  0
LTYPE
  5
13
330
4
100
AcDbSymbolTableRecord
100
AcDbLinetypeTableRecord
  2
CONTINUOUS
 70
     0
  3
Solid line
 72
    65
 73
     0
 40
0.0
  0
ENDTAB
  0
TABLE
  2
LAYER
  5
2
330
0
100
AcDbSymbolTable
 70
     2
  0
LAYER
  5
14
330
2
100
AcDbSymbolTableRecord
100
AcDbLayerTableRecord
  2
0
 70
     0
 62
     7
  6
CONTINUOUS
370
    -3
390
0
  0
LAYER
  5
21
330
2
100
AcDbSymbolTableRecord
100
AcDbLayerTableRecord
  2
LAYER_1
 70
     0
 62
     5
  6
CONTINUOUS
370
    -3
390
0
  0
ENDTAB
  0
TABLE
  2
STYLE
  5
3
330
0
100
AcDbSymbolTable
 70
     5
  0
STYLE
  5
17
330
3
100
AcDbSymbolTableRecord
100
AcDbTextStyleTableRecord
  2
STANDARD
 70
     0
 40
0.0
 41
1.0
 50
0.0
 71
     0
 42
0.2
  3
txt
  4

  0
STYLE
  5
1D
330
3
100
AcDbSymbolTableRecord
100
AcDbTextStyleTableRecord
  2
STD
 70
     0
 40
0.0
 41
1.0
 50
0.0
 71
     0
 42
0.2
  3
txt
  4

  0
STYLE
  5
1E
330
3
100
AcDbSymbolTableRecord
100
AcDbTextStyleTableRecord
  2
TATESTD
 70
     4
 40
0.0
 41
1.0
 50
0.0
 71
     0
 42
0.2
  3
txt
  4

  0
STYLE
  5
1F
330
3
100
AcDbSymbolTableRecord
100
AcDbTextStyleTableRecord
  2
KANJISTD
 70
     0
 40
0.0
 41
1.0
 50
0.0
 71
     0
 42
0.2
  3
txt
  4
extfont
  0
STYLE
  5
20
330
3
100
AcDbSymbolTableRecord
100
AcDbTextStyleTableRecord
  2
KANJITATE
 70
     4
 40
0.0
 41
1.0
 50
0.0
 71
     0
 42
0.2
  3
txt
  4
extfont
  0
ENDTAB
  0
TABLE
  2
VIEW
  5
5
330
0
100
AcDbSymbolTable
 70
     0
  0
ENDTAB
  0
TABLE
  2
UCS
  5
6
330
0
100
AcDbSymbolTable
 70
     0
  0
ENDTAB
  0
TABLE
  2
APPID
  5
8
330
0
100
AcDbSymbolTable
 70
     1
  0
APPID
  5
16
330
8
100
AcDbSymbolTableRecord
100
AcDbRegAppTableRecord
  2
ACAD
 70
     0
  0
ENDTAB
  0
TABLE
  2
DIMSTYLE
  5
9
330
0
100
AcDbSymbolTable
 70
     1
100
AcDbDimStyleTable
  0
DIMSTYLE
105
18
330
9
100
AcDbSymbolTableRecord
100
AcDbDimStyleTableRecord
  2
STANDARD
 70
     0
  3

  4

289
     0
340
17
  0
ENDTAB
  0
TABLE
  2
BLOCK_RECORD
  5
1
330
0
100
AcDbSymbolTable
 70
     1
  0
BLOCK_RECORD
  5
A
330
1
100
AcDbSymbolTableRecord
100
AcDbBlockTableRecord
  2
*MODEL_SPACE
340
AF
  0
BLOCK_RECORD
  5
B
330
1
100
AcDbSymbolTableRecord
100
AcDbBlockTableRecord
  2
*PAPER_SPACE
340
B0
  0
BLOCK_RECORD
  5
28
330
1
100
AcDbSymbolTableRecord
100
AcDbBlockTableRecord
  2
AI9-BLK1
340
0
102
{BLKREFS
331
29
102
}
  0
ENDTAB
  0
ENDSEC
  0
SECTION
  2
BLOCKS
  0
BLOCK
  5
D
330
A
100
AcDbEntity
  8
0
100
AcDbBlockBegin
  2
*MODEL_SPACE
 70
     0
 10
0.0
 20
0.0
 30
0.0
  3
*MODEL_SPACE
  1

  4

  0
ENDBLK
  5
E
330
A
100
AcDbEntity
  8
0
100
AcDbBlockEnd
  0
BLOCK
  5
F
330
B
100
AcDbEntity
 67
     1
  8
0
100
AcDbBlockBegin
  2
*PAPER_SPACE
 70
     0
 10
0.0
 20
0.0
 30
0.0
  3
*PAPER_SPACE
  1

  4

  0
ENDBLK
  5
10
330
B
100
AcDbEntity
 67
     1
  8
0
100
AcDbBlockEnd
  0
BLOCK
  5
2A
330
28
100
AcDbEntity
  8
LAYER_1
 62
     7
100
AcDbBlockBegin
  2
AI9-BLK1
 70
     0
 10
0.0
 20
0.0
 30
0.0
  3
AI9-BLK1
  1

  4

  0
SPLINE
  5
37
330
28
100
AcDbEntity
  8
LAYER_1
 62
     7
100
AcDbSpline
210
0.0
220
0.0
230
1.0
 70
     8
 71
     3
 72
    68
 73
    64
 74
     0
 42
0.0000000001
 43
0.0000000001
 40
0.0
 40
0.0
 40
0.0
 40
0.0
 40
1.0
 40
1.0
 40
1.0
 40
2.0
 40
2.0
 40
2.0
 40
3.0
 40
3.0
 40
3.0
 40
4.0
 40
4.0
 40
4.0
 40
5.0
 40
5.0
 40
5.0
 40
6.0
 40
6.0
 40
6.0
 40
7.0
 40
7.0
 40
7.0
 40
8.0
 40
8.0
 40
8.0
 40
9.0
 40
9.0
 40
9.0
 40
10.0
 40
10.0
 40
10.0
 40
11.0
 40
11.0
 40
11.0
 40
12.0
 40
12.0
 40
12.0
 40
13.0
 40
13.0
 40
13.0
 40
14.0
 40
14.0
 40
14.0
 40
15.0
 40
15.0
 40
15.0
 40
16.0
 40
16.0
 40
16.0
 40
17.0
 40
17.0
 40
17.0
 40
18.0
 40
18.0
 40
18.0
 40
19.0
 40
19.0
 40
19.0
 40
20.0
 40
20.0
 40
20.0
 40
21.0
 40
21.0
 40
21.0
 40
21.0
 10
-4.937683105468749
 20
19.0175299750434
 30
0.0
 10
-4.937683105468749
 20
19.0175299750434
 30
0.0
 10
-4.118956163194445
 20
15.76294826931424
 30
0.0
 10
-4.03541259765625
 20
15.26168687608507
 30
0.0
 10
-3.951869032118055
 20
14.76059773763021
 30
0.0
 10
-4.10052490234375
 20
12.28564114040799
 30
0.0
 10
-3.733794487847222
 20
11.51652357313368
 30
0.0
 10
-3.540180121527778
 20
11.11069132486979
 30
0.0
 10
-3.918968370225694
 20
9.664440239800346
 30
0.0
 10
-3.918968370225694
 20
9.664440239800346
 30
0.0
 10
-3.459564887152777
 20
9.455839708116319
 30
0.0
 10
-1.400603569878472
 20
6.550418429904513
 30
0.0
 10
-1.233516438802083
 20
6.299959988064235
 30
0.0
 10
-1.066257052951389
 20
6.049329291449652
 30
0.0
 10
-2.344731987847222
 20
4.447876654730902
 30
0.0
 10
-2.344731987847222
 20
4.447876654730902
 30
0.0
 10
-2.344731987847222
 20
4.447876654730902
 30
0.0
 10
-4.401970757378471
 20
3.176808675130208
 30
0.0
 10
-4.443828667534722
 20
2.84263441297743
 30
0.0
 10
-4.485514322916666
 20
2.508632405598958
 30
0.0
 10
-5.938138834635416
 20
1.807555474175347
 30
0.0
 10
-5.771051703559027
 20
1.515411376953125
 30
0.0
 10
-5.603964572482639
 20
1.223095024956597
 30
0.0
 10
-3.749986436631944
 20
1.161255560980903
 30
0.0
 10
-3.332613118489583
 20
0.7437099880642361
 30
0.0
 10
-2.914723036024305
 20
0.3259921603732638
 30
0.0
 10
-2.262910970052083
 20
-1.764147271050347
 30
0.0
 10
-2.221397569444444
 20
-1.97292005750868
 30
0.0
 10
-2.179367404513889
 20
-2.181520589192708
 30
0.0
 10
-2.017620171440972
 20
-2.00547620985243
 30
0.0
 10
-1.850877549913194
 20
-2.589936659071181
 30
0.0
 10
-1.850877549913194
 20
-2.589936659071181
 30
0.0
 10
-1.696537272135417
 20
-2.947709825303819
 30
0.0
 10
-1.612993706597222
 20
-3.574200439453125
 30
0.0
 10
-1.529277886284722
 20
-4.200863308376736
 30
0.0
 10
-1.111904568142361
 20
-6.999142116970486
 30
0.0
 10
-0.9448174370659721
 20
-7.708831787109374
 30
0.0
 10
-0.7777303059895833
 20
-8.419382731119791
 30
0.0
 10
-0.56895751953125
 20
-9.379703097873263
 30
0.0
 10
-0.5269273546006944
 20
-10.04787936740451
 30
0.0
 10
-0.4854139539930555
 20
-10.71640014648437
 30
0.0
 10
-0.1930976019965278
 20
-11.59317694769965
 30
0.0
 10
-0.0675238715277778
 20
-12.09461059570312
 30
0.0
 10
0.0575330946180556
 20
-12.59552747938368
 30
0.0
 10
0.2663058810763889
 20
-14.80900132921007
 30
0.0
 10
0.4754231770833333
 20
-15.26840481228298
 30
0.0
 10
0.6840237087673611
 20
-15.7278082953559
 30
0.0
 10
0.4333930121527778
 20
-16.06215481228298
 30
0.0
 10
0.6004801432291667
 20
-16.5215582953559
 30
0.0
 10
0.7677395290798611
 20
-16.98096177842882
 30
0.0
 10
0.8092529296875
 20
-16.98096177842882
 30
0.0
 10
0.8092529296875
 20
-17.3151360405816
 30
0.0
 10
0.8092529296875
 20
-17.64931030273437
 30
0.0
 10
1.018025716145833
 20
-17.74956258138021
 30
0.0
 10
1.018025716145833
 20
-18.04187893337673
 30
0.0
 10
1.018025716145833
 20
-19.13569675021701
 30
0.0
 10
0.8039130316840277
 20
-20.24656778971354
 30
0.0
 10
1.359434678819444
 20
-21.35795559353299
 30
0.0
 10
1.915128580729167
 20
-22.83951890733507
 30
0.0
 10
2.285476345486111
 20
-24.50642835828993
 30
0.0
 10
2.470650227864583
 20
-25.98816392686632
 30
0.0
 10
2.655996365017361
 20
-29.87750447591145
 30
0.0
 10
3.952385796440972
 20
-33.39649726019965
 30
0.0
 10
4.322733561197916
 20
-37.10066392686632
 30
0.0
  0
SPLINE
  5
36
330
28
100
AcDbEntity
  8
LAYER_1
 62
     7
100
AcDbSpline
210
0.0
220
0.0
230
1.0
 70
     8
 71
     3
 72
    38
 73
    34
 74
     0
 42
0.0000000001
 43
0.0000000001
 40
0.0
 40
0.0
 40
0.0
 40
0.0
 40
1.0
 40
1.0
 40
1.0
 40
2.0
 40
2.0
 40
2.0
 40
3.0
 40
3.0
 40
3.0
 40
4.0
 40
4.0
 40
4.0
 40
5.0
 40
5.0
 40
5.0
 40
6.0
 40
6.0
 40
6.0
 40
7.0
 40
7.0
 40
7.0
 40
8.0
 40
8.0
 40
8.0
 40
9.0
 40
9.0
 40
9.0
 40
10.0
 40
10.0
 40
10.0
 40
11.0
 40
11.0
 40
11.0
 40
11.0
 10
0.8512830946180555
 20
5.413364664713542
 30
0.0
 10
0.6004801432291667
 20
5.747711181640624
 30
0.0
 10
-0.3601847330729167
 20
6.449477132161458
 30
0.0
 10
-0.5269273546006944
 20
6.69976331922743
 30
0.0
 10
-0.6941867404513888
 20
6.950394015842013
 30
0.0
 10
-0.7360446506076388
 20
7.451483154296875
 30
0.0
 10
-1.529277886284722
 20
8.161517333984374
 30
0.0
 10
-2.323027886284722
 20
8.871551513671875
 30
0.0
 10
-1.905137803819444
 20
10.41684909396701
 30
0.0
 10
-2.114255099826389
 20
10.7511956108941
 30
0.0
 10
-2.323027886284722
 20
11.08502536349826
 30
0.0
 10
-2.281342230902778
 20
12.21260511610243
 30
0.0
 10
-2.323027886284722
 20
12.50526597764757
 30
0.0
 10
-2.364885796440972
 20
12.7975823296441
 30
0.0
 10
-2.573658582899305
 20
14.05056355794271
 30
0.0
 10
-2.531800672743056
 20
14.34287990993924
 30
0.0
 10
-2.490115017361111
 20
14.63519626193576
 30
0.0
 10
-2.740401204427083
 20
16.51466810438368
 30
0.0
 10
-2.698887803819444
 20
16.8905280219184
 30
0.0
 10
-2.6572021484375
 20
17.26638793945313
 30
0.0
 10
-2.966227213541667
 20
18.97877265082465
 30
0.0
 10
-2.966227213541667
 20
18.97877265082465
 30
0.0
 10
-3.174827745225694
 20
19.35463256835937
 30
0.0
 10
-3.033062065972222
 20
21.02515936957465
 30
0.0
 10
-3.116605631510416
 20
21.35933363172743
 30
0.0
 10
-3.200149197048611
 20
21.69368014865451
 30
0.0
 10
-3.450607638888889
 20
22.94631686740451
 30
0.0
 10
-3.450607638888889
 20
22.94631686740451
 30
0.0
 10
-3.455947536892361
 20
24.01808607313368
 30
0.0
 10
-3.826295301649305
 20
25.12947387695312
 30
0.0
 10
-4.011641438802083
 20
26.24068942599826
 30
0.0
 10
-4.5671630859375
 20
29.3891621907552
 30
0.0
 10
-4.5671630859375
 20
32.35246107313368
 30
0.0
 10
-4.937683105468749
 20
35.50110609266493
 30
0.0
  0
SPLINE
  5
35
330
28
100
AcDbEntity
  8
LAYER_1
 62
     7
100
AcDbSpline
210
0.0
220
0.0
230
1.0
 70
     8
 71
     3
 72
    23
 73
    19
 74
     0
 42
0.0000000001
 43
0.0000000001
 40
0.0
 40
0.0
 40
0.0
 40
0.0
 40
1.0
 40
1.0
 40
1.0
 40
2.0
 40
2.0
 40
2.0
 40
3.0
 40
3.0
 40
3.0
 40
4.0
 40
4.0
 40
4.0
 40
5.0
 40
5.0
 40
5.0
 40
6.0
 40
6.0
 40
6.0
 40
6.0
 10
0.8512830946180555
 20
5.413364664713542
 30
0.0
 10
0.8512830946180555
 20
5.413364664713542
 30
0.0
 10
-0.5725748697916666
 20
4.081146240234375
 30
0.0
 10
-0.7396620008680555
 20
3.830515543619792
 30
0.0
 10
-0.9064046223958333
 20
3.579712592230902
 30
0.0
 10
-2.303046332465278
 20
2.64109632703993
 30
0.0
 10
-2.344731987847222
 20
2.348779975043402
 30
0.0
 10
-2.386589898003472
 20
2.056463623046875
 30
0.0
 10
-3.332613118489583
 20
0.9104526095920138
 30
0.0
 10
-3.332613118489583
 20
0.7437099880642361
 30
0.0
 10
-3.332613118489583
 20
0.7437099880642361
 30
0.0
 10
-1.195448133680555
 20
-0.0662319607204861
 30
0.0
 10
-0.9863308376736111
 20
-0.2748324924045139
 30
0.0
 10
-0.7777303059895833
 20
-0.4836052788628472
 30
0.0
 10
-0.2766411675347222
 20
-0.9013231065538193
 30
0.0
 10
-0.0675238715277778
 20
-1.026896837022569
 30
0.0
 10
0.14107666015625
 20
-1.152126057942708
 30
0.0
 10
0.2463243272569444
 20
-2.875018310546875
 30
0.0
 10
0.3715535481770833
 20
-3.084135606553819
 30
0.0
  0
SPLINE
  5
34
330
28
100
AcDbEntity
  8
LAYER_1
 62
     7
100
AcDbSpline
210
0.0
220
0.0
230
1.0
 70
     8
 71
     3
 72
    29
 73
    25
 74
     0
 42
0.0000000001
 43
0.0000000001
 40
0.0
 40
0.0
 40
0.0
 40
0.0
 40
1.0
 40
1.0
 40
1.0
 40
2.0
 40
2.0
 40
2.0
 40
3.0
 40
3.0
 40
3.0
 40
4.0
 40
4.0
 40
4.0
 40
5.0
 40
5.0
 40
5.0
 40
6.0
 40
6.0
 40
6.0
 40
7.0
 40
7.0
 40
7.0
 40
8.0
 40
8.0
 40
8.0
 40
8.0
 10
0.3715535481770833
 20
-3.084135606553819
 30
0.0
 10
0.3715535481770833
 20
-3.084135606553819
 30
0.0
 10
0.6168443467881944
 20
-5.173930528428819
 30
0.0
 10
0.7419013129340277
 20
-5.800421142578125
 30
0.0
 10
0.8674750434027777
 20
-6.42691175672743
 30
0.0
 10
0.7257093641493055
 20
-9.254301622178819
 30
0.0
 10
0.9348266601562499
 20
-9.714049614800347
 30
0.0
 10
1.143427191840278
 20
-10.17345309787326
 30
0.0
 10
1.477773708767361
 20
-12.30321112738715
 30
0.0
 10
1.686546495225694
 20
-12.76261461046007
 30
0.0
 10
1.895147026909722
 20
-13.22201809353298
 30
0.0
 10
2.103919813368055
 20
-14.89254489474826
 30
0.0
 10
2.271006944444444
 20
-15.1852057562934
 30
0.0
 10
2.438094075520833
 20
-15.47752210828993
 30
0.0
 10
2.772440592447917
 20
-17.3151360405816
 30
0.0
 10
2.939527723524305
 20
-17.73250935872396
 30
0.0
 10
3.106270345052083
 20
-18.15039944118923
 30
0.0
 10
3.106270345052083
 20
-18.94397718641493
 30
0.0
 10
3.106270345052083
 20
-19.06920640733507
 30
0.0
 10
3.106270345052083
 20
-20.61915486653646
 30
0.0
 10
3.026344129774305
 20
-22.09865112304687
 30
0.0
 10
3.582038031684027
 20
-23.39521280924479
 30
0.0
 10
3.952385796440972
 20
-24.32125447591146
 30
0.0
 10
4.322733561197916
 20
-25.43247002495659
 30
0.0
 10
4.693253580729166
 20
-26.35851169162326
 30
0.0
  0
SPLINE
  5
33
330
28
100
AcDbEntity
  8
LAYER_1
 62
     7
100
AcDbSpline
210
0.0
220
0.0
230
1.0
 70
     8
 71
     3
 72
    26
 73
    22
 74
     0
 42
0.0000000001
 43
0.0000000001
 40
0.0
 40
0.0
 40
0.0
 40
0.0
 40
1.0
 40
1.0
 40
1.0
 40
2.0
 40
2.0
 40
2.0
 40
3.0
 40
3.0
 40
3.0
 40
4.0
 40
4.0
 40
4.0
 40
5.0
 40
5.0
 40
5.0
 40
6.0
 40
6.0
 40
6.0
 40
7.0
 40
7.0
 40
7.0
 40
7.0
 10
-5.030183919270833
 20
-4.966880289713541
 30
0.0
 10
-5.030183919270833
 20
-4.966880289713541
 30
0.0
 10
-4.202499728732638
 20
-10.67436998155382
 30
0.0
 10
-4.077098253038194
 20
-11.13377346462674
 30
0.0
 10
-3.951869032118055
 20
-11.59317694769965
 30
0.0
 10
-3.492465549045138
 20
-13.63990817599826
 30
0.0
 10
-3.492465549045138
 20
-13.63990817599826
 30
0.0
 10
-3.366891818576389
 20
-14.09931165907118
 30
0.0
 10
-3.308669704861111
 20
-15.47752210828993
 30
0.0
 10
-3.266811794704861
 20
-15.76983846028646
 30
0.0
 10
-3.225126139322916
 20
-16.06215481228298
 30
0.0
 10
-3.225126139322916
 20
-16.22924194335937
 30
0.0
 10
-3.225126139322916
 20
-16.22924194335937
 30
0.0
 10
-3.085599772135416
 20
-21.17260945638021
 30
0.0
 10
-3.641121419270833
 20
-25.98816392686632
 30
0.0
 10
-2.900253634982639
 20
-31.17389390733507
 30
0.0
 10
-2.715079752604166
 20
-32.28510945638021
 30
0.0
 10
-2.344731987847222
 20
-33.21115112304688
 30
0.0
 10
-2.15955810546875
 20
-34.32253892686632
 30
0.0
 10
-1.7890380859375
 20
-36.73014390733507
 30
0.0
 10
-1.974211968315972
 20
-38.95274726019965
 30
0.0
 10
-1.974211968315972
 20
-41.3603522406684
 30
0.0
  0
SPLINE
  5
32
330
28
100
AcDbEntity
  8
LAYER_1
 62
     7
100
AcDbSpline
210
0.0
220
0.0
230
1.0
 70
     8
 71
     3
 72
    41
 73
    37
 74
     0
 42
0.0000000001
 43
0.0000000001
 40
0.0
 40
0.0
 40
0.0
 40
0.0
 40
1.0
 40
1.0
 40
1.0
 40
2.0
 40
2.0
 40
2.0
 40
3.0
 40
3.0
 40
3.0
 40
4.0
 40
4.0
 40
4.0
 40
5.0
 40
5.0
 40
5.0
 40
6.0
 40
6.0
 40
6.0
 40
7.0
 40
7.0
 40
7.0
 40
8.0
 40
8.0
 40
8.0
 40
9.0
 40
9.0
 40
9.0
 40
10.0
 40
10.0
 40
10.0
 40
11.0
 40
11.0
 40
11.0
 40
12.0
 40
12.0
 40
12.0
 40
12.0
 10
-3.9935546875
 20
-1.319213189019097
 30
0.0
 10
-3.9935546875
 20
-1.319213189019097
 30
0.0
 10
-4.160641818576389
 20
-1.026896837022569
 30
0.0
 10
-3.9935546875
 20
-1.319213189019097
 30
0.0
 10
-3.826812065972222
 20
-1.611529541015625
 30
0.0
 10
-3.576009114583333
 20
-3.156827121310764
 30
0.0
 10
-3.534151204427083
 20
-3.657744004991319
 30
0.0
 10
-3.492465549045138
 20
-4.159177652994791
 30
0.0
 10
-3.200149197048611
 20
-6.289107937282986
 30
0.0
 10
-3.158291286892361
 20
-6.832054985894096
 30
0.0
 10
-3.116605631510416
 20
-7.375002034505208
 30
0.0
 10
-2.698887803819444
 20
-9.087386745876735
 30
0.0
 10
-2.61534423828125
 20
-9.421388753255208
 30
0.0
 10
-2.531800672743056
 20
-9.755563015407985
 30
0.0
 10
-2.114255099826389
 20
-12.09461059570312
 30
0.0
 10
-2.072397189670139
 20
-12.21966756184896
 30
0.0
 10
-2.030711534288194
 20
-12.3448967827691
 30
0.0
 10
-1.780080837673611
 20
-14.22454087999132
 30
0.0
 10
-1.696537272135417
 20
-14.43314141167535
 30
0.0
 10
-1.612993706597222
 20
-14.64191419813368
 30
0.0
 10
-1.2371337890625
 20
-16.27075534396701
 30
0.0
 10
-1.2371337890625
 20
-16.27075534396701
 30
0.0
 10
-1.2371337890625
 20
-16.27075534396701
 30
0.0
 10
-1.195448133680555
 20
-16.68864542643229
 30
0.0
 10
-1.195448133680555
 20
-16.98096177842882
 30
0.0
 10
-1.195448133680555
 20
-18.76534898546007
 30
0.0
 10
-1.603864203559028
 20
-20.80226169162326
 30
0.0
 10
-1.048170301649305
 20
-22.65434502495659
 30
0.0
 10
0.2482191297743055
 20
-26.72885945638021
 30
0.0
 10
0.0630452473958333
 20
-30.61837226019965
 30
0.0
 10
0.8039130316840277
 20
-34.87806057400174
 30
0.0
 10
1.174260796440972
 20
-36.35979614257812
 30
0.0
 10
0.9890869140624999
 20
-37.65618557400173
 30
0.0
 10
1.915128580729167
 20
-38.95274726019965
 30
0.0
 10
2.841170247395833
 20
-40.80483059353298
 30
0.0
 10
1.729954698350694
 20
-42.84208780924479
 30
0.0
 10
2.841170247395833
 20
-44.69417114257812
 30
0.0
  0
SPLINE
  5
31
330
28
100
AcDbEntity
  8
LAYER_1
 62
     7
100
AcDbSpline
210
0.0
220
0.0
230
1.0
 70
     8
 71
     3
 72
    50
 73
    46
 74
     0
 42
0.0000000001
 43
0.0000000001
 40
0.0
 40
0.0
 40
0.0
 40
0.0
 40
1.0
 40
1.0
 40
1.0
 40
2.0
 40
2.0
 40
2.0
 40
3.0
 40
3.0
 40
3.0
 40
4.0
 40
4.0
 40
4.0
 40
5.0
 40
5.0
 40
5.0
 40
6.0
 40
6.0
 40
6.0
 40
7.0
 40
7.0
 40
7.0
 40
8.0
 40
8.0
 40
8.0
 40
9.0
 40
9.0
 40
9.0
 40
10.0
 40
10.0
 40
10.0
 40
11.0
 40
11.0
 40
11.0
 40
12.0
 40
12.0
 40
12.0
 40
13.0
 40
13.0
 40
13.0
 40
14.0
 40
14.0
 40
14.0
 40
15.0
 40
15.0
 40
15.0
 40
15.0
 10
2.488392469618055
 20
4.811850992838541
 30
0.0
 10
2.488392469618055
 20
4.811850992838541
 30
0.0
 10
2.003667534722222
 20
5.613869222005208
 30
0.0
 10
1.795067003038194
 20
5.90601331922743
 30
0.0
 10
1.586294216579861
 20
6.198674180772569
 30
0.0
 10
1.143427191840278
 20
6.532676188151041
 30
0.0
 10
0.8512830946180555
 20
6.74162122938368
 30
0.0
 10
0.5589667426215277
 20
6.950394015842013
 30
0.0
 10
0.0160196940104167
 20
7.618570285373263
 30
0.0
 10
-0.1510674370659722
 20
8.07797376844618
 30
0.0
 10
-0.3183268229166666
 20
8.537721761067708
 30
0.0
 10
-0.3601847330729167
 20
9.080324300130208
 30
0.0
 10
-0.3601847330729167
 20
9.414498562282985
 30
0.0
 10
-0.3601847330729167
 20
9.748500569661458
 30
0.0
 10
-0.4854139539930555
 20
10.58410847981771
 30
0.0
 10
-0.7360446506076388
 20
10.95996839735243
 30
0.0
 10
-0.9863308376736111
 20
11.33565606011285
 30
0.0
 10
-0.9448174370659721
 20
12.7138665093316
 30
0.0
 10
-1.069874403211806
 20
12.96466946072049
 30
0.0
 10
-1.195448133680555
 20
13.21495564778646
 30
0.0
 10
-1.446078830295139
 20
16.09695027669271
 30
0.0
 10
-1.446078830295139
 20
16.34758097330729
 30
0.0
 10
-1.446078830295139
 20
16.59821166992187
 30
0.0
 10
-1.487764485677083
 20
18.01810777452257
 30
0.0
 10
-1.654851616753472
 20
18.47751125759548
 30
0.0
 10
-1.821938747829861
 20
18.93725925021701
 30
0.0
 10
-1.94716796875
 20
21.23393215603299
 30
0.0
 10
-1.94716796875
 20
21.23393215603299
 30
0.0
 10
-1.94716796875
 20
21.23393215603299
 30
0.0
 10
-1.94716796875
 20
22.57045694986979
 30
0.0
 10
-1.94716796875
 20
22.57045694986979
 30
0.0
 10
-1.974211968315972
 20
24.01808607313368
 30
0.0
 10
-1.974211968315972
 20
25.49982164171007
 30
0.0
 10
-2.344731987847222
 20
26.98155721028646
 30
0.0
 10
-2.715079752604166
 20
28.83364054361979
 30
0.0
 10
-2.344731987847222
 20
30.68572387695312
 30
0.0
 10
-2.900253634982639
 20
32.35246107313368
 30
0.0
 10
-3.826295301649305
 20
35.31593221028646
 30
0.0
 10
-3.641121419270833
 20
38.27923109266493
 30
0.0
 10
-4.196815321180555
 20
41.42770385742187
 30
0.0
 10
-4.196815321180555
 20
41.42770385742187
 30
0.0
 10
-4.5671630859375
 20
41.42770385742187
 30
0.0
 10
-4.5671630859375
 20
41.42770385742187
 30
0.0
 10
-4.5671630859375
 20
42.53891940646701
 30
0.0
 10
-4.5671630859375
 20
43.65030721028646
 30
0.0
 10
-4.5671630859375
 20
44.76152275933159
 30
0.0
  0
SPLINE
  5
30
330
28
100
AcDbEntity
  8
LAYER_1
 62
     7
100
AcDbSpline
210
0.0
220
0.0
230
1.0
 70
     8
 71
     3
 72
    47
 73
    43
 74
     0
 42
0.0000000001
 43
0.0000000001
 40
0.0
 40
0.0
 40
0.0
 40
0.0
 40
1.0
 40
1.0
 40
1.0
 40
2.0
 40
2.0
 40
2.0
 40
3.0
 40
3.0
 40
3.0
 40
4.0
 40
4.0
 40
4.0
 40
5.0
 40
5.0
 40
5.0
 40
6.0
 40
6.0
 40
6.0
 40
7.0
 40
7.0
 40
7.0
 40
8.0
 40
8.0
 40
8.0
 40
9.0
 40
9.0
 40
9.0
 40
10.0
 40
10.0
 40
10.0
 40
11.0
 40
11.0
 40
11.0
 40
12.0
 40
12.0
 40
12.0
 40
13.0
 40
13.0
 40
13.0
 40
14.0
 40
14.0
 40
14.0
 40
14.0
 10
2.229493543836806
 20
4.820463731553819
 30
0.0
 10
2.229493543836806
 20
4.820463731553819
 30
0.0
 10
1.442978244357639
 20
3.545433892144097
 30
0.0
 10
1.359434678819444
 20
3.336661105685764
 30
0.0
 10
1.27589111328125
 20
3.12788831922743
 30
0.0
 10
0.0864718967013889
 20
2.312606472439236
 30
0.0
 10
-0.1221286349826389
 20
1.978432210286458
 30
0.0
 10
-0.3309014214409722
 20
1.644430202907986
 30
0.0
 10
-1.48052978515625
 20
0.169757080078125
 30
0.0
 10
-1.48052978515625
 20
0.0030144585503472
 30
0.0
 10
-1.48052978515625
 20
-0.1642449273003472
 30
0.0
 10
1.234377712673611
 20
-0.9831441243489583
 30
0.0
 10
1.359434678819444
 20
-1.108373345269097
 30
0.0
 10
1.484663899739583
 20
-1.233774820963542
 30
0.0
 10
1.521181911892361
 20
-2.464879692925347
 30
0.0
 10
1.729954698350694
 20
-2.589936659071181
 30
0.0
 10
1.938555230034722
 20
-2.71551038953993
 30
0.0
 10
2.797762044270833
 20
-3.862899441189236
 30
0.0
 10
2.964504665798611
 20
-4.071672227647569
 30
0.0
 10
2.964504665798611
 20
-4.071672227647569
 30
0.0
 10
2.677700466579861
 20
-3.739565022786458
 30
0.0
 10
2.593984646267361
 20
-3.948337809244791
 30
0.0
 10
2.510441080729167
 20
-4.156938340928819
 30
0.0
 10
2.354550509982639
 20
-4.367950439453125
 30
0.0
 10
2.396580674913194
 20
-4.701780192057291
 30
0.0
 10
2.438094075520833
 20
-5.035954454210069
 30
0.0
 10
2.480124240451389
 20
-7.416687689887152
 30
0.0
 10
2.521637641059028
 20
-7.708831787109374
 30
0.0
 10
2.563323296440972
 20
-8.001492648654514
 30
0.0
 10
2.605353461371528
 20
-9.504932318793403
 30
0.0
 10
2.855984157986111
 20
-9.755563015407985
 30
0.0
 10
3.106270345052083
 20
-10.00619371202257
 30
0.0
 10
3.524160427517361
 20
-11.88549329969618
 30
0.0
 10
3.649561903211805
 20
-12.21966756184896
 30
0.0
 10
3.774791124131944
 20
-12.55401407877604
 30
0.0
 10
4.192164442274305
 20
-14.22454087999132
 30
0.0
 10
4.2757080078125
 20
-14.43314141167535
 30
0.0
 10
4.359251573350695
 20
-14.64191419813368
 30
0.0
 10
4.651912434895833
 20
-15.10166219075521
 30
0.0
 10
4.735111490885417
 20
-15.64426472981771
 30
0.0
 10
4.81865505642361
 20
-16.18721177842882
 30
0.0
 10
4.860685221354166
 20
-16.47987263997396
 30
0.0
 10
4.860685221354166
 20
-16.47987263997396
 30
0.0
  0
SPLINE
  5
2F
330
28
100
AcDbEntity
  8
LAYER_1
 62
     7
100
AcDbSpline
210
0.0
220
0.0
230
1.0
 70
     8
 71
     3
 72
    14
 73
    10
 74
     0
 42
0.0000000001
 43
0.0000000001
 40
0.0
 40
0.0
 40
0.0
 40
0.0
 40
1.0
 40
1.0
 40
1.0
 40
2.0
 40
2.0
 40
2.0
 40
3.0
 40
3.0
 40
3.0
 40
3.0
 10
3.582038031684027
 20
-4.226184760199653
 30
0.0
 10
3.582038031684027
 20
-4.226184760199653
 30
0.0
 10
3.9408447265625
 20
-5.476237657335069
 30
0.0
 10
3.7672119140625
 20
-5.244727240668403
 30
0.0
 10
4.017842610677083
 20
-5.579073757595485
 30
0.0
 10
3.827156575520833
 20
-6.971753607855902
 30
0.0
 10
3.952385796440972
 20
-7.096810574001736
 30
0.0
 10
4.077615017361111
 20
-7.222384304470485
 30
0.0
 10
4.785754394531249
 20
-9.041566975911458
 30
0.0
 10
4.785754394531249
 20
-9.041566975911458
 30
0.0
  0
SPLINE
  5
2E
330
28
100
AcDbEntity
  8
LAYER_1
 62
     7
100
AcDbSpline
210
0.0
220
0.0
230
1.0
 70
     8
 71
     3
 72
    56
 73
    52
 74
     0
 42
0.0000000001
 43
0.0000000001
 40
0.0
 40
0.0
 40
0.0
 40
0.0
 40
1.0
 40
1.0
 40
1.0
 40
2.0
 40
2.0
 40
2.0
 40
3.0
 40
3.0
 40
3.0
 40
4.0
 40
4.0
 40
4.0
 40
5.0
 40
5.0
 40
5.0
 40
6.0
 40
6.0
 40
6.0
 40
7.0
 40
7.0
 40
7.0
 40
8.0
 40
8.0
 40
8.0
 40
9.0
 40
9.0
 40
9.0
 40
10.0
 40
10.0
 40
10.0
 40
11.0
 40
11.0
 40
11.0
 40
12.0
 40
12.0
 40
12.0
 40
13.0
 40
13.0
 40
13.0
 40
14.0
 40
14.0
 40
14.0
 40
15.0
 40
15.0
 40
15.0
 40
16.0
 40
16.0
 40
16.0
 40
17.0
 40
17.0
 40
17.0
 40
17.0
 10
2.223636881510417
 20
-1.355386691623264
 30
0.0
 10
2.223636881510417
 20
-1.355386691623264
 30
0.0
 10
3.334852430555555
 20
0.0030144585503472
 30
0.0
 10
4.322733561197916
 20
1.360898844401042
 30
0.0
 10
4.652256944444444
 20
1.814101155598958
 30
0.0
 10
4.816587999131944
 20
2.225445556640625
 30
0.0
 10
4.816587999131944
 20
2.225445556640625
 30
0.0
 10
4.816587999131944
 20
2.225445556640625
 30
0.0
 10
5.7794921875
 20
3.483938937717014
 30
0.0
 10
5.7794921875
 20
3.651026068793402
 30
0.0
 10
5.7794921875
 20
3.818113199869791
 30
0.0
 10
5.612405056423611
 20
3.859798855251736
 30
0.0
 10
5.403632269965278
 20
3.984855821397569
 30
0.0
 10
5.194514973958333
 20
4.110429551866319
 30
0.0
 10
5.069458007812499
 20
4.277516682942708
 30
0.0
 10
4.860685221354166
 20
4.361060248480903
 30
0.0
 10
4.651912434895833
 20
4.444603814019096
 30
0.0
 10
3.398931206597222
 20
5.530325656467014
 30
0.0
 10
3.273357476128472
 20
5.739270697699652
 30
0.0
 10
3.148300509982639
 20
5.948043484157986
 30
0.0
 10
2.605353461371528
 20
6.323903401692708
 30
0.0
 10
2.313037109375
 20
6.574534098307291
 30
0.0
 10
2.020376247829861
 20
6.824820285373264
 30
0.0
 10
1.560972764756944
 20
7.075623236762152
 30
0.0
 10
1.477773708767361
 20
7.40979749891493
 30
0.0
 10
1.394230143229167
 20
7.744144015842013
 30
0.0
 10
1.185112847222222
 20
9.080324300130208
 30
0.0
 10
1.101913791232639
 20
9.289441596137152
 30
0.0
 10
1.018025716145833
 20
9.498042127821179
 30
0.0
 10
0.7677395290798611
 20
11.25211249457465
 30
0.0
 10
0.6840237087673611
 20
11.50291544596354
 30
0.0
 10
0.6004801432291667
 20
11.75354614257812
 30
0.0
 10
0.3918796115451388
 20
13.29884372287326
 30
0.0
 10
0.4333930121527778
 20
13.54912990993924
 30
0.0
 10
0.4754231770833333
 20
13.79993286132812
 30
0.0
 10
0.3918796115451388
 20
15.88817749023437
 30
0.0
 10
0.3498494466145833
 20
16.1804938422309
 30
0.0
 10
0.3083360460069444
 20
16.47281019422743
 30
0.0
 10
-0.1095540364583333
 20
18.68662855360243
 30
0.0
 10
-0.1095540364583333
 20
18.89522908528646
 30
0.0
 10
-0.1095540364583333
 20
19.10400187174479
 30
0.0
 10
-0.1510674370659722
 20
20.48221232096354
 30
0.0
 10
-0.2347832573784722
 20
20.77487318250868
 30
0.0
 10
-0.3183268229166666
 20
21.06718953450521
 30
0.0
 10
-0.1930976019965278
 20
21.77722371419271
 30
0.0
 10
-0.1095540364583333
 20
22.02750990125868
 30
0.0
 10
0.8013292100694444
 20
24.7596428765191
 30
0.0
 10
-0.3074747721354166
 20
28.0927727593316
 30
0.0
 10
-0.8629964192708333
 20
31.24124552408854
 30
0.0
 10
-1.603864203559028
 20
35.50110609266493
 30
0.0
 10
-1.603864203559028
 20
39.57562052408854
 30
0.0
 10
-2.15955810546875
 20
43.65030721028646
 30
0.0
  0
SPLINE
  5
2D
330
28
100
AcDbEntity
  8
LAYER_1
 62
     7
100
AcDbSpline
210
0.0
220
0.0
230
1.0
 70
     8
 71
     3
 72
    29
 73
    25
 74
     0
 42
0.0000000001
 43
0.0000000001
 40
0.0
 40
0.0
 40
0.0
 40
0.0
 40
1.0
 40
1.0
 40
1.0
 40
2.0
 40
2.0
 40
2.0
 40
3.0
 40
3.0
 40
3.0
 40
4.0
 40
4.0
 40
4.0
 40
5.0
 40
5.0
 40
5.0
 40
6.0
 40
6.0
 40
6.0
 40
7.0
 40
7.0
 40
7.0
 40
8.0
 40
8.0
 40
8.0
 40
8.0
 10
4.785754394531249
 20
7.71985609266493
 30
0.0
 10
4.785754394531249
 20
7.71985609266493
 30
0.0
 10
4.707722981770833
 20
9.668057590060762
 30
0.0
 10
4.415406629774306
 20
10.12746107313368
 30
0.0
 10
4.123090277777777
 20
10.5868645562066
 30
0.0
 10
4.526510959201389
 20
11.46088528103299
 30
0.0
 10
4.359251573350695
 20
11.75354614257812
 30
0.0
 10
4.192164442274305
 20
12.04586249457465
 30
0.0
 10
4.108620876736111
 20
13.5076165093316
 30
0.0
 10
3.983563910590278
 20
13.88347642686632
 30
0.0
 10
3.858334689670139
 20
14.25933634440104
 30
0.0
 10
3.649561903211805
 20
16.22235175238715
 30
0.0
 10
3.482474772135416
 20
16.51466810438368
 30
0.0
 10
3.315387641059028
 20
16.80698445638021
 30
0.0
 10
3.356901041666666
 20
19.47986178927951
 30
0.0
 10
3.356901041666666
 20
19.47986178927951
 30
0.0
 10
3.356901041666666
 20
19.47986178927951
 30
0.0
 10
3.320383029513889
 20
20.50133260091146
 30
0.0
 10
3.320383029513889
 20
20.66841973198785
 30
0.0
 10
3.320383029513889
 20
26.98190171983507
 30
0.0
 10
3.211518012152777
 20
33.09332885742187
 30
0.0
 10
3.7672119140625
 20
39.39044664171006
 30
0.0
 10
3.7672119140625
 20
39.57562052408854
 30
0.0
 10
4.137559678819444
 20
40.13131442599826
 30
0.0
 10
4.508079698350694
 20
40.50166219075521
 30
0.0
  0
SPLINE
  5
2C
330
28
100
AcDbEntity
  8
LAYER_1
 62
     7
100
AcDbSpline
210
0.0
220
0.0
230
1.0
 70
     8
 71
     3
 72
    41
 73
    37
 74
     0
 42
0.0000000001
 43
0.0000000001
 40
0.0
 40
0.0
 40
0.0
 40
0.0
 40
1.0
 40
1.0
 40
1.0
 40
2.0
 40
2.0
 40
2.0
 40
3.0
 40
3.0
 40
3.0
 40
4.0
 40
4.0
 40
4.0
 40
5.0
 40
5.0
 40
5.0
 40
6.0
 40
6.0
 40
6.0
 40
7.0
 40
7.0
 40
7.0
 40
8.0
 40
8.0
 40
8.0
 40
9.0
 40
9.0
 40
9.0
 40
10.0
 40
10.0
 40
10.0
 40
11.0
 40
11.0
 40
11.0
 40
12.0
 40
12.0
 40
12.0
 40
12.0
 10
5.619295247395833
 20
5.312078857421875
 30
0.0
 10
5.619295247395833
 20
5.312078857421875
 30
0.0
 10
4.230232747395833
 20
5.497252739800347
 30
0.0
 10
3.106270345052083
 20
7.618570285373263
 30
0.0
 10
2.957614474826389
 20
7.89969007703993
 30
0.0
 10
3.189813910590277
 20
7.159166802300347
 30
0.0
 10
3.106270345052083
 20
7.618570285373263
 30
0.0
 10
3.0230712890625
 20
8.07797376844618
 30
0.0
 10
2.981041124131944
 20
8.758724636501736
 30
0.0
 10
2.981041124131944
 20
9.247411431206597
 30
0.0
 10
2.981041124131944
 20
9.706814914279512
 30
0.0
 10
2.688897026909722
 20
10.79270901150174
 30
0.0
 10
2.563323296440972
 20
11.33565606011285
 30
0.0
 10
2.441022406684028
 20
11.86637301974826
 30
0.0
 10
2.271006944444444
 20
13.59116007486979
 30
0.0
 10
2.313037109375
 20
13.71638929578993
 30
0.0
 10
2.354550509982639
 20
13.84179077148437
 30
0.0
 10
2.18746337890625
 20
15.22000122070312
 30
0.0
 10
2.145949978298611
 20
15.5540032280816
 30
0.0
 10
2.103919813368055
 20
15.88817749023437
 30
0.0
 10
2.020376247829861
 20
17.76730482313368
 30
0.0
 10
1.937177191840278
 20
17.93456420898437
 30
0.0
 10
1.853633626302083
 20
18.10165134006076
 30
0.0
 10
1.811603461371528
 20
19.7304924858941
 30
0.0
 10
1.811603461371528
 20
19.7304924858941
 30
0.0
 10
1.811603461371528
 20
19.7304924858941
 30
0.0
 10
1.477773708767361
 20
21.27579006618923
 30
0.0
 10
1.477773708767361
 20
21.27579006618923
 30
0.0
 10
1.544608561197917
 20
23.46256442599826
 30
0.0
 10
1.729954698350694
 20
25.49982164171007
 30
0.0
 10
2.100302463107639
 20
27.72225273980035
 30
0.0
 10
2.470650227864583
 20
30.31520385742187
 30
0.0
 10
2.285476345486111
 20
32.72298109266493
 30
0.0
 10
1.544608561197917
 20
35.13058607313368
 30
0.0
 10
0.9890869140624999
 20
37.35318942599826
 30
0.0
 10
1.359434678819444
 20
39.76079440646701
 30
0.0
 10
1.359434678819444
 20
42.16857164171007
 30
0.0
  0
SPLINE
  5
2B
330
28
100
AcDbEntity
  8
LAYER_1
 62
     7
100
AcDbSpline
210
0.0
220
0.0
230
1.0
 70
     8
 71
     3
 72
    17
 73
    13
 74
     0
 42
0.0000000001
 43
0.0000000001
 40
0.0
 40
0.0
 40
0.0
 40
0.0
 40
1.0
 40
1.0
 40
1.0
 40
2.0
 40
2.0
 40
2.0
 40
3.0
 40
3.0
 40
3.0
 40
4.0
 40
4.0
 40
4.0
 40
4.0
 10
4.192164442274305
 20
4.235658772786458
 30
0.0
 10
4.192164442274305
 20
4.235658772786458
 30
0.0
 10
3.665581597222222
 20
3.381964111328125
 30
0.0
 10
3.582038031684027
 20
3.089647759331597
 30
0.0
 10
3.498322211371527
 20
2.797331407335069
 30
0.0
 10
2.677700466579861
 20
2.352397325303819
 30
0.0
 10
2.593984646267361
 20
2.101766628689236
 30
0.0
 10
2.510441080729167
 20
1.850963677300347
 30
0.0
 10
1.401120334201389
 20
1.157638210720486
 30
0.0
 10
1.359434678819444
 20
0.9905510796440972
 30
0.0
 10
1.317576768663194
 20
0.8236362033420138
 30
0.0
 10
0.3698310004340277
 20
-0.4894619411892361
 30
0.0
 10
0.4952324761284722
 20
-0.6145189073350694
 30
0.0
  0
ENDBLK
  5
38
330
28
100
AcDbEntity
  8
LAYER_1
100
AcDbBlockEnd
  0
ENDSEC
  0
SECTION
  2
ENTITIES
  0
LWPOLYLINE
  5
94
330
A
100
AcDbEntity
  8
LAYER_1
 62
     7
100
AcDbPolyline
 90
       20
 70
     0
 43
0.0
 10
89.37232259114583
 20
88.8443617078993
 10
75.0310791015625
 20
80.7270277235243
 10
64.91197238498263
 20
87.75881212022568
 10
64.91197238498263
 20
87.75881212022568
 10
64.98690321180555
 20
126.1797227647569
 10
62.47198350694444
 20
129.6987155490451
 10
67.65788574218749
 20
133.9585761176215
 10
65.00206163194444
 20
137.8479166666667
 10
65.06493462456596
 20
172.6669799804687
 10
74.67554524739583
 20
175.3427856445312
 10
74.90808919270833
 20
190.9387329101562
 10
82.65145806206597
 20
194.0303615993923
 10
82.5284681532118
 20
196.6525960286458
 10
92.16905110677082
 20
194.7462524414062
 10
92.29204101562499
 20
196.6525960286458
 10
97.75561794704861
 20
198.6729722764757
 10
152.265813530816
 20
178.1975640190972
 10
151.9059733072917
 20
94.65417073567707
 10
130.2442464192708
 20
82.40048285590277
 10
106.8706515842014
 20
96.44596489800347
  0
SPLINE
  5
93
330
A
100
AcDbEntity
  8
LAYER_1
 62
     7
100
AcDbSpline
210
0.0
220
0.0
230
1.0
 70
    11
 71
     3
 72
    41
 73
    37
 74
     0
 42
0.0000000001
 43
0.0000000001
 40
0.0
 40
0.0
 40
0.0
 40
0.0
 40
1.0
 40
1.0
 40
1.0
 40
2.0
 40
2.0
 40
2.0
 40
3.0
 40
3.0
 40
3.0
 40
4.0
 40
4.0
 40
4.0
 40
5.0
 40
5.0
 40
5.0
 40
6.0
 40
6.0
 40
6.0
 40
7.0
 40
7.0
 40
7.0
 40
8.0
 40
8.0
 40
8.0
 40
9.0
 40
9.0
 40
9.0
 40
10.0
 40
10.0
 40
10.0
 40
11.0
 40
11.0
 40
11.0
 40
12.0
 40
12.0
 40
12.0
 40
12.0
 10
88.49313422309027
 20
88.37376166449651
 30
0.0
 10
88.98474934895833
 20
88.0225341796875
 30
0.0
 10
89.82793646918402
 20
87.53023003472221
 30
0.0
 10
91.02269558376736
 20
88.16292182074652
 30
0.0
 10
92.21745469835069
 20
88.7950968424479
 30
0.0
 10
106.8344780815972
 20
96.52502983940971
 30
0.0
 10
106.8344780815972
 20
96.52502983940971
 30
0.0
 10
106.8344780815972
 20
96.52502983940971
 30
0.0
 10
113.1591566297743
 20
104.1142306857639
 30
0.0
 10
113.3696519639757
 20
104.3953504774305
 30
0.0
 10
113.5804918077257
 20
104.6764702690972
 30
0.0
 10
113.8616115993924
 20
105.4493774414062
 30
0.0
 10
113.8616115993924
 20
106.1523491753472
 30
0.0
 10
113.8616115993924
 20
106.8548041449653
 30
0.0
 10
114.0724514431424
 20
147.1202189127604
 30
0.0
 10
114.0724514431424
 20
147.1202189127604
 30
0.0
 10
114.0724514431424
 20
147.1202189127604
 30
0.0
 10
108.2922702365451
 20
149.6017211914062
 30
0.0
 10
107.5369330512153
 20
149.9312445746528
 30
0.0
 10
106.4127983940972
 20
150.4228597005208
 30
0.0
 10
106.2017862955729
 20
150.3527520073785
 30
0.0
 10
105.1477593315972
 20
150.0011800130208
 30
0.0
 10
104.0935601128472
 20
149.6497802734375
 30
0.0
 10
96.50401475694443
 20
146.6985392252604
 30
0.0
 10
96.50401475694443
 20
146.6985392252604
 30
0.0
 10
96.50401475694443
 20
146.6985392252604
 30
0.0
 10
96.08233506944444
 20
105.8011216905382
 30
0.0
 10
96.08233506944444
 20
105.3792697482639
 30
0.0
 10
96.08233506944444
 20
104.9579345703125
 30
0.0
 10
95.80155978732638
 20
103.4114312065972
 30
0.0
 10
95.59071994357637
 20
102.8497083875868
 30
0.0
 10
95.37988009982638
 20
102.2871242947049
 30
0.0
 10
90.39034830729166
 20
90.20052354600693
 30
0.0
 10
90.03877631293402
 20
89.77901611328124
 30
0.0
 10
89.68754882812499
 20
89.35733642578124
 30
0.0
 10
89.54681667751736
 20
88.72498914930554
 30
0.0
 10
88.49313422309027
 20
88.37376166449651
 30
0.0
  0
LINE
  5
92
330
A
100
AcDbEntity
  8
LAYER_1
 62
     7
100
AcDbLine
 10
113.0139458550347
 20
146.6416951497396
 30
0.0
 11
114.0240478515625
 21
147.0764662000868
 31
0.0
  0
LINE
  5
91
330
A
100
AcDbEntity
  8
LAYER_1
 62
     7
100
AcDbLine
 10
96.49109564887152
 20
146.738330078125
 30
0.0
 11
97.54942898220486
 21
146.21123046875
 31
0.0
  0
SPLINE
  5
90
330
A
100
AcDbEntity
  8
LAYER_1
 62
     7
100
AcDbSpline
210
0.0
220
0.0
230
1.0
 70
     8
 71
     3
 72
    11
 73
     7
 74
     0
 42
0.0000000001
 43
0.0000000001
 40
0.0
 40
0.0
 40
0.0
 40
0.0
 40
1.0
 40
1.0
 40
1.0
 40
2.0
 40
2.0
 40
2.0
 40
2.0
 10
99.50400390624999
 20
105.9649359809028
 30
0.0
 10
99.13055555555555
 20
105.7975043402778
 30
0.0
 10
98.75262858072915
 20
105.934619140625
 30
0.0
 10
98.75262858072915
 20
106.5035766601562
 30
0.0
 10
98.75262858072915
 20
107.3843153211806
 30
0.0
 10
99.27817789713541
 20
107.914515516493
 30
0.0
 10
99.70209689670138
 20
107.9300184461805
 30
0.0
  0
SPLINE
  5
8F
330
A
100
AcDbEntity
  8
LAYER_1
 62
     7
100
AcDbSpline
210
0.0
220
0.0
230
1.0
 70
     8
 71
     3
 72
    11
 73
     7
 74
     0
 42
0.0000000001
 43
0.0000000001
 40
0.0
 40
0.0
 40
0.0
 40
0.0
 40
1.0
 40
1.0
 40
1.0
 40
2.0
 40
2.0
 40
2.0
 40
2.0
 10
99.66833496093749
 20
121.9975490993923
 30
0.0
 10
99.2874796549479
 20
121.813581000434
 30
0.0
 10
98.8933607313368
 20
121.9441501193576
 30
0.0
 10
98.8933607313368
 20
122.5251654730903
 30
0.0
 10
98.8933607313368
 20
123.4475897894965
 30
0.0
 10
99.46989746093749
 20
123.9857137044271
 30
0.0
 10
99.90225694444443
 20
123.9507459852431
 30
0.0
  0
SPLINE
  5
8E
330
A
100
AcDbEntity
  8
LAYER_1
 62
     7
100
AcDbSpline
210
0.0
220
0.0
230
1.0
 70
     8
 71
     3
 72
    11
 73
     7
 74
     0
 42
0.0000000001
 43
0.0000000001
 40
0.0
 40
0.0
 40
0.0
 40
0.0
 40
1.0
 40
1.0
 40
1.0
 40
2.0
 40
2.0
 40
2.0
 40
2.0
 10
99.59064805772569
 20
135.2051839192708
 30
0.0
 10
99.21220431857638
 20
135.0263834635417
 30
0.0
 10
98.82308078342012
 20
135.1590196397569
 30
0.0
 10
98.82308078342012
 20
135.7364176432292
 30
0.0
 10
98.82308078342012
 20
136.6586697048611
 30
0.0
 10
99.39961751302083
 20
137.1966213650173
 30
0.0
 10
99.83197699652777
 20
137.1616536458333
 30
0.0
  0
SPLINE
  5
8D
330
A
100
AcDbEntity
  8
LAYER_1
 62
     7
100
AcDbSpline
210
0.0
220
0.0
230
1.0
 70
     8
 71
     3
 72
    11
 73
     7
 74
     0
 42
0.0000000001
 43
0.0000000001
 40
0.0
 40
0.0
 40
0.0
 40
0.0
 40
1.0
 40
1.0
 40
1.0
 40
2.0
 40
2.0
 40
2.0
 40
2.0
 10
108.0316487630208
 20
138.3090426974826
 30
0.0
 10
108.303466796875
 20
138.3967203776041
 30
0.0
 10
108.5208523220486
 20
138.6437337239583
 30
0.0
 10
108.5208523220486
 20
139.0390584309896
 30
0.0
 10
108.5208523220486
 20
140.0403754340278
 30
0.0
 10
107.6513102213542
 20
140.2513875325521
 30
0.0
 10
107.2165391710069
 20
139.8493448893229
 30
0.0
  0
SPLINE
  5
8C
330
A
100
AcDbEntity
  8
LAYER_1
 62
     7
100
AcDbSpline
210
0.0
220
0.0
230
1.0
 70
     8
 71
     3
 72
    11
 73
     7
 74
     0
 42
0.0000000001
 43
0.0000000001
 40
0.0
 40
0.0
 40
0.0
 40
0.0
 40
1.0
 40
1.0
 40
1.0
 40
2.0
 40
2.0
 40
2.0
 40
2.0
 10
112.1077134874132
 20
143.5090698242187
 30
0.0
 10
112.3795315212674
 20
143.5967475043403
 30
0.0
 10
112.596917046441
 20
143.8437608506944
 30
0.0
 10
112.596917046441
 20
144.2390855577257
 30
0.0
 10
112.596917046441
 20
145.2404025607639
 30
0.0
 10
111.7270304361979
 20
145.4512424045139
 30
0.0
 10
111.2920871310764
 20
145.0495442708333
 30
0.0
  0
SPLINE
  5
8B
330
A
100
AcDbEntity
  8
LAYER_1
 62
     7
100
AcDbSpline
210
0.0
220
0.0
230
1.0
 70
     8
 71
     3
 72
    11
 73
     7
 74
     0
 42
0.0000000001
 43
0.0000000001
 40
0.0
 40
0.0
 40
0.0
 40
0.0
 40
1.0
 40
1.0
 40
1.0
 40
2.0
 40
2.0
 40
2.0
 40
2.0
 10
112.1552558051215
 20
133.2294216579861
 30
0.0
 10
112.3693684895833
 20
133.3443155924479
 30
0.0
 10
112.52646484375
 20
133.5732421875
 30
0.0
 10
112.52646484375
 20
133.9093112521701
 30
0.0
 10
112.52646484375
 20
134.9836642795139
 30
0.0
 10
111.5253200954861
 20
135.1481675889757
 30
0.0
 10
111.1341295030382
 20
134.6219292534722
 30
0.0
  0
SPLINE
  5
8A
330
A
100
AcDbEntity
  8
LAYER_1
 62
     7
100
AcDbSpline
210
0.0
220
0.0
230
1.0
 70
     8
 71
     3
 72
    11
 73
     7
 74
     0
 42
0.0000000001
 43
0.0000000001
 40
0.0
 40
0.0
 40
0.0
 40
0.0
 40
1.0
 40
1.0
 40
1.0
 40
2.0
 40
2.0
 40
2.0
 40
2.0
 10
112.2909925672743
 20
123.3891954210069
 30
0.0
 10
112.5073445638021
 20
123.5032280815972
 30
0.0
 10
112.6666802300347
 20
123.7328436957465
 30
0.0
 10
112.6666802300347
 20
124.0711520724826
 30
0.0
 10
112.6666802300347
 20
125.1656589084201
 30
0.0
 10
111.6278116861979
 20
125.3158650716146
 30
0.0
 10
111.2535020616319
 20
124.7534532335069
 30
0.0
  0
SPLINE
  5
89
330
A
100
AcDbEntity
  8
LAYER_1
 62
     7
100
AcDbSpline
210
0.0
220
0.0
230
1.0
 70
     8
 71
     3
 72
    11
 73
     7
 74
     0
 42
0.0000000001
 43
0.0000000001
 40
0.0
 40
0.0
 40
0.0
 40
0.0
 40
1.0
 40
1.0
 40
1.0
 40
2.0
 40
2.0
 40
2.0
 40
2.0
 10
111.8968736436632
 20
113.0115342881944
 30
0.0
 10
112.1686916775173
 20
113.099211968316
 30
0.0
 10
112.386077202691
 20
113.3462253146701
 30
0.0
 10
112.386077202691
 20
113.7415500217014
 30
0.0
 10
112.386077202691
 20
114.8264105902778
 30
0.0
 10
111.3654676649306
 20
114.9831624348958
 30
0.0
 10
110.9827175564236
 20
114.438665093316
 30
0.0
  0
SPLINE
  5
88
330
A
100
AcDbEntity
  8
LAYER_1
 62
     7
100
AcDbSpline
210
0.0
220
0.0
230
1.0
 70
     8
 71
     3
 72
    11
 73
     7
 74
     0
 42
0.0000000001
 43
0.0000000001
 40
0.0
 40
0.0
 40
0.0
 40
0.0
 40
1.0
 40
1.0
 40
1.0
 40
2.0
 40
2.0
 40
2.0
 40
2.0
 10
112.1347574869792
 20
105.1808322482639
 30
0.0
 10
112.3592054578993
 20
105.291936577691
 30
0.0
 10
112.52646484375
 20
105.5246527777778
 30
0.0
 10
112.52646484375
 20
105.8712293836805
 30
0.0
 10
112.52646484375
 20
106.8723741319444
 30
0.0
 10
111.6567504882812
 20
107.0832139756944
 30
0.0
 10
111.2218071831597
 20
106.6813435872396
 30
0.0
  0
LINE
  5
87
330
A
100
AcDbEntity
  8
LAYER_1
 62
     7
100
AcDbLine
 10
105.4331854926215
 20
107.7686157226562
 30
0.0
 11
105.7098266601562
 21
144.5903130425347
 31
0.0
  0
LINE
  5
86
330
A
100
AcDbEntity
  8
LAYER_1
 62
     7
100
AcDbLine
 10
106.0610541449653
 20
99.0547634548611
 30
0.0
 11
106.4127983940972
 21
146.0661919487847
 31
0.0
  0
SPLINE
  5
85
330
A
100
AcDbEntity
  8
LAYER_1
 62
     7
100
AcDbSpline
210
0.0
220
0.0
230
1.0
 70
     8
 71
     3
 72
    35
 73
    31
 74
     0
 42
0.0000000001
 43
0.0000000001
 40
0.0
 40
0.0
 40
0.0
 40
0.0
 40
1.0
 40
1.0
 40
1.0
 40
2.0
 40
2.0
 40
2.0
 40
3.0
 40
3.0
 40
3.0
 40
4.0
 40
4.0
 40
4.0
 40
5.0
 40
5.0
 40
5.0
 40
6.0
 40
6.0
 40
6.0
 40
7.0
 40
7.0
 40
7.0
 40
8.0
 40
8.0
 40
8.0
 40
9.0
 40
9.0
 40
9.0
 40
10.0
 40
10.0
 40
10.0
 40
10.0
 10
89.54681667751736
 20
87.88180202907985
 30
0.0
 10
90.24961615668401
 20
87.88180202907985
 30
0.0
 10
90.46062825520832
 20
88.0225341796875
 30
0.0
 10
90.88230794270832
 20
88.93582899305555
 30
0.0
 10
91.30381537543401
 20
89.8492960611979
 30
0.0
 10
96.22306722005207
 20
101.5846693250868
 30
0.0
 10
96.57463921440971
 20
102.2170166015625
 30
0.0
 10
96.92586669921874
 20
102.8497083875868
 30
0.0
 10
97.13670654296874
 20
103.6928955078125
 30
0.0
 10
97.13670654296874
 20
104.6061903211806
 30
0.0
 10
97.13670654296874
 20
105.5196573893229
 30
0.0
 10
97.55821397569443
 20
146.2155368381076
 30
0.0
 10
97.55821397569443
 20
146.2155368381076
 30
0.0
 10
97.55821397569443
 20
146.2155368381076
 30
0.0
 10
104.9107367621528
 20
148.9604166666667
 30
0.0
 10
105.6133639865451
 20
149.2415364583333
 30
0.0
 10
106.3161634657118
 20
149.5224839952257
 30
0.0
 10
106.8653116861979
 20
149.3688327365451
 30
0.0
 10
107.567766655816
 20
149.0877129448785
 30
0.0
 10
108.2705661349826
 20
148.8065931532118
 30
0.0
 10
113.0447794596354
 20
146.6062106662326
 30
0.0
 10
113.0447794596354
 20
146.6062106662326
 30
0.0
 10
113.0447794596354
 20
146.6062106662326
 30
0.0
 10
113.0184244791667
 20
107.908831108941
 30
0.0
 10
113.0184244791667
 20
107.2766560872396
 30
0.0
 10
113.0184244791667
 20
106.6443088107639
 30
0.0
 10
112.7373046875
 20
105.0276977539062
 30
0.0
 10
112.2453450520833
 20
104.4659749348958
 30
0.0
 10
111.7533854166667
 20
103.9033908420139
 30
0.0
 10
105.9208387586806
 20
96.10369466145832
 30
0.0
 10
105.9208387586806
 20
96.10369466145832
 30
0.0
  0
SPLINE
  5
84
330
A
100
AcDbEntity
  8
LAYER_1
 62
     7
100
AcDbSpline
210
0.0
220
0.0
230
1.0
 70
     8
 71
     3
 72
    11
 73
     7
 74
     0
 42
0.0000000001
 43
0.0000000001
 40
0.0
 40
0.0
 40
0.0
 40
0.0
 40
1.0
 40
1.0
 40
1.0
 40
2.0
 40
2.0
 40
2.0
 40
2.0
 10
130.6655815972222
 20
132.3190551757812
 30
0.0
 10
132.0055514865451
 20
134.1068874782986
 30
0.0
 10
135.2510036892361
 20
143.4222534179687
 30
0.0
 10
136.3799614800347
 20
146.7820827907986
 30
0.0
 10
138.9667114257812
 20
154.454827202691
 30
0.0
 10
139.4145738389757
 20
169.0930379231771
 30
0.0
 10
137.9827921549479
 20
173.1115695529514
 30
0.0
  0
SPLINE
  5
83
330
A
100
AcDbEntity
  8
LAYER_1
 62
     7
100
AcDbSpline
210
0.0
220
0.0
230
1.0
 70
     8
 71
     3
 72
    14
 73
    10
 74
     0
 42
0.0000000001
 43
0.0000000001
 40
0.0
 40
0.0
 40
0.0
 40
0.0
 40
1.0
 40
1.0
 40
1.0
 40
2.0
 40
2.0
 40
2.0
 40
3.0
 40
3.0
 40
3.0
 40
3.0
 10
135.4881985134549
 20
172.3078287760417
 30
0.0
 10
135.9317545572916
 20
168.6496541341146
 30
0.0
 10
136.1119330512153
 20
162.311711968316
 30
0.0
 10
135.7515760633681
 20
159.9006618923611
 30
0.0
 10
135.3960422092014
 20
157.4897840711805
 30
0.0
 10
134.5923014322917
 20
153.0273518880208
 30
0.0
 10
134.0565890842014
 20
151.3318481445313
 30
0.0
 10
133.5203599717882
 20
149.6368611653646
 30
0.0
 10
132.6291137695312
 20
142.9437296549479
 30
0.0
 10
130.578076171875
 20
141.1558973524305
 30
0.0
  0
SPLINE
  5
82
330
A
100
AcDbEntity
  8
LAYER_1
 62
     7
100
AcDbSpline
210
0.0
220
0.0
230
1.0
 70
     8
 71
     3
 72
    11
 73
     7
 74
     0
 42
0.0000000001
 43
0.0000000001
 40
0.0
 40
0.0
 40
0.0
 40
0.0
 40
1.0
 40
1.0
 40
1.0
 40
2.0
 40
2.0
 40
2.0
 40
2.0
 10
132.8967976888021
 20
171.4165825737847
 30
0.0
 10
133.1648261176215
 20
169.3607218424479
 30
0.0
 10
132.8967976888021
 20
161.0601087782118
 30
0.0
 10
132.6291137695312
 20
159.277099609375
 30
0.0
 10
132.3610853407118
 20
157.4897840711805
 30
0.0
 10
132.3610853407118
 20
153.3834025065104
 30
0.0
 10
130.578076171875
 20
151.600048828125
 30
0.0
  0
LWPOLYLINE
  5
7D
330
A
100
AcDbEntity
  8
LAYER_1
 62
     7
100
AcDbPolyline
 90
        3
 70
     0
 43
0.0
 10
130.2221978081597
 20
82.42253146701388
 10
130.75791015625
 20
170.5777018229167
 10
152.265813530816
 20
178.1975640190972
  0
LWPOLYLINE
  5
78
330
A
100
AcDbEntity
  8
LAYER_1
 62
     7
100
AcDbPolyline
 90
        3
 70
     0
 43
0.0
 10
92.13391113281249
 20
194.7553819444444
 10
93.58343505859374
 20
194.3772827148437
 10
92.31408962673611
 20
196.6525960286458
  0
LWPOLYLINE
  5
73
330
A
100
AcDbEntity
  8
LAYER_1
 62
     7
100
AcDbPolyline
 90
        3
 70
     0
 43
0.0
 10
82.62975396050346
 20
194.0217488606771
 10
83.80211995442707
 20
194.5094021267361
 10
82.55051676432291
 20
196.6305474175347
  0
SPLINE
  5
72
330
A
100
AcDbEntity
  8
LAYER_1
 62
     7
100
AcDbSpline
210
0.0
220
0.0
230
1.0
 70
     8
 71
     3
 72
    17
 73
    13
 74
     0
 42
0.0000000001
 43
0.0000000001
 40
0.0
 40
0.0
 40
0.0
 40
0.0
 40
1.0
 40
1.0
 40
1.0
 40
2.0
 40
2.0
 40
2.0
 40
3.0
 40
3.0
 40
3.0
 40
4.0
 40
4.0
 40
4.0
 40
4.0
 10
130.5162367078993
 20
125.6874186197917
 30
0.0
 10
132.132847764757
 20
127.4444173177083
 30
0.0
 10
133.8192220052083
 20
133.0661241319444
 30
0.0
 10
135.4354885525173
 20
135.1037258572048
 30
0.0
 10
137.052099609375
 20
137.1418443467882
 30
0.0
 10
138.3166219075521
 20
142.2009670681424
 30
0.0
 10
138.8788614908854
 20
144.0280734592014
 30
0.0
 10
139.4409288194444
 20
145.8551798502604
 30
0.0
 10
140.4954725477431
 20
151.5475111219618
 30
0.0
 10
140.5655802408854
 20
152.6011935763889
 30
0.0
 10
140.6356879340278
 20
153.6553927951389
 30
0.0
 10
142.6738064236111
 20
169.0446343315972
 30
0.0
 10
141.0575398763021
 20
174.2450059678819
 30
0.0
  0
SPLINE
  5
71
330
A
100
AcDbEntity
  8
LAYER_1
 62
     7
100
AcDbSpline
210
0.0
220
0.0
230
1.0
 70
     8
 71
     3
 72
    17
 73
    13
 74
     0
 42
0.0000000001
 43
0.0000000001
 40
0.0
 40
0.0
 40
0.0
 40
0.0
 40
1.0
 40
1.0
 40
1.0
 40
2.0
 40
2.0
 40
2.0
 40
3.0
 40
3.0
 40
3.0
 40
4.0
 40
4.0
 40
4.0
 40
4.0
 10
143.7278333875868
 20
175.15830078125
 30
0.0
 10
144.1493408203125
 20
170.8717407226562
 30
0.0
 10
143.6577256944444
 20
165.9528333875868
 30
0.0
 10
143.9386732313368
 20
162.8608601888021
 30
0.0
 10
144.2197930230035
 20
159.7690592447917
 30
0.0
 10
143.7278333875868
 20
152.9524210611979
 30
0.0
 10
142.8141940646701
 20
149.5095648871528
 30
0.0
 10
141.9007269965278
 20
146.0661919487847
 30
0.0
 10
139.019593641493
 20
136.7901000976563
 30
0.0
 10
137.6842746310764
 20
133.8388590494792
 30
0.0
 10
136.349127875434
 20
130.8877902560764
 30
0.0
 10
133.6784898546007
 20
121.8928181966146
 30
0.0
 10
130.4459567599826
 20
119.1524169921875
 30
0.0
  0
SPLINE
  5
70
330
A
100
AcDbEntity
  8
LAYER_1
 62
     7
100
AcDbSpline
210
0.0
220
0.0
230
1.0
 70
     8
 71
     3
 72
    14
 73
    10
 74
     0
 42
0.0000000001
 43
0.0000000001
 40
0.0
 40
0.0
 40
0.0
 40
0.0
 40
1.0
 40
1.0
 40
1.0
 40
2.0
 40
2.0
 40
2.0
 40
3.0
 40
3.0
 40
3.0
 40
3.0
 10
130.3758490668403
 20
113.6709255642361
 30
0.0
 10
132.3433430989583
 20
115.4980319552951
 30
0.0
 10
137.754554578993
 20
125.4769232855903
 30
0.0
 10
139.0897013346354
 20
128.849671766493
 30
0.0
 10
140.4251925998264
 20
132.2229370117187
 30
0.0
 10
143.1392388237847
 20
140.224860297309
 30
0.0
 10
144.5710205078125
 20
146.9794867621528
 30
0.0
 10
147.3119384765625
 20
159.9094468858507
 30
0.0
 10
146.3981268988715
 20
171.3637003580729
 30
0.0
 10
145.7659518771701
 20
175.9313802083333
 30
0.0
  0
SPLINE
  5
6F
330
A
100
AcDbEntity
  8
LAYER_1
 62
     7
100
AcDbSpline
210
0.0
220
0.0
230
1.0
 70
     8
 71
     3
 72
    20
 73
    16
 74
     0
 42
0.0000000001
 43
0.0000000001
 40
0.0
 40
0.0
 40
0.0
 40
0.0
 40
1.0
 40
1.0
 40
1.0
 40
2.0
 40
2.0
 40
2.0
 40
3.0
 40
3.0
 40
3.0
 40
4.0
 40
4.0
 40
4.0
 40
5.0
 40
5.0
 40
5.0
 40
5.0
 10
148.2252332899305
 20
176.774567328559
 30
0.0
 10
148.9983127170139
 20
172.2068874782986
 30
0.0
 10
149.9822319878472
 20
163.0717000325521
 30
0.0
 10
149.2794325086805
 20
158.6447523328993
 30
0.0
 10
148.5766330295139
 20
154.2174601236979
 30
0.0
 10
148.4362453884548
 20
149.0877129448785
 30
0.0
 10
146.7493543836806
 20
143.747125922309
 30
0.0
 10
145.0629801432291
 20
138.4063666449653
 30
0.0
 10
142.8141940646701
 20
130.6767781575521
 30
0.0
 10
141.1979275173611
 20
127.5145250108507
 30
0.0
 10
139.5816609700521
 20
124.3522718641493
 30
0.0
 10
137.8952867296007
 20
119.7144843207465
 30
0.0
 10
135.9975558810764
 20
116.9038031684028
 30
0.0
 10
134.100341796875
 20
114.0927775065104
 30
0.0
 10
131.429876030816
 20
109.173870171441
 30
0.0
 10
130.3057413736979
 20
106.3628445095486
 30
0.0
  0
SPLINE
  5
6E
330
A
100
AcDbEntity
  8
LAYER_1
 62
     7
100
AcDbSpline
210
0.0
220
0.0
230
1.0
 70
     8
 71
     3
 72
    17
 73
    13
 74
     0
 42
0.0000000001
 43
0.0000000001
 40
0.0
 40
0.0
 40
0.0
 40
0.0
 40
1.0
 40
1.0
 40
1.0
 40
2.0
 40
2.0
 40
2.0
 40
3.0
 40
3.0
 40
3.0
 40
4.0
 40
4.0
 40
4.0
 40
4.0
 10
130.3758490668403
 20
102.8497083875868
 30
0.0
 10
132.3433430989583
 20
104.9579345703125
 30
0.0
 10
136.7709798177083
 20
110.8602444118924
 30
0.0
 10
138.6681939019097
 20
114.9359646267361
 30
0.0
 10
140.5655802408854
 20
119.0120293511285
 30
0.0
 10
144.2197930230035
 20
126.6012301974826
 30
0.0
 10
145.1332600911458
 20
129.1307915581597
 30
0.0
 10
146.0468994140625
 20
131.6603529188368
 30
0.0
 10
148.6467407226562
 20
139.8822455512153
 30
0.0
 10
149.7713921440972
 20
144.4499254014757
 30
0.0
 10
150.8956990559896
 20
149.0176052517361
 30
0.0
 10
151.8093383789062
 20
152.3906982421875
 30
0.0
 10
152.1605658637153
 20
157.449993218316
 30
0.0
  0
SPLINE
  5
6D
330
A
100
AcDbEntity
  8
LAYER_1
 62
     7
100
AcDbSpline
210
0.0
220
0.0
230
1.0
 70
     8
 71
     3
 72
    14
 73
    10
 74
     0
 42
0.0000000001
 43
0.0000000001
 40
0.0
 40
0.0
 40
0.0
 40
0.0
 40
1.0
 40
1.0
 40
1.0
 40
2.0
 40
2.0
 40
2.0
 40
3.0
 40
3.0
 40
3.0
 40
3.0
 10
152.0904581705729
 20
142.4119791666666
 30
0.0
 10
150.7553114149305
 20
137.2119520399305
 30
0.0
 10
148.7171929253472
 20
129.552643500434
 30
0.0
 10
146.9603664822049
 20
125.195458984375
 30
0.0
 10
145.2037122938368
 20
120.8387912326389
 30
0.0
 10
144.5009128146701
 20
119.4333645290799
 30
0.0
 10
141.1276475694444
 20
113.8116577148437
 30
0.0
 10
137.754554578993
 20
108.1899509006076
 30
0.0
 10
133.6784898546007
 20
101.5145616319444
 30
0.0
 10
130.3057413736979
 20
99.12487114800346
 30
0.0
  0
SPLINE
  5
6C
330
A
100
AcDbEntity
  8
LAYER_1
 62
     7
100
AcDbSpline
210
0.0
220
0.0
230
1.0
 70
     8
 71
     3
 72
    14
 73
    10
 74
     0
 42
0.0000000001
 43
0.0000000001
 40
0.0
 40
0.0
 40
0.0
 40
0.0
 40
1.0
 40
1.0
 40
1.0
 40
2.0
 40
2.0
 40
2.0
 40
3.0
 40
3.0
 40
3.0
 40
3.0
 10
130.2354614257812
 20
95.18988308376736
 30
0.0
 10
132.9760348849826
 20
97.43849690755208
 30
0.0
 10
134.5923014322917
 20
99.33605550130207
 30
0.0
 10
137.4734347873264
 20
103.3413235134549
 30
0.0
 10
140.3547403971354
 20
107.3467637803819
 30
0.0
 10
143.0250339084201
 20
110.930524359809
 30
0.0
 10
145.2037122938368
 20
115.2871921115451
 30
0.0
 10
147.3820461697048
 20
119.6443766276042
 30
0.0
 10
150.8956990559896
 20
129.2008992513021
 30
0.0
 10
152.0198337131076
 20
131.3794053819444
 30
0.0
  0
SPLINE
  5
6B
330
A
100
AcDbEntity
  8
LAYER_1
 62
     7
100
AcDbSpline
210
0.0
220
0.0
230
1.0
 70
     8
 71
     3
 72
    14
 73
    10
 74
     0
 42
0.0000000001
 43
0.0000000001
 40
0.0
 40
0.0
 40
0.0
 40
0.0
 40
1.0
 40
1.0
 40
1.0
 40
2.0
 40
2.0
 40
2.0
 40
3.0
 40
3.0
 40
3.0
 40
3.0
 10
152.0198337131076
 20
123.6498168945312
 30
0.0
 10
150.0525119357639
 20
119.9956041124132
 30
0.0
 10
147.5224338107639
 20
114.3036173502604
 30
0.0
 10
145.2037122938368
 20
110.2278971354167
 30
0.0
 10
142.8846462673611
 20
106.1523491753472
 30
0.0
 10
142.5330742730035
 20
105.0276977539062
 30
0.0
 10
139.7925008138021
 20
102.1467366536458
 30
0.0
 10
137.052099609375
 20
99.2656032986111
 30
0.0
 10
133.6784898546007
 20
94.06557617187499
 30
0.0
 10
130.2354614257812
 20
91.95752224392361
 30
0.0
  0
SPLINE
  5
6A
330
A
100
AcDbEntity
  8
LAYER_1
 62
     7
100
AcDbSpline
210
0.0
220
0.0
230
1.0
 70
     8
 71
     3
 72
    14
 73
    10
 74
     0
 42
0.0000000001
 43
0.0000000001
 40
0.0
 40
0.0
 40
0.0
 40
0.0
 40
1.0
 40
1.0
 40
1.0
 40
2.0
 40
2.0
 40
2.0
 40
3.0
 40
3.0
 40
3.0
 40
3.0
 10
130.2354614257812
 20
88.0225341796875
 30
0.0
 10
132.6248074001736
 20
90.41136338975694
 30
0.0
 10
135.576220703125
 20
92.94144151475693
 30
0.0
 10
138.0356743706597
 20
96.10369466145832
 30
0.0
 10
140.4954725477431
 20
99.2656032986111
 30
0.0
 10
142.3926866319444
 20
101.5846693250868
 30
0.0
 10
144.6413004557292
 20
104.6764702690972
 30
0.0
 10
146.8900865342882
 20
107.7686157226562
 30
0.0
 10
150.6846869574653
 20
114.5847371419271
 30
0.0
 10
151.9497260199653
 20
117.1849229600694
 30
0.0
  0
SPLINE
  5
69
330
A
100
AcDbEntity
  8
LAYER_1
 62
     7
100
AcDbSpline
210
0.0
220
0.0
230
1.0
 70
     8
 71
     3
 72
    14
 73
    10
 74
     0
 42
0.0000000001
 43
0.0000000001
 40
0.0
 40
0.0
 40
0.0
 40
0.0
 40
1.0
 40
1.0
 40
1.0
 40
2.0
 40
2.0
 40
2.0
 40
3.0
 40
3.0
 40
3.0
 40
3.0
 10
130.3057413736979
 20
84.86028103298611
 30
0.0
 10
131.9218356662326
 20
86.26553548177083
 30
0.0
 10
135.2244764539931
 20
89.28705647786458
 30
0.0
 10
137.8246622721354
 20
92.1683620876736
 30
0.0
 10
140.4251925998264
 20
95.04949544270832
 30
0.0
 10
144.2197930230035
 20
99.2656032986111
 30
0.0
 10
146.0468994140625
 20
101.9358968098958
 30
0.0
 10
147.8740058051215
 20
104.6061903211806
 30
0.0
 10
150.2633517795139
 20
109.1037624782986
 30
0.0
 10
151.9497260199653
 20
111.4925916883681
 30
0.0
  0
SPLINE
  5
68
330
A
100
AcDbEntity
  8
LAYER_1
 62
     7
100
AcDbSpline
210
0.0
220
0.0
230
1.0
 70
     8
 71
     3
 72
    17
 73
    13
 74
     0
 42
0.0000000001
 43
0.0000000001
 40
0.0
 40
0.0
 40
0.0
 40
0.0
 40
1.0
 40
1.0
 40
1.0
 40
2.0
 40
2.0
 40
2.0
 40
3.0
 40
3.0
 40
3.0
 40
4.0
 40
4.0
 40
4.0
 40
4.0
 10
131.8517279730903
 20
83.38440212673611
 30
0.0
 10
134.100341796875
 20
85.7034681532118
 30
0.0
 10
136.5597954644097
 20
88.16292182074652
 30
0.0
 10
138.7384738498264
 20
89.77901611328124
 30
0.0
 10
140.9168077256944
 20
91.39528266059027
 30
0.0
 10
143.3762613932292
 20
94.13585611979165
 30
0.0
 10
144.9222479926215
 20
96.31418999565972
 30
0.0
 10
146.4684068467882
 20
98.49252387152777
 30
0.0
 10
148.7874728732639
 20
101.5145616319444
 30
0.0
 10
149.4899278428819
 20
103.2009358723958
 30
0.0
 10
150.1927273220486
 20
104.8873101128472
 30
0.0
 10
150.4037394205729
 20
106.0817247178819
 30
0.0
 10
151.9497260199653
 20
106.6443088107639
 30
0.0
  0
SPLINE
  5
67
330
A
100
AcDbEntity
  8
LAYER_1
 62
     7
100
AcDbSpline
210
0.0
220
0.0
230
1.0
 70
     8
 71
     3
 72
    14
 73
    10
 74
     0
 42
0.0000000001
 43
0.0000000001
 40
0.0
 40
0.0
 40
0.0
 40
0.0
 40
1.0
 40
1.0
 40
1.0
 40
2.0
 40
2.0
 40
2.0
 40
3.0
 40
3.0
 40
3.0
 40
3.0
 10
151.8796183268229
 20
102.5682440863715
 30
0.0
 10
150.8254191080729
 20
101.5846693250868
 30
0.0
 10
150.8254191080729
 20
101.4439371744792
 30
0.0
 10
149.2091525607639
 20
98.84409586588541
 30
0.0
 10
147.5930582682292
 20
96.24408230251736
 30
0.0
 10
147.3820461697048
 20
95.26016303168402
 30
0.0
 10
145.8360595703125
 20
93.99546847873263
 30
0.0
 10
144.2900729709201
 20
92.73042941623262
 30
0.0
 10
141.9708346896701
 20
89.14684109157986
 30
0.0
 10
140.7059678819445
 20
88.37376166449651
 30
0.0
  0
SPLINE
  5
66
330
A
100
AcDbEntity
  8
LAYER_1
 62
     7
100
AcDbSpline
210
0.0
220
0.0
230
1.0
 70
     8
 71
     3
 72
    11
 73
     7
 74
     0
 42
0.0000000001
 43
0.0000000001
 40
0.0
 40
0.0
 40
0.0
 40
0.0
 40
1.0
 40
1.0
 40
1.0
 40
2.0
 40
2.0
 40
2.0
 40
2.0
 10
145.4142076280382
 20
91.11433512369791
 30
0.0
 10
146.6792466905382
 20
93.43340115017361
 30
0.0
 10
147.5224338107639
 20
93.85473632812499
 30
0.0
 10
148.8579250759549
 20
95.40089518229166
 30
0.0
 10
150.1927273220486
 20
96.94688178168401
 30
0.0
 10
151.3173787434896
 20
98.35213623046874
 30
0.0
 10
151.8796183268229
 20
99.19549560546874
 30
0.0
  0
SPLINE
  5
65
330
A
100
AcDbEntity
  8
LAYER_1
 62
     7
100
AcDbSpline
210
0.0
220
0.0
230
1.0
 70
     8
 71
     3
 72
    11
 73
     7
 74
     0
 42
0.0000000001
 43
0.0000000001
 40
0.0
 40
0.0
 40
0.0
 40
0.0
 40
1.0
 40
1.0
 40
1.0
 40
2.0
 40
2.0
 40
2.0
 40
2.0
 10
151.9497260199653
 20
96.87677408854165
 30
0.0
 10
151.2472710503472
 20
96.24408230251736
 30
0.0
 10
150.7553114149305
 20
96.10369466145832
 30
0.0
 10
150.3334594726562
 20
95.47100287543402
 30
0.0
 10
149.9117797851562
 20
94.83865559895833
 30
0.0
 10
148.9282050238715
 20
93.57361653645833
 30
0.0
 10
148.7874728732639
 20
92.94144151475693
 30
0.0
  0
LINE
  5
64
330
A
100
AcDbEntity
  8
LAYER_1
 62
     7
100
AcDbLine
 10
74.86003011067707
 20
190.9693942599826
 30
0.0
 11
130.7274210611979
 21
170.5205132378472
 31
0.0
  0
LWPOLYLINE
  5
5F
330
A
100
AcDbEntity
  8
LAYER_1
 62
     7
100
AcDbPolyline
 90
        3
 70
     0
 43
0.0
 10
65.06493462456596
 20
172.6669799804687
 10
75.2513929578993
 20
168.0367716471354
 10
106.4127983940972
 20
179.3747531467014
  0
LINE
  5
5E
330
A
100
AcDbEntity
  8
LAYER_1
 62
     7
100
AcDbLine
 10
74.5789103190104
 20
175.369140625
 30
0.0
 11
96.36379937065972
 21
183.0286214192708
 31
0.0
  0
LINE
  5
5D
330
A
100
AcDbEntity
  8
LAYER_1
 62
     7
100
AcDbLine
 10
106.6236382378472
 20
178.8864108615451
 30
0.0
 11
106.4829060872396
 21
150.3527520073785
 31
0.0
  0
LWPOLYLINE
  5
55
330
A
100
AcDbEntity
  8
LAYER_1
 62
     7
100
AcDbPolyline
 90
        6
 70
     0
 43
0.0
 10
75.2513929578993
 20
168.0367716471354
 10
75.15269097222222
 20
133.7732299804687
 10
77.2886501736111
 20
130.4395833333333
 10
72.65844184027777
 20
125.809375
 10
75.13236490885416
 20
122.8460761176215
 10
75.00041775173611
 20
80.85466851128471
  0
SPLINE
  5
54
330
A
100
AcDbEntity
  8
LAYER_1
 62
     7
100
AcDbSpline
210
0.0
220
0.0
230
1.0
 70
    11
 71
     3
 72
    11
 73
     7
 74
     0
 42
0.0000000001
 43
0.0000000001
 40
0.0
 40
0.0
 40
0.0
 40
0.0
 40
1.0
 40
1.0
 40
1.0
 40
2.0
 40
2.0
 40
2.0
 40
2.0
 10
100.5800794813368
 20
107.2766560872396
 30
0.0
 10
100.5800794813368
 20
106.0116170247396
 30
0.0
 10
99.10420057508679
 20
105.4493774414062
 30
0.0
 10
99.10420057508679
 20
106.5736843532986
 30
0.0
 10
99.10420057508679
 20
108.0495632595486
 30
0.0
 10
100.5800794813368
 20
108.5411783854167
 30
0.0
 10
100.5800794813368
 20
107.2766560872396
 30
0.0
  0
SPLINE
  5
53
330
A
100
AcDbEntity
  8
LAYER_1
 62
     7
100
AcDbSpline
210
0.0
220
0.0
230
1.0
 70
    11
 71
     3
 72
    11
 73
     7
 74
     0
 42
0.0000000001
 43
0.0000000001
 40
0.0
 40
0.0
 40
0.0
 40
0.0
 40
1.0
 40
1.0
 40
1.0
 40
2.0
 40
2.0
 40
2.0
 40
2.0
 10
100.7204671223958
 20
123.2985894097222
 30
0.0
 10
100.7204671223958
 20
122.0335503472222
 30
0.0
 10
99.24458821614583
 20
121.4714830186632
 30
0.0
 10
99.24458821614583
 20
122.5952731662326
 30
0.0
 10
99.24458821614583
 20
124.0711520724826
 30
0.0
 10
100.7204671223958
 20
124.5631117078993
 30
0.0
 10
100.7204671223958
 20
123.2985894097222
 30
0.0
  0
SPLINE
  5
52
330
A
100
AcDbEntity
  8
LAYER_1
 62
     7
100
AcDbSpline
210
0.0
220
0.0
230
1.0
 70
    11
 71
     3
 72
    11
 73
     7
 74
     0
 42
0.0000000001
 43
0.0000000001
 40
0.0
 40
0.0
 40
0.0
 40
0.0
 40
1.0
 40
1.0
 40
1.0
 40
2.0
 40
2.0
 40
2.0
 40
2.0
 10
100.6503594292535
 20
136.5094970703125
 30
0.0
 10
100.6503594292535
 20
135.2444580078125
 30
0.0
 10
99.17448052300347
 20
134.6823906792535
 30
0.0
 10
99.17448052300347
 20
135.8061808268229
 30
0.0
 10
99.17448052300347
 20
137.2820597330729
 30
0.0
 10
100.6503594292535
 20
137.7740193684896
 30
0.0
 10
100.6503594292535
 20
136.5094970703125
 30
0.0
  0
SPLINE
  5
51
330
A
100
AcDbEntity
  8
LAYER_1
 62
     7
100
AcDbSpline
210
0.0
220
0.0
230
1.0
 70
    11
 71
     3
 72
    11
 73
     7
 74
     0
 42
0.0000000001
 43
0.0000000001
 40
0.0
 40
0.0
 40
0.0
 40
0.0
 40
1.0
 40
1.0
 40
1.0
 40
2.0
 40
2.0
 40
2.0
 40
2.0
 10
106.6937459309896
 20
139.0390584309896
 30
0.0
 10
106.6937459309896
 20
137.7740193684896
 30
0.0
 10
108.2399047851562
 20
137.7740193684896
 30
0.0
 10
108.2399047851562
 20
138.8282185872396
 30
0.0
 10
108.2399047851562
 20
140.163365342882
 30
0.0
 10
106.6937459309896
 20
140.0932576497396
 30
0.0
 10
106.6937459309896
 20
139.0390584309896
 30
0.0
  0
SPLINE
  5
50
330
A
100
AcDbEntity
  8
LAYER_1
 62
     7
100
AcDbSpline
210
0.0
220
0.0
230
1.0
 70
    11
 71
     3
 72
    11
 73
     7
 74
     0
 42
0.0000000001
 43
0.0000000001
 40
0.0
 40
0.0
 40
0.0
 40
0.0
 40
1.0
 40
1.0
 40
1.0
 40
2.0
 40
2.0
 40
2.0
 40
2.0
 10
110.7694661458333
 20
144.2390855577257
 30
0.0
 10
110.7694661458333
 20
142.9743910047743
 30
0.0
 10
112.3154527452257
 20
142.9743910047743
 30
0.0
 10
112.3154527452257
 20
144.0280734592014
 30
0.0
 10
112.3154527452257
 20
145.3632202148438
 30
0.0
 10
110.7694661458333
 20
145.2931125217014
 30
0.0
 10
110.7694661458333
 20
144.2390855577257
 30
0.0
  0
SPLINE
  5
4F
330
A
100
AcDbEntity
  8
LAYER_1
 62
     7
100
AcDbSpline
210
0.0
220
0.0
230
1.0
 70
    11
 71
     3
 72
    11
 73
     7
 74
     0
 42
0.0000000001
 43
0.0000000001
 40
0.0
 40
0.0
 40
0.0
 40
0.0
 40
1.0
 40
1.0
 40
1.0
 40
2.0
 40
2.0
 40
2.0
 40
2.0
 10
110.699358452691
 20
133.9093112521701
 30
0.0
 10
110.699358452691
 20
132.6442721896701
 30
0.0
 10
112.2453450520833
 20
132.6442721896701
 30
0.0
 10
112.2453450520833
 20
133.6984714084201
 30
0.0
 10
112.2453450520833
 20
135.0336181640625
 30
0.0
 10
110.699358452691
 20
134.9633382161458
 30
0.0
 10
110.699358452691
 20
133.9093112521701
 30
0.0
  0
SPLINE
  5
4E
330
A
100
AcDbEntity
  8
LAYER_1
 62
     7
100
AcDbSpline
210
0.0
220
0.0
230
1.0
 70
    11
 71
     3
 72
    11
 73
     7
 74
     0
 42
0.0000000001
 43
0.0000000001
 40
0.0
 40
0.0
 40
0.0
 40
0.0
 40
1.0
 40
1.0
 40
1.0
 40
2.0
 40
2.0
 40
2.0
 40
2.0
 10
110.8399183485243
 20
124.0711520724826
 30
0.0
 10
110.8399183485243
 20
122.8066297743056
 30
0.0
 10
112.386077202691
 20
122.8066297743056
 30
0.0
 10
112.386077202691
 20
123.8603122287326
 30
0.0
 10
112.386077202691
 20
125.195458984375
 30
0.0
 10
110.8399183485243
 20
125.1253512912326
 30
0.0
 10
110.8399183485243
 20
124.0711520724826
 30
0.0
  0
SPLINE
  5
4D
330
A
100
AcDbEntity
  8
LAYER_1
 62
     7
100
AcDbSpline
210
0.0
220
0.0
230
1.0
 70
    11
 71
     3
 72
    11
 73
     7
 74
     0
 42
0.0000000001
 43
0.0000000001
 40
0.0
 40
0.0
 40
0.0
 40
0.0
 40
1.0
 40
1.0
 40
1.0
 40
2.0
 40
2.0
 40
2.0
 40
2.0
 10
110.5586263020833
 20
113.7415500217014
 30
0.0
 10
110.5586263020833
 20
112.4765109592014
 30
0.0
 10
112.1046129014757
 20
112.4765109592014
 30
0.0
 10
112.1046129014757
 20
113.5305379231771
 30
0.0
 10
112.1046129014757
 20
114.8658569335937
 30
0.0
 10
110.5586263020833
 20
114.7955769856771
 30
0.0
 10
110.5586263020833
 20
113.7415500217014
 30
0.0
  0
SPLINE
  5
4C
330
A
100
AcDbEntity
  8
LAYER_1
 62
     7
100
AcDbSpline
210
0.0
220
0.0
230
1.0
 70
     8
 71
     3
 72
    11
 73
     7
 74
     0
 42
0.0000000001
 43
0.0000000001
 40
0.0
 40
0.0
 40
0.0
 40
0.0
 40
1.0
 40
1.0
 40
1.0
 40
2.0
 40
2.0
 40
2.0
 40
2.0
 10
108.4311075846354
 20
109.7605699327257
 30
0.0
 10
108.7029256184896
 20
109.8482476128472
 30
0.0
 10
108.9203111436632
 20
110.0952609592014
 30
0.0
 10
108.9203111436632
 20
110.4905856662326
 30
0.0
 10
108.9203111436632
 20
111.4919026692708
 30
0.0
 10
108.0505967881944
 20
111.7025702582465
 30
0.0
 10
107.6158257378472
 20
111.3006998697917
 30
0.0
  0
SPLINE
  5
4B
330
A
100
AcDbEntity
  8
LAYER_1
 62
     7
100
AcDbSpline
210
0.0
220
0.0
230
1.0
 70
    11
 71
     3
 72
    11
 73
     7
 74
     0
 42
0.0000000001
 43
0.0000000001
 40
0.0
 40
0.0
 40
0.0
 40
0.0
 40
1.0
 40
1.0
 40
1.0
 40
2.0
 40
2.0
 40
2.0
 40
2.0
 10
107.0932047526042
 20
110.4905856662326
 30
0.0
 10
107.0932047526042
 20
109.2255466037326
 30
0.0
 10
108.6391913519965
 20
109.2255466037326
 30
0.0
 10
108.6391913519965
 20
110.2797458224826
 30
0.0
 10
108.6391913519965
 20
111.614892578125
 30
0.0
 10
107.0932047526042
 20
111.5446126302083
 30
0.0
 10
107.0932047526042
 20
110.4905856662326
 30
0.0
  0
SPLINE
  5
4A
330
A
100
AcDbEntity
  8
LAYER_1
 62
     7
100
AcDbSpline
210
0.0
220
0.0
230
1.0
 70
    11
 71
     3
 72
    11
 73
     7
 74
     0
 42
0.0000000001
 43
0.0000000001
 40
0.0
 40
0.0
 40
0.0
 40
0.0
 40
1.0
 40
1.0
 40
1.0
 40
2.0
 40
2.0
 40
2.0
 40
2.0
 10
110.699358452691
 20
105.8712293836805
 30
0.0
 10
110.699358452691
 20
104.6061903211806
 30
0.0
 10
112.2453450520833
 20
104.6061903211806
 30
0.0
 10
112.2453450520833
 20
105.6603895399306
 30
0.0
 10
112.2453450520833
 20
106.9955362955729
 30
0.0
 10
110.699358452691
 20
106.9252563476562
 30
0.0
 10
110.699358452691
 20
105.8712293836805
 30
0.0
  0
HATCH
  5
49
330
A
100
AcDbEntity
  8
LAYER_1
 62
     7
100
AcDbHatch
 10
0.0
 20
0.0
 30
0.0
210
0.0
220
0.0
230
1.0
  2
SOLID
 70
     1
 71
     0
 91
        1
 92
        1
 93
        1
 72
     4
 94
        3
 73
     0
 74
     0
 95
       56
 96
       52
 40
0.0
 40
0.0
 40
0.0
 40
0.0
 40
1.0
 40
1.0
 40
1.0
 40
2.0
 40
2.0
 40
2.0
 40
3.0
 40
3.0
 40
3.0
 40
4.0
 40
4.0
 40
4.0
 40
5.0
 40
5.0
 40
5.0
 40
6.0
 40
6.0
 40
6.0
 40
7.0
 40
7.0
 40
7.0
 40
8.0
 40
8.0
 40
8.0
 40
9.0
 40
9.0
 40
9.0
 40
10.0
 40
10.0
 40
10.0
 40
11.0
 40
11.0
 40
11.0
 40
12.0
 40
12.0
 40
12.0
 40
13.0
 40
13.0
 40
13.0
 40
14.0
 40
14.0
 40
14.0
 40
15.0
 40
15.0
 40
15.0
 40
16.0
 40
16.0
 40
16.0
 40
17.0
 40
17.0
 40
17.0
 40
17.0
 10
99.04098307291666
 20
114.4831068250868
 10
99.04994032118054
 20
114.603857421875
 10
98.98706732855902
 20
114.6632853190104
 10
98.86287163628471
 20
114.6067857530382
 10
98.68252088758679
 20
114.5246202256944
 10
98.66288384331597
 20
114.4023193359375
 10
98.66288384331597
 20
114.3155029296875
 10
98.66288384331597
 20
114.2381605360243
 10
98.69733479817708
 20
114.2059488932292
 10
98.76882052951387
 20
114.2118055555555
 10
98.82859293619791
 20
114.2164564344618
 10
98.88681504991318
 20
114.2204182942708
 10
98.94693196614583
 20
114.2250691731771
 10
99.15880533854165
 20
114.2424669053819
 10
99.1975626627604
 20
114.1857950846354
 10
99.1975626627604
 20
114.0378282335069
 10
99.1975626627604
 20
113.8257826063368
 10
99.06475423177082
 20
113.6412977430556
 10
98.84960801866319
 20
113.5432847764757
 10
98.73919270833332
 20
113.4929863823785
 10
98.60759006076388
 20
113.4643920898437
 10
98.54351128472221
 20
113.5816975911458
 10
98.51974012586804
 20
113.6261393229167
 10
98.52111816406249
 20
113.7165730794271
 10
98.51974012586804
 20
113.7754842122396
 10
98.51974012586804
 20
113.7754842122396
 10
98.64341905381943
 20
113.8319837782118
 10
98.64341905381943
 20
113.8319837782118
 10
98.63756239149305
 20
113.6633463541667
 10
98.66908501519096
 20
113.5729125976562
 10
98.85563693576388
 20
113.6580064561632
 10
98.98121066623263
 20
113.7150227864583
 10
99.06906060112847
 20
113.8195814344618
 10
99.06906060112847
 20
113.9510118272569
 10
99.06906060112847
 20
114.1210272894965
 10
99.00033094618054
 20
114.0912272135417
 10
98.88681504991318
 20
114.082958984375
 10
98.82566460503472
 20
114.078997124566
 10
98.72730712890625
 20
114.0655612521701
 10
98.6671902126736
 20
114.0695231119792
 10
98.56125352647568
 20
114.0753797743056
 10
98.53455403645833
 20
114.1527221679687
 10
98.53455403645833
 20
114.2631374782986
 10
98.53455403645833
 20
114.4483113606771
 10
98.66443413628471
 20
114.6284898546007
 10
98.84667968749999
 20
114.7113444010417
 10
99.0514906141493
 20
114.8047064887153
 10
99.17689208984375
 20
114.7557861328125
 10
99.16500651041666
 20
114.5394341362847
 10
99.16500651041666
 20
114.5394341362847
 10
99.04098307291666
 20
114.4831068250868
 10
99.04098307291666
 20
114.4831068250868
 97
        0
 75
     0
 76
     1
 98
        1
 10
0.0
 20
0.0
  0
HATCH
  5
48
330
A
100
AcDbEntity
  8
LAYER_1
 62
     7
100
AcDbHatch
 10
0.0
 20
0.0
 30
0.0
210
0.0
220
0.0
230
1.0
  2
SOLID
 70
     1
 71
     0
 91
        1
 92
        1
 93
        1
 72
     4
 94
        3
 73
     0
 74
     0
 95
       17
 96
       13
 40
0.0
 40
0.0
 40
0.0
 40
0.0
 40
1.0
 40
1.0
 40
1.0
 40
2.0
 40
2.0
 40
2.0
 40
3.0
 40
3.0
 40
3.0
 40
4.0
 40
4.0
 40
4.0
 40
4.0
 10
99.54551730685763
 20
113.8869330512153
 10
99.54551730685763
 20
113.8869330512153
 10
99.54551730685763
 20
115.0072781032986
 10
99.54551730685763
 20
115.0072781032986
 10
99.54551730685763
 20
115.0072781032986
 10
99.66954074435763
 20
115.0636054144965
 10
99.66954074435763
 20
115.0636054144965
 10
99.66954074435763
 20
115.0636054144965
 10
99.66954074435763
 20
113.9434326171875
 10
99.66954074435763
 20
113.9434326171875
 10
99.66954074435763
 20
113.9434326171875
 10
99.54551730685763
 20
113.8869330512153
 10
99.54551730685763
 20
113.8869330512153
 97
        0
 75
     0
 76
     1
 98
        1
 10
0.0
 20
0.0
  0
HATCH
  5
47
330
A
100
AcDbEntity
  8
LAYER_1
 62
     7
100
AcDbHatch
 10
0.0
 20
0.0
 30
0.0
210
0.0
220
0.0
230
1.0
  2
SOLID
 70
     1
 71
     0
 91
        1
 92
        1
 93
        1
 72
     4
 94
        3
 73
     0
 74
     0
 95
       71
 96
       67
 40
0.0
 40
0.0
 40
0.0
 40
0.0
 40
1.0
 40
1.0
 40
1.0
 40
2.0
 40
2.0
 40
2.0
 40
3.0
 40
3.0
 40
3.0
 40
4.0
 40
4.0
 40
4.0
 40
5.0
 40
5.0
 40
5.0
 40
6.0
 40
6.0
 40
6.0
 40
7.0
 40
7.0
 40
7.0
 40
8.0
 40
8.0
 40
8.0
 40
9.0
 40
9.0
 40
9.0
 40
10.0
 40
10.0
 40
10.0
 40
11.0
 40
11.0
 40
11.0
 40
12.0
 40
12.0
 40
12.0
 40
13.0
 40
13.0
 40
13.0
 40
14.0
 40
14.0
 40
14.0
 40
15.0
 40
15.0
 40
15.0
 40
16.0
 40
16.0
 40
16.0
 40
17.0
 40
17.0
 40
17.0
 40
18.0
 40
18.0
 40
18.0
 40
19.0
 40
19.0
 40
19.0
 40
20.0
 40
20.0
 40
20.0
 40
21.0
 40
21.0
 40
21.0
 40
22.0
 40
22.0
 40
22.0
 40
22.0
 10
100.7711100260417
 20
115.5650390625
 10
100.7711100260417
 20
115.5650390625
 10
100.9891845703125
 20
115.6640855577257
 10
100.9891845703125
 20
115.6640855577257
 10
100.9891845703125
 20
115.6640855577257
 10
100.9891845703125
 20
114.5439127604167
 10
100.9891845703125
 20
114.5439127604167
 10
100.9891845703125
 20
114.5439127604167
 10
100.8651611328125
 20
114.4874131944444
 10
100.8651611328125
 20
114.4874131944444
 10
100.8651611328125
 20
114.4874131944444
 10
100.8651611328125
 20
115.4105265299479
 10
100.8651611328125
 20
115.4105265299479
 10
100.8651611328125
 20
115.4582411024306
 10
100.8680894639757
 20
115.5061279296875
 10
100.8651611328125
 20
115.5522922092014
 10
100.8651611328125
 20
115.5522922092014
 10
100.8622328016493
 20
115.5512586805556
 10
100.8622328016493
 20
115.5512586805556
 10
100.8484524197049
 20
115.4792561848958
 10
100.8379448784722
 20
115.432575141059
 10
100.8279541015625
 20
115.3845160590278
 10
100.8279541015625
 20
115.3845160590278
 10
100.593170844184
 20
114.363734266493
 10
100.593170844184
 20
114.363734266493
 10
100.593170844184
 20
114.363734266493
 10
100.4452039930555
 20
114.2963826497396
 10
100.4452039930555
 20
114.2963826497396
 10
100.4452039930555
 20
114.2963826497396
 10
100.2107652452257
 20
115.1171766493056
 10
100.2107652452257
 20
115.1171766493056
 10
100.2002577039931
 20
115.1516276041667
 10
100.1916449652778
 20
115.1848727756076
 10
100.1778645833333
 20
115.2398220486111
 10
100.1778645833333
 20
115.2398220486111
 10
100.1749362521701
 20
115.2384440104167
 10
100.1749362521701
 20
115.2384440104167
 10
100.1749362521701
 20
115.1905571831597
 10
100.1778645833333
 20
115.1424981011285
 10
100.1778645833333
 20
115.0947835286458
 10
100.1778645833333
 20
115.0947835286458
 10
100.1778645833333
 20
114.1749430338542
 10
100.1778645833333
 20
114.1749430338542
 10
100.1778645833333
 20
114.1749430338542
 10
100.0541856553819
 20
114.1184434678819
 10
100.0541856553819
 20
114.1184434678819
 10
100.0541856553819
 20
114.1184434678819
 10
100.0541856553819
 20
115.2387885199653
 10
100.0541856553819
 20
115.2387885199653
 10
100.0541856553819
 20
115.2387885199653
 10
100.2736382378472
 20
115.3385240342882
 10
100.2736382378472
 20
115.3385240342882
 10
100.2736382378472
 20
115.3385240342882
 10
100.4929185655382
 20
114.5647555881076
 10
100.4929185655382
 20
114.5647555881076
 10
100.5051486545139
 20
114.5225531684028
 10
100.5110053168403
 20
114.4788004557292
 10
100.5172064887153
 20
114.4095540364583
 10
100.5172064887153
 20
114.4095540364583
 10
100.5201348198785
 20
114.4111043294271
 10
100.5201348198785
 20
114.4111043294271
 10
100.5273695203993
 20
114.4710489908854
 10
100.5349487304687
 20
114.5301323784722
 10
100.5482123480903
 20
114.5912828233507
 10
100.5482123480903
 20
114.5912828233507
 10
100.7711100260417
 20
115.5650390625
 10
100.7711100260417
 20
115.5650390625
 97
        0
 75
     0
 76
     1
 98
        1
 10
0.0
 20
0.0
  0
HATCH
  5
46
330
A
100
AcDbEntity
  8
LAYER_1
 62
     7
100
AcDbHatch
 10
0.0
 20
0.0
 30
0.0
210
0.0
220
0.0
230
1.0
  2
SOLID
 70
     1
 71
     0
 91
        2
 92
       16
 93
        1
 72
     4
 94
        3
 73
     0
 74
     0
 95
       20
 96
       16
 40
0.0
 40
0.0
 40
0.0
 40
0.0
 40
1.0
 40
1.0
 40
1.0
 40
2.0
 40
2.0
 40
2.0
 40
3.0
 40
3.0
 40
3.0
 40
4.0
 40
4.0
 40
4.0
 40
5.0
 40
5.0
 40
5.0
 40
5.0
 10
101.4797661675347
 20
115.3545437282986
 10
101.4797661675347
 20
115.3545437282986
 10
101.6008612738715
 20
115.4094930013021
 10
101.6008612738715
 20
115.4094930013021
 10
101.7708767361111
 20
115.488385687934
 10
101.8754353841146
 20
115.5598714192708
 10
101.8740573459201
 20
115.7521077473958
 10
101.8740573459201
 20
115.9324584960937
 10
101.7593356662326
 20
115.9057590060764
 10
101.6080959743924
 20
115.8341010199653
 10
101.6080959743924
 20
115.8341010199653
 10
101.4797661675347
 20
115.7755343967014
 10
101.4797661675347
 20
115.7755343967014
 10
101.4797661675347
 20
115.7755343967014
 10
101.4797661675347
 20
115.3545437282986
 10
101.4797661675347
 20
115.3545437282986
 97
        0
 92
        1
 93
        1
 72
     4
 94
        3
 73
     0
 74
     0
 95
       32
 96
       28
 40
0.0
 40
0.0
 40
0.0
 40
0.0
 40
1.0
 40
1.0
 40
1.0
 40
2.0
 40
2.0
 40
2.0
 40
3.0
 40
3.0
 40
3.0
 40
4.0
 40
4.0
 40
4.0
 40
5.0
 40
5.0
 40
5.0
 40
6.0
 40
6.0
 40
6.0
 40
7.0
 40
7.0
 40
7.0
 40
8.0
 40
8.0
 40
8.0
 40
9.0
 40
9.0
 40
9.0
 40
9.0
 10
101.3560872395833
 20
114.7109998914931
 10
101.3560872395833
 20
114.7109998914931
 10
101.3560872395833
 20
115.8311726888021
 10
101.3560872395833
 20
115.8311726888021
 10
101.3560872395833
 20
115.8311726888021
 10
101.6501261393229
 20
115.9650146484375
 10
101.6501261393229
 20
115.9650146484375
 10
101.7365980360243
 20
116.0044609917535
 10
101.845807562934
 20
116.0439073350694
 10
101.9116088867187
 20
116.0110066731771
 10
101.9786159939236
 20
115.9787950303819
 10
102.0023871527778
 20
115.9028306749132
 10
102.0023871527778
 20
115.8136027018229
 10
102.0023871527778
 20
115.6894070095486
 10
101.9651801215278
 20
115.5512586805556
 10
101.8444295247396
 20
115.441015625
 10
101.7665703667535
 20
115.3729749891493
 10
101.6396185980903
 20
115.3150973849826
 10
101.5546969943576
 20
115.2763400607639
 10
101.5546969943576
 20
115.2763400607639
 10
101.4797661675347
 20
115.2424058702257
 10
101.4797661675347
 20
115.2424058702257
 10
101.4797661675347
 20
115.2424058702257
 10
101.4797661675347
 20
114.767327202691
 10
101.4797661675347
 20
114.767327202691
 10
101.4797661675347
 20
114.767327202691
 10
101.3560872395833
 20
114.7109998914931
 10
101.3560872395833
 20
114.7109998914931
 97
        0
 75
     0
 76
     1
 98
        1
 10
0.0
 20
0.0
  0
HATCH
  5
45
330
A
100
AcDbEntity
  8
LAYER_1
 62
     7
100
AcDbHatch
 10
0.0
 20
0.0
 30
0.0
210
0.0
220
0.0
230
1.0
  2
SOLID
 70
     1
 71
     0
 91
        1
 92
        1
 93
        1
 72
     4
 94
        3
 73
     0
 74
     0
 95
       56
 96
       52
 40
0.0
 40
0.0
 40
0.0
 40
0.0
 40
1.0
 40
1.0
 40
1.0
 40
2.0
 40
2.0
 40
2.0
 40
3.0
 40
3.0
 40
3.0
 40
4.0
 40
4.0
 40
4.0
 40
5.0
 40
5.0
 40
5.0
 40
6.0
 40
6.0
 40
6.0
 40
7.0
 40
7.0
 40
7.0
 40
8.0
 40
8.0
 40
8.0
 40
9.0
 40
9.0
 40
9.0
 40
10.0
 40
10.0
 40
10.0
 40
11.0
 40
11.0
 40
11.0
 40
12.0
 40
12.0
 40
12.0
 40
13.0
 40
13.0
 40
13.0
 40
14.0
 40
14.0
 40
14.0
 40
15.0
 40
15.0
 40
15.0
 40
16.0
 40
16.0
 40
16.0
 40
17.0
 40
17.0
 40
17.0
 40
17.0
 10
102.7809787326389
 20
116.1853285047743
 10
102.7895914713542
 20
116.3062513563368
 10
102.7270629882813
 20
116.3658515082465
 10
102.6028672960069
 20
116.3095241970486
 10
102.4223442925347
 20
116.2270141601562
 10
102.4028795030382
 20
116.1047132703993
 10
102.4028795030382
 20
116.0178968641493
 10
102.4028795030382
 20
115.9405544704861
 10
102.4373304578993
 20
115.908342827691
 10
102.5088161892361
 20
115.9136827256944
 10
102.5685885959201
 20
115.9188503689236
 10
102.6268107096354
 20
115.9228122287326
 10
102.6869276258681
 20
115.9274631076389
 10
102.8988009982639
 20
115.9448608398437
 10
102.9375583224826
 20
115.8880167643229
 10
102.9375583224826
 20
115.7400499131944
 10
102.9375583224826
 20
115.5281765407986
 10
102.8047498914931
 20
115.3436916775174
 10
102.5896036783854
 20
115.2456787109375
 10
102.4791883680556
 20
115.1953803168403
 10
102.3475857204861
 20
115.1667860243056
 10
102.2835069444444
 20
115.2839192708333
 10
102.259563530816
 20
115.3283610026042
 10
102.2611138237847
 20
115.4187947591146
 10
102.259563530816
 20
115.4778781467014
 10
102.259563530816
 20
115.4778781467014
 10
102.3834147135417
 20
115.5342054578993
 10
102.3834147135417
 20
115.5342054578993
 10
102.3775580512153
 20
115.3657402886285
 10
102.4090806749132
 20
115.2753065321181
 10
102.5956325954861
 20
115.3602281358507
 10
102.7212063259549
 20
115.4174167209201
 10
102.8090562608507
 20
115.521630859375
 10
102.8090562608507
 20
115.6532335069444
 10
102.8090562608507
 20
115.8235934787326
 10
102.7403266059028
 20
115.7936211480035
 10
102.6268107096354
 20
115.7853529188368
 10
102.5656602647569
 20
115.7813910590278
 10
102.4673027886285
 20
115.7679551866319
 10
102.4075303819444
 20
115.771917046441
 10
102.3012491861979
 20
115.7777737087674
 10
102.2745496961805
 20
115.8551161024305
 10
102.2745496961805
 20
115.9655314127604
 10
102.2745496961805
 20
116.1507052951389
 10
102.4042575412326
 20
116.3308837890625
 10
102.5866753472222
 20
116.4135660807292
 10
102.7913140190972
 20
116.5069281684028
 10
102.916887749566
 20
116.4581800672743
 10
102.9046576605903
 20
116.2418280707465
 10
102.9046576605903
 20
116.2418280707465
 10
102.7809787326389
 20
116.1853285047743
 10
102.7809787326389
 20
116.1853285047743
 97
        0
 75
     0
 76
     1
 98
        1
 10
0.0
 20
0.0
  0
HATCH
  5
44
330
A
100
AcDbEntity
  8
LAYER_1
 62
     7
100
AcDbHatch
 10
0.0
 20
0.0
 30
0.0
210
0.0
220
0.0
230
1.0
  2
SOLID
 70
     1
 71
     0
 91
        2
 92
       16
 93
        1
 72
     4
 94
        3
 73
     0
 74
     0
 95
       17
 96
       13
 40
0.0
 40
0.0
 40
0.0
 40
0.0
 40
1.0
 40
1.0
 40
1.0
 40
2.0
 40
2.0
 40
2.0
 40
3.0
 40
3.0
 40
3.0
 40
4.0
 40
4.0
 40
4.0
 40
4.0
 10
103.5933322482639
 20
116.7601426866319
 10
103.4019571940104
 20
116.6729817708333
 10
103.3542426215278
 20
116.4509453667535
 10
103.3556206597222
 20
116.2023817274306
 10
103.357170952691
 20
115.879059516059
 10
103.3900716145833
 20
115.7219631618924
 10
103.5962605794271
 20
115.8160142686632
 10
103.8024495442708
 20
115.9097208658854
 10
103.8353502061632
 20
116.0964450412326
 10
103.8367282443576
 20
116.4213175455729
 10
103.8382785373264
 20
116.6712592230903
 10
103.7905639648437
 20
116.8498874240451
 10
103.5933322482639
 20
116.7601426866319
 97
        0
 92
        1
 93
        1
 72
     4
 94
        3
 73
     0
 74
     0
 95
       17
 96
       13
 40
0.0
 40
0.0
 40
0.0
 40
0.0
 40
1.0
 40
1.0
 40
1.0
 40
2.0
 40
2.0
 40
2.0
 40
3.0
 40
3.0
 40
3.0
 40
4.0
 40
4.0
 40
4.0
 40
4.0
 10
103.5991889105903
 20
116.8748643663194
 10
103.9264729817708
 20
117.0235202365451
 10
103.966608344184
 20
116.7403333875868
 10
103.9652303059896
 20
116.4828125
 10
103.9638522677951
 20
116.1712036132812
 10
103.923200141059
 20
115.852532280816
 10
103.5962605794271
 20
115.7038764105903
 10
103.2693210177951
 20
115.554876030816
 10
103.2305636935764
 20
115.8373738606771
 10
103.2272908528646
 20
116.1470879448785
 10
103.2272908528646
 20
116.4039198133681
 10
103.2663926866319
 20
116.7232801649305
 10
103.5991889105903
 20
116.8748643663194
 97
        0
 75
     0
 76
     1
 98
        1
 10
0.0
 20
0.0
  0
HATCH
  5
43
330
A
100
AcDbEntity
  8
LAYER_1
 62
     7
100
AcDbHatch
 10
0.0
 20
0.0
 30
0.0
210
0.0
220
0.0
230
1.0
  2
SOLID
 70
     1
 71
     0
 91
        1
 92
        1
 93
        1
 72
     4
 94
        3
 73
     0
 74
     0
 95
       53
 96
       49
 40
0.0
 40
0.0
 40
0.0
 40
0.0
 40
1.0
 40
1.0
 40
1.0
 40
2.0
 40
2.0
 40
2.0
 40
3.0
 40
3.0
 40
3.0
 40
4.0
 40
4.0
 40
4.0
 40
5.0
 40
5.0
 40
5.0
 40
6.0
 40
6.0
 40
6.0
 40
7.0
 40
7.0
 40
7.0
 40
8.0
 40
8.0
 40
8.0
 40
9.0
 40
9.0
 40
9.0
 40
10.0
 40
10.0
 40
10.0
 40
11.0
 40
11.0
 40
11.0
 40
12.0
 40
12.0
 40
12.0
 40
13.0
 40
13.0
 40
13.0
 40
14.0
 40
14.0
 40
14.0
 40
15.0
 40
15.0
 40
15.0
 40
16.0
 40
16.0
 40
16.0
 40
16.0
 10
104.8507921006944
 20
117.4221177842882
 10
104.8507921006944
 20
117.4221177842882
 10
104.9748155381944
 20
117.4782728407118
 10
104.9748155381944
 20
117.4782728407118
 10
104.9748155381944
 20
117.4782728407118
 10
104.9748155381944
 20
116.3579277886285
 10
104.9748155381944
 20
116.3579277886285
 10
104.9748155381944
 20
116.3579277886285
 10
104.7715549045139
 20
116.265771484375
 10
104.7715549045139
 20
116.265771484375
 10
104.7715549045139
 20
116.265771484375
 10
104.4578789605035
 20
117.0192138671875
 10
104.4578789605035
 20
117.0192138671875
 10
104.44013671875
 20
117.0619330512153
 10
104.4263563368055
 20
117.1063747829861
 10
104.4160210503472
 20
117.168903266059
 10
104.4160210503472
 20
117.168903266059
 10
104.413092719184
 20
117.1675252278646
 10
104.413092719184
 20
117.1675252278646
 10
104.4144707573785
 20
117.111370171441
 10
104.4160210503472
 20
117.0538370768229
 10
104.4160210503472
 20
116.9971652560764
 10
104.4160210503472
 20
116.9971652560764
 10
104.4160210503472
 20
116.1040242513021
 10
104.4160210503472
 20
116.1040242513021
 10
104.4160210503472
 20
116.1040242513021
 10
104.2921698676215
 20
116.0475246853299
 10
104.2921698676215
 20
116.0475246853299
 10
104.2921698676215
 20
116.0475246853299
 10
104.2921698676215
 20
117.1678697374132
 10
104.2921698676215
 20
117.1678697374132
 10
104.2921698676215
 20
117.1678697374132
 10
104.493707953559
 20
117.2593370225694
 10
104.493707953559
 20
117.2593370225694
 10
104.493707953559
 20
117.2593370225694
 10
104.8120347764757
 20
116.4871188693576
 10
104.8120347764757
 20
116.4871188693576
 10
104.8254706488715
 20
116.4588690863715
 10
104.8359781901042
 20
116.4276909722222
 10
104.8507921006944
 20
116.3822157118055
 10
104.8507921006944
 20
116.3822157118055
 10
104.8537204318576
 20
116.38359375
 10
104.8537204318576
 20
116.38359375
 10
104.8521701388889
 20
116.4233846028646
 10
104.8507921006944
 20
116.4661037868924
 10
104.8507921006944
 20
116.5076171875
 10
104.8507921006944
 20
116.5076171875
 10
104.8507921006944
 20
117.4221177842882
 10
104.8507921006944
 20
117.4221177842882
 97
        0
 75
     0
 76
     1
 98
        1
 10
0.0
 20
0.0
  0
HATCH
  5
42
330
A
100
AcDbEntity
  8
LAYER_1
 62
     7
100
AcDbHatch
 10
0.0
 20
0.0
 30
0.0
210
0.0
220
0.0
230
1.0
  2
SOLID
 70
     1
 71
     0
 91
        1
 92
        1
 93
        1
 72
     4
 94
        3
 73
     0
 74
     0
 95
       56
 96
       52
 40
0.0
 40
0.0
 40
0.0
 40
0.0
 40
1.0
 40
1.0
 40
1.0
 40
2.0
 40
2.0
 40
2.0
 40
3.0
 40
3.0
 40
3.0
 40
4.0
 40
4.0
 40
4.0
 40
5.0
 40
5.0
 40
5.0
 40
6.0
 40
6.0
 40
6.0
 40
7.0
 40
7.0
 40
7.0
 40
8.0
 40
8.0
 40
8.0
 40
9.0
 40
9.0
 40
9.0
 40
10.0
 40
10.0
 40
10.0
 40
11.0
 40
11.0
 40
11.0
 40
12.0
 40
12.0
 40
12.0
 40
13.0
 40
13.0
 40
13.0
 40
14.0
 40
14.0
 40
14.0
 40
15.0
 40
15.0
 40
15.0
 40
16.0
 40
16.0
 40
16.0
 40
17.0
 40
17.0
 40
17.0
 40
17.0
 10
99.04098307291666
 20
113.0539089626736
 10
99.04994032118054
 20
113.1743150499132
 10
98.98706732855902
 20
113.2339152018229
 10
98.86287163628471
 20
113.177587890625
 10
98.68252088758679
 20
113.0954223632812
 10
98.66288384331597
 20
112.9727769639757
 10
98.66288384331597
 20
112.8863050672743
 10
98.66288384331597
 20
112.8086181640625
 10
98.69733479817708
 20
112.7764065212674
 10
98.76882052951387
 20
112.7822631835937
 10
98.82859293619791
 20
112.7869140625
 10
98.88681504991318
 20
112.7912204318576
 10
98.94693196614583
 20
112.7958713107639
 10
99.15880533854165
 20
112.8132690429687
 10
99.1975626627604
 20
112.7560804578993
 10
99.1975626627604
 20
112.6081136067708
 10
99.1975626627604
 20
112.396240234375
 10
99.06475423177082
 20
112.2117553710937
 10
98.84960801866319
 20
112.1140869140625
 10
98.73919270833332
 20
112.0637885199653
 10
98.60759006076388
 20
112.0351942274306
 10
98.54351128472221
 20
112.1523274739583
 10
98.51974012586804
 20
112.1965969509549
 10
98.52111816406249
 20
112.2870307074653
 10
98.51974012586804
 20
112.3459418402778
 10
98.51974012586804
 20
112.3459418402778
 10
98.64341905381943
 20
112.40244140625
 10
98.64341905381943
 20
112.40244140625
 10
98.63756239149305
 20
112.2338039822049
 10
98.66908501519096
 20
112.1437147352431
 10
98.85563693576388
 20
112.22880859375
 10
98.98121066623263
 20
112.2858249240451
 10
99.06906060112847
 20
112.3900390625
 10
99.06906060112847
 20
112.5212972005208
 10
99.06906060112847
 20
112.6918294270833
 10
99.00033094618054
 20
112.6620293511285
 10
98.88681504991318
 20
112.6537611219618
 10
98.82566460503472
 20
112.6497992621528
 10
98.72730712890625
 20
112.6363633897569
 10
98.6671902126736
 20
112.640325249566
 10
98.56125352647568
 20
112.6458374023437
 10
98.53455403645833
 20
112.7231797960069
 10
98.53455403645833
 20
112.8339396158854
 10
98.53455403645833
 20
113.0191134982639
 10
98.66443413628471
 20
113.1992919921875
 10
98.84667968749999
 20
113.2821465386285
 10
99.0514906141493
 20
113.3755086263021
 10
99.17689208984375
 20
113.3262437608507
 10
99.16500651041666
 20
113.1102362738715
 10
99.16500651041666
 20
113.1102362738715
 10
99.04098307291666
 20
113.0539089626736
 10
99.04098307291666
 20
113.0539089626736
 97
        0
 75
     0
 76
     1
 98
        1
 10
0.0
 20
0.0
  0
HATCH
  5
41
330
A
100
AcDbEntity
  8
LAYER_1
 62
     7
100
AcDbHatch
 10
0.0
 20
0.0
 30
0.0
210
0.0
220
0.0
230
1.0
  2
SOLID
 70
     1
 71
     0
 91
        1
 92
        1
 93
        1
 72
     4
 94
        3
 73
     0
 74
     0
 95
       53
 96
       49
 40
0.0
 40
0.0
 40
0.0
 40
0.0
 40
1.0
 40
1.0
 40
1.0
 40
2.0
 40
2.0
 40
2.0
 40
3.0
 40
3.0
 40
3.0
 40
4.0
 40
4.0
 40
4.0
 40
5.0
 40
5.0
 40
5.0
 40
6.0
 40
6.0
 40
6.0
 40
7.0
 40
7.0
 40
7.0
 40
8.0
 40
8.0
 40
8.0
 40
9.0
 40
9.0
 40
9.0
 40
10.0
 40
10.0
 40
10.0
 40
11.0
 40
11.0
 40
11.0
 40
12.0
 40
12.0
 40
12.0
 40
13.0
 40
13.0
 40
13.0
 40
14.0
 40
14.0
 40
14.0
 40
15.0
 40
15.0
 40
15.0
 40
16.0
 40
16.0
 40
16.0
 40
16.0
 10
99.51726752387152
 20
113.2752563476562
 10
99.51726752387152
 20
113.2752563476562
 10
99.6562771267361
 20
113.3384738498264
 10
99.6562771267361
 20
113.3384738498264
 10
99.6562771267361
 20
113.3384738498264
 10
99.6562771267361
 20
113.2383938259548
 10
99.6562771267361
 20
113.2383938259548
 10
99.6562771267361
 20
113.2383938259548
 10
99.51916232638888
 20
113.1756930881076
 10
99.51916232638888
 20
113.1756930881076
 10
99.51916232638888
 20
113.1756930881076
 10
99.51916232638888
 20
112.6096638997396
 10
99.51916232638888
 20
112.6096638997396
 10
99.51916232638888
 20
112.5814141167535
 10
99.50865478515624
 20
112.5409342447917
 10
99.57411159939235
 20
112.5705620659722
 10
99.57411159939235
 20
112.5705620659722
 10
99.65334879557291
 20
112.6067355685764
 10
99.65334879557291
 20
112.6067355685764
 10
99.65334879557291
 20
112.6067355685764
 10
99.65334879557291
 20
112.5064832899305
 10
99.65334879557291
 20
112.5064832899305
 10
99.65334879557291
 20
112.5064832899305
 10
99.52346869574652
 20
112.4475721571181
 10
99.52346869574652
 20
112.4475721571181
 10
99.45336100260415
 20
112.4139824761285
 10
99.40082329644096
 20
112.4019246419271
 10
99.40082329644096
 20
112.5274983723958
 10
99.40082329644096
 20
112.5274983723958
 10
99.40082329644096
 20
113.1222941080729
 10
99.40082329644096
 20
113.1222941080729
 10
99.40082329644096
 20
113.1222941080729
 10
99.28575710720486
 20
113.0697564019097
 10
99.28575710720486
 20
113.0697564019097
 10
99.28575710720486
 20
113.0697564019097
 10
99.28575710720486
 20
113.1700086805555
 10
99.28575710720486
 20
113.1700086805555
 10
99.28575710720486
 20
113.1700086805555
 10
99.40082329644096
 20
113.2223741319444
 10
99.40082329644096
 20
113.2223741319444
 10
99.40082329644096
 20
113.2223741319444
 10
99.40082329644096
 20
113.4478556315104
 10
99.40082329644096
 20
113.4478556315104
 10
99.40082329644096
 20
113.4478556315104
 10
99.51726752387152
 20
113.5009101019965
 10
99.51726752387152
 20
113.5009101019965
 10
99.51726752387152
 20
113.5009101019965
 10
99.51726752387152
 20
113.2752563476562
 10
99.51726752387152
 20
113.2752563476562
 97
        0
 75
     0
 76
     1
 98
        1
 10
0.0
 20
0.0
  0
HATCH
  5
40
330
A
100
AcDbEntity
  8
LAYER_1
 62
     7
100
AcDbHatch
 10
0.0
 20
0.0
 30
0.0
210
0.0
220
0.0
230
1.0
  2
SOLID
 70
     1
 71
     0
 91
        1
 92
        1
 93
        1
 72
     4
 94
        3
 73
     0
 74
     0
 95
       32
 96
       28
 40
0.0
 40
0.0
 40
0.0
 40
0.0
 40
1.0
 40
1.0
 40
1.0
 40
2.0
 40
2.0
 40
2.0
 40
3.0
 40
3.0
 40
3.0
 40
4.0
 40
4.0
 40
4.0
 40
5.0
 40
5.0
 40
5.0
 40
6.0
 40
6.0
 40
6.0
 40
7.0
 40
7.0
 40
7.0
 40
8.0
 40
8.0
 40
8.0
 40
9.0
 40
9.0
 40
9.0
 40
9.0
 10
99.92137722439236
 20
113.3233154296875
 10
99.92137722439236
 20
113.3233154296875
 10
99.92430555555555
 20
113.3243489583333
 10
99.92430555555555
 20
113.3243489583333
 10
99.97391493055555
 20
113.4561238606771
 10
100.0440226236979
 20
113.5341552734375
 10
100.1677015516493
 20
113.5801472981771
 10
100.1677015516493
 20
113.5801472981771
 10
100.1677015516493
 20
113.4637030707465
 10
100.1677015516493
 20
113.4637030707465
 10
100.0154283311632
 20
113.4213283962674
 10
99.92602810329861
 20
113.2850748697917
 10
99.92602810329861
 20
113.1341796875
 10
99.92602810329861
 20
113.1341796875
 10
99.92602810329861
 20
112.6306789822049
 10
99.92602810329861
 20
112.6306789822049
 10
99.92602810329861
 20
112.6306789822049
 10
99.80786132812499
 20
112.5771077473958
 10
99.80786132812499
 20
112.5771077473958
 10
99.80786132812499
 20
112.5771077473958
 10
99.80786132812499
 20
113.4075480143229
 10
99.80786132812499
 20
113.4075480143229
 10
99.80786132812499
 20
113.4075480143229
 10
99.92137722439236
 20
113.4590521918403
 10
99.92137722439236
 20
113.4590521918403
 10
99.92137722439236
 20
113.4590521918403
 10
99.92137722439236
 20
113.3233154296875
 10
99.92137722439236
 20
113.3233154296875
 97
        0
 75
     0
 76
     1
 98
        1
 10
0.0
 20
0.0
  0
HATCH
  5
3F
330
A
100
AcDbEntity
  8
LAYER_1
 62
     7
100
AcDbHatch
 10
0.0
 20
0.0
 30
0.0
210
0.0
220
0.0
230
1.0
  2
SOLID
 70
     1
 71
     0
 91
        2
 92
       16
 93
        1
 72
     4
 94
        3
 73
     0
 74
     0
 95
       17
 96
       13
 40
0.0
 40
0.0
 40
0.0
 40
0.0
 40
1.0
 40
1.0
 40
1.0
 40
2.0
 40
2.0
 40
2.0
 40
3.0
 40
3.0
 40
3.0
 40
4.0
 40
4.0
 40
4.0
 40
4.0
 10
100.5566528320313
 20
113.6705810546875
 10
100.4357299804687
 20
113.615631781684
 10
100.3818142361111
 20
113.495570203993
 10
100.3818142361111
 20
113.2444227430556
 10
100.3818142361111
 20
113.0487413194444
 10
100.4191935221354
 20
112.9329861111111
 10
100.5566528320313
 20
112.9956868489583
 10
100.6973849826389
 20
113.0592488606771
 10
100.7313191731771
 20
113.2079047309028
 10
100.7313191731771
 20
113.4035861545139
 10
100.7313191731771
 20
113.6547336154514
 10
100.6806762695313
 20
113.7270806206597
 10
100.5566528320313
 20
113.6705810546875
 97
        0
 92
        1
 93
        1
 72
     4
 94
        3
 73
     0
 74
     0
 95
       17
 96
       13
 40
0.0
 40
0.0
 40
0.0
 40
0.0
 40
1.0
 40
1.0
 40
1.0
 40
2.0
 40
2.0
 40
2.0
 40
3.0
 40
3.0
 40
3.0
 40
4.0
 40
4.0
 40
4.0
 40
4.0
 10
100.5566528320313
 20
112.8954345703125
 10
100.3775078667535
 20
112.8136135525174
 10
100.2596856011285
 20
112.867529296875
 10
100.2596856011285
 20
113.2259914822049
 10
100.2596856011285
 20
113.4771389431424
 10
100.3521864149305
 20
113.6774712456597
 10
100.5566528320313
 20
113.7708333333333
 10
100.7612915039062
 20
113.8638509114583
 10
100.8539645724826
 20
113.7475789388021
 10
100.8539645724826
 20
113.4966037326389
 10
100.8539645724826
 20
113.1367635091146
 10
100.7388983832465
 20
112.9782891167535
 10
100.5566528320313
 20
112.8954345703125
 97
        0
 75
     0
 76
     1
 98
        1
 10
0.0
 20
0.0
  0
HATCH
  5
3E
330
A
100
AcDbEntity
  8
LAYER_1
 62
     7
100
AcDbHatch
 10
0.0
 20
0.0
 30
0.0
210
0.0
220
0.0
230
1.0
  2
SOLID
 70
     1
 71
     0
 91
        1
 92
        1
 93
        1
 72
     4
 94
        3
 73
     0
 74
     0
 95
       47
 96
       43
 40
0.0
 40
0.0
 40
0.0
 40
0.0
 40
1.0
 40
1.0
 40
1.0
 40
2.0
 40
2.0
 40
2.0
 40
3.0
 40
3.0
 40
3.0
 40
4.0
 40
4.0
 40
4.0
 40
5.0
 40
5.0
 40
5.0
 40
6.0
 40
6.0
 40
6.0
 40
7.0
 40
7.0
 40
7.0
 40
8.0
 40
8.0
 40
8.0
 40
9.0
 40
9.0
 40
9.0
 40
10.0
 40
10.0
 40
10.0
 40
11.0
 40
11.0
 40
11.0
 40
12.0
 40
12.0
 40
12.0
 40
13.0
 40
13.0
 40
13.0
 40
14.0
 40
14.0
 40
14.0
 40
14.0
 10
101.1531711154514
 20
113.9284464518229
 10
101.1531711154514
 20
113.9284464518229
 10
101.1559271918403
 20
113.9299967447917
 10
101.1559271918403
 20
113.9299967447917
 10
101.2127712673611
 20
114.0276652018229
 10
101.2739217122396
 20
114.0970838758681
 10
101.3636664496528
 20
114.1379082573785
 10
101.4876898871528
 20
114.1944078233507
 10
101.5683051215278
 20
114.1654690212674
 10
101.5683051215278
 20
114.0188802083333
 10
101.5683051215278
 20
114.0188802083333
 10
101.5683051215278
 20
113.378264702691
 10
101.5683051215278
 20
113.378264702691
 10
101.5683051215278
 20
113.378264702691
 10
101.4504828559028
 20
113.3243489583333
 10
101.4504828559028
 20
113.3243489583333
 10
101.4504828559028
 20
113.3243489583333
 10
101.4504828559028
 20
113.9325805664062
 10
101.4504828559028
 20
113.9325805664062
 10
101.4504828559028
 20
114.0188802083333
 10
101.421888563368
 20
114.0645277235243
 10
101.3262871636285
 20
114.0211195203993
 10
101.2828789605035
 20
114.0013102213542
 10
101.2413655598958
 20
113.9658257378472
 10
101.2098429361979
 20
113.921728515625
 10
101.1621283637153
 20
113.8566162109375
 10
101.1559271918403
 20
113.8063178168403
 10
101.1559271918403
 20
113.7462009006076
 10
101.1559271918403
 20
113.7462009006076
 10
101.1559271918403
 20
113.1905069986979
 10
101.1559271918403
 20
113.1905069986979
 10
101.1559271918403
 20
113.1905069986979
 10
101.0381049262153
 20
113.1371080186632
 10
101.0381049262153
 20
113.1371080186632
 10
101.0381049262153
 20
113.1371080186632
 10
101.0381049262153
 20
113.9675482855903
 10
101.0381049262153
 20
113.9675482855903
 10
101.0381049262153
 20
113.9675482855903
 10
101.1531711154514
 20
114.0197414822049
 10
101.1531711154514
 20
114.0197414822049
 10
101.1531711154514
 20
114.0197414822049
 10
101.1531711154514
 20
113.9284464518229
 10
101.1531711154514
 20
113.9284464518229
 97
        0
 75
     0
 76
     1
 98
        1
 10
0.0
 20
0.0
  0
HATCH
  5
3D
330
A
100
AcDbEntity
  8
LAYER_1
 62
     7
100
AcDbHatch
 10
0.0
 20
0.0
 30
0.0
210
0.0
220
0.0
230
1.0
  2
SOLID
 70
     1
 71
     0
 91
        2
 92
       16
 93
        1
 72
     4
 94
        3
 73
     0
 74
     0
 95
       17
 96
       13
 40
0.0
 40
0.0
 40
0.0
 40
0.0
 40
1.0
 40
1.0
 40
1.0
 40
2.0
 40
2.0
 40
2.0
 40
3.0
 40
3.0
 40
3.0
 40
4.0
 40
4.0
 40
4.0
 40
4.0
 10
101.8645833333333
 20
113.9284464518229
 10
101.8645833333333
 20
113.7251858181424
 10
101.8990342881944
 20
113.6065022786458
 10
102.015478515625
 20
113.6593844943576
 10
102.1944512261285
 20
113.7412055121528
 10
102.193073187934
 20
113.962897406684
 10
102.193073187934
 20
114.0957058376736
 10
102.193073187934
 20
114.2602091471354
 10
102.1587944878472
 20
114.3999077690972
 10
102.0273640950521
 20
114.3401353624132
 10
101.8704399956597
 20
114.2684773763021
 10
101.8645833333333
 20
114.0402398003472
 10
101.8645833333333
 20
113.9284464518229
 97
        0
 92
        1
 93
        1
 72
     4
 94
        3
 73
     0
 74
     0
 95
       50
 96
       46
 40
0.0
 40
0.0
 40
0.0
 40
0.0
 40
1.0
 40
1.0
 40
1.0
 40
2.0
 40
2.0
 40
2.0
 40
3.0
 40
3.0
 40
3.0
 40
4.0
 40
4.0
 40
4.0
 40
5.0
 40
5.0
 40
5.0
 40
6.0
 40
6.0
 40
6.0
 40
7.0
 40
7.0
 40
7.0
 40
8.0
 40
8.0
 40
8.0
 40
9.0
 40
9.0
 40
9.0
 40
10.0
 40
10.0
 40
10.0
 40
11.0
 40
11.0
 40
11.0
 40
12.0
 40
12.0
 40
12.0
 40
13.0
 40
13.0
 40
13.0
 40
14.0
 40
14.0
 40
14.0
 40
15.0
 40
15.0
 40
15.0
 40
15.0
 10
102.193073187934
 20
114.4932698567708
 10
102.193073187934
 20
114.4932698567708
 10
102.3110677083333
 20
114.5466688368056
 10
102.3110677083333
 20
114.5466688368056
 10
102.3110677083333
 20
114.5466688368056
 10
102.3110677083333
 20
113.81630859375
 10
102.3110677083333
 20
113.81630859375
 10
102.3110677083333
 20
113.7146782769097
 10
102.3038330078125
 20
113.6337185329861
 10
102.2483669704861
 20
113.5205471462674
 10
102.1960015190972
 20
113.4144382052951
 10
102.1109076605903
 20
113.3429524739583
 10
102.0197848849826
 20
113.301611328125
 10
101.886976453993
 20
113.2408053927951
 10
101.788274468316
 20
113.2571695963542
 10
101.7720825195312
 20
113.3917005750868
 10
101.7720825195312
 20
113.3917005750868
 10
101.886976453993
 20
113.44423828125
 10
101.886976453993
 20
113.44423828125
 10
101.8971394856771
 20
113.3743028428819
 10
101.9453708224826
 20
113.3674126519097
 10
102.0168565538194
 20
113.3999688042535
 10
102.2078870985243
 20
113.4871297200521
 10
102.1887668185764
 20
113.6666191948785
 10
102.1901448567708
 20
113.7584309895833
 10
102.1901448567708
 20
113.7584309895833
 10
102.1872165256076
 20
113.7570529513889
 10
102.1872165256076
 20
113.7570529513889
 10
102.1377794053819
 20
113.6495659722222
 10
102.0842081705729
 20
113.5906548394097
 10
102.0078993055555
 20
113.555859375
 10
101.8508029513889
 20
113.4847181532118
 10
101.7419379340278
 20
113.5439737955729
 10
101.7419379340278
 20
113.8786648220486
 10
101.7419379340278
 20
114.0533311631944
 10
101.7853461371528
 20
114.3299723307292
 10
102.0049709743924
 20
114.4298800998264
 10
102.0809353298611
 20
114.4646755642361
 10
102.149664984809
 20
114.4584743923611
 10
102.1901448567708
 20
114.3976684570312
 10
102.1901448567708
 20
114.3976684570312
 10
102.193073187934
 20
114.39921875
 10
102.193073187934
 20
114.39921875
 10
102.193073187934
 20
114.39921875
 10
102.193073187934
 20
114.4932698567708
 10
102.193073187934
 20
114.4932698567708
 97
        0
 75
     0
 76
     1
 98
        1
 10
0.0
 20
0.0
  0
HATCH
  5
3C
330
A
100
AcDbEntity
  8
LAYER_1
 62
     7
100
AcDbHatch
 10
0.0
 20
0.0
 30
0.0
210
0.0
220
0.0
230
1.0
  2
SOLID
 70
     1
 71
     0
 91
        1
 92
        1
 93
        1
 72
     4
 94
        3
 73
     0
 74
     0
 95
       29
 96
       25
 40
0.0
 40
0.0
 40
0.0
 40
0.0
 40
1.0
 40
1.0
 40
1.0
 40
2.0
 40
2.0
 40
2.0
 40
3.0
 40
3.0
 40
3.0
 40
4.0
 40
4.0
 40
4.0
 40
5.0
 40
5.0
 40
5.0
 40
6.0
 40
6.0
 40
6.0
 40
7.0
 40
7.0
 40
7.0
 40
8.0
 40
8.0
 40
8.0
 40
8.0
 10
102.7787394205729
 20
115.0494805230035
 10
102.7787394205729
 20
115.0494805230035
 10
103.4818834092882
 20
115.3697021484375
 10
103.4818834092882
 20
115.3697021484375
 10
103.4818834092882
 20
115.3697021484375
 10
103.4818834092882
 20
115.2575642903646
 10
103.4818834092882
 20
115.2575642903646
 10
103.4818834092882
 20
115.2575642903646
 10
103.1921508789063
 20
115.1257893880208
 10
103.1921508789063
 20
115.1257893880208
 10
103.1921508789063
 20
115.1257893880208
 10
103.1921508789063
 20
114.1174099392361
 10
103.1921508789063
 20
114.1174099392361
 10
103.1921508789063
 20
114.1174099392361
 10
103.0684719509549
 20
114.0609103732639
 10
103.0684719509549
 20
114.0609103732639
 10
103.0684719509549
 20
114.0609103732639
 10
103.0684719509549
 20
115.0694620768229
 10
103.0684719509549
 20
115.0694620768229
 10
103.0684719509549
 20
115.0694620768229
 10
102.7787394205729
 20
114.9373426649305
 10
102.7787394205729
 20
114.9373426649305
 10
102.7787394205729
 20
114.9373426649305
 10
102.7787394205729
 20
115.0494805230035
 10
102.7787394205729
 20
115.0494805230035
 97
        0
 75
     0
 76
     1
 98
        1
 10
0.0
 20
0.0
  0
HATCH
  5
3B
330
A
100
AcDbEntity
  8
LAYER_1
 62
     7
100
AcDbHatch
 10
0.0
 20
0.0
 30
0.0
210
0.0
220
0.0
230
1.0
  2
SOLID
 70
     1
 71
     0
 91
        2
 92
        1
 93
        1
 72
     4
 94
        3
 73
     0
 74
     0
 95
       17
 96
       13
 40
0.0
 40
0.0
 40
0.0
 40
0.0
 40
1.0
 40
1.0
 40
1.0
 40
2.0
 40
2.0
 40
2.0
 40
3.0
 40
3.0
 40
3.0
 40
4.0
 40
4.0
 40
4.0
 40
4.0
 10
103.5824801974826
 20
115.2661770290799
 10
103.5824801974826
 20
115.2661770290799
 10
103.5824801974826
 20
115.4151774088542
 10
103.5824801974826
 20
115.4151774088542
 10
103.5824801974826
 20
115.4151774088542
 10
103.7004747178819
 20
115.4690931532118
 10
103.7004747178819
 20
115.4690931532118
 10
103.7004747178819
 20
115.4690931532118
 10
103.7004747178819
 20
115.3197482638889
 10
103.7004747178819
 20
115.3197482638889
 10
103.7004747178819
 20
115.3197482638889
 10
103.5824801974826
 20
115.2661770290799
 10
103.5824801974826
 20
115.2661770290799
 97
        0
 92
        1
 93
        1
 72
     4
 94
        3
 73
     0
 74
     0
 95
       17
 96
       13
 40
0.0
 40
0.0
 40
0.0
 40
0.0
 40
1.0
 40
1.0
 40
1.0
 40
2.0
 40
2.0
 40
2.0
 40
3.0
 40
3.0
 40
3.0
 40
4.0
 40
4.0
 40
4.0
 40
4.0
 10
103.5824801974826
 20
114.2950046115451
 10
103.5824801974826
 20
114.2950046115451
 10
103.5824801974826
 20
115.1254448784722
 10
103.5824801974826
 20
115.1254448784722
 10
103.5824801974826
 20
115.1254448784722
 10
103.7004747178819
 20
115.1793606228299
 10
103.7004747178819
 20
115.1793606228299
 10
103.7004747178819
 20
115.1793606228299
 10
103.7004747178819
 20
114.3489203559028
 10
103.7004747178819
 20
114.3489203559028
 10
103.7004747178819
 20
114.3489203559028
 10
103.5824801974826
 20
114.2950046115451
 10
103.5824801974826
 20
114.2950046115451
 97
        0
 75
     0
 76
     1
 98
        1
 10
0.0
 20
0.0
  0
HATCH
  5
3A
330
A
100
AcDbEntity
  8
LAYER_1
 62
     7
100
AcDbHatch
 10
0.0
 20
0.0
 30
0.0
210
0.0
220
0.0
230
1.0
  2
SOLID
 70
     1
 71
     0
 91
        2
 92
       16
 93
        1
 72
     4
 94
        3
 73
     0
 74
     0
 95
       14
 96
       10
 40
0.0
 40
0.0
 40
0.0
 40
0.0
 40
1.0
 40
1.0
 40
1.0
 40
2.0
 40
2.0
 40
2.0
 40
3.0
 40
3.0
 40
3.0
 40
3.0
 10
104.2733940972222
 20
115.1113199869792
 10
104.2690877278646
 20
115.2065768771701
 10
104.274944390191
 20
115.3631564670139
 10
104.1378295898438
 20
115.300627983941
 10
104.0003702799479
 20
115.2379272460937
 10
103.9970974392361
 20
115.0842759874132
 10
103.9927910698785
 20
114.9836791992187
 10
103.9927910698785
 20
114.9836791992187
 10
104.2733940972222
 20
115.1113199869792
 10
104.2733940972222
 20
115.1113199869792
 97
        0
 92
        1
 93
        1
 72
     4
 94
        3
 73
     0
 74
     0
 95
       29
 96
       25
 40
0.0
 40
0.0
 40
0.0
 40
0.0
 40
1.0
 40
1.0
 40
1.0
 40
2.0
 40
2.0
 40
2.0
 40
3.0
 40
3.0
 40
3.0
 40
4.0
 40
4.0
 40
4.0
 40
5.0
 40
5.0
 40
5.0
 40
6.0
 40
6.0
 40
6.0
 40
7.0
 40
7.0
 40
7.0
 40
8.0
 40
8.0
 40
8.0
 40
8.0
 10
104.3898383246528
 20
114.9388929578993
 10
104.3974175347222
 20
114.779729546441
 10
104.313873969184
 20
114.6057522243924
 10
104.1392076280382
 20
114.5261705186632
 10
103.9822835286458
 20
114.4545125325521
 10
103.8704901801215
 20
114.5084282769097
 10
103.8704901801215
 20
114.8426025390625
 10
103.8704901801215
 20
115.0177856445312
 10
103.9168267144097
 20
115.3002834743923
 10
104.1359347873264
 20
115.4000189887153
 10
104.405168999566
 20
115.5223198784722
 10
104.3898383246528
 20
115.2615261501736
 10
104.3960394965278
 20
115.0701510959201
 10
104.3960394965278
 20
115.0701510959201
 10
103.9927910698785
 20
114.8863552517361
 10
103.9927910698785
 20
114.8863552517361
 10
103.9955471462674
 20
114.7761121961806
 10
103.9764268663194
 20
114.5521809895833
 10
104.1421359592014
 20
114.6274563259549
 10
104.2556518554687
 20
114.6791327582465
 10
104.2871744791667
 20
114.7981608072917
 10
104.2795952690972
 20
114.8885945638021
 10
104.2795952690972
 20
114.8885945638021
 10
104.3898383246528
 20
114.9388929578993
 10
104.3898383246528
 20
114.9388929578993
 97
        0
 75
     0
 76
     1
 98
        1
 10
0.0
 20
0.0
  0
HATCH
  5
39
330
A
100
AcDbEntity
  8
LAYER_1
 62
     7
100
AcDbHatch
 10
0.0
 20
0.0
 30
0.0
210
0.0
220
0.0
230
1.0
  2
SOLID
 70
     1
 71
     0
 91
        4
 92
       16
 93
        1
 72
     4
 94
        3
 73
     0
 74
     0
 95
       20
 96
       16
 40
0.0
 40
0.0
 40
0.0
 40
0.0
 40
1.0
 40
1.0
 40
1.0
 40
2.0
 40
2.0
 40
2.0
 40
3.0
 40
3.0
 40
3.0
 40
4.0
 40
4.0
 40
4.0
 40
5.0
 40
5.0
 40
5.0
 40
5.0
 10
104.7093709309896
 20
115.8022338867187
 10
104.7469224717882
 20
115.8196316189236
 10
104.8054890950521
 20
115.8413357204861
 10
104.8054890950521
 20
115.8962849934896
 10
104.8054890950521
 20
115.9369371202257
 10
104.7689710828993
 20
115.9248792860243
 10
104.7357259114583
 20
115.9093763563368
 10
104.7357259114583
 20
115.9093763563368
 10
104.659417046441
 20
115.8738918728298
 10
104.659417046441
 20
115.8738918728298
 10
104.659417046441
 20
115.8738918728298
 10
104.659417046441
 20
115.7791517469618
 10
104.659417046441
 20
115.7791517469618
 10
104.659417046441
 20
115.7791517469618
 10
104.7093709309896
 20
115.8022338867187
 10
104.7093709309896
 20
115.8022338867187
 97
        0
 92
        1
 93
        1
 72
     4
 94
        3
 73
     0
 74
     0
 95
       38
 96
       34
 40
0.0
 40
0.0
 40
0.0
 40
0.0
 40
1.0
 40
1.0
 40
1.0
 40
2.0
 40
2.0
 40
2.0
 40
3.0
 40
3.0
 40
3.0
 40
4.0
 40
4.0
 40
4.0
 40
5.0
 40
5.0
 40
5.0
 40
6.0
 40
6.0
 40
6.0
 40
7.0
 40
7.0
 40
7.0
 40
8.0
 40
8.0
 40
8.0
 40
9.0
 40
9.0
 40
9.0
 40
10.0
 40
10.0
 40
10.0
 40
11.0
 40
11.0
 40
11.0
 40
11.0
 10
104.8359781901042
 20
115.7100775824653
 10
104.8359781901042
 20
115.7100775824653
 10
104.795842827691
 20
115.6916463216146
 10
104.795842827691
 20
115.6916463216146
 10
104.795842827691
 20
115.6916463216146
 10
104.7190171983507
 20
115.7805297851562
 10
104.7190171983507
 20
115.7805297851562
 10
104.7190171983507
 20
115.7805297851562
 10
104.659417046441
 20
115.7531412760417
 10
104.659417046441
 20
115.7531412760417
 10
104.659417046441
 20
115.7531412760417
 10
104.659417046441
 20
115.6282565646701
 10
104.659417046441
 20
115.6282565646701
 10
104.659417046441
 20
115.6282565646701
 10
104.6246215820312
 20
115.612409125434
 10
104.6246215820312
 20
115.612409125434
 10
104.6246215820312
 20
115.612409125434
 10
104.6246215820312
 20
115.8840549045139
 10
104.6246215820312
 20
115.8840549045139
 10
104.6246215820312
 20
115.8840549045139
 10
104.743994140625
 20
115.9390041775174
 10
104.743994140625
 20
115.9390041775174
 10
104.7660427517361
 20
115.94951171875
 10
104.7889526367188
 20
115.9600192599826
 10
104.8094509548611
 20
115.9546793619792
 10
104.8290879991319
 20
115.9527845594618
 10
104.840973578559
 20
115.9333197699653
 10
104.8402845594618
 20
115.9107543945312
 10
104.8402845594618
 20
115.8573554144965
 10
104.8018717447917
 20
115.8196316189236
 10
104.7548461914062
 20
115.7972384982639
 10
104.7548461914062
 20
115.7972384982639
 10
104.8359781901042
 20
115.7100775824653
 10
104.8359781901042
 20
115.7100775824653
 97
        0
 92
       16
 93
        1
 72
     4
 94
        3
 73
     0
 74
     0
 95
       17
 96
       13
 40
0.0
 40
0.0
 40
0.0
 40
0.0
 40
1.0
 40
1.0
 40
1.0
 40
2.0
 40
2.0
 40
2.0
 40
3.0
 40
3.0
 40
3.0
 40
4.0
 40
4.0
 40
4.0
 40
4.0
 10
104.5092108832465
 20
115.6937133789062
 10
104.5092108832465
 20
115.5791639539931
 10
104.6011949327257
 20
115.5305881076389
 10
104.7153998480903
 20
115.5834703233507
 10
104.8297770182292
 20
115.6363525390625
 10
104.9202107747396
 20
115.769677734375
 10
104.9202107747396
 20
115.8847439236111
 10
104.9202107747396
 20
115.9980875651042
 10
104.8297770182292
 20
116.0478691948785
 10
104.7153998480903
 20
115.995159233941
 10
104.6011949327257
 20
115.9419325086806
 10
104.5092108832465
 20
115.8074015299479
 10
104.5092108832465
 20
115.6937133789062
 97
        0
 92
        1
 93
        1
 72
     4
 94
        3
 73
     0
 74
     0
 95
       17
 96
       13
 40
0.0
 40
0.0
 40
0.0
 40
0.0
 40
1.0
 40
1.0
 40
1.0
 40
2.0
 40
2.0
 40
2.0
 40
3.0
 40
3.0
 40
3.0
 40
4.0
 40
4.0
 40
4.0
 40
4.0
 10
104.9567287868924
 20
115.902141655816
 10
104.9567287868924
 20
115.7669216579861
 10
104.8488972981771
 20
115.6094807942708
 10
104.7153998480903
 20
115.5476413302951
 10
104.5815578884549
 20
115.4854573567708
 10
104.4730373806424
 20
115.5426459418403
 10
104.4730373806424
 20
115.6778659396701
 10
104.4730373806424
 20
115.8110188802083
 10
104.5815578884549
 20
115.9686319986979
 10
104.7153998480903
 20
116.0309882269965
 10
104.8488972981771
 20
116.0928276909722
 10
104.9567287868924
 20
116.0352945963542
 10
104.9567287868924
 20
115.902141655816
 97
        0
 75
     0
 76
     1
 98
        1
 10
0.0
 20
0.0
  0
INSERT
  5
29
330
A
100
AcDbEntity
  8
LAYER_1
 62
     7
100
AcDbBlockReference
  2
AI9-BLK1
 10
70.18779161241319
 20
127.3499355740017
 30
0.0
  0
LINE
  5
27
330
A
100
AcDbEntity
  8
LAYER_1
 62
     7
100
AcDbLine
 10
65.35828450520833
 20
126.2799750434028
 30
0.0
 11
74.82523464626735
 21
122.7323879665799
 31
0.0
  0
LINE
  5
26
330
A
100
AcDbEntity
  8
LAYER_1
 62
     7
100
AcDbLine
 10
62.9296644422743
 20
129.5626342773437
 30
0.0
 11
72.34045952690971
 21
126.0546657986111
 31
0.0
  0
LINE
  5
25
330
A
100
AcDbEntity
  8
LAYER_1
 62
     7
100
AcDbLine
 10
67.78845486111111
 20
133.9158569335937
 30
0.0
 11
77.2886501736111
 21
130.4395833333333
 31
0.0
  0
LINE
  5
24
330
A
100
AcDbEntity
  8
LAYER_1
 62
     7
100
AcDbLine
 10
65.3546671549479
 20
137.4882486979167
 30
0.0
 11
74.87157118055555
 21
134.1585639105903
 31
0.0
  0
LINE
  5
23
330
A
100
AcDbEntity
  8
LAYER_1
 62
     7
100
AcDbLine
 10
64.41673990885415
 20
128.8653469509549
 30
0.0
 11
66.19423692491318
 21
126.0307223849826
 31
0.0
  0
SPLINE
  5
22
330
A
100
AcDbEntity
  8
LAYER_1
 62
     7
100
AcDbSpline
210
0.0
220
0.0
230
1.0
 70
     8
 71
     3
 72
    11
 73
     7
 74
     0
 42
0.0000000001
 43
0.0000000001
 40
0.0
 40
0.0
 40
0.0
 40
0.0
 40
1.0
 40
1.0
 40
1.0
 40
2.0
 40
2.0
 40
2.0
 40
2.0
 10
65.06493462456596
 20
111.5482299804687
 30
0.0
 10
65.06493462456596
 20
106.3625
 30
0.0
 10
64.32406684027777
 20
100.9914238823785
 30
0.0
 10
65.80580240885416
 20
95.80552164713541
 30
0.0
 10
66.36149631076388
 20
93.0273966471354
 30
0.0
 10
65.80580240885416
 20
90.06409776475694
 30
0.0
 10
66.17615017361111
 20
87.28597276475693
 30
0.0
  0
ENDSEC
  0
SECTION
  2
OBJECTS
  0
DICTIONARY
  5
19
330
0
100
AcDbDictionary
281
     1
  3
ACAD_COLOR
350
E0
  3
ACAD_GROUP
350
1A
  3
ACAD_LAYOUT
350
AD
  3
ACAD_MATERIAL
350
E2
  3
ACAD_MLINESTYLE
350
1B
  3
ACAD_PLOTSETTINGS
350
AE
  3
ACAD_PLOTSTYLENAME
350
AB
  3
ACDBHEADERROUNDTRIPXREC
350
DF
  0
DICTIONARY
  5
E0
102
{ACAD_REACTORS
330
19
102
}
330
19
100
AcDbDictionary
281
     1
  0
DICTIONARY
  5
1A
102
{ACAD_REACTORS
330
19
102
}
330
19
100
AcDbDictionary
281
     1
  0
DICTIONARY
  5
AD
102
{ACAD_REACTORS
330
19
102
}
330
19
100
AcDbDictionary
281
     1
  3
Layout1
350
B0
  3
Model
350
AF
  0
DICTIONARY
  5
E2
102
{ACAD_REACTORS
330
19
102
}
330
19
100
AcDbDictionary
281
     1
  0
DICTIONARY
  5
1B
102
{ACAD_REACTORS
330
19
102
}
330
19
100
AcDbDictionary
281
     1
  3
STANDARD
350
1C
  0
DICTIONARY
  5
AE
102
{ACAD_REACTORS
330
19
102
}
330
19
100
AcDbDictionary
281
     1
  0
ACDBDICTIONARYWDFLT
  5
AB
102
{ACAD_REACTORS
330
19
102
}
330
19
100
AcDbDictionary
281
     1
  3
Normal
350
AC
100
AcDbDictionaryWithDefault
340
AC
  0
DICTIONARY
  5
DF
102
{ACAD_REACTORS
330
19
102
}
330
19
100
AcDbDictionary
281
     1
  3
COLORDICT
350
E1
  3
MATERIALDICT
350
E3
  0
LAYOUT
  5
B0
102
{ACAD_REACTORS
330
AD
102
}
102
{ACAD_XDICTIONARY
360
E4
102
}
330
AD
100
AcDbPlotSettings
  1

  2
Support Center HP LaserJet 4
  4

  6

 40
0.0
 41
0.0
 42
0.0
 43
0.0
 44
0.0
 45
0.0
 46
0.0
 47
0.0
 48
0.0
 49
0.0
140
0.0
141
0.0
142
1.0
143
1.0
 70
   688
 72
     0
 73
     0
 74
     5
  7

 75
    16
147
1.0
148
0.0
149
0.0
100
AcDbLayout
  1
Layout1
 70
     0
 71
     1
 10
0.0
 20
0.0
 11
12.0
 21
9.0
 12
0.0
 22
0.0
 32
0.0
 14
1.000000000000000E+20
 24
1.000000000000000E+20
 34
1.000000000000000E+20
 15
-1.000000000000000E+20
 25
-1.000000000000000E+20
 35
-1.000000000000000E+20
146
0.0
 13
0.0
 23
0.0
 33
0.0
 16
1.0
 26
0.0
 36
0.0
 17
0.0
 27
1.0
 37
0.0
 76
     0
330
B
  0
LAYOUT
  5
AF
102
{ACAD_REACTORS
330
AD
102
}
102
{ACAD_XDICTIONARY
360
E6
102
}
330
AD
100
AcDbPlotSettings
  1

  2
Support Center HP LaserJet 4
  4

  6

 40
0.0
 41
0.0
 42
0.0
 43
0.0
 44
0.0
 45
0.0
 46
0.0
 47
0.0
 48
0.0
 49
0.0
140
0.0
141
0.0
142
1.0
143
1.0
 70
  1712
 72
     0
 73
     0
 74
     0
  7

 75
     0
147
1.0
148
0.0
149
0.0
100
AcDbLayout
  1
Model
 70
     1
 71
     0
 10
0.0
 20
0.0
 11
12.0
 21
9.0
 12
0.0
 22
0.0
 32
0.0
 14
0.0
 24
0.0
 34
0.0
 15
0.0
 25
0.0
 35
0.0
146
0.0
 13
0.0
 23
0.0
 33
0.0
 16
1.0
 26
0.0
 36
0.0
 17
0.0
 27
1.0
 37
0.0
 76
     0
330
A
  0
MLINESTYLE
  5
1C
102
{ACAD_REACTORS
330
1B
102
}
330
1B
100
AcDbMlineStyle
  2
STANDARD
 70
     0
  3

 62
     0
 51
90.0000000000002
 52
90.0000000000002
 71
     2
 49
0.5
 62
   256
  6
BYLAYER
 49
-0.5
 62
   256
  6
BYLAYER
  0
ACDBPLACEHOLDER
  5
AC
102
{ACAD_REACTORS
330
AB
102
}
330
AB
  0
XRECORD
  5
E1
102
{ACAD_REACTORS
330
DF
102
}
330
DF
100
AcDbXrecord
340
E0
  0
XRECORD
  5
E3
102
{ACAD_REACTORS
330
DF
102
}
330
DF
100
AcDbXrecord
340
E2
  0
DICTIONARY
  5
E4
330
B0
100
AcDbDictionary
280
     1
281
     1
  3
ACAD_XREC_ROUNDTRIP
360
E5
  0
DICTIONARY
  5
E6
330
AF
100
AcDbDictionary
280
     1
281
     1
  3
ACAD_XREC_ROUNDTRIP
360
E7
  0
XRECORD
  5
E5
102
{ACAD_REACTORS
330
E4
102
}
330
E4
100
AcDbXrecord
102
SHADEPLOT
 70
 27424
102
SHADEPLOTRESLEVEL
 70
 25504
102
SHADEPLOTCUSTOMDPI
 70
 16888
  0
XRECORD
  5
E7
102
{ACAD_REACTORS
330
E6
102
}
330
E6
100
AcDbXrecord
102
SHADEPLOT
 70
     0
102
SHADEPLOTRESLEVEL
 70
     0
102
SHADEPLOTCUSTOMDPI
 70
     0
  0
ENDSEC
  0
EOF
