  0
SECTION
  2
HEADER
  9
$ACADVER
  1
AC1015
  9
$ACADMAINTVER
 70
     6
  9
$DWGCODEPAGE
  3
ANSI_1252
  9
$INSBASE
 10
0.0
 20
0.0
 30
0.0
  9
$EXTMIN
 10
59.11921732772471
 20
82.59196382190211
 30
-0.0015258207003612
  9
$EXTMAX
 10
155.7159432743585
 20
198.6786448431537
 30
0.0000000349246008
  9
$LIMMIN
 10
58.98709716796874
 20
82.44458007812499
  9
$LIMMAX
 10
152.0904581705729
 20
198.8171495225694
  9
$ORTHOMODE
 70
     0
  9
$REGENMODE
 70
     1
  9
$FILLMODE
 70
     1
  9
$QTEXTMODE
 70
     0
  9
$MIRRTEXT
 70
     1
  9
$LTSCALE
 40
1.0
  9
$ATTMODE
 70
     1
  9
$TEXTSIZE
 40
0.2
  9
$TRACEWID
 40
0.05
  9
$TEXTSTYLE
  7
STANDARD
  9
$CLAYER
  8
0
  9
$CELTYPE
  6
CONTINUOUS
  9
$CECOLOR
 62
   256
  9
$CELTSCALE
 40
1.0
  9
$DISPSILH
 70
     0
  9
$DIMSCALE
 40
1.0
  9
$DIMASZ
 40
0.18
  9
$DIMEXO
 40
0.0625
  9
$DIMDLI
 40
0.38
  9
$DIMRND
 40
0.0
  9
$DIMDLE
 40
0.0
  9
$DIMEXE
 40
0.18
  9
$DIMTP
 40
0.0
  9
$DIMTM
 40
0.0
  9
$DIMTXT
 40
0.18
  9
$DIMCEN
 40
0.09
  9
$DIMTSZ
 40
0.0
  9
$DIMTOL
 70
     0
  9
$DIMLIM
 70
     0
  9
$DIMTIH
 70
     1
  9
$DIMTOH
 70
     1
  9
$DIMSE1
 70
     0
  9
$DIMSE2
 70
     0
  9
$DIMTAD
 70
     0
  9
$DIMZIN
 70
     0
  9
$DIMBLK
  1

  9
$DIMASO
 70
     1
  9
$DIMSHO
 70
     1
  9
$DIMPOST
  1

  9
$DIMAPOST
  1

  9
$DIMALT
 70
     0
  9
$DIMALTD
 70
     2
  9
$DIMALTF
 40
25.4
  9
$DIMLFAC
 40
1.0
  9
$DIMTOFL
 70
     0
  9
$DIMTVP
 40
0.0
  9
$DIMTIX
 70
     0
  9
$DIMSOXD
 70
     0
  9
$DIMSAH
 70
     0
  9
$DIMBLK1
  1

  9
$DIMBLK2
  1

  9
$DIMSTYLE
  2
STANDARD
  9
$DIMCLRD
 70
     0
  9
$DIMCLRE
 70
     0
  9
$DIMCLRT
 70
     0
  9
$DIMTFAC
 40
1.0
  9
$DIMGAP
 40
0.09
  9
$DIMJUST
 70
     0
  9
$DIMSD1
 70
     0
  9
$DIMSD2
 70
     0
  9
$DIMTOLJ
 70
     1
  9
$DIMTZIN
 70
     0
  9
$DIMALTZ
 70
     0
  9
$DIMALTTZ
 70
     0
  9
$DIMUPT
 70
     0
  9
$DIMDEC
 70
     4
  9
$DIMTDEC
 70
     4
  9
$DIMALTU
 70
     2
  9
$DIMALTTD
 70
     2
  9
$DIMTXSTY
  7
STANDARD
  9
$DIMAUNIT
 70
     0
  9
$DIMADEC
 70
     0
  9
$DIMALTRND
 40
0.0
  9
$DIMAZIN
 70
     0
  9
$DIMDSEP
 70
    46
  9
$DIMATFIT
 70
     3
  9
$DIMFRAC
 70
     0
  9
$DIMLDRBLK
  1

  9
$DIMLUNIT
 70
     2
  9
$DIMLWD
 70
    -2
  9
$DIMLWE
 70
    -2
  9
$DIMTMOVE
 70
     0
  9
$LUNITS
 70
     2
  9
$LUPREC
 70
     4
  9
$SKETCHINC
 40
0.1
  9
$FILLETRAD
 40
0.0
  9
$AUNITS
 70
     0
  9
$AUPREC
 70
     0
  9
$MENU
  1
acad
  9
$ELEVATION
 40
0.0
  9
$PELEVATION
 40
0.0
  9
$THICKNESS
 40
0.0
  9
$LIMCHECK
 70
     0
  9
$CHAMFERA
 40
0.0
  9
$CHAMFERB
 40
0.0
  9
$CHAMFERC
 40
0.0
  9
$CHAMFERD
 40
0.0
  9
$SKPOLY
 70
     0
  9
$TDCREATE
 40
2444971.666666667
  9
$TDUCREATE
 40
2444972.0
  9
$TDUPDATE
 40
2452215.586217014
  9
$TDUUPDATE
 40
2452215.919550347
  9
$TDINDWG
 40
0.0016502315
  9
$TDUSRTIMER
 40
0.0016502315
  9
$USRTIMER
 70
     1
  9
$ANGBASE
 50
0.0
  9
$ANGDIR
 70
     0
  9
$PDMODE
 70
     0
  9
$PDSIZE
 40
0.0
  9
$PLINEWID
 40
0.0
  9
$SPLFRAME
 70
     0
  9
$SPLINETYPE
 70
     6
  9
$SPLINESEGS
 70
     8
  9
$HANDSEED
  5
D0
  9
$SURFTAB1
 70
     6
  9
$SURFTAB2
 70
     6
  9
$SURFTYPE
 70
     6
  9
$SURFU
 70
     6
  9
$SURFV
 70
     6
  9
$UCSBASE
  2

  9
$UCSNAME
  2

  9
$UCSORG
 10
0.0
 20
0.0
 30
0.0
  9
$UCSXDIR
 10
1.0
 20
0.0
 30
0.0
  9
$UCSYDIR
 10
0.0
 20
1.0
 30
0.0
  9
$UCSORTHOREF
  2

  9
$UCSORTHOVIEW
 70
     0
  9
$UCSORGTOP
 10
0.0
 20
0.0
 30
0.0
  9
$UCSORGBOTTOM
 10
0.0
 20
0.0
 30
0.0
  9
$UCSORGLEFT
 10
0.0
 20
0.0
 30
0.0
  9
$UCSORGRIGHT
 10
0.0
 20
0.0
 30
0.0
  9
$UCSORGFRONT
 10
0.0
 20
0.0
 30
0.0
  9
$UCSORGBACK
 10
0.0
 20
0.0
 30
0.0
  9
$PUCSBASE
  2

  9
$PUCSNAME
  2

  9
$PUCSORG
 10
0.0
 20
0.0
 30
0.0
  9
$PUCSXDIR
 10
1.0
 20
0.0
 30
0.0
  9
$PUCSYDIR
 10
0.0
 20
1.0
 30
0.0
  9
$PUCSORTHOREF
  2

  9
$PUCSORTHOVIEW
 70
     0
  9
$PUCSORGTOP
 10
0.0
 20
0.0
 30
0.0
  9
$PUCSORGBOTTOM
 10
0.0
 20
0.0
 30
0.0
  9
$PUCSORGLEFT
 10
0.0
 20
0.0
 30
0.0
  9
$PUCSORGRIGHT
 10
0.0
 20
0.0
 30
0.0
  9
$PUCSORGFRONT
 10
0.0
 20
0.0
 30
0.0
  9
$PUCSORGBACK
 10
0.0
 20
0.0
 30
0.0
  9
$USERI1
 70
     0
  9
$USERI2
 70
     0
  9
$USERI3
 70
     0
  9
$USERI4
 70
     0
  9
$USERI5
 70
     0
  9
$USERR1
 40
0.0
  9
$USERR2
 40
0.0
  9
$USERR3
 40
0.0
  9
$USERR4
 40
0.0
  9
$USERR5
 40
0.0
  9
$WORLDVIEW
 70
     1
  9
$SHADEDGE
 70
     3
  9
$SHADEDIF
 70
    70
  9
$TILEMODE
 70
     1
  9
$MAXACTVP
 70
    16
  9
$PINSBASE
 10
0.0
 20
0.0
 30
0.0
  9
$PLIMCHECK
 70
     0
  9
$PEXTMIN
 10
1.000000000000000E+20
 20
1.000000000000000E+20
 30
1.000000000000000E+20
  9
$PEXTMAX
 10
-1.000000000000000E+20
 20
-1.000000000000000E+20
 30
-1.000000000000000E+20
  9
$PLIMMIN
 10
0.0
 20
0.0
  9
$PLIMMAX
 10
12.0
 20
9.0
  9
$UNITMODE
 70
     0
  9
$VISRETAIN
 70
     0
  9
$PLINEGEN
 70
     1
  9
$PSLTSCALE
 70
     0
  9
$TREEDEPTH
 70
  3020
  9
$CMLSTYLE
  2
STANDARD
  9
$CMLJUST
 70
     0
  9
$CMLSCALE
 40
1.0
  9
$PROXYGRAPHICS
 70
     0
  9
$MEASUREMENT
 70
     0
  9
$CELWEIGHT
370
    -1
  9
$ENDCAPS
280
     0
  9
$JOINSTYLE
280
     0
  9
$LWDISPLAY
290
     0
  9
$INSUNITS
 70
     0
  9
$HYPERLINKBASE
  1

  9
$STYLESHEET
  1

  9
$XEDIT
290
     1
  9
$CEPSNTYPE
380
     0
  9
$PSTYLEMODE
290
     1
  9
$FINGERPRINTGUID
  2
{890B5584-CEC8-11D5-923F-00805F198AD5}
  9
$VERSIONGUID
  2
{890B5586-CEC8-11D5-923F-00805F198AD5}
  9
$EXTNAMES
290
     1
  9
$PSVPSCALE
 40
0.0
  9
$OLESTARTUP
290
     0
  0
ENDSEC
  0
SECTION
  2
CLASSES
  0
CLASS
  1
LWPOLYLINE
  2
AcDbPolyline
  3
AutoCAD 2000
 90
        0
280
     0
281
     1
  0
CLASS
  1
IMAGE
  2
AcDbRasterImage
  3
ISM
 90
      127
280
     0
281
     1
  0
CLASS
  1
OLE2FRAME
  2
AcDbOle2Frame
  3
AutoCAD 2000
 90
        0
280
     0
281
     1
  0
CLASS
  1
HATCH
  2
AcDbHatch
  3
AutoCAD 2000
 90
        0
280
     0
281
     1
  0
CLASS
  1
DICTIONARYVAR
  2
AcDbDictionaryVar
  3
AutoCAD 2000
 90
        0
280
     0
281
     0
  0
CLASS
  1
RASTERVARIABLES
  2
AcDbRasterVariables
  3
ISM
 90
        0
280
     0
281
     0
  0
CLASS
  1
IMAGEDEF
  2
AcDbRasterImageDef
  3
ISM
 90
        0
280
     0
281
     0
  0
CLASS
  1
IMAGEDEF_REACTOR
  2
AcDbRasterImageDefReactor
  3
ISM
 90
        1
280
     0
281
     0
  0
CLASS
  1
IDBUFFER
  2
AcDbIdBuffer
  3
AutoCAD 2000
 90
        0
280
     0
281
     0
  0
CLASS
  1
SPATIAL_FILTER
  2
AcDbSpatialFilter
  3
AutoCAD 2000
 90
        0
280
     0
281
     0
  0
CLASS
  1
XRECORD
  2
AcDbXrecord
  3
AutoCAD 2000
 90
        0
280
     0
281
     0
  0
CLASS
  1
SORTENTSTABLE
  2
AcDbSortentsTable
  3
AutoCAD 2000
 90
        0
280
     0
281
     0
  0
CLASS
  1
LAYER_INDEX
  2
AcDbLayerIndex
  3
AutoCAD 2000
 90
        0
280
     0
281
     0
  0
CLASS
  1
SPATIAL_INDEX
  2
AcDbSpatialIndex
  3
AutoCAD 2000
 90
        0
280
     0
281
     0
  0
CLASS
  1
OBJECT_PTR
  2
CAseDLPNTableRecord
  3
ASE-LPNTableRecord
 90
        1
280
     1
281
     0
  0
CLASS
  1
LAYOUT
  2
AcDbLayout
  3
ObjectDBX Classes
 90
        0
280
     0
281
     0
  0
CLASS
  1
PLOTSETTINGS
  2
AcDbPlotSettings
  3
AutoCAD 2000
 90
        0
280
     0
281
     0
  0
CLASS
  1
ACDBDICTIONARYWDFLT
  2
AcDbDictionaryWithDefault
  3
AutoCAD 2000
 90
        0
280
     0
281
     0
  0
CLASS
  1
ACDBPLACEHOLDER
  2
AcDbPlaceHolder
  3
ObjectDBX Classes
 90
        0
280
     0
281
     0
  0
CLASS
  1
VBAPROJECT
  2
AcDbVbaProject
  3
ObjectDBX Classes
 90
        0
280
     0
281
     0
  0
CLASS
  1
WIPEOUT
  2
AcDbWipeout
  3
WipeOut|AutoCAD Express Tool|expresstools@autodesk.com
 90
      127
280
     0
281
     1
  0
CLASS
  1
WIPEOUTVARIABLES
  2
AcDbWipeoutVariables
  3
WipeOut|AutoCAD Express Tool|expresstools@autodesk.com
 90
        0
280
     0
281
     0
  0
CLASS
  1
RTEXT
  2
RText
  3
RText|AutoCAD Express Tool|expresstools@autodesk.com
 90
        0
280
     0
281
     1
  0
CLASS
  1
ARCALIGNEDTEXT
  2
AcDbArcAlignedText
  3
ATEXT|AutoCAD Express Tool|expresstools@autodesk.com
 90
        0
280
     0
281
     1
  0
CLASS
  1
LONG_TRANSACTION
  2
AcDbLongTransaction
  3
AutoCAD 2000
 90
        0
280
     1
281
     0
  0
CLASS
  1
LWPOLYLINE
  2
AcDbPolyline
  3
AutoCAD 2000
 90
        0
280
     0
281
     1
  0
CLASS
  1
HATCH
  2
AcDbHatch
  3
AutoCAD 2000
 90
        0
280
     0
281
     1
  0
CLASS
  1
XRECORD
  2
AcDbXrecord
  3
AutoCAD 2000
 90
        0
280
     0
281
     0
  0
ENDSEC
  0
SECTION
  2
TABLES
  0
TABLE
  2
VPORT
  5
7
330
0
100
AcDbSymbolTable
 70
     2
  0
VPORT
  5
9C
330
7
100
AcDbSymbolTableRecord
100
AcDbViewportTableRecord
  2
*Active
 70
     0
 10
0.0
 20
0.0
 11
1.0
 21
1.0
 12
107.4175803010416
 22
140.6353043325279
 13
0.0
 23
0.0
 14
1.0
 24
1.0
 15
0.0
 25
0.0
 16
0.0
 26
0.0
 36
1.0
 17
0.0
 27
0.0
 37
0.0
 40
117.9148177302477
 41
1.836842105263158
 42
50.0
 43
0.0
 44
0.0
 50
0.0
 51
0.0
 71
     0
 72
   100
 73
     1
 74
     1
 75
     0
 76
     0
 77
     0
 78
     0
281
     0
 65
     1
110
0.0
120
0.0
130
0.0
111
1.0
121
0.0
131
0.0
112
0.0
122
1.0
132
0.0
 79
     0
146
0.0
  0
ENDTAB
  0
TABLE
  2
LTYPE
  5
4
330
0
100
AcDbSymbolTable
 70
     1
  0
LTYPE
  5
11
330
4
100
AcDbSymbolTableRecord
100
AcDbLinetypeTableRecord
  2
BYBLOCK
 70
     0
  3

 72
    65
 73
     0
 40
0.0
  0
LTYPE
  5
12
330
4
100
AcDbSymbolTableRecord
100
AcDbLinetypeTableRecord
  2
BYLAYER
 70
     0
  3

 72
    65
 73
     0
 40
0.0
  0
LTYPE
  5
13
330
4
100
AcDbSymbolTableRecord
100
AcDbLinetypeTableRecord
  2
CONTINUOUS
 70
     0
  3
Solid line
 72
    65
 73
     0
 40
0.0
  0
ENDTAB
  0
TABLE
  2
LAYER
  5
2
330
0
100
AcDbSymbolTable
 70
     2
  0
LAYER
  5
14
330
2
100
AcDbSymbolTableRecord
100
AcDbLayerTableRecord
  2
0
 70
     0
 62
     7
  6
CONTINUOUS
370
    -3
390
0
  0
LAYER
  5
21
330
2
100
AcDbSymbolTableRecord
100
AcDbLayerTableRecord
  2
LAYER_1
 70
     0
 62
     5
  6
CONTINUOUS
370
    -3
390
0
  0
ENDTAB
  0
TABLE
  2
STYLE
  5
3
330
0
100
AcDbSymbolTable
 70
     5
  0
STYLE
  5
17
330
3
100
AcDbSymbolTableRecord
100
AcDbTextStyleTableRecord
  2
STANDARD
 70
     0
 40
0.0
 41
1.0
 50
0.0
 71
     0
 42
0.2
  3
txt
  4

  0
STYLE
  5
1D
330
3
100
AcDbSymbolTableRecord
100
AcDbTextStyleTableRecord
  2
STD
 70
     0
 40
0.0
 41
1.0
 50
0.0
 71
     0
 42
0.2
  3
txt
  4

  0
STYLE
  5
1E
330
3
100
AcDbSymbolTableRecord
100
AcDbTextStyleTableRecord
  2
TATESTD
 70
     4
 40
0.0
 41
1.0
 50
0.0
 71
     0
 42
0.2
  3
txt
  4

  0
STYLE
  5
1F
330
3
100
AcDbSymbolTableRecord
100
AcDbTextStyleTableRecord
  2
KANJISTD
 70
     0
 40
0.0
 41
1.0
 50
0.0
 71
     0
 42
0.2
  3
txt
  4
extfont
  0
STYLE
  5
20
330
3
100
AcDbSymbolTableRecord
100
AcDbTextStyleTableRecord
  2
KANJITATE
 70
     4
 40
0.0
 41
1.0
 50
0.0
 71
     0
 42
0.2
  3
txt
  4
extfont
  0
ENDTAB
  0
TABLE
  2
VIEW
  5
5
330
0
100
AcDbSymbolTable
 70
     0
  0
ENDTAB
  0
TABLE
  2
UCS
  5
6
330
0
100
AcDbSymbolTable
 70
     0
  0
ENDTAB
  0
TABLE
  2
APPID
  5
8
330
0
100
AcDbSymbolTable
 70
     1
  0
APPID
  5
16
330
8
100
AcDbSymbolTableRecord
100
AcDbRegAppTableRecord
  2
ACAD
 70
     0
  0
ENDTAB
  0
TABLE
  2
DIMSTYLE
  5
9
330
0
100
AcDbSymbolTable
 70
     1
100
AcDbDimStyleTable
  0
DIMSTYLE
105
18
330
9
100
AcDbSymbolTableRecord
100
AcDbDimStyleTableRecord
  2
STANDARD
 70
     0
  3

  4

289
     0
340
17
  0
ENDTAB
  0
TABLE
  2
BLOCK_RECORD
  5
1
330
0
100
AcDbSymbolTable
 70
     0
  0
BLOCK_RECORD
  5
A
330
1
100
AcDbSymbolTableRecord
100
AcDbBlockTableRecord
  2
*MODEL_SPACE
340
97
  0
BLOCK_RECORD
  5
B
330
1
100
AcDbSymbolTableRecord
100
AcDbBlockTableRecord
  2
*PAPER_SPACE
340
98
  0
ENDTAB
  0
ENDSEC
  0
SECTION
  2
BLOCKS
  0
BLOCK
  5
D
330
A
100
AcDbEntity
  8
0
100
AcDbBlockBegin
  2
*MODEL_SPACE
 70
     0
 10
0.0
 20
0.0
 30
0.0
  3
*MODEL_SPACE
  1

  4

  0
ENDBLK
  5
E
330
A
100
AcDbEntity
  8
0
100
AcDbBlockEnd
  0
BLOCK
  5
F
330
B
100
AcDbEntity
 67
     1
  8
0
100
AcDbBlockBegin
  2
*PAPER_SPACE
 70
     0
 10
0.0
 20
0.0
 30
0.0
  3
*PAPER_SPACE
  1

  4

  0
ENDBLK
  5
10
330
B
100
AcDbEntity
 67
     1
  8
0
100
AcDbBlockEnd
  0
ENDSEC
  0
SECTION
  2
ENTITIES
  0
LWPOLYLINE
  5
81
330
A
100
AcDbEntity
  8
LAYER_1
 62
     7
100
AcDbPolyline
 90
       15
 70
     0
 43
0.0
 10
91.45453830295138
 20
89.98675537109374
 10
78.40089925130208
 20
82.59823133680555
 10
59.12076687282985
 20
94.45452745225694
 10
60.52223171657985
 20
173.7923204210069
 10
68.41942409939236
 20
176.4567572699653
 10
68.6412882486979
 20
191.3099419487847
 10
76.01585964626736
 20
194.2544650607639
 10
75.89872639973957
 20
196.7518147786458
 10
85.07990587022569
 20
194.9362494574653
 10
85.19738362630207
 20
196.7518147786458
 10
90.4008558485243
 20
198.6759006076389
 10
151.9578219943576
 20
175.4273627387153
 10
151.6150349934896
 20
95.86219346788194
 10
130.9847696940104
 20
84.19193250868055
 10
108.7502956814236
 20
97.55304633246527
  0
SPLINE
  5
80
330
A
100
AcDbEntity
  8
LAYER_1
 62
     7
100
AcDbSpline
210
0.0
220
0.0
230
1.0
 70
    11
 71
     3
 72
    41
 73
    37
 74
     0
 42
0.0000000001
 43
0.0000000001
 40
0.0
 40
0.0
 40
0.0
 40
0.0
 40
1.0
 40
1.0
 40
1.0
 40
2.0
 40
2.0
 40
2.0
 40
3.0
 40
3.0
 40
3.0
 40
4.0
 40
4.0
 40
4.0
 40
5.0
 40
5.0
 40
5.0
 40
6.0
 40
6.0
 40
6.0
 40
7.0
 40
7.0
 40
7.0
 40
8.0
 40
8.0
 40
8.0
 40
9.0
 40
9.0
 40
9.0
 40
10.0
 40
10.0
 40
10.0
 40
11.0
 40
11.0
 40
11.0
 40
12.0
 40
12.0
 40
12.0
 40
12.0
 10
91.22182210286458
 20
89.88081868489583
 30
0.0
 10
91.69001057942708
 20
89.54629991319443
 30
0.0
 10
92.49306233723958
 20
89.07742241753472
 30
0.0
 10
93.63097737630207
 20
89.67996961805555
 30
0.0
 10
94.76889241536458
 20
90.28217230902777
 30
0.0
 10
108.6898342556424
 20
97.6439968532986
 30
0.0
 10
108.6898342556424
 20
97.6439968532986
 30
0.0
 10
108.6898342556424
 20
97.6439968532986
 30
0.0
 10
114.713239203559
 20
104.8718071831597
 30
0.0
 10
114.9137437608507
 20
105.1394911024305
 30
0.0
 10
115.114592827691
 20
105.4071750217014
 30
0.0
 10
115.3822767469618
 20
106.1433919270833
 30
0.0
 10
115.3822767469618
 20
106.8127739800347
 30
0.0
 10
115.3822767469618
 20
107.4818115234375
 30
0.0
 10
115.5831258138021
 20
145.8298583984375
 30
0.0
 10
115.5831258138021
 20
145.8298583984375
 30
0.0
 10
115.5831258138021
 20
145.8298583984375
 30
0.0
 10
110.0782077365451
 20
148.1931939019097
 30
0.0
 10
109.3588717990451
 20
148.5070421006944
 30
0.0
 10
108.2881361219618
 20
148.9752305772569
 30
0.0
 10
108.0872870551215
 20
148.9083957248264
 30
0.0
 10
107.0833862304688
 20
148.5735324435764
 30
0.0
 10
106.079485405816
 20
148.239013671875
 30
0.0
 10
98.85133056640625
 20
145.4281602647569
 30
0.0
 10
98.85133056640625
 20
145.4281602647569
 30
0.0
 10
98.85133056640625
 20
145.4281602647569
 30
0.0
 10
98.44963243272568
 20
106.4782552083333
 30
0.0
 10
98.44963243272568
 20
106.0765570746528
 30
0.0
 10
98.44963243272568
 20
105.6752034505208
 30
0.0
 10
98.18229302300347
 20
104.2024251302083
 30
0.0
 10
97.98144395616319
 20
103.6674018012153
 30
0.0
 10
97.78059488932291
 20
103.131689453125
 30
0.0
 10
93.02877468532985
 20
91.62059190538194
 30
0.0
 10
92.69391140407986
 20
91.21923828124999
 30
0.0
 10
92.35939263237846
 20
90.81754014756943
 30
0.0
 10
92.22537841796874
 20
90.21533745659721
 30
0.0
 10
91.22182210286458
 20
89.88081868489583
 30
0.0
  0
LINE
  5
7F
330
A
100
AcDbEntity
  8
LAYER_1
 62
     7
100
AcDbLine
 10
114.575090874566
 20
145.374072265625
 30
0.0
 11
115.5369615342882
 21
145.7881727430556
 31
0.0
  0
LINE
  5
7E
330
A
100
AcDbEntity
  8
LAYER_1
 62
     7
100
AcDbLine
 10
98.83892822265624
 20
145.4660563151041
 30
0.0
 11
99.84696316189235
 21
144.9641059027778
 31
0.0
  0
SPLINE
  5
7D
330
A
100
AcDbEntity
  8
LAYER_1
 62
     7
100
AcDbSpline
210
0.0
220
0.0
230
1.0
 70
     8
 71
     3
 72
    11
 73
     7
 74
     0
 42
0.0000000001
 43
0.0000000001
 40
0.0
 40
0.0
 40
0.0
 40
0.0
 40
1.0
 40
1.0
 40
1.0
 40
2.0
 40
2.0
 40
2.0
 40
2.0
 10
101.6956013997396
 20
106.6286336263021
 30
0.0
 10
101.3442016601562
 20
106.478082953559
 30
0.0
 10
100.9928019205729
 20
106.6119249131944
 30
0.0
 10
100.9928019205729
 20
107.1472927517361
 30
0.0
 10
100.9928019205729
 20
107.9625745985243
 30
0.0
 10
101.465813530816
 20
108.4626302083333
 30
0.0
 10
101.8630330403646
 20
108.5034545898437
 30
0.0
  0
SPLINE
  5
7C
330
A
100
AcDbEntity
  8
LAYER_1
 62
     7
100
AcDbSpline
210
0.0
220
0.0
230
1.0
 70
     8
 71
     3
 72
    11
 73
     7
 74
     0
 42
0.0000000001
 43
0.0000000001
 40
0.0
 40
0.0
 40
0.0
 40
0.0
 40
1.0
 40
1.0
 40
1.0
 40
2.0
 40
2.0
 40
2.0
 40
2.0
 10
101.8296156141493
 20
121.8874782986111
 30
0.0
 10
101.478215874566
 20
121.7367553710937
 30
0.0
 10
101.1268161349826
 20
121.8705973307292
 30
0.0
 10
101.1268161349826
 20
122.4059651692708
 30
0.0
 10
101.1268161349826
 20
123.2811916775174
 30
0.0
 10
101.6718302408854
 20
123.7931328667535
 30
0.0
 10
102.0830023871528
 20
123.7640218098958
 30
0.0
  0
SPLINE
  5
7B
330
A
100
AcDbEntity
  8
LAYER_1
 62
     7
100
AcDbSpline
210
0.0
220
0.0
230
1.0
 70
     8
 71
     3
 72
    11
 73
     7
 74
     0
 42
0.0000000001
 43
0.0000000001
 40
0.0
 40
0.0
 40
0.0
 40
0.0
 40
1.0
 40
1.0
 40
1.0
 40
2.0
 40
2.0
 40
2.0
 40
2.0
 10
101.7627807617187
 20
134.4693115234375
 30
0.0
 10
101.4113810221354
 20
134.3187608506945
 30
0.0
 10
101.0599812825521
 20
134.4526028103298
 30
0.0
 10
101.0599812825521
 20
134.9881429036458
 30
0.0
 10
101.0599812825521
 20
135.8664699978299
 30
0.0
 10
101.6089572482639
 20
136.3787556966146
 30
0.0
 10
102.0208184136285
 20
136.3455105251736
 30
0.0
  0
SPLINE
  5
7A
330
A
100
AcDbEntity
  8
LAYER_1
 62
     7
100
AcDbSpline
210
0.0
220
0.0
230
1.0
 70
     8
 71
     3
 72
    11
 73
     7
 74
     0
 42
0.0000000001
 43
0.0000000001
 40
0.0
 40
0.0
 40
0.0
 40
0.0
 40
1.0
 40
1.0
 40
1.0
 40
2.0
 40
2.0
 40
2.0
 40
2.0
 10
109.9397148980035
 20
137.4844590928819
 30
0.0
 10
110.1450425889757
 20
137.5934963650174
 30
0.0
 10
110.2959377712674
 20
137.8120876736111
 30
0.0
 10
110.2959377712674
 20
138.1335150824653
 30
0.0
 10
110.2959377712674
 20
139.1964992947048
 30
0.0
 10
109.266887749566
 20
139.3241400824653
 30
0.0
 10
108.9294406467014
 20
138.7507039388021
 30
0.0
  0
SPLINE
  5
79
330
A
100
AcDbEntity
  8
LAYER_1
 62
     7
100
AcDbSpline
210
0.0
220
0.0
230
1.0
 70
     8
 71
     3
 72
    11
 73
     7
 74
     0
 42
0.0000000001
 43
0.0000000001
 40
0.0
 40
0.0
 40
0.0
 40
0.0
 40
1.0
 40
1.0
 40
1.0
 40
2.0
 40
2.0
 40
2.0
 40
2.0
 10
113.7119222005208
 20
142.3904473198785
 30
0.0
 10
113.9708211263021
 20
142.4739908854166
 30
0.0
 10
114.1778713650174
 20
142.709290907118
 30
0.0
 10
114.1778713650174
 20
143.08583984375
 30
0.0
 10
114.1778713650174
 20
144.1562310112847
 30
0.0
 10
113.1343519422743
 20
144.2781873914931
 30
0.0
 10
112.8039672851562
 20
143.6911431206597
 30
0.0
  0
SPLINE
  5
78
330
A
100
AcDbEntity
  8
LAYER_1
 62
     7
100
AcDbSpline
210
0.0
220
0.0
230
1.0
 70
     8
 71
     3
 72
    11
 73
     7
 74
     0
 42
0.0000000001
 43
0.0000000001
 40
0.0
 40
0.0
 40
0.0
 40
0.0
 40
1.0
 40
1.0
 40
1.0
 40
2.0
 40
2.0
 40
2.0
 40
2.0
 10
113.7673882378472
 20
132.6060316297743
 30
0.0
 10
113.9659979926215
 20
132.7173082139757
 30
0.0
 10
114.1106920030382
 20
132.9333157009548
 30
0.0
 10
114.1106920030382
 20
133.2480251736111
 30
0.0
 10
114.1106920030382
 20
134.2016276041667
 30
0.0
 10
113.2824910481771
 20
134.4024766710069
 30
0.0
 10
112.8682183159722
 20
134.0197265625
 30
0.0
  0
SPLINE
  5
77
330
A
100
AcDbEntity
  8
LAYER_1
 62
     7
100
AcDbSpline
210
0.0
220
0.0
230
1.0
 70
     8
 71
     3
 72
    11
 73
     7
 74
     0
 42
0.0000000001
 43
0.0000000001
 40
0.0
 40
0.0
 40
0.0
 40
0.0
 40
1.0
 40
1.0
 40
1.0
 40
2.0
 40
2.0
 40
2.0
 40
2.0
 10
113.7785847981771
 20
123.1833509657118
 30
0.0
 10
114.037311469184
 20
123.26689453125
 30
0.0
 10
114.2443617078993
 20
123.5020222981771
 30
0.0
 10
114.2443617078993
 20
123.8783989800347
 30
0.0
 10
114.2443617078993
 20
124.9351820203993
 30
0.0
 10
113.2277140299479
 20
125.067473687066
 30
0.0
 10
112.8840657552083
 20
124.5059231228299
 30
0.0
  0
SPLINE
  5
76
330
A
100
AcDbEntity
  8
LAYER_1
 62
     7
100
AcDbSpline
210
0.0
220
0.0
230
1.0
 70
     8
 71
     3
 72
    11
 73
     7
 74
     0
 42
0.0000000001
 43
0.0000000001
 40
0.0
 40
0.0
 40
0.0
 40
0.0
 40
1.0
 40
1.0
 40
1.0
 40
2.0
 40
2.0
 40
2.0
 40
2.0
 10
113.5110731336805
 20
113.3451917860243
 30
0.0
 10
113.7699720594618
 20
113.4287353515625
 30
0.0
 10
113.9770222981771
 20
113.6640353732639
 30
0.0
 10
113.9770222981771
 20
114.0405843098958
 30
0.0
 10
113.9770222981771
 20
115.1023627387153
 30
0.0
 10
112.9505560980903
 20
115.2306925455729
 30
0.0
 10
112.6117309570312
 20
114.6600124782986
 30
0.0
  0
SPLINE
  5
75
330
A
100
AcDbEntity
  8
LAYER_1
 62
     7
100
AcDbSpline
210
0.0
220
0.0
230
1.0
 70
     8
 71
     3
 72
    11
 73
     7
 74
     0
 42
0.0000000001
 43
0.0000000001
 40
0.0
 40
0.0
 40
0.0
 40
0.0
 40
1.0
 40
1.0
 40
1.0
 40
2.0
 40
2.0
 40
2.0
 40
2.0
 10
113.7778957790799
 20
105.9092976888021
 30
0.0
 10
113.9711656358507
 20
106.0221245659722
 30
0.0
 10
114.1106920030382
 20
106.2360649956597
 30
0.0
 10
114.1106920030382
 20
106.5450900607639
 30
0.0
 10
114.1106920030382
 20
107.5736233181424
 30
0.0
 10
113.1467542860243
 20
107.7262410481771
 30
0.0
 10
112.7788180881076
 20
107.2153333875868
 30
0.0
  0
LINE
  5
74
330
A
100
AcDbEntity
  8
LAYER_1
 62
     7
100
AcDbLine
 10
107.3552042643229
 20
108.3520426432292
 30
0.0
 11
107.6187540690104
 21
143.4203586154514
 31
0.0
  0
LINE
  5
73
330
A
100
AcDbEntity
  8
LAYER_1
 62
     7
100
AcDbLine
 10
107.9532728407118
 20
100.0531521267361
 30
0.0
 11
108.2881361219618
 21
144.8259575737847
 31
0.0
  0
SPLINE
  5
72
330
A
100
AcDbEntity
  8
LAYER_1
 62
     7
100
AcDbSpline
210
0.0
220
0.0
230
1.0
 70
     8
 71
     3
 72
    35
 73
    31
 74
     0
 42
0.0000000001
 43
0.0000000001
 40
0.0
 40
0.0
 40
0.0
 40
0.0
 40
1.0
 40
1.0
 40
1.0
 40
2.0
 40
2.0
 40
2.0
 40
3.0
 40
3.0
 40
3.0
 40
4.0
 40
4.0
 40
4.0
 40
5.0
 40
5.0
 40
5.0
 40
6.0
 40
6.0
 40
6.0
 40
7.0
 40
7.0
 40
7.0
 40
8.0
 40
8.0
 40
8.0
 40
9.0
 40
9.0
 40
9.0
 40
10.0
 40
10.0
 40
10.0
 40
10.0
 10
92.22537841796874
 20
89.41228569878471
 30
0.0
 10
92.89476047092013
 20
89.41228569878471
 30
0.0
 10
93.09560953776041
 20
89.54629991319443
 30
0.0
 10
93.49730767144096
 20
90.41618652343749
 30
0.0
 10
93.89866129557291
 20
91.28607313368055
 30
0.0
 10
98.58364664713541
 20
102.4626519097222
 30
0.0
 10
98.9185099283854
 20
103.0648546006944
 30
0.0
 10
99.2530287000868
 20
103.6674018012153
 30
0.0
 10
99.45387776692708
 20
104.4704535590278
 30
0.0
 10
99.45387776692708
 20
105.3403401692708
 30
0.0
 10
99.45387776692708
 20
106.2102267795139
 30
0.0
 10
99.85523139105902
 20
144.9682400173611
 30
0.0
 10
99.85523139105902
 20
144.9682400173611
 30
0.0
 10
99.85523139105902
 20
144.9682400173611
 30
0.0
 10
106.8577324761285
 20
147.5823784722222
 30
0.0
 10
107.5267700195312
 20
147.8500623914931
 30
0.0
 10
108.1961520724826
 20
148.1177463107639
 30
0.0
 10
108.7191175672743
 20
147.9713297526042
 30
0.0
 10
109.3881551106771
 20
147.7036458333333
 30
0.0
 10
110.0575371636285
 20
147.4359619140625
 30
0.0
 10
114.6043741861979
 20
145.3403103298611
 30
0.0
 10
114.6043741861979
 20
145.3403103298611
 30
0.0
 10
114.6043741861979
 20
145.3403103298611
 30
0.0
 10
114.5792249891493
 20
108.4857123480903
 30
0.0
 10
114.5792249891493
 20
107.883509657118
 30
0.0
 10
114.5792249891493
 20
107.2813069661458
 30
0.0
 10
114.3115410698785
 20
105.7416937934028
 30
0.0
 10
113.8430080837673
 20
105.2066704644097
 30
0.0
 10
113.3744750976562
 20
104.6709581163194
 30
0.0
 10
107.8196031358507
 20
97.24264322916666
 30
0.0
 10
107.8196031358507
 20
97.24264322916666
 30
0.0
  0
SPLINE
  5
71
330
A
100
AcDbEntity
  8
LAYER_1
 62
     7
100
AcDbSpline
210
0.0
220
0.0
230
1.0
 70
     8
 71
     3
 72
    11
 73
     7
 74
     0
 42
0.0000000001
 43
0.0000000001
 40
0.0
 40
0.0
 40
0.0
 40
0.0
 40
1.0
 40
1.0
 40
1.0
 40
2.0
 40
2.0
 40
2.0
 40
2.0
 10
131.3861233181424
 20
131.7335611979167
 30
0.0
 10
132.6621866861979
 20
133.4361273871528
 30
0.0
 10
135.7531263563368
 20
142.3079372829861
 30
0.0
 10
136.8283406575521
 20
145.5077419704861
 30
0.0
 10
139.2919284396701
 20
152.8151340060764
 30
0.0
 10
139.7184312608507
 20
166.7564019097222
 30
0.0
 10
138.3548624674479
 20
170.583558485243
 30
0.0
  0
SPLINE
  5
70
330
A
100
AcDbEntity
  8
LAYER_1
 62
     7
100
AcDbSpline
210
0.0
220
0.0
230
1.0
 70
     8
 71
     3
 72
    14
 73
    10
 74
     0
 42
0.0000000001
 43
0.0000000001
 40
0.0
 40
0.0
 40
0.0
 40
0.0
 40
1.0
 40
1.0
 40
1.0
 40
2.0
 40
2.0
 40
2.0
 40
3.0
 40
3.0
 40
3.0
 40
3.0
 10
135.9791246202257
 20
169.8180582682292
 30
0.0
 10
136.4014933268229
 20
166.334033203125
 30
0.0
 10
136.5730590820313
 20
160.2978814019097
 30
0.0
 10
136.2299275716146
 20
158.0017252604167
 30
0.0
 10
135.8912746853299
 20
155.7055691189236
 30
0.0
 10
135.125774468316
 20
151.4556993272569
 30
0.0
 10
134.6155558268229
 20
149.8409830729167
 30
0.0
 10
134.1049926757812
 20
148.226611328125
 30
0.0
 10
133.2561211480035
 20
141.8521511501736
 30
0.0
 10
131.3027520073785
 20
140.1495849609375
 30
0.0
  0
SPLINE
  5
6F
330
A
100
AcDbEntity
  8
LAYER_1
 62
     7
100
AcDbSpline
210
0.0
220
0.0
230
1.0
 70
     8
 71
     3
 72
    11
 73
     7
 74
     0
 42
0.0000000001
 43
0.0000000001
 40
0.0
 40
0.0
 40
0.0
 40
0.0
 40
1.0
 40
1.0
 40
1.0
 40
2.0
 40
2.0
 40
2.0
 40
2.0
 10
133.5110582139757
 20
168.9691867404514
 30
0.0
 10
133.7663397894965
 20
167.0113389756944
 30
0.0
 10
133.5110582139757
 20
159.1058783637153
 30
0.0
 10
133.2561211480035
 20
157.4077907986111
 30
0.0
 10
133.0008395724826
 20
155.7055691189236
 30
0.0
 10
133.0008395724826
 20
151.7946967230903
 30
0.0
 10
131.3027520073785
 20
150.0962646484375
 30
0.0
  0
LWPOLYLINE
  5
6A
330
A
100
AcDbEntity
  8
LAYER_1
 62
     7
100
AcDbPolyline
 90
        3
 70
     0
 43
0.0
 10
130.9637546115451
 20
84.21294759114582
 10
131.4739732530382
 20
168.1702690972222
 10
151.9578219943576
 20
175.4273627387153
  0
LWPOLYLINE
  5
65
330
A
100
AcDbEntity
  8
LAYER_1
 62
     7
100
AcDbPolyline
 90
        3
 70
     0
 43
0.0
 10
85.04648844401041
 20
194.9448621961805
 10
86.42693820529513
 20
194.5848497178819
 10
85.21839870876735
 20
196.7518147786458
  0
LWPOLYLINE
  5
60
330
A
100
AcDbEntity
  8
LAYER_1
 62
     7
100
AcDbPolyline
 90
        3
 70
     0
 43
0.0
 10
75.99484456380208
 20
194.2461968315972
 10
77.1117445203993
 20
194.710595703125
 10
75.91939697265624
 20
196.7307996961805
  0
SPLINE
  5
5F
330
A
100
AcDbEntity
  8
LAYER_1
 62
     7
100
AcDbSpline
210
0.0
220
0.0
230
1.0
 70
     8
 71
     3
 72
    17
 73
    13
 74
     0
 42
0.0000000001
 43
0.0000000001
 40
0.0
 40
0.0
 40
0.0
 40
0.0
 40
1.0
 40
1.0
 40
1.0
 40
2.0
 40
2.0
 40
2.0
 40
3.0
 40
3.0
 40
3.0
 40
4.0
 40
4.0
 40
4.0
 40
4.0
 10
131.243840874566
 20
125.4176676432292
 30
0.0
 10
132.783454047309
 20
127.0909505208333
 30
0.0
 10
134.389557562934
 20
132.4449734157986
 30
0.0
 10
135.9288262261285
 20
134.385595703125
 30
0.0
 10
137.4684393988715
 20
136.3265625
 30
0.0
 10
138.672844780816
 20
141.144873046875
 30
0.0
 10
139.2082126193576
 20
142.8849907769097
 30
0.0
 10
139.7435804578993
 20
144.6251085069444
 30
0.0
 10
140.7478257921007
 20
150.0463107638889
 30
0.0
 10
140.8146606445312
 20
151.049867078993
 30
0.0
 10
140.8814954969618
 20
152.0537679036458
 30
0.0
 10
142.8224622938368
 20
166.7102376302083
 30
0.0
 10
141.2831936306424
 20
171.6629069010417
 30
0.0
  0
SPLINE
  5
5E
330
A
100
AcDbEntity
  8
LAYER_1
 62
     7
100
AcDbSpline
210
0.0
220
0.0
230
1.0
 70
     8
 71
     3
 72
    17
 73
    13
 74
     0
 42
0.0000000001
 43
0.0000000001
 40
0.0
 40
0.0
 40
0.0
 40
0.0
 40
1.0
 40
1.0
 40
1.0
 40
2.0
 40
2.0
 40
2.0
 40
3.0
 40
3.0
 40
3.0
 40
4.0
 40
4.0
 40
4.0
 40
4.0
 10
143.8263631184896
 20
172.5327935112847
 30
0.0
 10
144.2277167426215
 20
168.450355360243
 30
0.0
 10
143.759528266059
 20
163.7657145182292
 30
0.0
 10
144.0272121853299
 20
160.8208468967014
 30
0.0
 10
144.2948961046007
 20
157.8763237847222
 30
0.0
 10
143.8263631184896
 20
151.3843858506944
 30
0.0
 10
142.9561319986979
 20
148.1053439670139
 30
0.0
 10
142.0862453884548
 20
144.8259575737847
 30
0.0
 10
139.3422268337673
 20
135.99169921875
 30
0.0
 10
138.0706420898437
 20
133.1808458116319
 30
0.0
 10
136.7990573459201
 20
130.3703369140625
 30
0.0
 10
134.2555433485243
 20
121.8037624782986
 30
0.0
 10
131.1770060221354
 20
119.1937581380208
 30
0.0
  0
SPLINE
  5
5D
330
A
100
AcDbEntity
  8
LAYER_1
 62
     7
100
AcDbSpline
210
0.0
220
0.0
230
1.0
 70
     8
 71
     3
 72
    14
 73
    10
 74
     0
 42
0.0000000001
 43
0.0000000001
 40
0.0
 40
0.0
 40
0.0
 40
0.0
 40
1.0
 40
1.0
 40
1.0
 40
2.0
 40
2.0
 40
2.0
 40
3.0
 40
3.0
 40
3.0
 40
3.0
 10
131.1101711697048
 20
113.9734049479167
 30
0.0
 10
132.9839586046007
 20
115.7135226779514
 30
0.0
 10
138.1374769422743
 20
125.2171630859375
 30
0.0
 10
139.4090616861979
 20
128.4293701171875
 30
0.0
 10
140.6809909396701
 20
131.6419216579861
 30
0.0
 10
143.2658460828993
 20
139.2628173828125
 30
0.0
 10
144.6294148763021
 20
145.6958441840278
 30
0.0
 10
147.2397637261285
 20
158.0099934895833
 30
0.0
 10
146.3695326063368
 20
168.9188883463542
 30
0.0
 10
145.7673299153646
 20
173.2690104166667
 30
0.0
  0
SPLINE
  5
5C
330
A
100
AcDbEntity
  8
LAYER_1
 62
     7
100
AcDbSpline
210
0.0
220
0.0
230
1.0
 70
     8
 71
     3
 72
    20
 73
    16
 74
     0
 42
0.0000000001
 43
0.0000000001
 40
0.0
 40
0.0
 40
0.0
 40
0.0
 40
1.0
 40
1.0
 40
1.0
 40
2.0
 40
2.0
 40
2.0
 40
3.0
 40
3.0
 40
3.0
 40
4.0
 40
4.0
 40
4.0
 40
5.0
 40
5.0
 40
5.0
 40
5.0
 10
148.1096503363715
 20
174.0720621744792
 30
0.0
 10
148.8458672417535
 20
169.7219401041667
 30
0.0
 10
149.7829332139757
 20
161.0216959635417
 30
0.0
 10
149.1135511610243
 20
156.8055881076389
 30
0.0
 10
148.4441691080729
 20
152.5891357421875
 30
0.0
 10
148.3104994032118
 20
147.7036458333333
 30
0.0
 10
146.7040513780382
 20
142.6173068576389
 30
0.0
 10
145.0979478624132
 20
137.5309678819444
 30
0.0
 10
142.9561319986979
 20
130.1694878472222
 30
0.0
 10
141.4168633355035
 20
127.1577853732639
 30
0.0
 10
139.877594672309
 20
124.1460828993055
 30
0.0
 10
138.271491156684
 20
119.7291259765625
 30
0.0
 10
136.4641940646701
 20
117.0522867838542
 30
0.0
 10
134.6572414822049
 20
114.3751030815972
 30
0.0
 10
132.1140719943576
 20
109.6904622395833
 30
0.0
 10
131.0433363172743
 20
107.0132785373264
 30
0.0
  0
SPLINE
  5
5B
330
A
100
AcDbEntity
  8
LAYER_1
 62
     7
100
AcDbSpline
210
0.0
220
0.0
230
1.0
 70
     8
 71
     3
 72
    17
 73
    13
 74
     0
 42
0.0000000001
 43
0.0000000001
 40
0.0
 40
0.0
 40
0.0
 40
0.0
 40
1.0
 40
1.0
 40
1.0
 40
2.0
 40
2.0
 40
2.0
 40
3.0
 40
3.0
 40
3.0
 40
4.0
 40
4.0
 40
4.0
 40
4.0
 10
131.1101711697048
 20
103.6674018012153
 30
0.0
 10
132.9839586046007
 20
105.6752034505208
 30
0.0
 10
137.2007554796007
 20
111.2965657552083
 30
0.0
 10
139.007708062066
 20
115.1781548394097
 30
0.0
 10
140.8146606445312
 20
119.0600884331597
 30
0.0
 10
144.2948961046007
 20
126.2878987630208
 30
0.0
 10
145.1647827148437
 20
128.6970540364583
 30
0.0
 10
146.0350138346354
 20
131.1062093098958
 30
0.0
 10
148.5110039605035
 20
138.9365668402778
 30
0.0
 10
149.5820841471354
 20
143.2866889105903
 30
0.0
 10
150.6528198242187
 20
147.6368109809028
 30
0.0
 10
151.5230509440104
 20
150.8493625217014
 30
0.0
 10
151.8575697157118
 20
155.6676730685764
 30
0.0
  0
SPLINE
  5
5A
330
A
100
AcDbEntity
  8
LAYER_1
 62
     7
100
AcDbSpline
210
0.0
220
0.0
230
1.0
 70
     8
 71
     3
 72
    14
 73
    10
 74
     0
 42
0.0000000001
 43
0.0000000001
 40
0.0
 40
0.0
 40
0.0
 40
0.0
 40
1.0
 40
1.0
 40
1.0
 40
2.0
 40
2.0
 40
2.0
 40
3.0
 40
3.0
 40
3.0
 40
3.0
 10
151.7907348632812
 20
141.3457221137153
 30
0.0
 10
150.5191501193576
 20
136.3933973524306
 30
0.0
 10
148.5781833224826
 20
129.0987521701389
 30
0.0
 10
146.9049004448785
 20
124.949134657118
 30
0.0
 10
145.2319620768229
 20
120.7998616536458
 30
0.0
 10
144.5625800238715
 20
119.4614420572917
 30
0.0
 10
141.3500284830729
 20
114.1074191623264
 30
0.0
 10
138.1374769422743
 20
108.7533962673611
 30
0.0
 10
134.2555433485243
 20
102.3958170572917
 30
0.0
 10
131.0433363172743
 20
100.1199869791667
 30
0.0
  0
SPLINE
  5
59
330
A
100
AcDbEntity
  8
LAYER_1
 62
     7
100
AcDbSpline
210
0.0
220
0.0
230
1.0
 70
     8
 71
     3
 72
    14
 73
    10
 74
     0
 42
0.0000000001
 43
0.0000000001
 40
0.0
 40
0.0
 40
0.0
 40
0.0
 40
1.0
 40
1.0
 40
1.0
 40
2.0
 40
2.0
 40
2.0
 40
3.0
 40
3.0
 40
3.0
 40
3.0
 10
130.9765014648438
 20
96.37241210937499
 30
0.0
 10
133.5865058051215
 20
98.51388346354166
 30
0.0
 10
135.125774468316
 20
100.3211805555555
 30
0.0
 10
137.8697930230035
 20
104.1355902777778
 30
0.0
 10
140.613811577691
 20
107.9503445095486
 30
0.0
 10
143.1569810655382
 20
111.3634006076389
 30
0.0
 10
145.2319620768229
 20
115.5126736111111
 30
0.0
 10
147.306598578559
 20
119.6622911241319
 30
0.0
 10
150.6528198242187
 20
128.7638888888889
 30
0.0
 10
151.7235555013021
 20
130.838525390625
 30
0.0
  0
SPLINE
  5
58
330
A
100
AcDbEntity
  8
LAYER_1
 62
     7
100
AcDbSpline
210
0.0
220
0.0
230
1.0
 70
     8
 71
     3
 72
    14
 73
    10
 74
     0
 42
0.0000000001
 43
0.0000000001
 40
0.0
 40
0.0
 40
0.0
 40
0.0
 40
1.0
 40
1.0
 40
1.0
 40
2.0
 40
2.0
 40
2.0
 40
3.0
 40
3.0
 40
3.0
 40
3.0
 10
151.7235555013021
 20
123.4770453559028
 30
0.0
 10
149.8497680664062
 20
119.9968098958333
 30
0.0
 10
147.4402682834201
 20
114.5759521484375
 30
0.0
 10
145.2319620768229
 20
110.6943630642361
 30
0.0
 10
143.0233113606771
 20
106.8127739800347
 30
0.0
 10
142.6884480794271
 20
105.7416937934028
 30
0.0
 10
140.0784437391493
 20
102.9980197482639
 30
0.0
 10
137.4684393988715
 20
100.2540011935764
 30
0.0
 10
134.2555433485243
 20
95.30167643229166
 30
0.0
 10
130.9765014648438
 20
93.29387478298611
 30
0.0
  0
SPLINE
  5
57
330
A
100
AcDbEntity
  8
LAYER_1
 62
     7
100
AcDbSpline
210
0.0
220
0.0
230
1.0
 70
     8
 71
     3
 72
    14
 73
    10
 74
     0
 42
0.0000000001
 43
0.0000000001
 40
0.0
 40
0.0
 40
0.0
 40
0.0
 40
1.0
 40
1.0
 40
1.0
 40
2.0
 40
2.0
 40
2.0
 40
3.0
 40
3.0
 40
3.0
 40
3.0
 10
130.9765014648438
 20
89.54629991319443
 30
0.0
 10
133.2519870334201
 20
91.82144097222222
 30
0.0
 10
136.0628404405382
 20
94.23094075520832
 30
0.0
 10
138.4051608615451
 20
97.24264322916666
 30
0.0
 10
140.7478257921007
 20
100.2540011935764
 30
0.0
 10
142.554778374566
 20
102.4626519097222
 30
0.0
 10
144.6962497287326
 20
105.4071750217014
 30
0.0
 10
146.8380655924479
 20
108.3520426432292
 30
0.0
 10
150.4519707573785
 20
114.8436360677083
 30
0.0
 10
151.6567206488715
 20
117.319970703125
 30
0.0
  0
SPLINE
  5
56
330
A
100
AcDbEntity
  8
LAYER_1
 62
     7
100
AcDbSpline
210
0.0
220
0.0
230
1.0
 70
     8
 71
     3
 72
    14
 73
    10
 74
     0
 42
0.0000000001
 43
0.0000000001
 40
0.0
 40
0.0
 40
0.0
 40
0.0
 40
1.0
 40
1.0
 40
1.0
 40
2.0
 40
2.0
 40
2.0
 40
3.0
 40
3.0
 40
3.0
 40
3.0
 10
131.0433363172743
 20
86.53459743923611
 30
0.0
 10
132.5826049804687
 20
87.87301703559027
 30
0.0
 10
135.7279771592882
 20
90.75070529513889
 30
0.0
 10
138.2043117947048
 20
93.49472384982639
 30
0.0
 10
140.6809909396701
 20
96.23874240451389
 30
0.0
 10
144.2948961046007
 20
100.2540011935764
 30
0.0
 10
146.0350138346354
 20
102.7971706814236
 30
0.0
 10
147.7751315646701
 20
105.3403401692708
 30
0.0
 10
150.0506171332465
 20
109.6236273871528
 30
0.0
 10
151.6567206488715
 20
111.8987684461805
 30
0.0
  0
SPLINE
  5
55
330
A
100
AcDbEntity
  8
LAYER_1
 62
     7
100
AcDbSpline
210
0.0
220
0.0
230
1.0
 70
     8
 71
     3
 72
    17
 73
    13
 74
     0
 42
0.0000000001
 43
0.0000000001
 40
0.0
 40
0.0
 40
0.0
 40
0.0
 40
1.0
 40
1.0
 40
1.0
 40
2.0
 40
2.0
 40
2.0
 40
3.0
 40
3.0
 40
3.0
 40
4.0
 40
4.0
 40
4.0
 40
4.0
 10
132.5157701280382
 20
85.12899848090277
 30
0.0
 10
134.6572414822049
 20
87.33764919704861
 30
0.0
 10
136.9995619032118
 20
89.67996961805555
 30
0.0
 10
139.0745429144965
 20
91.21923828124999
 30
0.0
 10
141.1491794162326
 20
92.75850694444443
 30
0.0
 10
143.4914998372396
 20
95.36851128472222
 30
0.0
 10
144.9639336480035
 20
97.44314778645833
 30
0.0
 10
146.4363674587673
 20
99.51778428819443
 30
0.0
 10
148.6450181749132
 20
102.3958170572917
 30
0.0
 10
149.314055718316
 20
104.0019205729167
 30
0.0
 10
149.9834377712674
 20
105.6080240885417
 30
0.0
 10
150.1842868381076
 20
106.7455946180556
 30
0.0
 10
151.6567206488715
 20
107.2813069661458
 30
0.0
  0
SPLINE
  5
54
330
A
100
AcDbEntity
  8
LAYER_1
 62
     7
100
AcDbSpline
210
0.0
220
0.0
230
1.0
 70
     8
 71
     3
 72
    14
 73
    10
 74
     0
 42
0.0000000001
 43
0.0000000001
 40
0.0
 40
0.0
 40
0.0
 40
0.0
 40
1.0
 40
1.0
 40
1.0
 40
2.0
 40
2.0
 40
2.0
 40
3.0
 40
3.0
 40
3.0
 40
3.0
 10
151.589885796441
 20
103.3993733723958
 30
0.0
 10
150.5859849717882
 20
102.4626519097222
 30
0.0
 10
150.5859849717882
 20
102.3286376953125
 30
0.0
 10
149.0467163085937
 20
99.85264756944443
 30
0.0
 10
147.5074476453993
 20
97.37631293402777
 30
0.0
 10
147.306598578559
 20
96.43924696180555
 30
0.0
 10
145.8341647677951
 20
95.2348415798611
 30
0.0
 10
144.3617309570312
 20
94.03009168836805
 30
0.0
 10
142.1530802408854
 20
90.61703559027777
 30
0.0
 10
140.9483303493923
 20
89.88081868489583
 30
0.0
  0
SPLINE
  5
53
330
A
100
AcDbEntity
  8
LAYER_1
 62
     7
100
AcDbSpline
210
0.0
220
0.0
230
1.0
 70
     8
 71
     3
 72
    11
 73
     7
 74
     0
 42
0.0000000001
 43
0.0000000001
 40
0.0
 40
0.0
 40
0.0
 40
0.0
 40
1.0
 40
1.0
 40
1.0
 40
2.0
 40
2.0
 40
2.0
 40
2.0
 10
145.4324666341146
 20
92.4908230251736
 30
0.0
 10
146.6372165256076
 20
94.69947374131944
 30
0.0
 10
147.4402682834201
 20
95.10082736545138
 30
0.0
 10
148.7121975368924
 20
96.57326117621527
 30
0.0
 10
149.9834377712674
 20
98.04569498697916
 30
0.0
 10
151.0545179578993
 20
99.38411458333333
 30
0.0
 10
151.589885796441
 20
100.1871663411458
 30
0.0
  0
SPLINE
  5
52
330
A
100
AcDbEntity
  8
LAYER_1
 62
     7
100
AcDbSpline
210
0.0
220
0.0
230
1.0
 70
     8
 71
     3
 72
    11
 73
     7
 74
     0
 42
0.0000000001
 43
0.0000000001
 40
0.0
 40
0.0
 40
0.0
 40
0.0
 40
1.0
 40
1.0
 40
1.0
 40
2.0
 40
2.0
 40
2.0
 40
2.0
 10
151.6567206488715
 20
97.9788601345486
 30
0.0
 10
150.9876831054687
 20
97.37631293402777
 30
0.0
 10
150.5191501193576
 20
97.24264322916666
 30
0.0
 10
150.1174519856771
 20
96.64009602864583
 30
0.0
 10
149.7157538519965
 20
96.03789333767361
 30
0.0
 10
148.7790323893229
 20
94.83314344618054
 30
0.0
 10
148.6450181749132
 20
94.23094075520832
 30
0.0
  0
LINE
  5
51
330
A
100
AcDbEntity
  8
LAYER_1
 62
     7
100
AcDbLine
 10
68.59512396918402
 20
191.3392252604166
 30
0.0
 11
131.4450344509548
 21
168.1158365885416
 31
0.0
  0
LWPOLYLINE
  5
4C
330
A
100
AcDbEntity
  8
LAYER_1
 62
     7
100
AcDbPolyline
 90
        3
 70
     0
 43
0.0
 10
60.5639173719618
 20
173.8050672743055
 10
79.31695014105902
 20
165.8027994791667
 10
108.2292249891493
 20
176.5776801215278
  0
LINE
  5
4B
330
A
100
AcDbEntity
  8
LAYER_1
 62
     7
100
AcDbLine
 10
68.32744004991319
 20
176.4819064670139
 30
0.0
 11
89.07483859592013
 21
183.7765516493055
 31
0.0
  0
LINE
  5
4A
330
A
100
AcDbEntity
  8
LAYER_1
 62
     7
100
AcDbLine
 10
79.30868191189235
 20
165.8403510199653
 30
0.0
 11
78.40089925130208
 21
82.59823133680555
 31
0.0
  0
LINE
  5
49
330
A
100
AcDbEntity
  8
LAYER_1
 62
     7
100
AcDbLine
 10
108.3549709743923
 20
149.0382758246528
 30
0.0
 11
108.3029500325521
 21
176.4512451171875
 31
0.0
  0
SPLINE
  5
48
330
A
100
AcDbEntity
  8
LAYER_1
 62
     7
100
AcDbSpline
210
0.0
220
0.0
230
1.0
 70
    11
 71
     3
 72
    11
 73
     7
 74
     0
 42
0.0000000001
 43
0.0000000001
 40
0.0
 40
0.0
 40
0.0
 40
0.0
 40
1.0
 40
1.0
 40
1.0
 40
2.0
 40
2.0
 40
2.0
 40
2.0
 10
102.7332641601562
 20
107.883509657118
 30
0.0
 10
102.7332641601562
 20
106.678759765625
 30
0.0
 10
101.3276652018229
 20
106.1433919270833
 30
0.0
 10
101.3276652018229
 20
107.2141276041667
 30
0.0
 10
101.3276652018229
 20
108.6197265625
 30
0.0
 10
102.7332641601562
 20
109.0879150390625
 30
0.0
 10
102.7332641601562
 20
107.883509657118
 30
0.0
  0
SPLINE
  5
47
330
A
100
AcDbEntity
  8
LAYER_1
 62
     7
100
AcDbSpline
210
0.0
220
0.0
230
1.0
 70
    11
 71
     3
 72
    11
 73
     7
 74
     0
 42
0.0000000001
 43
0.0000000001
 40
0.0
 40
0.0
 40
0.0
 40
0.0
 40
1.0
 40
1.0
 40
1.0
 40
2.0
 40
2.0
 40
2.0
 40
2.0
 10
102.8669338650174
 20
123.1425265842014
 30
0.0
 10
102.8669338650174
 20
121.9377766927083
 30
0.0
 10
101.461334906684
 20
121.4024088541667
 30
0.0
 10
101.461334906684
 20
122.4728000217014
 30
0.0
 10
101.461334906684
 20
123.8783989800347
 30
0.0
 10
102.8669338650174
 20
124.3469319661458
 30
0.0
 10
102.8669338650174
 20
123.1425265842014
 30
0.0
  0
SPLINE
  5
46
330
A
100
AcDbEntity
  8
LAYER_1
 62
     7
100
AcDbSpline
210
0.0
220
0.0
230
1.0
 70
    11
 71
     3
 72
    11
 73
     7
 74
     0
 42
0.0000000001
 43
0.0000000001
 40
0.0
 40
0.0
 40
0.0
 40
0.0
 40
1.0
 40
1.0
 40
1.0
 40
2.0
 40
2.0
 40
2.0
 40
2.0
 10
102.8000990125868
 20
135.7243598090278
 30
0.0
 10
102.8000990125868
 20
134.5196099175347
 30
0.0
 10
101.3945000542535
 20
133.9842420789931
 30
0.0
 10
101.3945000542535
 20
135.0546332465278
 30
0.0
 10
101.3945000542535
 20
136.4602322048611
 30
0.0
 10
102.8000990125868
 20
136.9287651909722
 30
0.0
 10
102.8000990125868
 20
135.7243598090278
 30
0.0
  0
SPLINE
  5
45
330
A
100
AcDbEntity
  8
LAYER_1
 62
     7
100
AcDbSpline
210
0.0
220
0.0
230
1.0
 70
    11
 71
     3
 72
    11
 73
     7
 74
     0
 42
0.0000000001
 43
0.0000000001
 40
0.0
 40
0.0
 40
0.0
 40
0.0
 40
1.0
 40
1.0
 40
1.0
 40
2.0
 40
2.0
 40
2.0
 40
2.0
 10
108.5558200412326
 20
138.1335150824653
 30
0.0
 10
108.5558200412326
 20
136.9287651909722
 30
0.0
 10
110.0282538519965
 20
136.9287651909722
 30
0.0
 10
110.0282538519965
 20
137.932666015625
 30
0.0
 10
110.0282538519965
 20
139.2042507595486
 30
0.0
 10
108.5558200412326
 20
139.1374159071181
 30
0.0
 10
108.5558200412326
 20
138.1335150824653
 30
0.0
  0
SPLINE
  5
44
330
A
100
AcDbEntity
  8
LAYER_1
 62
     7
100
AcDbSpline
210
0.0
220
0.0
230
1.0
 70
    11
 71
     3
 72
    11
 73
     7
 74
     0
 42
0.0000000001
 43
0.0000000001
 40
0.0
 40
0.0
 40
0.0
 40
0.0
 40
1.0
 40
1.0
 40
1.0
 40
2.0
 40
2.0
 40
2.0
 40
2.0
 10
112.437409125434
 20
143.08583984375
 30
0.0
 10
112.437409125434
 20
141.8814344618056
 30
0.0
 10
113.9098429361979
 20
141.8814344618056
 30
0.0
 10
113.9098429361979
 20
142.8849907769097
 30
0.0
 10
113.9098429361979
 20
144.1565755208333
 30
0.0
 10
112.437409125434
 20
144.0897406684028
 30
0.0
 10
112.437409125434
 20
143.08583984375
 30
0.0
  0
SPLINE
  5
43
330
A
100
AcDbEntity
  8
LAYER_1
 62
     7
100
AcDbSpline
210
0.0
220
0.0
230
1.0
 70
    11
 71
     3
 72
    11
 73
     7
 74
     0
 42
0.0000000001
 43
0.0000000001
 40
0.0
 40
0.0
 40
0.0
 40
0.0
 40
1.0
 40
1.0
 40
1.0
 40
2.0
 40
2.0
 40
2.0
 40
2.0
 10
112.3705742730035
 20
133.2480251736111
 30
0.0
 10
112.3705742730035
 20
132.043275282118
 30
0.0
 10
113.8430080837673
 20
132.043275282118
 30
0.0
 10
113.8430080837673
 20
133.0471761067708
 30
0.0
 10
113.8430080837673
 20
134.3187608506945
 30
0.0
 10
112.3705742730035
 20
134.2519259982639
 30
0.0
 10
112.3705742730035
 20
133.2480251736111
 30
0.0
  0
SPLINE
  5
42
330
A
100
AcDbEntity
  8
LAYER_1
 62
     7
100
AcDbSpline
210
0.0
220
0.0
230
1.0
 70
    11
 71
     3
 72
    11
 73
     7
 74
     0
 42
0.0000000001
 43
0.0000000001
 40
0.0
 40
0.0
 40
0.0
 40
0.0
 40
1.0
 40
1.0
 40
1.0
 40
2.0
 40
2.0
 40
2.0
 40
2.0
 10
112.5045884874132
 20
123.8783989800347
 30
0.0
 10
112.5045884874132
 20
122.6739935980903
 30
0.0
 10
113.9770222981771
 20
122.6739935980903
 30
0.0
 10
113.9770222981771
 20
123.6775499131944
 30
0.0
 10
113.9770222981771
 20
124.949134657118
 30
0.0
 10
112.5045884874132
 20
124.8822998046875
 30
0.0
 10
112.5045884874132
 20
123.8783989800347
 30
0.0
  0
SPLINE
  5
41
330
A
100
AcDbEntity
  8
LAYER_1
 62
     7
100
AcDbSpline
210
0.0
220
0.0
230
1.0
 70
    11
 71
     3
 72
    11
 73
     7
 74
     0
 42
0.0000000001
 43
0.0000000001
 40
0.0
 40
0.0
 40
0.0
 40
0.0
 40
1.0
 40
1.0
 40
1.0
 40
2.0
 40
2.0
 40
2.0
 40
2.0
 10
112.2365600585937
 20
114.0405843098958
 30
0.0
 10
112.2365600585937
 20
112.8358344184028
 30
0.0
 10
113.7089938693576
 20
112.8358344184028
 30
0.0
 10
113.7089938693576
 20
113.8397352430555
 30
0.0
 10
113.7089938693576
 20
115.1113199869792
 30
0.0
 10
112.2365600585937
 20
115.0444851345486
 30
0.0
 10
112.2365600585937
 20
114.0405843098958
 30
0.0
  0
SPLINE
  5
40
330
A
100
AcDbEntity
  8
LAYER_1
 62
     7
100
AcDbSpline
210
0.0
220
0.0
230
1.0
 70
     8
 71
     3
 72
    11
 73
     7
 74
     0
 42
0.0000000001
 43
0.0000000001
 40
0.0
 40
0.0
 40
0.0
 40
0.0
 40
1.0
 40
1.0
 40
1.0
 40
2.0
 40
2.0
 40
2.0
 40
2.0
 10
110.2103271484375
 20
110.2490844726562
 30
0.0
 10
110.4692260742187
 20
110.3326280381944
 30
0.0
 10
110.676276312934
 20
110.5679280598958
 30
0.0
 10
110.676276312934
 20
110.9444769965278
 30
0.0
 10
110.676276312934
 20
112.003327094184
 30
0.0
 10
109.6551500108507
 20
112.1338962131076
 30
0.0
 10
109.3135687934028
 20
111.5682115342882
 30
0.0
  0
SPLINE
  5
3F
330
A
100
AcDbEntity
  8
LAYER_1
 62
     7
100
AcDbSpline
210
0.0
220
0.0
230
1.0
 70
    11
 71
     3
 72
    11
 73
     7
 74
     0
 42
0.0000000001
 43
0.0000000001
 40
0.0
 40
0.0
 40
0.0
 40
0.0
 40
1.0
 40
1.0
 40
1.0
 40
2.0
 40
2.0
 40
2.0
 40
2.0
 10
108.9361585828993
 20
110.9444769965278
 30
0.0
 10
108.9361585828993
 20
109.7397271050347
 30
0.0
 10
110.4085923936632
 20
109.7397271050347
 30
0.0
 10
110.4085923936632
 20
110.7436279296875
 30
0.0
 10
110.4085923936632
 20
112.0152126736111
 30
0.0
 10
108.9361585828993
 20
111.9483778211805
 30
0.0
 10
108.9361585828993
 20
110.9444769965278
 30
0.0
  0
SPLINE
  5
3E
330
A
100
AcDbEntity
  8
LAYER_1
 62
     7
100
AcDbSpline
210
0.0
220
0.0
230
1.0
 70
    11
 71
     3
 72
    11
 73
     7
 74
     0
 42
0.0000000001
 43
0.0000000001
 40
0.0
 40
0.0
 40
0.0
 40
0.0
 40
1.0
 40
1.0
 40
1.0
 40
2.0
 40
2.0
 40
2.0
 40
2.0
 10
112.3705742730035
 20
106.5450900607639
 30
0.0
 10
112.3705742730035
 20
105.3403401692708
 30
0.0
 10
113.8430080837673
 20
105.3403401692708
 30
0.0
 10
113.8430080837673
 20
106.3442409939236
 30
0.0
 10
113.8430080837673
 20
107.6158257378472
 30
0.0
 10
112.3705742730035
 20
107.5489908854167
 30
0.0
 10
112.3705742730035
 20
106.5450900607639
 30
0.0
  0
HATCH
  5
3D
330
A
100
AcDbEntity
  8
LAYER_1
 62
     7
100
AcDbHatch
 10
0.0
 20
0.0
 30
0.0
210
0.0
220
0.0
230
1.0
  2
SOLID
 70
     1
 71
     0
 91
        1
 92
        1
 93
        1
 72
     4
 94
        3
 73
     0
 74
     0
 95
       56
 96
       52
 40
0.0
 40
0.0
 40
0.0
 40
0.0
 40
1.0
 40
1.0
 40
1.0
 40
2.0
 40
2.0
 40
2.0
 40
3.0
 40
3.0
 40
3.0
 40
4.0
 40
4.0
 40
4.0
 40
5.0
 40
5.0
 40
5.0
 40
6.0
 40
6.0
 40
6.0
 40
7.0
 40
7.0
 40
7.0
 40
8.0
 40
8.0
 40
8.0
 40
9.0
 40
9.0
 40
9.0
 40
10.0
 40
10.0
 40
10.0
 40
11.0
 40
11.0
 40
11.0
 40
12.0
 40
12.0
 40
12.0
 40
13.0
 40
13.0
 40
13.0
 40
14.0
 40
14.0
 40
14.0
 40
15.0
 40
15.0
 40
15.0
 40
16.0
 40
16.0
 40
16.0
 40
17.0
 40
17.0
 40
17.0
 40
17.0
 10
101.267376030816
 20
114.7468288845486
 10
101.2759887695312
 20
114.8618950737847
 10
101.2160441080729
 20
114.9183946397569
 10
101.0978773328993
 20
114.8646511501736
 10
100.9259670681424
 20
114.7864474826389
 10
100.9073635525174
 20
114.6700032552083
 10
100.9073635525174
 20
114.5873209635417
 10
100.9073635525174
 20
114.5135959201389
 10
100.9400919596354
 20
114.4829345703125
 10
101.0083048502604
 20
114.4884467230903
 10
101.0651489257812
 20
114.4929253472222
 10
101.1206149631076
 20
114.4967149522569
 10
101.1778035481771
 20
114.5011935763889
 10
101.3796861436632
 20
114.5177300347222
 10
101.4165486653646
 20
114.4636420355903
 10
101.4165486653646
 20
114.3227376302083
 10
101.4165486653646
 20
114.1208550347222
 10
101.2901136610243
 20
113.9451551649305
 10
101.0851304796007
 20
113.8517930772569
 10
100.9800550672743
 20
113.80390625
 10
100.8546535915799
 20
113.7766899956597
 10
100.7936754014757
 20
113.8883110894097
 10
100.7709377712674
 20
113.9306857638889
 10
100.7723158094618
 20
114.0168131510417
 10
100.7709377712674
 20
114.0729682074653
 10
100.7709377712674
 20
114.0729682074653
 10
100.8887600368924
 20
114.1267116970486
 10
100.8887600368924
 20
114.1267116970486
 10
100.8832478841146
 20
113.9661702473958
 10
100.9132202148438
 20
113.8800428602431
 10
101.0909871419271
 20
113.9610026041667
 10
101.2105319552951
 20
114.0154351128472
 10
101.2942477756076
 20
114.1149983723958
 10
101.2942477756076
 20
114.2400553385417
 10
101.2942477756076
 20
114.4019748263889
 10
101.2287909613715
 20
114.3737250434028
 10
101.1206149631076
 20
114.3658013237847
 10
101.0623928493924
 20
114.36201171875
 10
100.9686862521701
 20
114.3492648654514
 10
100.9114976671007
 20
114.3530544704861
 10
100.8105563693576
 20
114.3585666232639
 10
100.7850626627604
 20
114.4322916666667
 10
100.7850626627604
 20
114.537367078993
 10
100.7850626627604
 20
114.7137559678819
 10
100.9087415907118
 20
114.8853217230903
 10
101.0823744032118
 20
114.9642144097222
 10
101.2773668077257
 20
115.0530978732639
 10
101.3969116210937
 20
115.0065890842014
 10
101.3855428059896
 20
114.8005723741319
 10
101.3855428059896
 20
114.8005723741319
 10
101.267376030816
 20
114.7468288845486
 10
101.267376030816
 20
114.7468288845486
 97
        0
 75
     0
 76
     1
 98
        1
 10
0.0
 20
0.0
  0
HATCH
  5
3C
330
A
100
AcDbEntity
  8
LAYER_1
 62
     7
100
AcDbHatch
 10
0.0
 20
0.0
 30
0.0
210
0.0
220
0.0
230
1.0
  2
SOLID
 70
     1
 71
     0
 91
        1
 92
        1
 93
        1
 72
     4
 94
        3
 73
     0
 74
     0
 95
       17
 96
       13
 40
0.0
 40
0.0
 40
0.0
 40
0.0
 40
1.0
 40
1.0
 40
1.0
 40
2.0
 40
2.0
 40
2.0
 40
3.0
 40
3.0
 40
3.0
 40
4.0
 40
4.0
 40
4.0
 40
4.0
 10
101.7479668511285
 20
114.1790771484375
 10
101.7479668511285
 20
114.1790771484375
 10
101.7479668511285
 20
115.2460232204861
 10
101.7479668511285
 20
115.2460232204861
 10
101.7479668511285
 20
115.2460232204861
 10
101.8661336263021
 20
115.2997667100694
 10
101.8661336263021
 20
115.2997667100694
 10
101.8661336263021
 20
115.2997667100694
 10
101.8661336263021
 20
114.2328206380208
 10
101.8661336263021
 20
114.2328206380208
 10
101.8661336263021
 20
114.2328206380208
 10
101.7479668511285
 20
114.1790771484375
 10
101.7479668511285
 20
114.1790771484375
 97
        0
 75
     0
 76
     1
 98
        1
 10
0.0
 20
0.0
  0
HATCH
  5
3B
330
A
100
AcDbEntity
  8
LAYER_1
 62
     7
100
AcDbHatch
 10
0.0
 20
0.0
 30
0.0
210
0.0
220
0.0
230
1.0
  2
SOLID
 70
     1
 71
     0
 91
        1
 92
        1
 93
        1
 72
     4
 94
        3
 73
     0
 74
     0
 95
       71
 96
       67
 40
0.0
 40
0.0
 40
0.0
 40
0.0
 40
1.0
 40
1.0
 40
1.0
 40
2.0
 40
2.0
 40
2.0
 40
3.0
 40
3.0
 40
3.0
 40
4.0
 40
4.0
 40
4.0
 40
5.0
 40
5.0
 40
5.0
 40
6.0
 40
6.0
 40
6.0
 40
7.0
 40
7.0
 40
7.0
 40
8.0
 40
8.0
 40
8.0
 40
9.0
 40
9.0
 40
9.0
 40
10.0
 40
10.0
 40
10.0
 40
11.0
 40
11.0
 40
11.0
 40
12.0
 40
12.0
 40
12.0
 40
13.0
 40
13.0
 40
13.0
 40
14.0
 40
14.0
 40
14.0
 40
15.0
 40
15.0
 40
15.0
 40
16.0
 40
16.0
 40
16.0
 40
17.0
 40
17.0
 40
17.0
 40
18.0
 40
18.0
 40
18.0
 40
19.0
 40
19.0
 40
19.0
 40
20.0
 40
20.0
 40
20.0
 40
21.0
 40
21.0
 40
21.0
 40
22.0
 40
22.0
 40
22.0
 40
22.0
 10
102.9151652018229
 20
115.7772569444444
 10
102.9151652018229
 20
115.7772569444444
 10
103.1229044596354
 20
115.8716525607639
 10
103.1229044596354
 20
115.8716525607639
 10
103.1229044596354
 20
115.8716525607639
 10
103.1229044596354
 20
114.8047064887153
 10
103.1229044596354
 20
114.8047064887153
 10
103.1229044596354
 20
114.8047064887153
 10
103.0047376844618
 20
114.7509629991319
 10
103.0047376844618
 20
114.7509629991319
 10
103.0047376844618
 20
114.7509629991319
 10
103.0047376844618
 20
115.6301513671875
 10
103.0047376844618
 20
115.6301513671875
 10
103.0047376844618
 20
115.6756266276042
 10
103.0074937608507
 20
115.7211018880208
 10
103.0047376844618
 20
115.7651991102431
 10
103.0047376844618
 20
115.7651991102431
 10
103.0019816080729
 20
115.7641655815972
 10
103.0019816080729
 20
115.7641655815972
 10
102.9888902452257
 20
115.6956081814236
 10
102.978899468316
 20
115.6511664496528
 10
102.9692532009549
 20
115.6053466796875
 10
102.9692532009549
 20
115.6053466796875
 10
102.7456665039062
 20
114.6331407335069
 10
102.7456665039062
 20
114.6331407335069
 10
102.7456665039062
 20
114.6331407335069
 10
102.6047620985243
 20
114.5690619574653
 10
102.6047620985243
 20
114.5690619574653
 10
102.6047620985243
 20
114.5690619574653
 10
102.3815199110243
 20
115.3507541232639
 10
102.3815199110243
 20
115.3507541232639
 10
102.3715291341146
 20
115.3834825303819
 10
102.3632609049479
 20
115.4151774088542
 10
102.3501695421007
 20
115.467542860243
 10
102.3501695421007
 20
115.467542860243
 10
102.3474134657118
 20
115.4661648220486
 10
102.3474134657118
 20
115.4661648220486
 10
102.3474134657118
 20
115.4206895616319
 10
102.3501695421007
 20
115.3748697916667
 10
102.3501695421007
 20
115.32939453125
 10
102.3501695421007
 20
115.32939453125
 10
102.3501695421007
 20
114.4533067491319
 10
102.3501695421007
 20
114.4533067491319
 10
102.3501695421007
 20
114.4533067491319
 10
102.2323472764757
 20
114.3995632595486
 10
102.2323472764757
 20
114.3995632595486
 10
102.2323472764757
 20
114.3995632595486
 10
102.2323472764757
 20
115.4665093315972
 10
102.2323472764757
 20
115.4665093315972
 10
102.2323472764757
 20
115.4665093315972
 10
102.4414645724826
 20
115.5615939670139
 10
102.4414645724826
 20
115.5615939670139
 10
102.4414645724826
 20
115.5615939670139
 10
102.650237358941
 20
114.8246880425347
 10
102.650237358941
 20
114.8246880425347
 10
102.6619506835937
 20
114.7843804253472
 10
102.6674628363715
 20
114.7426947699653
 10
102.6733194986979
 20
114.6768934461805
 10
102.6733194986979
 20
114.6768934461805
 10
102.6760755750868
 20
114.678271484375
 10
102.6760755750868
 20
114.678271484375
 10
102.682965766059
 20
114.7354600694444
 10
102.6902004665799
 20
114.7916151258681
 10
102.7029473198785
 20
114.8498372395833
 10
102.7029473198785
 20
114.8498372395833
 10
102.9151652018229
 20
115.7772569444444
 10
102.9151652018229
 20
115.7772569444444
 97
        0
 75
     0
 76
     1
 98
        1
 10
0.0
 20
0.0
  0
HATCH
  5
3A
330
A
100
AcDbEntity
  8
LAYER_1
 62
     7
100
AcDbHatch
 10
0.0
 20
0.0
 30
0.0
210
0.0
220
0.0
230
1.0
  2
SOLID
 70
     1
 71
     0
 91
        2
 92
       16
 93
        1
 72
     4
 94
        3
 73
     0
 74
     0
 95
       20
 96
       16
 40
0.0
 40
0.0
 40
0.0
 40
0.0
 40
1.0
 40
1.0
 40
1.0
 40
2.0
 40
2.0
 40
2.0
 40
3.0
 40
3.0
 40
3.0
 40
4.0
 40
4.0
 40
4.0
 40
5.0
 40
5.0
 40
5.0
 40
5.0
 10
103.5900594075521
 20
115.5767523871528
 10
103.5900594075521
 20
115.5767523871528
 10
103.7054701063368
 20
115.6291178385417
 10
103.7054701063368
 20
115.6291178385417
 10
103.867389594184
 20
115.7042209201389
 10
103.9669528537326
 20
115.7724338107639
 10
103.9655748155382
 20
115.9553683810764
 10
103.9655748155382
 20
116.1272786458333
 10
103.8563652886285
 20
116.1017849392361
 10
103.712360297309
 20
116.0335720486111
 10
103.712360297309
 20
116.0335720486111
 10
103.5900594075521
 20
115.9777615017361
 10
103.5900594075521
 20
115.9777615017361
 10
103.5900594075521
 20
115.9777615017361
 10
103.5900594075521
 20
115.5767523871528
 10
103.5900594075521
 20
115.5767523871528
 97
        0
 92
        1
 93
        1
 72
     4
 94
        3
 73
     0
 74
     0
 95
       32
 96
       28
 40
0.0
 40
0.0
 40
0.0
 40
0.0
 40
1.0
 40
1.0
 40
1.0
 40
2.0
 40
2.0
 40
2.0
 40
3.0
 40
3.0
 40
3.0
 40
4.0
 40
4.0
 40
4.0
 40
5.0
 40
5.0
 40
5.0
 40
6.0
 40
6.0
 40
6.0
 40
7.0
 40
7.0
 40
7.0
 40
8.0
 40
8.0
 40
8.0
 40
9.0
 40
9.0
 40
9.0
 40
9.0
 10
103.4722371419271
 20
114.9638699001736
 10
103.4722371419271
 20
114.9638699001736
 10
103.4722371419271
 20
116.0308159722222
 10
103.4722371419271
 20
116.0308159722222
 10
103.4722371419271
 20
116.0308159722222
 10
103.7523234049479
 20
116.1582845052083
 10
103.7523234049479
 20
116.1582845052083
 10
103.834661187066
 20
116.1958360460069
 10
103.9387030707465
 20
116.2333875868056
 10
104.0014038085937
 20
116.2020372178819
 10
104.0651380750868
 20
116.1713758680556
 10
104.0878757052951
 20
116.0990288628472
 10
104.0878757052951
 20
116.0139350043403
 10
104.0878757052951
 20
115.8957682291667
 10
104.0523912217882
 20
115.7641655815972
 10
103.9373250325521
 20
115.6590901692708
 10
103.8632554796007
 20
115.5943223741319
 10
103.7423326280382
 20
115.5392008463542
 10
103.6613728841146
 20
115.5023383246528
 10
103.6613728841146
 20
115.5023383246528
 10
103.5900594075521
 20
115.4699544270833
 10
103.5900594075521
 20
115.4699544270833
 10
103.5900594075521
 20
115.4699544270833
 10
103.5900594075521
 20
115.0176133897569
 10
103.5900594075521
 20
115.0176133897569
 10
103.5900594075521
 20
115.0176133897569
 10
103.4722371419271
 20
114.9638699001736
 10
103.4722371419271
 20
114.9638699001736
 97
        0
 75
     0
 76
     1
 98
        1
 10
0.0
 20
0.0
  0
HATCH
  5
39
330
A
100
AcDbEntity
  8
LAYER_1
 62
     7
100
AcDbHatch
 10
0.0
 20
0.0
 30
0.0
210
0.0
220
0.0
230
1.0
  2
SOLID
 70
     1
 71
     0
 91
        1
 92
        1
 93
        1
 72
     4
 94
        3
 73
     0
 74
     0
 95
       56
 96
       52
 40
0.0
 40
0.0
 40
0.0
 40
0.0
 40
1.0
 40
1.0
 40
1.0
 40
2.0
 40
2.0
 40
2.0
 40
3.0
 40
3.0
 40
3.0
 40
4.0
 40
4.0
 40
4.0
 40
5.0
 40
5.0
 40
5.0
 40
6.0
 40
6.0
 40
6.0
 40
7.0
 40
7.0
 40
7.0
 40
8.0
 40
8.0
 40
8.0
 40
9.0
 40
9.0
 40
9.0
 40
10.0
 40
10.0
 40
10.0
 40
11.0
 40
11.0
 40
11.0
 40
12.0
 40
12.0
 40
12.0
 40
13.0
 40
13.0
 40
13.0
 40
14.0
 40
14.0
 40
14.0
 40
15.0
 40
15.0
 40
15.0
 40
16.0
 40
16.0
 40
16.0
 40
17.0
 40
17.0
 40
17.0
 40
17.0
 10
104.8292602539062
 20
116.3680908203125
 10
104.8375284830729
 20
116.4831570095486
 10
104.7779283311632
 20
116.5400010850694
 10
104.6597615559896
 20
116.4862575954861
 10
104.4878512912326
 20
116.4077094184028
 10
104.4692477756076
 20
116.2912651909722
 10
104.4692477756076
 20
116.2085828993055
 10
104.4692477756076
 20
116.1348578559028
 10
104.5019761827257
 20
116.1041965060764
 10
104.5701890733507
 20
116.1093641493056
 10
104.6270331488715
 20
116.1141872829861
 10
104.6824991861979
 20
116.1179768880208
 10
104.7396877712674
 20
116.1224555121528
 10
104.9415703667535
 20
116.1389919704861
 10
104.9784328884549
 20
116.0849039713542
 10
104.9784328884549
 20
115.9439995659722
 10
104.9784328884549
 20
115.7421169704861
 10
104.8519978841146
 20
115.5664171006944
 10
104.647014702691
 20
115.4730550130208
 10
104.5419392903646
 20
115.4251681857639
 10
104.4165378146701
 20
115.3979519314236
 10
104.355559624566
 20
115.5095730251736
 10
104.3328219943576
 20
115.5519476996528
 10
104.3342000325521
 20
115.6380750868055
 10
104.3328219943576
 20
115.6942301432292
 10
104.3328219943576
 20
115.6942301432292
 10
104.4506442599826
 20
115.7479736328125
 10
104.4506442599826
 20
115.7479736328125
 10
104.4451321072049
 20
115.5874321831597
 10
104.475104437934
 20
115.5013047960069
 10
104.6528713650174
 20
115.5822645399306
 10
104.7724161783854
 20
115.6366970486111
 10
104.8561319986979
 20
115.7359157986111
 10
104.8561319986979
 20
115.8613172743056
 10
104.8561319986979
 20
116.0235812717014
 10
104.7906751844618
 20
115.9949869791667
 10
104.6824991861979
 20
115.9870632595486
 10
104.6242770724826
 20
115.9832736545139
 10
104.5305704752604
 20
115.9705268012153
 10
104.4737263997396
 20
115.97431640625
 10
104.3724405924479
 20
115.9798285590278
 10
104.3469468858507
 20
116.0535536024305
 10
104.3469468858507
 20
116.1586290147569
 10
104.3469468858507
 20
116.3350179036458
 10
104.4706258138021
 20
116.5065836588542
 10
104.6442586263021
 20
116.5854763454861
 10
104.839251030816
 20
116.6743598090278
 10
104.958795844184
 20
116.6278510199653
 10
104.9470825195312
 20
116.4218343098958
 10
104.9470825195312
 20
116.4218343098958
 10
104.8292602539062
 20
116.3680908203125
 10
104.8292602539062
 20
116.3680908203125
 97
        0
 75
     0
 76
     1
 98
        1
 10
0.0
 20
0.0
  0
HATCH
  5
38
330
A
100
AcDbEntity
  8
LAYER_1
 62
     7
100
AcDbHatch
 10
0.0
 20
0.0
 30
0.0
210
0.0
220
0.0
230
1.0
  2
SOLID
 70
     1
 71
     0
 91
        2
 92
       16
 93
        1
 72
     4
 94
        3
 73
     0
 74
     0
 95
       17
 96
       13
 40
0.0
 40
0.0
 40
0.0
 40
0.0
 40
1.0
 40
1.0
 40
1.0
 40
2.0
 40
2.0
 40
2.0
 40
3.0
 40
3.0
 40
3.0
 40
4.0
 40
4.0
 40
4.0
 40
4.0
 10
105.6030287000868
 20
116.9155164930556
 10
105.4207831488715
 20
116.8324896918403
 10
105.3753078884549
 20
116.6209608289931
 10
105.3766859266493
 20
116.3842827690972
 10
105.3780639648438
 20
116.0762912326389
 10
105.4094143337674
 20
115.9267740885417
 10
105.6057847764757
 20
116.0163465711806
 10
105.802155219184
 20
116.1055745442708
 10
105.8335055881076
 20
116.2833414713542
 10
105.8348836263021
 20
116.5927110460069
 10
105.8362616644965
 20
116.8307671440972
 10
105.7907864040799
 20
117.0009548611111
 10
105.6030287000868
 20
116.9155164930556
 97
        0
 92
        1
 93
        1
 72
     4
 94
        3
 73
     0
 74
     0
 95
       17
 96
       13
 40
0.0
 40
0.0
 40
0.0
 40
0.0
 40
1.0
 40
1.0
 40
1.0
 40
2.0
 40
2.0
 40
2.0
 40
3.0
 40
3.0
 40
3.0
 40
4.0
 40
4.0
 40
4.0
 40
4.0
 10
105.6085408528646
 20
117.0247260199653
 10
105.9203219943576
 20
117.1663194444444
 10
105.9585625542535
 20
116.8965684678819
 10
105.957184516059
 20
116.6512776692708
 10
105.9558064778646
 20
116.3546549479167
 10
105.9172214084201
 20
116.0511420355903
 10
105.6057847764757
 20
115.9095486111111
 10
105.2943481445312
 20
115.7676106770833
 10
105.2574856228299
 20
116.0366726345486
 10
105.2543850368924
 20
116.3315728081597
 10
105.2543850368924
 20
116.5761745876736
 10
105.2915920681424
 20
116.8803765190972
 10
105.6085408528646
 20
117.0247260199653
 97
        0
 75
     0
 76
     1
 98
        1
 10
0.0
 20
0.0
  0
HATCH
  5
37
330
A
100
AcDbEntity
  8
LAYER_1
 62
     7
100
AcDbHatch
 10
0.0
 20
0.0
 30
0.0
210
0.0
220
0.0
230
1.0
  2
SOLID
 70
     1
 71
     0
 91
        1
 92
        1
 93
        1
 72
     4
 94
        3
 73
     0
 74
     0
 95
       53
 96
       49
 40
0.0
 40
0.0
 40
0.0
 40
0.0
 40
1.0
 40
1.0
 40
1.0
 40
2.0
 40
2.0
 40
2.0
 40
3.0
 40
3.0
 40
3.0
 40
4.0
 40
4.0
 40
4.0
 40
5.0
 40
5.0
 40
5.0
 40
6.0
 40
6.0
 40
6.0
 40
7.0
 40
7.0
 40
7.0
 40
8.0
 40
8.0
 40
8.0
 40
9.0
 40
9.0
 40
9.0
 40
10.0
 40
10.0
 40
10.0
 40
11.0
 40
11.0
 40
11.0
 40
12.0
 40
12.0
 40
12.0
 40
13.0
 40
13.0
 40
13.0
 40
14.0
 40
14.0
 40
14.0
 40
15.0
 40
15.0
 40
15.0
 40
16.0
 40
16.0
 40
16.0
 40
16.0
 10
106.800543891059
 20
117.5459689670139
 10
106.800543891059
 20
117.5459689670139
 10
106.9187106662326
 20
117.5993679470486
 10
106.9187106662326
 20
117.5993679470486
 10
106.9187106662326
 20
117.5993679470486
 10
106.9187106662326
 20
116.532421875
 10
106.9187106662326
 20
116.532421875
 10
106.9187106662326
 20
116.532421875
 10
106.7250962999132
 20
116.4445719401042
 10
106.7250962999132
 20
116.4445719401042
 10
106.7250962999132
 20
116.4445719401042
 10
106.4264065212674
 20
117.1621853298611
 10
106.4264065212674
 20
117.1621853298611
 10
106.4095255533854
 20
117.2028374565972
 10
106.3964341905382
 20
117.2452121310764
 10
106.3864434136285
 20
117.3048122829861
 10
106.3864434136285
 20
117.3048122829861
 10
106.3836873372396
 20
117.3034342447917
 10
106.3836873372396
 20
117.3034342447917
 10
106.385065375434
 20
117.2500352647569
 10
106.3864434136285
 20
117.1952582465278
 10
106.3864434136285
 20
117.1411702473958
 10
106.3864434136285
 20
117.1411702473958
 10
106.3864434136285
 20
116.290576171875
 10
106.3864434136285
 20
116.290576171875
 10
106.3864434136285
 20
116.290576171875
 10
106.2686211480035
 20
116.2368326822917
 10
106.2686211480035
 20
116.2368326822917
 10
106.2686211480035
 20
116.2368326822917
 10
106.2686211480035
 20
117.3037787543403
 10
106.2686211480035
 20
117.3037787543403
 10
106.2686211480035
 20
117.3037787543403
 10
106.4605129665799
 20
117.3909396701389
 10
106.4605129665799
 20
117.3909396701389
 10
106.4605129665799
 20
117.3909396701389
 10
106.7636813693576
 20
116.6554117838542
 10
106.7636813693576
 20
116.6554117838542
 10
106.7764282226562
 20
116.6285400390625
 10
106.786418999566
 20
116.5989122178819
 10
106.800543891059
 20
116.5555040147569
 10
106.800543891059
 20
116.5555040147569
 10
106.8032999674479
 20
116.5568820529514
 10
106.8032999674479
 20
116.5568820529514
 10
106.8019219292535
 20
116.5947781032986
 10
106.800543891059
 20
116.6354302300347
 10
106.800543891059
 20
116.675048828125
 10
106.800543891059
 20
116.675048828125
 10
106.800543891059
 20
117.5459689670139
 10
106.800543891059
 20
117.5459689670139
 97
        0
 75
     0
 76
     1
 98
        1
 10
0.0
 20
0.0
  0
HATCH
  5
36
330
A
100
AcDbEntity
  8
LAYER_1
 62
     7
100
AcDbHatch
 10
0.0
 20
0.0
 30
0.0
210
0.0
220
0.0
230
1.0
  2
SOLID
 70
     1
 71
     0
 91
        1
 92
        1
 93
        1
 72
     4
 94
        3
 73
     0
 74
     0
 95
       56
 96
       52
 40
0.0
 40
0.0
 40
0.0
 40
0.0
 40
1.0
 40
1.0
 40
1.0
 40
2.0
 40
2.0
 40
2.0
 40
3.0
 40
3.0
 40
3.0
 40
4.0
 40
4.0
 40
4.0
 40
5.0
 40
5.0
 40
5.0
 40
6.0
 40
6.0
 40
6.0
 40
7.0
 40
7.0
 40
7.0
 40
8.0
 40
8.0
 40
8.0
 40
9.0
 40
9.0
 40
9.0
 40
10.0
 40
10.0
 40
10.0
 40
11.0
 40
11.0
 40
11.0
 40
12.0
 40
12.0
 40
12.0
 40
13.0
 40
13.0
 40
13.0
 40
14.0
 40
14.0
 40
14.0
 40
15.0
 40
15.0
 40
15.0
 40
16.0
 40
16.0
 40
16.0
 40
17.0
 40
17.0
 40
17.0
 40
17.0
 10
101.267376030816
 20
113.3856716579861
 10
101.2759887695312
 20
113.5003933376736
 10
101.2160441080729
 20
113.5572374131944
 10
101.0978773328993
 20
113.5034939236111
 10
100.9259670681424
 20
113.4252902560764
 10
100.9073635525174
 20
113.3085015190972
 10
100.9073635525174
 20
113.2261637369792
 10
100.9073635525174
 20
113.1520941840278
 10
100.9400919596354
 20
113.1214328342014
 10
101.0083048502604
 20
113.1269449869792
 10
101.0651489257812
 20
113.1314236111111
 10
101.1206149631076
 20
113.1355577256944
 10
101.1778035481771
 20
113.1400363498264
 10
101.3796861436632
 20
113.1565728081597
 10
101.4165486653646
 20
113.1021402994792
 10
101.4165486653646
 20
112.9612358940972
 10
101.4165486653646
 20
112.7593532986111
 10
101.2901136610243
 20
112.5836534288194
 10
101.0851304796007
 20
112.4906358506944
 10
100.9800550672743
 20
112.4427490234375
 10
100.8546535915799
 20
112.4155327690972
 10
100.7936754014757
 20
112.5271538628472
 10
100.7709377712674
 20
112.5691840277778
 10
100.7723158094618
 20
112.6553114149306
 10
100.7709377712674
 20
112.7114664713542
 10
100.7709377712674
 20
112.7114664713542
 10
100.8887600368924
 20
112.7652099609375
 10
100.8887600368924
 20
112.7652099609375
 10
100.8832478841146
 20
112.6046685112847
 10
100.9132202148438
 20
112.5188856336805
 10
101.0909871419271
 20
112.5998453776042
 10
101.2105319552951
 20
112.6542778862847
 10
101.2942477756076
 20
112.7534966362847
 10
101.2942477756076
 20
112.8785536024305
 10
101.2942477756076
 20
113.0408175998264
 10
101.2287909613715
 20
113.0125678168403
 10
101.1206149631076
 20
113.0046440972222
 10
101.0623928493924
 20
113.0008544921875
 10
100.9686862521701
 20
112.9881076388889
 10
100.9114976671007
 20
112.9918972439236
 10
100.8105563693576
 20
112.9970648871528
 10
100.7850626627604
 20
113.0707899305556
 10
100.7850626627604
 20
113.1762098524306
 10
100.7850626627604
 20
113.3525987413194
 10
100.9087415907118
 20
113.5241644965278
 10
101.0823744032118
 20
113.6030571831597
 10
101.2773668077257
 20
113.6919406467014
 10
101.3969116210937
 20
113.6450873480903
 10
101.3855428059896
 20
113.4394151475694
 10
101.3855428059896
 20
113.4394151475694
 10
101.267376030816
 20
113.3856716579861
 10
101.267376030816
 20
113.3856716579861
 97
        0
 75
     0
 76
     1
 98
        1
 10
0.0
 20
0.0
  0
HATCH
  5
35
330
A
100
AcDbEntity
  8
LAYER_1
 62
     7
100
AcDbHatch
 10
0.0
 20
0.0
 30
0.0
210
0.0
220
0.0
230
1.0
  2
SOLID
 70
     1
 71
     0
 91
        1
 92
        1
 93
        1
 72
     4
 94
        3
 73
     0
 74
     0
 95
       53
 96
       49
 40
0.0
 40
0.0
 40
0.0
 40
0.0
 40
1.0
 40
1.0
 40
1.0
 40
2.0
 40
2.0
 40
2.0
 40
3.0
 40
3.0
 40
3.0
 40
4.0
 40
4.0
 40
4.0
 40
5.0
 40
5.0
 40
5.0
 40
6.0
 40
6.0
 40
6.0
 40
7.0
 40
7.0
 40
7.0
 40
8.0
 40
8.0
 40
8.0
 40
9.0
 40
9.0
 40
9.0
 40
10.0
 40
10.0
 40
10.0
 40
11.0
 40
11.0
 40
11.0
 40
12.0
 40
12.0
 40
12.0
 40
13.0
 40
13.0
 40
13.0
 40
14.0
 40
14.0
 40
14.0
 40
15.0
 40
15.0
 40
15.0
 40
16.0
 40
16.0
 40
16.0
 40
16.0
 10
101.7210951063368
 20
113.5965115017361
 10
101.7210951063368
 20
113.5965115017361
 10
101.8533867730035
 20
113.6568006727431
 10
101.8533867730035
 20
113.6568006727431
 10
101.8533867730035
 20
113.6568006727431
 10
101.8533867730035
 20
113.5613715277778
 10
101.8533867730035
 20
113.5613715277778
 10
101.8533867730035
 20
113.5613715277778
 10
101.7228176540799
 20
113.5017713758681
 10
101.7228176540799
 20
113.5017713758681
 10
101.7228176540799
 20
113.5017713758681
 10
101.7228176540799
 20
112.9626139322917
 10
101.7228176540799
 20
112.9626139322917
 10
101.7228176540799
 20
112.9357421875
 10
101.7128268771701
 20
112.8971571180556
 10
101.7751831054687
 20
112.9254069010417
 10
101.7751831054687
 20
112.9254069010417
 10
101.8506306966146
 20
112.9598578559028
 10
101.8506306966146
 20
112.9598578559028
 10
101.8506306966146
 20
112.9598578559028
 10
101.8506306966146
 20
112.8644287109375
 10
101.8506306966146
 20
112.8644287109375
 10
101.8506306966146
 20
112.8644287109375
 10
101.7269517686632
 20
112.8082736545139
 10
101.7269517686632
 20
112.8082736545139
 10
101.6601169162326
 20
112.7762342664931
 10
101.610163031684
 20
112.7648654513889
 10
101.610163031684
 20
112.8844102647569
 10
101.610163031684
 20
112.8844102647569
 10
101.610163031684
 20
113.4507839626736
 10
101.610163031684
 20
113.4507839626736
 10
101.610163031684
 20
113.4507839626736
 10
101.5006089952257
 20
113.400830078125
 10
101.5006089952257
 20
113.400830078125
 10
101.5006089952257
 20
113.400830078125
 10
101.5006089952257
 20
113.4962592230903
 10
101.5006089952257
 20
113.4962592230903
 10
101.5006089952257
 20
113.4962592230903
 10
101.610163031684
 20
113.5462131076389
 10
101.610163031684
 20
113.5462131076389
 10
101.610163031684
 20
113.5462131076389
 10
101.610163031684
 20
113.7608425564236
 10
101.610163031684
 20
113.7608425564236
 10
101.610163031684
 20
113.7608425564236
 10
101.7210951063368
 20
113.8114854600694
 10
101.7210951063368
 20
113.8114854600694
 10
101.7210951063368
 20
113.8114854600694
 10
101.7210951063368
 20
113.5965115017361
 10
101.7210951063368
 20
113.5965115017361
 97
        0
 75
     0
 76
     1
 98
        1
 10
0.0
 20
0.0
  0
HATCH
  5
34
330
A
100
AcDbEntity
  8
LAYER_1
 62
     7
100
AcDbHatch
 10
0.0
 20
0.0
 30
0.0
210
0.0
220
0.0
230
1.0
  2
SOLID
 70
     1
 71
     0
 91
        1
 92
        1
 93
        1
 72
     4
 94
        3
 73
     0
 74
     0
 95
       32
 96
       28
 40
0.0
 40
0.0
 40
0.0
 40
0.0
 40
1.0
 40
1.0
 40
1.0
 40
2.0
 40
2.0
 40
2.0
 40
3.0
 40
3.0
 40
3.0
 40
4.0
 40
4.0
 40
4.0
 40
5.0
 40
5.0
 40
5.0
 40
6.0
 40
6.0
 40
6.0
 40
7.0
 40
7.0
 40
7.0
 40
8.0
 40
8.0
 40
8.0
 40
9.0
 40
9.0
 40
9.0
 40
9.0
 10
102.1059122721354
 20
113.6423312717014
 10
102.1059122721354
 20
113.6423312717014
 10
102.1086683485243
 20
113.6433648003472
 10
102.1086683485243
 20
113.6433648003472
 10
102.155866156684
 20
113.7687662760417
 10
102.2227010091146
 20
113.8431803385417
 10
102.3405232747396
 20
113.8869330512153
 10
102.3405232747396
 20
113.8869330512153
 10
102.3405232747396
 20
113.7760009765625
 10
102.3405232747396
 20
113.7760009765625
 10
102.1954847547743
 20
113.735693359375
 10
102.1103908962674
 20
113.6058132595486
 10
102.1103908962674
 20
113.4621527777778
 10
102.1103908962674
 20
113.4621527777778
 10
102.1103908962674
 20
112.9825954861111
 10
102.1103908962674
 20
112.9825954861111
 10
102.1103908962674
 20
112.9825954861111
 10
101.9977362738715
 20
112.9316080729167
 10
101.9977362738715
 20
112.9316080729167
 10
101.9977362738715
 20
112.9316080729167
 10
101.9977362738715
 20
113.7226019965278
 10
101.9977362738715
 20
113.7226019965278
 10
101.9977362738715
 20
113.7226019965278
 10
102.1059122721354
 20
113.7715223524306
 10
102.1059122721354
 20
113.7715223524306
 10
102.1059122721354
 20
113.7715223524306
 10
102.1059122721354
 20
113.6423312717014
 10
102.1059122721354
 20
113.6423312717014
 97
        0
 75
     0
 76
     1
 98
        1
 10
0.0
 20
0.0
  0
HATCH
  5
33
330
A
100
AcDbEntity
  8
LAYER_1
 62
     7
100
AcDbHatch
 10
0.0
 20
0.0
 30
0.0
210
0.0
220
0.0
230
1.0
  2
SOLID
 70
     1
 71
     0
 91
        2
 92
       16
 93
        1
 72
     4
 94
        3
 73
     0
 74
     0
 95
       17
 96
       13
 40
0.0
 40
0.0
 40
0.0
 40
0.0
 40
1.0
 40
1.0
 40
1.0
 40
2.0
 40
2.0
 40
2.0
 40
3.0
 40
3.0
 40
3.0
 40
4.0
 40
4.0
 40
4.0
 40
4.0
 10
102.7108710394965
 20
113.9730604383681
 10
102.5958048502604
 20
113.9206949869792
 10
102.5444729275174
 20
113.8063178168403
 10
102.5444729275174
 20
113.5672281901042
 10
102.5444729275174
 20
113.3808485243056
 10
102.5799574110243
 20
113.27060546875
 10
102.7108710394965
 20
113.3302056206597
 10
102.8448852539062
 20
113.3908393012153
 10
102.8772691514757
 20
113.5324327256944
 10
102.8772691514757
 20
113.7188123914931
 10
102.8772691514757
 20
113.9579020182292
 10
102.8290378146701
 20
114.0268039279514
 10
102.7108710394965
 20
113.9730604383681
 97
        0
 92
        1
 93
        1
 72
     4
 94
        3
 73
     0
 74
     0
 95
       17
 96
       13
 40
0.0
 40
0.0
 40
0.0
 40
0.0
 40
1.0
 40
1.0
 40
1.0
 40
2.0
 40
2.0
 40
2.0
 40
3.0
 40
3.0
 40
3.0
 40
4.0
 40
4.0
 40
4.0
 40
4.0
 10
102.7108710394965
 20
113.2347764756944
 10
102.540338812934
 20
113.1569173177083
 10
102.4280287000868
 20
113.2082492404514
 10
102.4280287000868
 20
113.549658203125
 10
102.4280287000868
 20
113.7887478298611
 10
102.5162231445312
 20
113.9796061197917
 10
102.7108710394965
 20
114.0684895833333
 10
102.9058634440104
 20
114.1570285373264
 10
102.9940578884549
 20
114.0464409722222
 10
102.9940578884549
 20
113.8073513454861
 10
102.9940578884549
 20
113.464564344618
 10
102.8845038519965
 20
113.3136691623264
 10
102.7108710394965
 20
113.2347764756944
 97
        0
 75
     0
 76
     1
 98
        1
 10
0.0
 20
0.0
  0
HATCH
  5
32
330
A
100
AcDbEntity
  8
LAYER_1
 62
     7
100
AcDbHatch
 10
0.0
 20
0.0
 30
0.0
210
0.0
220
0.0
230
1.0
  2
SOLID
 70
     1
 71
     0
 91
        1
 92
        1
 93
        1
 72
     4
 94
        3
 73
     0
 74
     0
 95
       47
 96
       43
 40
0.0
 40
0.0
 40
0.0
 40
0.0
 40
1.0
 40
1.0
 40
1.0
 40
2.0
 40
2.0
 40
2.0
 40
3.0
 40
3.0
 40
3.0
 40
4.0
 40
4.0
 40
4.0
 40
5.0
 40
5.0
 40
5.0
 40
6.0
 40
6.0
 40
6.0
 40
7.0
 40
7.0
 40
7.0
 40
8.0
 40
8.0
 40
8.0
 40
9.0
 40
9.0
 40
9.0
 40
10.0
 40
10.0
 40
10.0
 40
11.0
 40
11.0
 40
11.0
 40
12.0
 40
12.0
 40
12.0
 40
13.0
 40
13.0
 40
13.0
 40
14.0
 40
14.0
 40
14.0
 40
14.0
 10
103.2789672851562
 20
114.2186957465278
 10
103.2789672851562
 20
114.2186957465278
 10
103.2817233615451
 20
114.2200737847222
 10
103.2817233615451
 20
114.2200737847222
 10
103.3358113606771
 20
114.3130913628472
 10
103.3940334743924
 20
114.3792371961805
 10
103.4794718424479
 20
114.4181667751736
 10
103.5976386176215
 20
114.4719102647569
 10
103.6744642469618
 20
114.444349500868
 10
103.6744642469618
 20
114.3048231336805
 10
103.6744642469618
 20
114.3048231336805
 10
103.6744642469618
 20
113.6946967230903
 10
103.6744642469618
 20
113.6946967230903
 10
103.6744642469618
 20
113.6946967230903
 10
103.5621541341146
 20
113.6433648003472
 10
103.5621541341146
 20
113.6433648003472
 10
103.5621541341146
 20
113.6433648003472
 10
103.5621541341146
 20
114.2224853515625
 10
103.5621541341146
 20
114.2224853515625
 10
103.5621541341146
 20
114.3048231336805
 10
103.5349378797743
 20
114.3482313368055
 10
103.443987358941
 20
114.3068901909722
 10
103.4026462131076
 20
114.2879421657986
 10
103.3630276150174
 20
114.2541802300347
 10
103.3330552842882
 20
114.2121500651042
 10
103.2875800238715
 20
114.1501383463542
 10
103.2817233615451
 20
114.1022515190972
 10
103.2817233615451
 20
114.0450629340278
 10
103.2817233615451
 20
114.0450629340278
 10
103.2817233615451
 20
113.5158962673611
 10
103.2817233615451
 20
113.5158962673611
 10
103.2817233615451
 20
113.5158962673611
 10
103.1694132486979
 20
113.4649088541667
 10
103.1694132486979
 20
113.4649088541667
 10
103.1694132486979
 20
113.4649088541667
 10
103.1694132486979
 20
114.2559027777778
 10
103.1694132486979
 20
114.2559027777778
 10
103.1694132486979
 20
114.2559027777778
 10
103.2789672851562
 20
114.3055121527778
 10
103.2789672851562
 20
114.3055121527778
 10
103.2789672851562
 20
114.3055121527778
 10
103.2789672851562
 20
114.2186957465278
 10
103.2789672851562
 20
114.2186957465278
 97
        0
 75
     0
 76
     1
 98
        1
 10
0.0
 20
0.0
  0
HATCH
  5
31
330
A
100
AcDbEntity
  8
LAYER_1
 62
     7
100
AcDbHatch
 10
0.0
 20
0.0
 30
0.0
210
0.0
220
0.0
230
1.0
  2
SOLID
 70
     1
 71
     0
 91
        2
 92
       16
 93
        1
 72
     4
 94
        3
 73
     0
 74
     0
 95
       17
 96
       13
 40
0.0
 40
0.0
 40
0.0
 40
0.0
 40
1.0
 40
1.0
 40
1.0
 40
2.0
 40
2.0
 40
2.0
 40
3.0
 40
3.0
 40
3.0
 40
4.0
 40
4.0
 40
4.0
 40
4.0
 10
103.9566175672743
 20
114.2186957465278
 10
103.9566175672743
 20
114.0250813802083
 10
103.9893459743924
 20
113.9120822482639
 10
104.1002780490451
 20
113.9623806423611
 10
104.2708102756076
 20
114.0402398003472
 10
104.2694322374132
 20
114.2514241536458
 10
104.2694322374132
 20
114.3778591579861
 10
104.2694322374132
 20
114.5346110026042
 10
104.2367038302951
 20
114.6675916883681
 10
104.1116468641493
 20
114.6107476128472
 10
103.9621297200521
 20
114.5425347222222
 10
103.9566175672743
 20
114.3251491970486
 10
103.9566175672743
 20
114.2186957465278
 97
        0
 92
        1
 93
        1
 72
     4
 94
        3
 73
     0
 74
     0
 95
       50
 96
       46
 40
0.0
 40
0.0
 40
0.0
 40
0.0
 40
1.0
 40
1.0
 40
1.0
 40
2.0
 40
2.0
 40
2.0
 40
3.0
 40
3.0
 40
3.0
 40
4.0
 40
4.0
 40
4.0
 40
5.0
 40
5.0
 40
5.0
 40
6.0
 40
6.0
 40
6.0
 40
7.0
 40
7.0
 40
7.0
 40
8.0
 40
8.0
 40
8.0
 40
9.0
 40
9.0
 40
9.0
 40
10.0
 40
10.0
 40
10.0
 40
11.0
 40
11.0
 40
11.0
 40
12.0
 40
12.0
 40
12.0
 40
13.0
 40
13.0
 40
13.0
 40
14.0
 40
14.0
 40
14.0
 40
15.0
 40
15.0
 40
15.0
 40
15.0
 10
104.2694322374132
 20
114.7564751519097
 10
104.2694322374132
 20
114.7564751519097
 10
104.3817423502604
 20
114.8074625651042
 10
104.3817423502604
 20
114.8074625651042
 10
104.3817423502604
 20
114.8074625651042
 10
104.3817423502604
 20
114.1118977864583
 10
104.3817423502604
 20
114.1118977864583
 10
104.3817423502604
 20
114.0150906032986
 10
104.3748521592882
 20
113.9379204644097
 10
104.3221421983507
 20
113.8300889756944
 10
104.2721883138021
 20
113.7291476779514
 10
104.1912285698785
 20
113.6609347873264
 10
104.1044121636285
 20
113.6216606987847
 10
103.9779771592882
 20
113.5637830946181
 10
103.8839260525174
 20
113.5792860243056
 10
103.8684231228299
 20
113.7074435763889
 10
103.8684231228299
 20
113.7074435763889
 10
103.9779771592882
 20
113.7573974609375
 10
103.9779771592882
 20
113.7573974609375
 10
103.9876234266493
 20
113.6909071180556
 10
104.0334431966146
 20
113.6843614366319
 10
104.1016560872396
 20
113.7153672960069
 10
104.2835571289062
 20
113.7983940972222
 10
104.2652981228299
 20
113.9692708333333
 10
104.2666761610243
 20
114.0567762586805
 10
104.2666761610243
 20
114.0567762586805
 10
104.2639200846354
 20
114.0553982204861
 10
104.2639200846354
 20
114.0553982204861
 10
104.2167222764757
 20
113.9530788845486
 10
104.1657348632812
 20
113.896923828125
 10
104.0930433485243
 20
113.8638509114583
 10
103.9435262044271
 20
113.7959825303819
 10
103.8398288302951
 20
113.8524820963542
 10
103.8398288302951
 20
114.1711534288194
 10
103.8398288302951
 20
114.3375515407986
 10
103.8811699761285
 20
114.6011013454861
 10
104.0902872721354
 20
114.6961859809028
 10
104.1626342773437
 20
114.7292588975694
 10
104.2280910915799
 20
114.723402235243
 10
104.2666761610243
 20
114.6655246310764
 10
104.2666761610243
 20
114.6655246310764
 10
104.2694322374132
 20
114.6669026692708
 10
104.2694322374132
 20
114.6669026692708
 10
104.2694322374132
 20
114.6669026692708
 10
104.2694322374132
 20
114.7564751519097
 10
104.2694322374132
 20
114.7564751519097
 97
        0
 75
     0
 76
     1
 98
        1
 10
0.0
 20
0.0
  0
HATCH
  5
30
330
A
100
AcDbEntity
  8
LAYER_1
 62
     7
100
AcDbHatch
 10
0.0
 20
0.0
 30
0.0
210
0.0
220
0.0
230
1.0
  2
SOLID
 70
     1
 71
     0
 91
        1
 92
        1
 93
        1
 72
     4
 94
        3
 73
     0
 74
     0
 95
       29
 96
       25
 40
0.0
 40
0.0
 40
0.0
 40
0.0
 40
1.0
 40
1.0
 40
1.0
 40
2.0
 40
2.0
 40
2.0
 40
3.0
 40
3.0
 40
3.0
 40
4.0
 40
4.0
 40
4.0
 40
5.0
 40
5.0
 40
5.0
 40
6.0
 40
6.0
 40
6.0
 40
7.0
 40
7.0
 40
7.0
 40
8.0
 40
8.0
 40
8.0
 40
8.0
 10
104.8271931966146
 20
115.2863308376736
 10
104.8271931966146
 20
115.2863308376736
 10
105.4969197591146
 20
115.5912217881944
 10
105.4969197591146
 20
115.5912217881944
 10
105.4969197591146
 20
115.5912217881944
 10
105.4969197591146
 20
115.484423828125
 10
105.4969197591146
 20
115.484423828125
 10
105.4969197591146
 20
115.484423828125
 10
105.2209676106771
 20
115.3590223524305
 10
105.2209676106771
 20
115.3590223524305
 10
105.2209676106771
 20
115.3590223524305
 10
105.2209676106771
 20
114.3985297309028
 10
105.2209676106771
 20
114.3985297309028
 10
105.2209676106771
 20
114.3985297309028
 10
105.1031453450521
 20
114.3447862413194
 10
105.1031453450521
 20
114.3447862413194
 10
105.1031453450521
 20
114.3447862413194
 10
105.1031453450521
 20
115.3052788628472
 10
105.1031453450521
 20
115.3052788628472
 10
105.1031453450521
 20
115.3052788628472
 10
104.8271931966146
 20
115.1795328776042
 10
104.8271931966146
 20
115.1795328776042
 10
104.8271931966146
 20
115.1795328776042
 10
104.8271931966146
 20
115.2863308376736
 10
104.8271931966146
 20
115.2863308376736
 97
        0
 75
     0
 76
     1
 98
        1
 10
0.0
 20
0.0
  0
HATCH
  5
2F
330
A
100
AcDbEntity
  8
LAYER_1
 62
     7
100
AcDbHatch
 10
0.0
 20
0.0
 30
0.0
210
0.0
220
0.0
230
1.0
  2
SOLID
 70
     1
 71
     0
 91
        2
 92
        1
 93
        1
 72
     4
 94
        3
 73
     0
 74
     0
 95
       17
 96
       13
 40
0.0
 40
0.0
 40
0.0
 40
0.0
 40
1.0
 40
1.0
 40
1.0
 40
2.0
 40
2.0
 40
2.0
 40
3.0
 40
3.0
 40
3.0
 40
4.0
 40
4.0
 40
4.0
 40
4.0
 10
105.5926934136285
 20
115.4926920572917
 10
105.5926934136285
 20
115.4926920572917
 10
105.5926934136285
 20
115.6346299913194
 10
105.5926934136285
 20
115.6346299913194
 10
105.5926934136285
 20
115.6346299913194
 10
105.7050035264757
 20
115.6859619140625
 10
105.7050035264757
 20
115.6859619140625
 10
105.7050035264757
 20
115.6859619140625
 10
105.7050035264757
 20
115.5436794704861
 10
105.7050035264757
 20
115.5436794704861
 10
105.7050035264757
 20
115.5436794704861
 10
105.5926934136285
 20
115.4926920572917
 10
105.5926934136285
 20
115.4926920572917
 97
        0
 92
        1
 93
        1
 72
     4
 94
        3
 73
     0
 74
     0
 95
       17
 96
       13
 40
0.0
 40
0.0
 40
0.0
 40
0.0
 40
1.0
 40
1.0
 40
1.0
 40
2.0
 40
2.0
 40
2.0
 40
3.0
 40
3.0
 40
3.0
 40
4.0
 40
4.0
 40
4.0
 40
4.0
 10
105.5926934136285
 20
114.5676839192708
 10
105.5926934136285
 20
114.5676839192708
 10
105.5926934136285
 20
115.3586778428819
 10
105.5926934136285
 20
115.3586778428819
 10
105.5926934136285
 20
115.3586778428819
 10
105.7050035264757
 20
115.410009765625
 10
105.7050035264757
 20
115.410009765625
 10
105.7050035264757
 20
115.410009765625
 10
105.7050035264757
 20
114.6190158420139
 10
105.7050035264757
 20
114.6190158420139
 10
105.7050035264757
 20
114.6190158420139
 10
105.5926934136285
 20
114.5676839192708
 10
105.5926934136285
 20
114.5676839192708
 97
        0
 75
     0
 76
     1
 98
        1
 10
0.0
 20
0.0
  0
HATCH
  5
2E
330
A
100
AcDbEntity
  8
LAYER_1
 62
     7
100
AcDbHatch
 10
0.0
 20
0.0
 30
0.0
210
0.0
220
0.0
230
1.0
  2
SOLID
 70
     1
 71
     0
 91
        2
 92
       16
 93
        1
 72
     4
 94
        3
 73
     0
 74
     0
 95
       14
 96
       10
 40
0.0
 40
0.0
 40
0.0
 40
0.0
 40
1.0
 40
1.0
 40
1.0
 40
2.0
 40
2.0
 40
2.0
 40
3.0
 40
3.0
 40
3.0
 40
3.0
 10
106.2507066514757
 20
115.3452419704861
 10
106.2465725368923
 20
115.4358479817708
 10
106.2520846896701
 20
115.5850206163194
 10
106.1215155707465
 20
115.5254204644097
 10
105.9906019422743
 20
115.4658203125
 10
105.9875013563368
 20
115.3194037543403
 10
105.9833672417535
 20
115.2236300998264
 10
105.9833672417535
 20
115.2236300998264
 10
106.2507066514757
 20
115.3452419704861
 10
106.2507066514757
 20
115.3452419704861
 97
        0
 92
        1
 93
        1
 72
     4
 94
        3
 73
     0
 74
     0
 95
       29
 96
       25
 40
0.0
 40
0.0
 40
0.0
 40
0.0
 40
1.0
 40
1.0
 40
1.0
 40
2.0
 40
2.0
 40
2.0
 40
3.0
 40
3.0
 40
3.0
 40
4.0
 40
4.0
 40
4.0
 40
5.0
 40
5.0
 40
5.0
 40
6.0
 40
6.0
 40
6.0
 40
7.0
 40
7.0
 40
7.0
 40
8.0
 40
8.0
 40
8.0
 40
8.0
 10
106.3616387261285
 20
115.1809109157986
 10
106.3688734266493
 20
115.0293267144097
 10
106.2892917209201
 20
114.8636176215278
 10
106.122893608941
 20
114.7878255208333
 10
105.9733764648437
 20
114.7196126302083
 10
105.8669230143229
 20
114.7709445529514
 10
105.8669230143229
 20
115.0892713758681
 10
105.8669230143229
 20
115.2560139973958
 10
105.9110202365451
 20
115.5250759548611
 10
106.1197930230035
 20
115.6201605902778
 10
106.3761081271701
 20
115.7366048177083
 10
106.3616387261285
 20
115.4882134331597
 10
106.3674953884549
 20
115.3059678819444
 10
106.3674953884549
 20
115.3059678819444
 10
105.9833672417535
 20
115.13095703125
 10
105.9833672417535
 20
115.13095703125
 10
105.9861233181424
 20
115.0258816189236
 10
105.967864312066
 20
114.8126302083333
 10
106.1256496853299
 20
114.8842881944444
 10
106.2338256835937
 20
114.9335530598958
 10
106.2637980143229
 20
115.0468967013889
 10
106.2565633138021
 20
115.1330240885417
 10
106.2565633138021
 20
115.1330240885417
 10
106.3616387261285
 20
115.1809109157986
 10
106.3616387261285
 20
115.1809109157986
 97
        0
 75
     0
 76
     1
 98
        1
 10
0.0
 20
0.0
  0
HATCH
  5
2D
330
A
100
AcDbEntity
  8
LAYER_1
 62
     7
100
AcDbHatch
 10
0.0
 20
0.0
 30
0.0
210
0.0
220
0.0
230
1.0
  2
SOLID
 70
     1
 71
     0
 91
        4
 92
       16
 93
        1
 72
     4
 94
        3
 73
     0
 74
     0
 95
       20
 96
       16
 40
0.0
 40
0.0
 40
0.0
 40
0.0
 40
1.0
 40
1.0
 40
1.0
 40
2.0
 40
2.0
 40
2.0
 40
3.0
 40
3.0
 40
3.0
 40
4.0
 40
4.0
 40
4.0
 40
5.0
 40
5.0
 40
5.0
 40
5.0
 10
106.6658406575521
 20
116.0032552083333
 10
106.7016696506076
 20
116.0197916666667
 10
106.7574801974826
 20
116.0404622395833
 10
106.7574801974826
 20
116.0928276909722
 10
106.7574801974826
 20
116.1314127604167
 10
106.7226847330729
 20
116.1200439453125
 10
106.6909898546007
 20
116.1052300347222
 10
106.6909898546007
 20
116.1052300347222
 10
106.6182983398438
 20
116.0714680989583
 10
106.6182983398438
 20
116.0714680989583
 10
106.6182983398438
 20
116.0714680989583
 10
106.6182983398438
 20
115.9812065972222
 10
106.6182983398438
 20
115.9812065972222
 10
106.6182983398438
 20
115.9812065972222
 10
106.6658406575521
 20
116.0032552083333
 10
106.6658406575521
 20
116.0032552083333
 97
        0
 92
        1
 93
        1
 72
     4
 94
        3
 73
     0
 74
     0
 95
       38
 96
       34
 40
0.0
 40
0.0
 40
0.0
 40
0.0
 40
1.0
 40
1.0
 40
1.0
 40
2.0
 40
2.0
 40
2.0
 40
3.0
 40
3.0
 40
3.0
 40
4.0
 40
4.0
 40
4.0
 40
5.0
 40
5.0
 40
5.0
 40
6.0
 40
6.0
 40
6.0
 40
7.0
 40
7.0
 40
7.0
 40
8.0
 40
8.0
 40
8.0
 40
9.0
 40
9.0
 40
9.0
 40
10.0
 40
10.0
 40
10.0
 40
11.0
 40
11.0
 40
11.0
 40
11.0
 10
106.786418999566
 20
115.9154052734375
 10
106.786418999566
 20
115.9154052734375
 10
106.7481784396701
 20
115.8978352864583
 10
106.7481784396701
 20
115.8978352864583
 10
106.7481784396701
 20
115.8978352864583
 10
106.6751424153646
 20
115.9825846354167
 10
106.6751424153646
 20
115.9825846354167
 10
106.6751424153646
 20
115.9825846354167
 10
106.6182983398438
 20
115.9564019097222
 10
106.6182983398438
 20
115.9564019097222
 10
106.6182983398438
 20
115.9564019097222
 10
106.6182983398438
 20
115.8375461154514
 10
106.6182983398438
 20
115.8375461154514
 10
106.6182983398438
 20
115.8375461154514
 10
106.5852254231771
 20
115.8223876953125
 10
106.5852254231771
 20
115.8223876953125
 10
106.5852254231771
 20
115.8223876953125
 10
106.5852254231771
 20
116.0811143663194
 10
106.5852254231771
 20
116.0811143663194
 10
106.5852254231771
 20
116.0811143663194
 10
106.6989135742187
 20
116.1334798177083
 10
106.6989135742187
 20
116.1334798177083
 10
106.719928656684
 20
116.1434705946181
 10
106.7416327582465
 20
116.1534613715278
 10
106.7612698025174
 20
116.1482937282986
 10
106.7798733181424
 20
116.1465711805555
 10
106.7912421332465
 20
116.1279676649306
 10
106.7905531141493
 20
116.1066080729167
 10
106.7905531141493
 20
116.0556206597222
 10
106.7540351019965
 20
116.0197916666667
 10
106.7092488606771
 20
115.9984320746528
 10
106.7092488606771
 20
115.9984320746528
 10
106.786418999566
 20
115.9154052734375
 10
106.786418999566
 20
115.9154052734375
 97
        0
 92
       16
 93
        1
 72
     4
 94
        3
 73
     0
 74
     0
 95
       17
 96
       13
 40
0.0
 40
0.0
 40
0.0
 40
0.0
 40
1.0
 40
1.0
 40
1.0
 40
2.0
 40
2.0
 40
2.0
 40
3.0
 40
3.0
 40
3.0
 40
4.0
 40
4.0
 40
4.0
 40
4.0
 10
106.4753268771701
 20
115.89990234375
 10
106.4753268771701
 20
115.7906928168403
 10
106.5628323025174
 20
115.7445285373264
 10
106.6716973198785
 20
115.7948269314236
 10
106.7805623372396
 20
115.8451253255208
 10
106.8666897243923
 20
115.9722493489583
 10
106.8666897243923
 20
116.0818033854167
 10
106.8666897243923
 20
116.1896348741319
 10
106.7805623372396
 20
116.2371771918403
 10
106.6716973198785
 20
116.1868787977431
 10
106.5628323025174
 20
116.1362358940972
 10
106.4753268771701
 20
116.0080783420139
 10
106.4753268771701
 20
115.89990234375
 97
        0
 92
        1
 93
        1
 72
     4
 94
        3
 73
     0
 74
     0
 95
       17
 96
       13
 40
0.0
 40
0.0
 40
0.0
 40
0.0
 40
1.0
 40
1.0
 40
1.0
 40
2.0
 40
2.0
 40
2.0
 40
3.0
 40
3.0
 40
3.0
 40
4.0
 40
4.0
 40
4.0
 40
4.0
 10
106.9014851888021
 20
116.09833984375
 10
106.9014851888021
 20
115.9694932725694
 10
106.798821343316
 20
115.8196316189236
 10
106.6716973198785
 20
115.7607204861111
 10
106.5442287868924
 20
115.70146484375
 10
106.440875922309
 20
115.7558973524306
 10
106.440875922309
 20
115.8847439236111
 10
106.440875922309
 20
116.0115234375
 10
106.5442287868924
 20
116.1617296006944
 10
106.6716973198785
 20
116.2209852430556
 10
106.798821343316
 20
116.2798963758681
 10
106.9014851888021
 20
116.2251193576389
 10
106.9014851888021
 20
116.09833984375
 97
        0
 75
     0
 76
     1
 98
        1
 10
0.0
 20
0.0
  0
LINE
  5
2C
330
A
100
AcDbEntity
  8
LAYER_1
 62
     7
100
AcDbLine
 10
78.14045003255208
 20
166.0443006727431
 30
0.0
 11
77.19959445529513
 21
83.25934516059027
 31
0.0
  0
LINE
  5
2B
330
A
100
AcDbEntity
  8
LAYER_1
 62
     7
100
AcDbLine
 10
76.67042778862846
 20
166.8087673611111
 30
0.0
 11
75.61209445529514
 21
84.2587673611111
 31
0.0
  0
LINE
  5
2A
330
A
100
AcDbEntity
  8
LAYER_1
 62
     7
100
AcDbLine
 10
75.25931667751735
 20
167.3379340277778
 30
0.0
 11
74.02459445529513
 21
85.31710069444443
 31
0.0
  0
LINE
  5
29
330
A
100
AcDbEntity
  8
LAYER_1
 62
     7
100
AcDbLine
 10
73.67181667751736
 20
167.8671006944444
 30
0.0
 11
72.26070556640624
 21
86.37543402777777
 31
0.0
  0
LINE
  5
28
330
A
100
AcDbEntity
  8
LAYER_1
 62
     7
100
AcDbLine
 10
71.90792778862847
 20
168.7490451388889
 30
0.0
 11
70.49681667751736
 21
87.43376736111111
 31
0.0
  0
LINE
  5
27
330
A
100
AcDbEntity
  8
LAYER_1
 62
     7
100
AcDbLine
 10
69.96765001085069
 20
169.4546006944444
 30
0.0
 11
68.73292778862847
 21
88.49210069444443
 31
0.0
  0
LINE
  5
26
330
A
100
AcDbEntity
  8
LAYER_1
 62
     7
100
AcDbLine
 10
68.2037611219618
 20
170.5129340277778
 30
0.0
 11
66.96903889973957
 21
89.55043402777777
 31
0.0
  0
LINE
  5
25
330
A
100
AcDbEntity
  8
LAYER_1
 62
     7
100
AcDbLine
 10
66.4398722330729
 20
171.2184895833333
 30
0.0
 11
65.02876112196179
 21
90.78515624999999
 31
0.0
  0
LINE
  5
24
330
A
100
AcDbEntity
  8
LAYER_1
 62
     7
100
AcDbLine
 10
64.49959445529514
 20
171.74765625
 30
0.0
 11
63.26487223307291
 21
92.01987847222222
 31
0.0
  0
LINE
  5
23
330
A
100
AcDbEntity
  8
LAYER_1
 62
     7
100
AcDbLine
 10
62.91209445529513
 20
172.6296006944444
 30
0.0
 11
61.8537611219618
 21
93.07821180555554
 31
0.0
  0
LINE
  5
22
330
A
100
AcDbEntity
  8
LAYER_1
 62
     7
100
AcDbLine
 10
61.67737223307291
 20
173.33515625
 30
0.0
 11
60.2662611219618
 21
93.96015625
 31
0.0
  0
ENDSEC
  0
SECTION
  2
OBJECTS
  0
DICTIONARY
  5
19
330
0
100
AcDbDictionary
281
     1
  3
ACAD_COLOR
350
C8
  3
ACAD_GROUP
350
1A
  3
ACAD_LAYOUT
350
95
  3
ACAD_MATERIAL
350
CA
  3
ACAD_MLINESTYLE
350
1B
  3
ACAD_PLOTSETTINGS
350
96
  3
ACAD_PLOTSTYLENAME
350
93
  3
ACDBHEADERROUNDTRIPXREC
350
C7
  0
DICTIONARY
  5
C8
102
{ACAD_REACTORS
330
19
102
}
330
19
100
AcDbDictionary
281
     1
  0
DICTIONARY
  5
1A
102
{ACAD_REACTORS
330
19
102
}
330
19
100
AcDbDictionary
281
     1
  0
DICTIONARY
  5
95
102
{ACAD_REACTORS
330
19
102
}
330
19
100
AcDbDictionary
281
     1
  3
Layout1
350
98
  3
Model
350
97
  0
DICTIONARY
  5
CA
102
{ACAD_REACTORS
330
19
102
}
330
19
100
AcDbDictionary
281
     1
  0
DICTIONARY
  5
1B
102
{ACAD_REACTORS
330
19
102
}
330
19
100
AcDbDictionary
281
     1
  3
STANDARD
350
1C
  0
DICTIONARY
  5
96
102
{ACAD_REACTORS
330
19
102
}
330
19
100
AcDbDictionary
281
     1
  0
ACDBDICTIONARYWDFLT
  5
93
102
{ACAD_REACTORS
330
19
102
}
330
19
100
AcDbDictionary
281
     1
  3
Normal
350
94
100
AcDbDictionaryWithDefault
340
94
  0
DICTIONARY
  5
C7
102
{ACAD_REACTORS
330
19
102
}
330
19
100
AcDbDictionary
281
     1
  3
COLORDICT
350
C9
  3
MATERIALDICT
350
CB
  0
LAYOUT
  5
98
102
{ACAD_REACTORS
330
95
102
}
102
{ACAD_XDICTIONARY
360
CC
102
}
330
95
100
AcDbPlotSettings
  1

  2
Support Center HP LaserJet 4
  4

  6

 40
0.0
 41
0.0
 42
0.0
 43
0.0
 44
0.0
 45
0.0
 46
0.0
 47
0.0
 48
0.0
 49
0.0
140
0.0
141
0.0
142
1.0
143
1.0
 70
   688
 72
     0
 73
     0
 74
     5
  7

 75
    16
147
1.0
148
0.0
149
0.0
100
AcDbLayout
  1
Layout1
 70
     0
 71
     1
 10
0.0
 20
0.0
 11
12.0
 21
9.0
 12
0.0
 22
0.0
 32
0.0
 14
1.000000000000000E+20
 24
1.000000000000000E+20
 34
1.000000000000000E+20
 15
-1.000000000000000E+20
 25
-1.000000000000000E+20
 35
-1.000000000000000E+20
146
0.0
 13
0.0
 23
0.0
 33
0.0
 16
1.0
 26
0.0
 36
0.0
 17
0.0
 27
1.0
 37
0.0
 76
     0
330
B
  0
LAYOUT
  5
97
102
{ACAD_REACTORS
330
95
102
}
102
{ACAD_XDICTIONARY
360
CE
102
}
330
95
100
AcDbPlotSettings
  1

  2
none_device
  4
Letter_(8.50_x_11.00_Inches)
  6

 40
6.349999904632568
 41
6.349999904632568
 42
6.350006103515625
 43
6.350006103515625
 44
215.8999938964844
 45
279.3999938964844
 46
0.0
 47
0.0
 48
0.0
 49
0.0
140
0.0
141
0.0
142
1.0
143
1.0
 70
 11952
 72
     0
 73
     1
 74
     0
  7

 75
     0
147
1.0
148
-1230.888354472311
149
-2074.618544872064
100
AcDbLayout
  1
Model
 70
     1
 71
     0
 10
0.0
 20
0.0
 11
12.0
 21
9.0
 12
0.0
 22
0.0
 32
0.0
 14
0.0
 24
0.0
 34
0.0
 15
0.0
 25
0.0
 35
0.0
146
0.0
 13
0.0
 23
0.0
 33
0.0
 16
1.0
 26
0.0
 36
0.0
 17
0.0
 27
1.0
 37
0.0
 76
     0
330
A
  0
MLINESTYLE
  5
1C
102
{ACAD_REACTORS
330
1B
102
}
330
1B
100
AcDbMlineStyle
  2
STANDARD
 70
     0
  3

 62
     0
 51
90.0000000000002
 52
90.0000000000002
 71
     2
 49
0.5
 62
   256
  6
BYLAYER
 49
-0.5
 62
   256
  6
BYLAYER
  0
ACDBPLACEHOLDER
  5
94
102
{ACAD_REACTORS
330
93
102
}
330
93
  0
XRECORD
  5
C9
102
{ACAD_REACTORS
330
C7
102
}
330
C7
100
AcDbXrecord
340
C8
  0
XRECORD
  5
CB
102
{ACAD_REACTORS
330
C7
102
}
330
C7
100
AcDbXrecord
340
CA
  0
DICTIONARY
  5
CC
330
98
100
AcDbDictionary
280
     1
281
     1
  3
ACAD_XREC_ROUNDTRIP
360
CD
  0
DICTIONARY
  5
CE
330
97
100
AcDbDictionary
280
     1
281
     1
  3
ACAD_XREC_ROUNDTRIP
360
CF
  0
XRECORD
  5
CD
102
{ACAD_REACTORS
330
CC
102
}
330
CC
100
AcDbXrecord
102
SHADEPLOT
 70
 27424
102
SHADEPLOTRESLEVEL
 70
 25504
102
SHADEPLOTCUSTOMDPI
 70
 16888
  0
XRECORD
  5
CF
102
{ACAD_REACTORS
330
CE
102
}
330
CE
100
AcDbXrecord
102
SHADEPLOT
 70
     0
102
SHADEPLOTRESLEVEL
 70
     0
102
SHADEPLOTCUSTOMDPI
 70
     0
  0
ENDSEC
  0
EOF
