  0
SECTION
  2
HEADER
  9
$ACADVER
  1
AC1015
  9
$ACADMAINTVER
 70
     6
  9
$DWGCODEPAGE
  3
ANSI_1252
  9
$INSBASE
 10
0.0
 20
0.0
 30
0.0
  9
$EXTMIN
 10
58.22624699817805
 20
82.20662038888372
 30
-0.0015258207003612
  9
$EXTMAX
 10
156.0079618892941
 20
198.863805774153
 30
0.0000000349246008
  9
$LIMMIN
 10
58.09964057074652
 20
82.04064263237846
  9
$LIMMAX
 10
152.3867363823784
 20
199.0030124240451
  9
$ORTHOMODE
 70
     0
  9
$REGENMODE
 70
     1
  9
$FILLMODE
 70
     1
  9
$QTEXTMODE
 70
     0
  9
$MIRRTEXT
 70
     1
  9
$LTSCALE
 40
1.0
  9
$ATTMODE
 70
     1
  9
$TEXTSIZE
 40
0.2
  9
$TRACEWID
 40
0.05
  9
$TEXTSTYLE
  7
STANDARD
  9
$CLAYER
  8
0
  9
$CELTYPE
  6
CONTINUOUS
  9
$CECOLOR
 62
   256
  9
$CELTSCALE
 40
1.0
  9
$DISPSILH
 70
     0
  9
$DIMSCALE
 40
1.0
  9
$DIMASZ
 40
0.18
  9
$DIMEXO
 40
0.0625
  9
$DIMDLI
 40
0.38
  9
$DIMRND
 40
0.0
  9
$DIMDLE
 40
0.0
  9
$DIMEXE
 40
0.18
  9
$DIMTP
 40
0.0
  9
$DIMTM
 40
0.0
  9
$DIMTXT
 40
0.18
  9
$DIMCEN
 40
0.09
  9
$DIMTSZ
 40
0.0
  9
$DIMTOL
 70
     0
  9
$DIMLIM
 70
     0
  9
$DIMTIH
 70
     1
  9
$DIMTOH
 70
     1
  9
$DIMSE1
 70
     0
  9
$DIMSE2
 70
     0
  9
$DIMTAD
 70
     0
  9
$DIMZIN
 70
     0
  9
$DIMBLK
  1

  9
$DIMASO
 70
     1
  9
$DIMSHO
 70
     1
  9
$DIMPOST
  1

  9
$DIMAPOST
  1

  9
$DIMALT
 70
     0
  9
$DIMALTD
 70
     2
  9
$DIMALTF
 40
25.4
  9
$DIMLFAC
 40
1.0
  9
$DIMTOFL
 70
     0
  9
$DIMTVP
 40
0.0
  9
$DIMTIX
 70
     0
  9
$DIMSOXD
 70
     0
  9
$DIMSAH
 70
     0
  9
$DIMBLK1
  1

  9
$DIMBLK2
  1

  9
$DIMSTYLE
  2
STANDARD
  9
$DIMCLRD
 70
     0
  9
$DIMCLRE
 70
     0
  9
$DIMCLRT
 70
     0
  9
$DIMTFAC
 40
1.0
  9
$DIMGAP
 40
0.09
  9
$DIMJUST
 70
     0
  9
$DIMSD1
 70
     0
  9
$DIMSD2
 70
     0
  9
$DIMTOLJ
 70
     1
  9
$DIMTZIN
 70
     0
  9
$DIMALTZ
 70
     0
  9
$DIMALTTZ
 70
     0
  9
$DIMUPT
 70
     0
  9
$DIMDEC
 70
     4
  9
$DIMTDEC
 70
     4
  9
$DIMALTU
 70
     2
  9
$DIMALTTD
 70
     2
  9
$DIMTXSTY
  7
STANDARD
  9
$DIMAUNIT
 70
     0
  9
$DIMADEC
 70
     0
  9
$DIMALTRND
 40
0.0
  9
$DIMAZIN
 70
     0
  9
$DIMDSEP
 70
    46
  9
$DIMATFIT
 70
     3
  9
$DIMFRAC
 70
     0
  9
$DIMLDRBLK
  1

  9
$DIMLUNIT
 70
     2
  9
$DIMLWD
 70
    -2
  9
$DIMLWE
 70
    -2
  9
$DIMTMOVE
 70
     0
  9
$LUNITS
 70
     2
  9
$LUPREC
 70
     4
  9
$SKETCHINC
 40
0.1
  9
$FILLETRAD
 40
0.0
  9
$AUNITS
 70
     0
  9
$AUPREC
 70
     0
  9
$MENU
  1
acad
  9
$ELEVATION
 40
0.0
  9
$PELEVATION
 40
0.0
  9
$THICKNESS
 40
0.0
  9
$LIMCHECK
 70
     0
  9
$CHAMFERA
 40
0.0
  9
$CHAMFERB
 40
0.0
  9
$CHAMFERC
 40
0.0
  9
$CHAMFERD
 40
0.0
  9
$SKPOLY
 70
     0
  9
$TDCREATE
 40
2444971.666666667
  9
$TDUCREATE
 40
2444972.0
  9
$TDUPDATE
 40
2452215.577919792
  9
$TDUUPDATE
 40
2452215.911253125
  9
$TDINDWG
 40
0.0004564815
  9
$TDUSRTIMER
 40
0.0004564815
  9
$USRTIMER
 70
     1
  9
$ANGBASE
 50
0.0
  9
$ANGDIR
 70
     0
  9
$PDMODE
 70
     0
  9
$PDSIZE
 40
0.0
  9
$PLINEWID
 40
0.0
  9
$SPLFRAME
 70
     0
  9
$SPLINETYPE
 70
     6
  9
$SPLINESEGS
 70
     8
  9
$HANDSEED
  5
112
  9
$SURFTAB1
 70
     6
  9
$SURFTAB2
 70
     6
  9
$SURFTYPE
 70
     6
  9
$SURFU
 70
     6
  9
$SURFV
 70
     6
  9
$UCSBASE
  2

  9
$UCSNAME
  2

  9
$UCSORG
 10
0.0
 20
0.0
 30
0.0
  9
$UCSXDIR
 10
1.0
 20
0.0
 30
0.0
  9
$UCSYDIR
 10
0.0
 20
1.0
 30
0.0
  9
$UCSORTHOREF
  2

  9
$UCSORTHOVIEW
 70
     0
  9
$UCSORGTOP
 10
0.0
 20
0.0
 30
0.0
  9
$UCSORGBOTTOM
 10
0.0
 20
0.0
 30
0.0
  9
$UCSORGLEFT
 10
0.0
 20
0.0
 30
0.0
  9
$UCSORGRIGHT
 10
0.0
 20
0.0
 30
0.0
  9
$UCSORGFRONT
 10
0.0
 20
0.0
 30
0.0
  9
$UCSORGBACK
 10
0.0
 20
0.0
 30
0.0
  9
$PUCSBASE
  2

  9
$PUCSNAME
  2

  9
$PUCSORG
 10
0.0
 20
0.0
 30
0.0
  9
$PUCSXDIR
 10
1.0
 20
0.0
 30
0.0
  9
$PUCSYDIR
 10
0.0
 20
1.0
 30
0.0
  9
$PUCSORTHOREF
  2

  9
$PUCSORTHOVIEW
 70
     0
  9
$PUCSORGTOP
 10
0.0
 20
0.0
 30
0.0
  9
$PUCSORGBOTTOM
 10
0.0
 20
0.0
 30
0.0
  9
$PUCSORGLEFT
 10
0.0
 20
0.0
 30
0.0
  9
$PUCSORGRIGHT
 10
0.0
 20
0.0
 30
0.0
  9
$PUCSORGFRONT
 10
0.0
 20
0.0
 30
0.0
  9
$PUCSORGBACK
 10
0.0
 20
0.0
 30
0.0
  9
$USERI1
 70
     0
  9
$USERI2
 70
     0
  9
$USERI3
 70
     0
  9
$USERI4
 70
     0
  9
$USERI5
 70
     0
  9
$USERR1
 40
0.0
  9
$USERR2
 40
0.0
  9
$USERR3
 40
0.0
  9
$USERR4
 40
0.0
  9
$USERR5
 40
0.0
  9
$WORLDVIEW
 70
     1
  9
$SHADEDGE
 70
     3
  9
$SHADEDIF
 70
    70
  9
$TILEMODE
 70
     1
  9
$MAXACTVP
 70
    16
  9
$PINSBASE
 10
0.0
 20
0.0
 30
0.0
  9
$PLIMCHECK
 70
     0
  9
$PEXTMIN
 10
1.000000000000000E+20
 20
1.000000000000000E+20
 30
1.000000000000000E+20
  9
$PEXTMAX
 10
-1.000000000000000E+20
 20
-1.000000000000000E+20
 30
-1.000000000000000E+20
  9
$PLIMMIN
 10
0.0
 20
0.0
  9
$PLIMMAX
 10
12.0
 20
9.0
  9
$UNITMODE
 70
     0
  9
$VISRETAIN
 70
     0
  9
$PLINEGEN
 70
     1
  9
$PSLTSCALE
 70
     0
  9
$TREEDEPTH
 70
  3020
  9
$CMLSTYLE
  2
STANDARD
  9
$CMLJUST
 70
     0
  9
$CMLSCALE
 40
1.0
  9
$PROXYGRAPHICS
 70
     0
  9
$MEASUREMENT
 70
     0
  9
$CELWEIGHT
370
    -1
  9
$ENDCAPS
280
     0
  9
$JOINSTYLE
280
     0
  9
$LWDISPLAY
290
     0
  9
$INSUNITS
 70
     0
  9
$HYPERLINKBASE
  1

  9
$STYLESHEET
  1

  9
$XEDIT
290
     1
  9
$CEPSNTYPE
380
     0
  9
$PSTYLEMODE
290
     1
  9
$FINGERPRINTGUID
  2
{890B557A-CEC8-11D5-923F-00805F198AD5}
  9
$VERSIONGUID
  2
{890B557C-CEC8-11D5-923F-00805F198AD5}
  9
$EXTNAMES
290
     1
  9
$PSVPSCALE
 40
0.0
  9
$OLESTARTUP
290
     0
  0
ENDSEC
  0
SECTION
  2
CLASSES
  0
CLASS
  1
LWPOLYLINE
  2
AcDbPolyline
  3
AutoCAD 2000
 90
        0
280
     0
281
     1
  0
CLASS
  1
IMAGE
  2
AcDbRasterImage
  3
ISM
 90
      127
280
     0
281
     1
  0
CLASS
  1
OLE2FRAME
  2
AcDbOle2Frame
  3
AutoCAD 2000
 90
        0
280
     0
281
     1
  0
CLASS
  1
HATCH
  2
AcDbHatch
  3
AutoCAD 2000
 90
        0
280
     0
281
     1
  0
CLASS
  1
DICTIONARYVAR
  2
AcDbDictionaryVar
  3
AutoCAD 2000
 90
        0
280
     0
281
     0
  0
CLASS
  1
RASTERVARIABLES
  2
AcDbRasterVariables
  3
ISM
 90
        0
280
     0
281
     0
  0
CLASS
  1
IMAGEDEF
  2
AcDbRasterImageDef
  3
ISM
 90
        0
280
     0
281
     0
  0
CLASS
  1
IMAGEDEF_REACTOR
  2
AcDbRasterImageDefReactor
  3
ISM
 90
        1
280
     0
281
     0
  0
CLASS
  1
IDBUFFER
  2
AcDbIdBuffer
  3
AutoCAD 2000
 90
        0
280
     0
281
     0
  0
CLASS
  1
SPATIAL_FILTER
  2
AcDbSpatialFilter
  3
AutoCAD 2000
 90
        0
280
     0
281
     0
  0
CLASS
  1
XRECORD
  2
AcDbXrecord
  3
AutoCAD 2000
 90
        0
280
     0
281
     0
  0
CLASS
  1
SORTENTSTABLE
  2
AcDbSortentsTable
  3
AutoCAD 2000
 90
        0
280
     0
281
     0
  0
CLASS
  1
LAYER_INDEX
  2
AcDbLayerIndex
  3
AutoCAD 2000
 90
        0
280
     0
281
     0
  0
CLASS
  1
SPATIAL_INDEX
  2
AcDbSpatialIndex
  3
AutoCAD 2000
 90
        0
280
     0
281
     0
  0
CLASS
  1
OBJECT_PTR
  2
CAseDLPNTableRecord
  3
ASE-LPNTableRecord
 90
        1
280
     1
281
     0
  0
CLASS
  1
LAYOUT
  2
AcDbLayout
  3
ObjectDBX Classes
 90
        0
280
     0
281
     0
  0
CLASS
  1
PLOTSETTINGS
  2
AcDbPlotSettings
  3
AutoCAD 2000
 90
        0
280
     0
281
     0
  0
CLASS
  1
ACDBDICTIONARYWDFLT
  2
AcDbDictionaryWithDefault
  3
AutoCAD 2000
 90
        0
280
     0
281
     0
  0
CLASS
  1
ACDBPLACEHOLDER
  2
AcDbPlaceHolder
  3
ObjectDBX Classes
 90
        0
280
     0
281
     0
  0
CLASS
  1
VBAPROJECT
  2
AcDbVbaProject
  3
ObjectDBX Classes
 90
        0
280
     0
281
     0
  0
CLASS
  1
WIPEOUT
  2
AcDbWipeout
  3
WipeOut|AutoCAD Express Tool|expresstools@autodesk.com
 90
      127
280
     0
281
     1
  0
CLASS
  1
WIPEOUTVARIABLES
  2
AcDbWipeoutVariables
  3
WipeOut|AutoCAD Express Tool|expresstools@autodesk.com
 90
        0
280
     0
281
     0
  0
CLASS
  1
RTEXT
  2
RText
  3
RText|AutoCAD Express Tool|expresstools@autodesk.com
 90
        0
280
     0
281
     1
  0
CLASS
  1
ARCALIGNEDTEXT
  2
AcDbArcAlignedText
  3
ATEXT|AutoCAD Express Tool|expresstools@autodesk.com
 90
        0
280
     0
281
     1
  0
CLASS
  1
LONG_TRANSACTION
  2
AcDbLongTransaction
  3
AutoCAD 2000
 90
        0
280
     1
281
     0
  0
CLASS
  1
LWPOLYLINE
  2
AcDbPolyline
  3
AutoCAD 2000
 90
        0
280
     0
281
     1
  0
CLASS
  1
HATCH
  2
AcDbHatch
  3
AutoCAD 2000
 90
        0
280
     0
281
     1
  0
CLASS
  1
XRECORD
  2
AcDbXrecord
  3
AutoCAD 2000
 90
        0
280
     0
281
     0
  0
ENDSEC
  0
SECTION
  2
TABLES
  0
TABLE
  2
VPORT
  5
7
330
0
100
AcDbSymbolTable
 70
     2
  0
VPORT
  5
DE
330
7
100
AcDbSymbolTableRecord
100
AcDbViewportTableRecord
  2
*Active
 70
     0
 10
0.0
 20
0.0
 11
1.0
 21
1.0
 12
107.1171044437361
 22
140.5352130815184
 13
0.0
 23
0.0
 14
1.0
 24
1.0
 15
0.0
 25
0.0
 16
0.0
 26
0.0
 36
1.0
 17
0.0
 27
0.0
 37
0.0
 40
118.4943064149586
 41
1.836842105263158
 42
50.0
 43
0.0
 44
0.0
 50
0.0
 51
0.0
 71
     0
 72
   100
 73
     1
 74
     1
 75
     0
 76
     0
 77
     0
 78
     0
281
     0
 65
     1
110
0.0
120
0.0
130
0.0
111
1.0
121
0.0
131
0.0
112
0.0
122
1.0
132
0.0
 79
     0
146
0.0
  0
ENDTAB
  0
TABLE
  2
LTYPE
  5
4
330
0
100
AcDbSymbolTable
 70
     1
  0
LTYPE
  5
11
330
4
100
AcDbSymbolTableRecord
100
AcDbLinetypeTableRecord
  2
BYBLOCK
 70
     0
  3

 72
    65
 73
     0
 40
0.0
  0
LTYPE
  5
12
330
4
100
AcDbSymbolTableRecord
100
AcDbLinetypeTableRecord
  2
BYLAYER
 70
     0
  3

 72
    65
 73
     0
 40
0.0
  0
LTYPE
  5
13
330
4
100
AcDbSymbolTableRecord
100
AcDbLinetypeTableRecord
  2
CONTINUOUS
 70
     0
  3
Solid line
 72
    65
 73
     0
 40
0.0
  0
ENDTAB
  0
TABLE
  2
LAYER
  5
2
330
0
100
AcDbSymbolTable
 70
     2
  0
LAYER
  5
14
330
2
100
AcDbSymbolTableRecord
100
AcDbLayerTableRecord
  2
0
 70
     0
 62
     7
  6
CONTINUOUS
370
    -3
390
0
  0
LAYER
  5
21
330
2
100
AcDbSymbolTableRecord
100
AcDbLayerTableRecord
  2
LAYER_1
 70
     0
 62
     5
  6
CONTINUOUS
370
    -3
390
0
  0
ENDTAB
  0
TABLE
  2
STYLE
  5
3
330
0
100
AcDbSymbolTable
 70
     5
  0
STYLE
  5
17
330
3
100
AcDbSymbolTableRecord
100
AcDbTextStyleTableRecord
  2
STANDARD
 70
     0
 40
0.0
 41
1.0
 50
0.0
 71
     0
 42
0.2
  3
txt
  4

  0
STYLE
  5
1D
330
3
100
AcDbSymbolTableRecord
100
AcDbTextStyleTableRecord
  2
STD
 70
     0
 40
0.0
 41
1.0
 50
0.0
 71
     0
 42
0.2
  3
txt
  4

  0
STYLE
  5
1E
330
3
100
AcDbSymbolTableRecord
100
AcDbTextStyleTableRecord
  2
TATESTD
 70
     4
 40
0.0
 41
1.0
 50
0.0
 71
     0
 42
0.2
  3
txt
  4

  0
STYLE
  5
1F
330
3
100
AcDbSymbolTableRecord
100
AcDbTextStyleTableRecord
  2
KANJISTD
 70
     0
 40
0.0
 41
1.0
 50
0.0
 71
     0
 42
0.2
  3
txt
  4
extfont
  0
STYLE
  5
20
330
3
100
AcDbSymbolTableRecord
100
AcDbTextStyleTableRecord
  2
KANJITATE
 70
     4
 40
0.0
 41
1.0
 50
0.0
 71
     0
 42
0.2
  3
txt
  4
extfont
  0
ENDTAB
  0
TABLE
  2
VIEW
  5
5
330
0
100
AcDbSymbolTable
 70
     0
  0
ENDTAB
  0
TABLE
  2
UCS
  5
6
330
0
100
AcDbSymbolTable
 70
     0
  0
ENDTAB
  0
TABLE
  2
APPID
  5
8
330
0
100
AcDbSymbolTable
 70
     1
  0
APPID
  5
16
330
8
100
AcDbSymbolTableRecord
100
AcDbRegAppTableRecord
  2
ACAD
 70
     0
  0
ENDTAB
  0
TABLE
  2
DIMSTYLE
  5
9
330
0
100
AcDbSymbolTable
 70
     1
100
AcDbDimStyleTable
  0
DIMSTYLE
105
18
330
9
100
AcDbSymbolTableRecord
100
AcDbDimStyleTableRecord
  2
STANDARD
 70
     0
  3

  4

289
     0
340
17
  0
ENDTAB
  0
TABLE
  2
BLOCK_RECORD
  5
1
330
0
100
AcDbSymbolTable
 70
     0
  0
BLOCK_RECORD
  5
A
330
1
100
AcDbSymbolTableRecord
100
AcDbBlockTableRecord
  2
*MODEL_SPACE
340
D9
  0
BLOCK_RECORD
  5
B
330
1
100
AcDbSymbolTableRecord
100
AcDbBlockTableRecord
  2
*PAPER_SPACE
340
DA
  0
ENDTAB
  0
ENDSEC
  0
SECTION
  2
BLOCKS
  0
BLOCK
  5
D
330
A
100
AcDbEntity
  8
0
100
AcDbBlockBegin
  2
*MODEL_SPACE
 70
     0
 10
0.0
 20
0.0
 30
0.0
  3
*MODEL_SPACE
  1

  4

  0
ENDBLK
  5
E
330
A
100
AcDbEntity
  8
0
100
AcDbBlockEnd
  0
BLOCK
  5
F
330
B
100
AcDbEntity
 67
     1
  8
0
100
AcDbBlockBegin
  2
*PAPER_SPACE
 70
     0
 10
0.0
 20
0.0
 30
0.0
  3
*PAPER_SPACE
  1

  4

  0
ENDBLK
  5
10
330
B
100
AcDbEntity
 67
     1
  8
0
100
AcDbBlockEnd
  0
ENDSEC
  0
SECTION
  2
ENTITIES
  0
LWPOLYLINE
  5
C7
330
A
100
AcDbEntity
  8
LAYER_1
 62
     7
100
AcDbPolyline
 90
       11
 70
     0
 43
0.0
 10
68.72242024739583
 20
177.0942721896701
 10
68.93756646050346
 20
191.4958048502604
 10
76.31213785807292
 20
194.4403279622396
 10
76.19500461154513
 20
196.9376776801215
 10
85.37618408203124
 20
195.122112358941
 10
85.49366183810763
 20
196.9376776801215
 10
90.69713406032986
 20
198.8617635091146
 10
152.2541002061632
 20
175.613225640191
 10
151.9113132052951
 20
96.04805636935762
 10
131.281047905816
 20
84.37779541015624
 10
108.9618245442708
 20
97.7895521375868
  0
SPLINE
  5
C6
330
A
100
AcDbEntity
  8
LAYER_1
 62
     7
100
AcDbSpline
210
0.0
220
0.0
230
1.0
 70
    11
 71
     3
 72
    41
 73
    37
 74
     0
 42
0.0000000001
 43
0.0000000001
 40
0.0
 40
0.0
 40
0.0
 40
0.0
 40
1.0
 40
1.0
 40
1.0
 40
2.0
 40
2.0
 40
2.0
 40
3.0
 40
3.0
 40
3.0
 40
4.0
 40
4.0
 40
4.0
 40
5.0
 40
5.0
 40
5.0
 40
6.0
 40
6.0
 40
6.0
 40
7.0
 40
7.0
 40
7.0
 40
8.0
 40
8.0
 40
8.0
 40
9.0
 40
9.0
 40
9.0
 40
10.0
 40
10.0
 40
10.0
 40
11.0
 40
11.0
 40
11.0
 40
12.0
 40
12.0
 40
12.0
 40
12.0
 10
91.51810031467014
 20
90.06668158637152
 30
0.0
 10
91.98628879123262
 20
89.73216281467013
 30
0.0
 10
92.78934054904514
 20
89.26328531901041
 30
0.0
 10
93.92725558810763
 20
89.86583251953124
 30
0.0
 10
95.06517062717013
 20
90.46803521050346
 30
0.0
 10
108.9861124674479
 20
97.82985975477429
 30
0.0
 10
108.9861124674479
 20
97.82985975477429
 30
0.0
 10
108.9861124674479
 20
97.82985975477429
 30
0.0
 10
115.0095174153646
 20
105.0576700846354
 30
0.0
 10
115.2100219726562
 20
105.3253540039062
 30
0.0
 10
115.4108710394965
 20
105.5930379231771
 30
0.0
 10
115.6785549587674
 20
106.329254828559
 30
0.0
 10
115.6785549587674
 20
106.9986368815104
 30
0.0
 10
115.6785549587674
 20
107.6676744249132
 30
0.0
 10
115.8794040256076
 20
146.0157212999132
 30
0.0
 10
115.8794040256076
 20
146.0157212999132
 30
0.0
 10
115.8794040256076
 20
146.0157212999132
 30
0.0
 10
110.3744859483507
 20
148.3790568033854
 30
0.0
 10
109.6551500108507
 20
148.6929050021701
 30
0.0
 10
108.5844143337674
 20
149.1610934787326
 30
0.0
 10
108.3835652669271
 20
149.0942586263021
 30
0.0
 10
107.3796644422743
 20
148.7593953450521
 30
0.0
 10
106.3757636176215
 20
148.4248765733507
 30
0.0
 10
99.14760877821179
 20
145.6140231662326
 30
0.0
 10
99.14760877821179
 20
145.6140231662326
 30
0.0
 10
99.14760877821179
 20
145.6140231662326
 30
0.0
 10
98.74591064453124
 20
106.664118109809
 30
0.0
 10
98.74591064453124
 20
106.2624199761285
 30
0.0
 10
98.74591064453124
 20
105.8610663519965
 30
0.0
 10
98.47857123480902
 20
104.388288031684
 30
0.0
 10
98.27772216796875
 20
103.853264702691
 30
0.0
 10
98.07687310112847
 20
103.3175523546007
 30
0.0
 10
93.32505289713541
 20
91.80645480685763
 30
0.0
 10
92.99018961588541
 20
91.40510118272569
 30
0.0
 10
92.65567084418402
 20
91.00340304904513
 30
0.0
 10
92.5216566297743
 20
90.40120035807291
 30
0.0
 10
91.51810031467014
 20
90.06668158637152
 30
0.0
  0
LINE
  5
C5
330
A
100
AcDbEntity
  8
LAYER_1
 62
     7
100
AcDbLine
 10
114.8713690863715
 20
145.5599351671007
 30
0.0
 11
115.8332397460937
 21
145.9740356445312
 31
0.0
  0
LINE
  5
C4
330
A
100
AcDbEntity
  8
LAYER_1
 62
     7
100
AcDbLine
 10
99.13520643446179
 20
145.6519192165798
 30
0.0
 11
100.1432413736979
 21
145.1499688042535
 31
0.0
  0
SPLINE
  5
C3
330
A
100
AcDbEntity
  8
LAYER_1
 62
     7
100
AcDbSpline
210
0.0
220
0.0
230
1.0
 70
     8
 71
     3
 72
    11
 73
     7
 74
     0
 42
0.0000000001
 43
0.0000000001
 40
0.0
 40
0.0
 40
0.0
 40
0.0
 40
1.0
 40
1.0
 40
1.0
 40
2.0
 40
2.0
 40
2.0
 40
2.0
 10
101.9920518663194
 20
106.8146687825521
 30
0.0
 10
101.6406521267361
 20
106.6639458550347
 30
0.0
 10
101.2890801323785
 20
106.7976155598958
 30
0.0
 10
101.2890801323785
 20
107.3331556532118
 30
0.0
 10
101.2890801323785
 20
108.2088989257812
 30
0.0
 10
101.8347832573785
 20
108.7208401150174
 30
0.0
 10
102.2461276584201
 20
108.6908677842882
 30
0.0
  0
SPLINE
  5
C2
330
A
100
AcDbEntity
  8
LAYER_1
 62
     7
100
AcDbSpline
210
0.0
220
0.0
230
1.0
 70
     8
 71
     3
 72
    11
 73
     7
 74
     0
 42
0.0000000001
 43
0.0000000001
 40
0.0
 40
0.0
 40
0.0
 40
0.0
 40
1.0
 40
1.0
 40
1.0
 40
2.0
 40
2.0
 40
2.0
 40
2.0
 10
102.1258938259549
 20
122.0733412000868
 30
0.0
 10
101.7744940863715
 20
121.9226182725694
 30
0.0
 10
101.4230943467882
 20
122.0564602322049
 30
0.0
 10
101.4230943467882
 20
122.5918280707465
 30
0.0
 10
101.4230943467882
 20
123.4703274197048
 30
0.0
 10
101.9720703125
 20
123.9827853732639
 30
0.0
 10
102.3839314778646
 20
123.9495402018229
 30
0.0
  0
SPLINE
  5
C1
330
A
100
AcDbEntity
  8
LAYER_1
 62
     7
100
AcDbSpline
210
0.0
220
0.0
230
1.0
 70
     8
 71
     3
 72
    11
 73
     7
 74
     0
 42
0.0000000001
 43
0.0000000001
 40
0.0
 40
0.0
 40
0.0
 40
0.0
 40
1.0
 40
1.0
 40
1.0
 40
2.0
 40
2.0
 40
2.0
 40
2.0
 10
102.0590589735243
 20
134.6553466796875
 30
0.0
 10
101.707659233941
 20
134.5046237521701
 30
0.0
 10
101.3562594943576
 20
134.6384657118055
 30
0.0
 10
101.3562594943576
 20
135.1740058051215
 30
0.0
 10
101.3562594943576
 20
136.0426866319444
 30
0.0
 10
101.8933498806424
 20
136.5534220377604
 30
0.0
 10
102.3034884982639
 20
136.5322347005208
 30
0.0
  0
SPLINE
  5
C0
330
A
100
AcDbEntity
  8
LAYER_1
 62
     7
100
AcDbSpline
210
0.0
220
0.0
230
1.0
 70
     8
 71
     3
 72
    11
 73
     7
 74
     0
 42
0.0000000001
 43
0.0000000001
 40
0.0
 40
0.0
 40
0.0
 40
0.0
 40
1.0
 40
1.0
 40
1.0
 40
2.0
 40
2.0
 40
2.0
 40
2.0
 10
110.2973158094618
 20
137.7073567708333
 30
0.0
 10
110.4706041124132
 20
137.8253512912326
 30
0.0
 10
110.5922159830729
 20
138.0308512369792
 30
0.0
 10
110.5922159830729
 20
138.319377983941
 30
0.0
 10
110.5922159830729
 20
139.3780558268229
 30
0.0
 10
109.5717787000868
 20
139.5089694552951
 30
0.0
 10
109.2298529730903
 20
138.9436292860243
 30
0.0
  0
SPLINE
  5
BF
330
A
100
AcDbEntity
  8
LAYER_1
 62
     7
100
AcDbSpline
210
0.0
220
0.0
230
1.0
 70
     8
 71
     3
 72
    11
 73
     7
 74
     0
 42
0.0000000001
 43
0.0000000001
 40
0.0
 40
0.0
 40
0.0
 40
0.0
 40
1.0
 40
1.0
 40
1.0
 40
2.0
 40
2.0
 40
2.0
 40
2.0
 10
114.0082004123264
 20
142.5763102213542
 30
0.0
 10
114.2670993381076
 20
142.6598537868923
 30
0.0
 10
114.4741495768229
 20
142.8951538085937
 30
0.0
 10
114.4741495768229
 20
143.2717027452257
 30
0.0
 10
114.4741495768229
 20
144.336237250434
 30
0.0
 10
113.441998969184
 20
144.4626722547743
 30
0.0
 10
113.1059299045139
 20
143.8866522894965
 30
0.0
  0
SPLINE
  5
BE
330
A
100
AcDbEntity
  8
LAYER_1
 62
     7
100
AcDbSpline
210
0.0
220
0.0
230
1.0
 70
     8
 71
     3
 72
    11
 73
     7
 74
     0
 42
0.0000000001
 43
0.0000000001
 40
0.0
 40
0.0
 40
0.0
 40
0.0
 40
1.0
 40
1.0
 40
1.0
 40
2.0
 40
2.0
 40
2.0
 40
2.0
 10
114.0516086154514
 20
132.7851765950521
 30
0.0
 10
114.2564195421007
 20
132.8943861219618
 30
0.0
 10
114.4069702148437
 20
133.1128051757812
 30
0.0
 10
114.4069702148437
 20
133.4338880750868
 30
0.0
 10
114.4069702148437
 20
134.3876627604167
 30
0.0
 10
113.5787692599826
 20
134.5885118272569
 30
0.0
 10
113.1644965277778
 20
134.2055894639757
 30
0.0
  0
SPLINE
  5
BD
330
A
100
AcDbEntity
  8
LAYER_1
 62
     7
100
AcDbSpline
210
0.0
220
0.0
230
1.0
 70
     8
 71
     3
 72
    11
 73
     7
 74
     0
 42
0.0000000001
 43
0.0000000001
 40
0.0
 40
0.0
 40
0.0
 40
0.0
 40
1.0
 40
1.0
 40
1.0
 40
2.0
 40
2.0
 40
2.0
 40
2.0
 10
114.2521131727431
 20
123.456891547309
 30
0.0
 10
114.4219563802083
 20
123.5754028320312
 30
0.0
 10
114.5406399197048
 20
123.779352484809
 30
0.0
 10
114.5406399197048
 20
124.0642618815104
 30
0.0
 10
114.5406399197048
 20
125.017864312066
 30
0.0
 10
113.712611219618
 20
125.2187133789062
 30
0.0
 10
113.2985107421875
 20
124.8361355251736
 30
0.0
  0
SPLINE
  5
BC
330
A
100
AcDbEntity
  8
LAYER_1
 62
     7
100
AcDbSpline
210
0.0
220
0.0
230
1.0
 70
     8
 71
     3
 72
    11
 73
     7
 74
     0
 42
0.0000000001
 43
0.0000000001
 40
0.0
 40
0.0
 40
0.0
 40
0.0
 40
1.0
 40
1.0
 40
1.0
 40
2.0
 40
2.0
 40
2.0
 40
2.0
 10
113.9472222222222
 20
113.5944444444444
 30
0.0
 10
114.1368747287326
 20
113.7083048502604
 30
0.0
 10
114.2733005099826
 20
113.9208672417535
 30
0.0
 10
114.2733005099826
 20
114.2264472113715
 30
0.0
 10
114.2733005099826
 20
115.1802218967014
 30
0.0
 10
113.4450995551215
 20
115.3807264539931
 30
0.0
 10
113.0308268229167
 20
114.9981486002604
 30
0.0
  0
SPLINE
  5
BB
330
A
100
AcDbEntity
  8
LAYER_1
 62
     7
100
AcDbSpline
210
0.0
220
0.0
230
1.0
 70
     8
 71
     3
 72
    11
 73
     7
 74
     0
 42
0.0000000001
 43
0.0000000001
 40
0.0
 40
0.0
 40
0.0
 40
0.0
 40
1.0
 40
1.0
 40
1.0
 40
2.0
 40
2.0
 40
2.0
 40
2.0
 10
113.9410210503472
 20
106.0355604383681
 30
0.0
 10
114.1999199761285
 20
106.1191040039062
 30
0.0
 10
114.4069702148437
 20
106.3544040256076
 30
0.0
 10
114.4069702148437
 20
106.7309529622396
 30
0.0
 10
114.4069702148437
 20
107.7805013020833
 30
0.0
 10
113.4032416449653
 20
107.9179606119792
 30
0.0
 10
113.0532199435764
 20
107.3689846462674
 30
0.0
  0
LINE
  5
BA
330
A
100
AcDbEntity
  8
LAYER_1
 62
     7
100
AcDbLine
 10
107.6514824761285
 20
108.5379055447049
 30
0.0
 11
107.915032280816
 21
143.6062215169271
 31
0.0
  0
LINE
  5
B9
330
A
100
AcDbEntity
  8
LAYER_1
 62
     7
100
AcDbLine
 10
108.2495510525174
 20
100.2390150282118
 30
0.0
 11
108.5844143337674
 21
145.0118204752604
 31
0.0
  0
SPLINE
  5
B8
330
A
100
AcDbEntity
  8
LAYER_1
 62
     7
100
AcDbSpline
210
0.0
220
0.0
230
1.0
 70
     8
 71
     3
 72
    35
 73
    31
 74
     0
 42
0.0000000001
 43
0.0000000001
 40
0.0
 40
0.0
 40
0.0
 40
0.0
 40
1.0
 40
1.0
 40
1.0
 40
2.0
 40
2.0
 40
2.0
 40
3.0
 40
3.0
 40
3.0
 40
4.0
 40
4.0
 40
4.0
 40
5.0
 40
5.0
 40
5.0
 40
6.0
 40
6.0
 40
6.0
 40
7.0
 40
7.0
 40
7.0
 40
8.0
 40
8.0
 40
8.0
 40
9.0
 40
9.0
 40
9.0
 40
10.0
 40
10.0
 40
10.0
 40
10.0
 10
92.5216566297743
 20
89.5981486002604
 30
0.0
 10
93.19103868272569
 20
89.5981486002604
 30
0.0
 10
93.39188774956597
 20
89.73216281467013
 30
0.0
 10
93.79358588324652
 20
90.60204942491319
 30
0.0
 10
94.19493950737846
 20
91.47193603515625
 30
0.0
 10
98.87992485894097
 20
102.6485148111979
 30
0.0
 10
99.21478814019096
 20
103.2507175021701
 30
0.0
 10
99.54930691189236
 20
103.853264702691
 30
0.0
 10
99.75015597873264
 20
104.6563164605035
 30
0.0
 10
99.75015597873264
 20
105.5262030707465
 30
0.0
 10
99.75015597873264
 20
106.3960896809896
 30
0.0
 10
100.1515096028646
 20
145.1541029188368
 30
0.0
 10
100.1515096028646
 20
145.1541029188368
 30
0.0
 10
100.1515096028646
 20
145.1541029188368
 30
0.0
 10
107.154010687934
 20
147.7682413736979
 30
0.0
 10
107.8230482313368
 20
148.0359252929687
 30
0.0
 10
108.4924302842882
 20
148.3036092122396
 30
0.0
 10
109.0153957790799
 20
148.1571926540798
 30
0.0
 10
109.6844333224826
 20
147.889508734809
 30
0.0
 10
110.353815375434
 20
147.6218248155382
 30
0.0
 10
114.9006523980035
 20
145.5261732313368
 30
0.0
 10
114.9006523980035
 20
145.5261732313368
 30
0.0
 10
114.9006523980035
 20
145.5261732313368
 30
0.0
 10
114.8755032009549
 20
108.671575249566
 30
0.0
 10
114.8755032009549
 20
108.0693725585937
 30
0.0
 10
114.8755032009549
 20
107.4671698676215
 30
0.0
 10
114.607819281684
 20
105.9275566948785
 30
0.0
 10
114.1392862955729
 20
105.3925333658854
 30
0.0
 10
113.6707533094618
 20
104.8568210177951
 30
0.0
 10
108.1158813476562
 20
97.42850613064235
 30
0.0
 10
108.1158813476562
 20
97.42850613064235
 30
0.0
  0
SPLINE
  5
B7
330
A
100
AcDbEntity
  8
LAYER_1
 62
     7
100
AcDbSpline
210
0.0
220
0.0
230
1.0
 70
     8
 71
     3
 72
    11
 73
     7
 74
     0
 42
0.0000000001
 43
0.0000000001
 40
0.0
 40
0.0
 40
0.0
 40
0.0
 40
1.0
 40
1.0
 40
1.0
 40
2.0
 40
2.0
 40
2.0
 40
2.0
 10
131.6824015299479
 20
131.9194240993924
 30
0.0
 10
132.9584648980035
 20
133.6219902886285
 30
0.0
 10
136.0494045681423
 20
142.4938001844618
 30
0.0
 10
137.1246188693576
 20
145.6936048719618
 30
0.0
 10
139.5882066514757
 20
153.0009969075521
 30
0.0
 10
140.0147094726563
 20
166.9422648111979
 30
0.0
 10
138.6511406792535
 20
170.7694213867187
 30
0.0
  0
SPLINE
  5
B6
330
A
100
AcDbEntity
  8
LAYER_1
 62
     7
100
AcDbSpline
210
0.0
220
0.0
230
1.0
 70
     8
 71
     3
 72
    14
 73
    10
 74
     0
 42
0.0000000001
 43
0.0000000001
 40
0.0
 40
0.0
 40
0.0
 40
0.0
 40
1.0
 40
1.0
 40
1.0
 40
2.0
 40
2.0
 40
2.0
 40
3.0
 40
3.0
 40
3.0
 40
3.0
 10
136.2754028320312
 20
170.0039211697049
 30
0.0
 10
136.6977715386285
 20
166.5198961046007
 30
0.0
 10
136.8693372938368
 20
160.4837443033854
 30
0.0
 10
136.5262057834201
 20
158.1875881618923
 30
0.0
 10
136.1875528971354
 20
155.8914320203993
 30
0.0
 10
135.4220526801215
 20
151.6415622287326
 30
0.0
 10
134.9118340386285
 20
150.0268459743924
 30
0.0
 10
134.4012708875868
 20
148.4124742296007
 30
0.0
 10
133.552399359809
 20
142.0380140516493
 30
0.0
 10
131.599030219184
 20
140.3354478624132
 30
0.0
  0
SPLINE
  5
B5
330
A
100
AcDbEntity
  8
LAYER_1
 62
     7
100
AcDbSpline
210
0.0
220
0.0
230
1.0
 70
     8
 71
     3
 72
    11
 73
     7
 74
     0
 42
0.0000000001
 43
0.0000000001
 40
0.0
 40
0.0
 40
0.0
 40
0.0
 40
1.0
 40
1.0
 40
1.0
 40
2.0
 40
2.0
 40
2.0
 40
2.0
 10
133.8073364257812
 20
169.1550496419271
 30
0.0
 10
134.0626180013021
 20
167.1972018771701
 30
0.0
 10
133.8073364257812
 20
159.291741265191
 30
0.0
 10
133.552399359809
 20
157.5936537000868
 30
0.0
 10
133.2971177842882
 20
155.8914320203993
 30
0.0
 10
133.2971177842882
 20
151.980559624566
 30
0.0
 10
131.599030219184
 20
150.2821275499132
 30
0.0
  0
LWPOLYLINE
  5
B0
330
A
100
AcDbEntity
  8
LAYER_1
 62
     7
100
AcDbPolyline
 90
        3
 70
     0
 43
0.0
 10
131.2600328233507
 20
84.39881049262152
 10
131.7702514648437
 20
168.3561319986979
 10
152.2541002061632
 20
175.613225640191
  0
LWPOLYLINE
  5
AB
330
A
100
AcDbEntity
  8
LAYER_1
 62
     7
100
AcDbPolyline
 90
        3
 70
     0
 43
0.0
 10
85.34276665581596
 20
195.1307250976562
 10
86.72321641710069
 20
194.7707126193576
 10
85.51467692057291
 20
196.9376776801215
  0
LWPOLYLINE
  5
A6
330
A
100
AcDbEntity
  8
LAYER_1
 62
     7
100
AcDbPolyline
 90
        3
 70
     0
 43
0.0
 10
76.29112277560763
 20
194.4320597330729
 10
77.40802273220486
 20
194.8964586046007
 10
76.2156751844618
 20
196.9166625976562
  0
SPLINE
  5
A5
330
A
100
AcDbEntity
  8
LAYER_1
 62
     7
100
AcDbSpline
210
0.0
220
0.0
230
1.0
 70
     8
 71
     3
 72
    17
 73
    13
 74
     0
 42
0.0000000001
 43
0.0000000001
 40
0.0
 40
0.0
 40
0.0
 40
0.0
 40
1.0
 40
1.0
 40
1.0
 40
2.0
 40
2.0
 40
2.0
 40
3.0
 40
3.0
 40
3.0
 40
4.0
 40
4.0
 40
4.0
 40
4.0
 10
131.5401190863715
 20
125.6035305447049
 30
0.0
 10
133.0797322591146
 20
127.276813422309
 30
0.0
 10
134.6858357747396
 20
132.6308363172743
 30
0.0
 10
136.225104437934
 20
134.5714586046007
 30
0.0
 10
137.7647176106771
 20
136.5124254014757
 30
0.0
 10
138.9691229926215
 20
141.3307359483507
 30
0.0
 10
139.5044908311632
 20
143.0708536783854
 30
0.0
 10
140.0398586697048
 20
144.8109714084201
 30
0.0
 10
141.0441040039062
 20
150.2321736653646
 30
0.0
 10
141.1109388563368
 20
151.2357299804687
 30
0.0
 10
141.1777737087674
 20
152.2396308051215
 30
0.0
 10
143.1187405056423
 20
166.896100531684
 30
0.0
 10
141.5794718424479
 20
171.8487698025174
 30
0.0
  0
SPLINE
  5
A4
330
A
100
AcDbEntity
  8
LAYER_1
 62
     7
100
AcDbSpline
210
0.0
220
0.0
230
1.0
 70
     8
 71
     3
 72
    17
 73
    13
 74
     0
 42
0.0000000001
 43
0.0000000001
 40
0.0
 40
0.0
 40
0.0
 40
0.0
 40
1.0
 40
1.0
 40
1.0
 40
2.0
 40
2.0
 40
2.0
 40
3.0
 40
3.0
 40
3.0
 40
4.0
 40
4.0
 40
4.0
 40
4.0
 10
144.1226413302951
 20
172.7186564127604
 30
0.0
 10
144.5239949544271
 20
168.6362182617187
 30
0.0
 10
144.0558064778646
 20
163.9515774197049
 30
0.0
 10
144.3234903971354
 20
161.0067097981771
 30
0.0
 10
144.5911743164062
 20
158.0621866861979
 30
0.0
 10
144.1226413302951
 20
151.5702487521701
 30
0.0
 10
143.2524102105035
 20
148.2912068684896
 30
0.0
 10
142.3825236002604
 20
145.0118204752604
 30
0.0
 10
139.6385050455729
 20
136.1775621202257
 30
0.0
 10
138.3669203016493
 20
133.3667087131076
 30
0.0
 10
137.0953355577257
 20
130.5561998155382
 30
0.0
 10
134.5518215603298
 20
121.9896253797743
 30
0.0
 10
131.473284233941
 20
119.3796210394965
 30
0.0
  0
SPLINE
  5
A3
330
A
100
AcDbEntity
  8
LAYER_1
 62
     7
100
AcDbSpline
210
0.0
220
0.0
230
1.0
 70
     8
 71
     3
 72
    14
 73
    10
 74
     0
 42
0.0000000001
 43
0.0000000001
 40
0.0
 40
0.0
 40
0.0
 40
0.0
 40
1.0
 40
1.0
 40
1.0
 40
2.0
 40
2.0
 40
2.0
 40
3.0
 40
3.0
 40
3.0
 40
3.0
 10
131.4064493815104
 20
114.1592678493924
 30
0.0
 10
133.2802368164062
 20
115.8993855794271
 30
0.0
 10
138.4337551540799
 20
125.4030259874132
 30
0.0
 10
139.7053398980035
 20
128.6152330186632
 30
0.0
 10
140.9772691514757
 20
131.8277845594618
 30
0.0
 10
143.5621242947049
 20
139.4486802842882
 30
0.0
 10
144.9256930881076
 20
145.8817070855035
 30
0.0
 10
147.536041937934
 20
158.195856391059
 30
0.0
 10
146.6658108181424
 20
169.1047512478299
 30
0.0
 10
146.0636081271701
 20
173.4548733181424
 30
0.0
  0
SPLINE
  5
A2
330
A
100
AcDbEntity
  8
LAYER_1
 62
     7
100
AcDbSpline
210
0.0
220
0.0
230
1.0
 70
     8
 71
     3
 72
    20
 73
    16
 74
     0
 42
0.0000000001
 43
0.0000000001
 40
0.0
 40
0.0
 40
0.0
 40
0.0
 40
1.0
 40
1.0
 40
1.0
 40
2.0
 40
2.0
 40
2.0
 40
3.0
 40
3.0
 40
3.0
 40
4.0
 40
4.0
 40
4.0
 40
5.0
 40
5.0
 40
5.0
 40
5.0
 10
148.4059285481771
 20
174.2579250759549
 30
0.0
 10
149.142145453559
 20
169.9078030056423
 30
0.0
 10
150.0792114257812
 20
161.2075588650174
 30
0.0
 10
149.4098293728299
 20
156.9914510091146
 30
0.0
 10
148.7404473198785
 20
152.7749986436632
 30
0.0
 10
148.6067776150173
 20
147.889508734809
 30
0.0
 10
147.0003295898437
 20
142.8031697591146
 30
0.0
 10
145.3942260742188
 20
137.7168307834201
 30
0.0
 10
143.2524102105035
 20
130.3553507486979
 30
0.0
 10
141.713141547309
 20
127.3436482747396
 30
0.0
 10
140.1738728841146
 20
124.3319458007812
 30
0.0
 10
138.5677693684896
 20
119.9149888780382
 30
0.0
 10
136.7604722764757
 20
117.2381496853298
 30
0.0
 10
134.9535196940104
 20
114.5609659830729
 30
0.0
 10
132.4103502061632
 20
109.876325141059
 30
0.0
 10
131.3396145290799
 20
107.1991414388021
 30
0.0
  0
SPLINE
  5
A1
330
A
100
AcDbEntity
  8
LAYER_1
 62
     7
100
AcDbSpline
210
0.0
220
0.0
230
1.0
 70
     8
 71
     3
 72
    17
 73
    13
 74
     0
 42
0.0000000001
 43
0.0000000001
 40
0.0
 40
0.0
 40
0.0
 40
0.0
 40
1.0
 40
1.0
 40
1.0
 40
2.0
 40
2.0
 40
2.0
 40
3.0
 40
3.0
 40
3.0
 40
4.0
 40
4.0
 40
4.0
 40
4.0
 10
131.4064493815104
 20
103.853264702691
 30
0.0
 10
133.2802368164062
 20
105.8610663519965
 30
0.0
 10
137.4970336914062
 20
111.482428656684
 30
0.0
 10
139.3039862738715
 20
115.3640177408854
 30
0.0
 10
141.1109388563368
 20
119.2459513346354
 30
0.0
 10
144.5911743164062
 20
126.4737616644965
 30
0.0
 10
145.4610609266493
 20
128.882916937934
 30
0.0
 10
146.331292046441
 20
131.2920722113715
 30
0.0
 10
148.807282172309
 20
139.1224297417535
 30
0.0
 10
149.878362358941
 20
143.472551812066
 30
0.0
 10
150.9490980360243
 20
147.8226738823785
 30
0.0
 10
151.819329155816
 20
151.0352254231771
 30
0.0
 10
152.1538479275174
 20
155.8535359700521
 30
0.0
  0
SPLINE
  5
A0
330
A
100
AcDbEntity
  8
LAYER_1
 62
     7
100
AcDbSpline
210
0.0
220
0.0
230
1.0
 70
     8
 71
     3
 72
    14
 73
    10
 74
     0
 42
0.0000000001
 43
0.0000000001
 40
0.0
 40
0.0
 40
0.0
 40
0.0
 40
1.0
 40
1.0
 40
1.0
 40
2.0
 40
2.0
 40
2.0
 40
3.0
 40
3.0
 40
3.0
 40
3.0
 10
152.0870130750868
 20
141.531585015191
 30
0.0
 10
150.8154283311632
 20
136.5792602539062
 30
0.0
 10
148.8744615342882
 20
129.2846150716146
 30
0.0
 10
147.201178656684
 20
125.1349975585937
 30
0.0
 10
145.5282402886285
 20
120.9857245551215
 30
0.0
 10
144.8588582356771
 20
119.6473049587674
 30
0.0
 10
141.6463066948785
 20
114.2932820638021
 30
0.0
 10
138.4337551540799
 20
108.9392591688368
 30
0.0
 10
134.5518215603298
 20
102.5816799587674
 30
0.0
 10
131.3396145290799
 20
100.3058498806424
 30
0.0
  0
SPLINE
  5
9F
330
A
100
AcDbEntity
  8
LAYER_1
 62
     7
100
AcDbSpline
210
0.0
220
0.0
230
1.0
 70
     8
 71
     3
 72
    14
 73
    10
 74
     0
 42
0.0000000001
 43
0.0000000001
 40
0.0
 40
0.0
 40
0.0
 40
0.0
 40
1.0
 40
1.0
 40
1.0
 40
2.0
 40
2.0
 40
2.0
 40
3.0
 40
3.0
 40
3.0
 40
3.0
 10
131.2727796766493
 20
96.55827501085068
 30
0.0
 10
133.8827840169271
 20
98.69974636501735
 30
0.0
 10
135.4220526801215
 20
100.5070434570312
 30
0.0
 10
138.166071234809
 20
104.3214531792535
 30
0.0
 10
140.9100897894965
 20
108.1362074110243
 30
0.0
 10
143.4532592773437
 20
111.5492635091146
 30
0.0
 10
145.5282402886285
 20
115.6985365125868
 30
0.0
 10
147.6028767903646
 20
119.8481540256076
 30
0.0
 10
150.9490980360243
 20
128.9497517903646
 30
0.0
 10
152.0198337131076
 20
131.0243882921007
 30
0.0
  0
SPLINE
  5
9E
330
A
100
AcDbEntity
  8
LAYER_1
 62
     7
100
AcDbSpline
210
0.0
220
0.0
230
1.0
 70
     8
 71
     3
 72
    14
 73
    10
 74
     0
 42
0.0000000001
 43
0.0000000001
 40
0.0
 40
0.0
 40
0.0
 40
0.0
 40
1.0
 40
1.0
 40
1.0
 40
2.0
 40
2.0
 40
2.0
 40
3.0
 40
3.0
 40
3.0
 40
3.0
 10
152.0198337131076
 20
123.6629082573785
 30
0.0
 10
150.1460462782118
 20
120.182672797309
 30
0.0
 10
147.7365464952257
 20
114.7618150499132
 30
0.0
 10
145.5282402886285
 20
110.8802259657118
 30
0.0
 10
143.3195895724826
 20
106.9986368815104
 30
0.0
 10
142.9847262912326
 20
105.9275566948785
 30
0.0
 10
140.3747219509548
 20
103.1838826497396
 30
0.0
 10
137.7647176106771
 20
100.4398640950521
 30
0.0
 10
134.5518215603298
 20
95.48753933376736
 30
0.0
 10
131.2727796766493
 20
93.4797376844618
 30
0.0
  0
SPLINE
  5
9D
330
A
100
AcDbEntity
  8
LAYER_1
 62
     7
100
AcDbSpline
210
0.0
220
0.0
230
1.0
 70
     8
 71
     3
 72
    14
 73
    10
 74
     0
 42
0.0000000001
 43
0.0000000001
 40
0.0
 40
0.0
 40
0.0
 40
0.0
 40
1.0
 40
1.0
 40
1.0
 40
2.0
 40
2.0
 40
2.0
 40
3.0
 40
3.0
 40
3.0
 40
3.0
 10
131.2727796766493
 20
89.73216281467013
 30
0.0
 10
133.5482652452257
 20
92.00730387369791
 30
0.0
 10
136.3591186523437
 20
94.41680365668402
 30
0.0
 10
138.7014390733507
 20
97.42850613064235
 30
0.0
 10
141.0441040039062
 20
100.4398640950521
 30
0.0
 10
142.8510565863715
 20
102.6485148111979
 30
0.0
 10
144.9925279405382
 20
105.5930379231771
 30
0.0
 10
147.1343438042535
 20
108.5379055447049
 30
0.0
 10
150.748248969184
 20
115.029498969184
 30
0.0
 10
151.9529988606771
 20
117.5058336046007
 30
0.0
  0
SPLINE
  5
9C
330
A
100
AcDbEntity
  8
LAYER_1
 62
     7
100
AcDbSpline
210
0.0
220
0.0
230
1.0
 70
     8
 71
     3
 72
    14
 73
    10
 74
     0
 42
0.0000000001
 43
0.0000000001
 40
0.0
 40
0.0
 40
0.0
 40
0.0
 40
1.0
 40
1.0
 40
1.0
 40
2.0
 40
2.0
 40
2.0
 40
3.0
 40
3.0
 40
3.0
 40
3.0
 10
131.3396145290799
 20
86.7204603407118
 30
0.0
 10
132.8788831922743
 20
88.05887993706597
 30
0.0
 10
136.0242553710937
 20
90.93656819661457
 30
0.0
 10
138.5005900065104
 20
93.68058675130207
 30
0.0
 10
140.9772691514757
 20
96.42460530598957
 30
0.0
 10
144.5911743164062
 20
100.4398640950521
 30
0.0
 10
146.331292046441
 20
102.9830335828993
 30
0.0
 10
148.0714097764757
 20
105.5262030707465
 30
0.0
 10
150.3468953450521
 20
109.8094902886285
 30
0.0
 10
151.9529988606771
 20
112.0846313476562
 30
0.0
  0
SPLINE
  5
9B
330
A
100
AcDbEntity
  8
LAYER_1
 62
     7
100
AcDbSpline
210
0.0
220
0.0
230
1.0
 70
     8
 71
     3
 72
    17
 73
    13
 74
     0
 42
0.0000000001
 43
0.0000000001
 40
0.0
 40
0.0
 40
0.0
 40
0.0
 40
1.0
 40
1.0
 40
1.0
 40
2.0
 40
2.0
 40
2.0
 40
3.0
 40
3.0
 40
3.0
 40
4.0
 40
4.0
 40
4.0
 40
4.0
 10
132.8120483398437
 20
85.31486138237847
 30
0.0
 10
134.9535196940104
 20
87.52351209852429
 30
0.0
 10
137.2958401150173
 20
89.86583251953124
 30
0.0
 10
139.3708211263021
 20
91.40510118272569
 30
0.0
 10
141.4454576280382
 20
92.94436984592014
 30
0.0
 10
143.7877780490451
 20
95.5543741861979
 30
0.0
 10
145.260211859809
 20
97.62901068793401
 30
0.0
 10
146.7326456705729
 20
99.70364718967014
 30
0.0
 10
148.9412963867187
 20
102.5816799587674
 30
0.0
 10
149.6103339301215
 20
104.1877834743924
 30
0.0
 10
150.2797159830729
 20
105.7938869900174
 30
0.0
 10
150.4805650499132
 20
106.9314575195312
 30
0.0
 10
151.9529988606771
 20
107.4671698676215
 30
0.0
  0
SPLINE
  5
9A
330
A
100
AcDbEntity
  8
LAYER_1
 62
     7
100
AcDbSpline
210
0.0
220
0.0
230
1.0
 70
     8
 71
     3
 72
    14
 73
    10
 74
     0
 42
0.0000000001
 43
0.0000000001
 40
0.0
 40
0.0
 40
0.0
 40
0.0
 40
1.0
 40
1.0
 40
1.0
 40
2.0
 40
2.0
 40
2.0
 40
3.0
 40
3.0
 40
3.0
 40
3.0
 10
151.8861640082465
 20
103.5852362738715
 30
0.0
 10
150.8822631835938
 20
102.6485148111979
 30
0.0
 10
150.8822631835938
 20
102.5145005967882
 30
0.0
 10
149.3429945203993
 20
100.0385104709201
 30
0.0
 10
147.8037258572049
 20
97.56217583550347
 30
0.0
 10
147.6028767903646
 20
96.62510986328124
 30
0.0
 10
146.1304429796007
 20
95.4207044813368
 30
0.0
 10
144.6580091688368
 20
94.21595458984375
 30
0.0
 10
142.449358452691
 20
90.80289849175347
 30
0.0
 10
141.2446085611979
 20
90.06668158637152
 30
0.0
  0
SPLINE
  5
99
330
A
100
AcDbEntity
  8
LAYER_1
 62
     7
100
AcDbSpline
210
0.0
220
0.0
230
1.0
 70
     8
 71
     3
 72
    11
 73
     7
 74
     0
 42
0.0000000001
 43
0.0000000001
 40
0.0
 40
0.0
 40
0.0
 40
0.0
 40
1.0
 40
1.0
 40
1.0
 40
2.0
 40
2.0
 40
2.0
 40
2.0
 10
145.7287448459201
 20
92.6766859266493
 30
0.0
 10
146.9334947374132
 20
94.88533664279512
 30
0.0
 10
147.7365464952257
 20
95.28669026692708
 30
0.0
 10
149.0084757486979
 20
96.75912407769097
 30
0.0
 10
150.2797159830729
 20
98.23155788845486
 30
0.0
 10
151.3507961697048
 20
99.56997748480902
 30
0.0
 10
151.8861640082465
 20
100.3730292426215
 30
0.0
  0
SPLINE
  5
98
330
A
100
AcDbEntity
  8
LAYER_1
 62
     7
100
AcDbSpline
210
0.0
220
0.0
230
1.0
 70
     8
 71
     3
 72
    11
 73
     7
 74
     0
 42
0.0000000001
 43
0.0000000001
 40
0.0
 40
0.0
 40
0.0
 40
0.0
 40
1.0
 40
1.0
 40
1.0
 40
2.0
 40
2.0
 40
2.0
 40
2.0
 10
151.9529988606771
 20
98.1647230360243
 30
0.0
 10
151.2839613172743
 20
97.56217583550347
 30
0.0
 10
150.8154283311632
 20
97.42850613064235
 30
0.0
 10
150.4137301974826
 20
96.82595893012152
 30
0.0
 10
150.0120320638021
 20
96.2237562391493
 30
0.0
 10
149.0753106011285
 20
95.01900634765624
 30
0.0
 10
148.9412963867187
 20
94.41680365668402
 30
0.0
  0
LINE
  5
97
330
A
100
AcDbEntity
  8
LAYER_1
 62
     7
100
AcDbLine
 10
68.89140218098957
 20
191.5250881618923
 30
0.0
 11
131.7413126627604
 21
168.3016994900173
 31
0.0
  0
LINE
  5
96
330
A
100
AcDbEntity
  8
LAYER_1
 62
     7
100
AcDbLine
 10
108.6512491861979
 20
149.2241387261285
 30
0.0
 11
108.5992282443576
 21
176.6371080186632
 31
0.0
  0
SPLINE
  5
95
330
A
100
AcDbEntity
  8
LAYER_1
 62
     7
100
AcDbSpline
210
0.0
220
0.0
230
1.0
 70
    11
 71
     3
 72
    11
 73
     7
 74
     0
 42
0.0000000001
 43
0.0000000001
 40
0.0
 40
0.0
 40
0.0
 40
0.0
 40
1.0
 40
1.0
 40
1.0
 40
2.0
 40
2.0
 40
2.0
 40
2.0
 10
103.0295423719618
 20
108.0693725585937
 30
0.0
 10
103.0295423719618
 20
106.8646226671007
 30
0.0
 10
101.6239434136285
 20
106.329254828559
 30
0.0
 10
101.6239434136285
 20
107.3999905056424
 30
0.0
 10
101.6239434136285
 20
108.8055894639757
 30
0.0
 10
103.0295423719618
 20
109.2737779405382
 30
0.0
 10
103.0295423719618
 20
108.0693725585937
 30
0.0
  0
SPLINE
  5
94
330
A
100
AcDbEntity
  8
LAYER_1
 62
     7
100
AcDbSpline
210
0.0
220
0.0
230
1.0
 70
    11
 71
     3
 72
    11
 73
     7
 74
     0
 42
0.0000000001
 43
0.0000000001
 40
0.0
 40
0.0
 40
0.0
 40
0.0
 40
1.0
 40
1.0
 40
1.0
 40
2.0
 40
2.0
 40
2.0
 40
2.0
 10
103.1632120768229
 20
123.3283894856771
 30
0.0
 10
103.1632120768229
 20
122.123639594184
 30
0.0
 10
101.7576131184896
 20
121.5882717556424
 30
0.0
 10
101.7576131184896
 20
122.6586629231771
 30
0.0
 10
101.7576131184896
 20
124.0642618815104
 30
0.0
 10
103.1632120768229
 20
124.5327948676215
 30
0.0
 10
103.1632120768229
 20
123.3283894856771
 30
0.0
  0
SPLINE
  5
93
330
A
100
AcDbEntity
  8
LAYER_1
 62
     7
100
AcDbSpline
210
0.0
220
0.0
230
1.0
 70
    11
 71
     3
 72
    11
 73
     7
 74
     0
 42
0.0000000001
 43
0.0000000001
 40
0.0
 40
0.0
 40
0.0
 40
0.0
 40
1.0
 40
1.0
 40
1.0
 40
2.0
 40
2.0
 40
2.0
 40
2.0
 10
103.0963772243924
 20
135.9102227105035
 30
0.0
 10
103.0963772243924
 20
134.7054728190104
 30
0.0
 10
101.690778266059
 20
134.1701049804688
 30
0.0
 10
101.690778266059
 20
135.2404961480035
 30
0.0
 10
101.690778266059
 20
136.6460951063368
 30
0.0
 10
103.0963772243924
 20
137.1146280924479
 30
0.0
 10
103.0963772243924
 20
135.9102227105035
 30
0.0
  0
SPLINE
  5
92
330
A
100
AcDbEntity
  8
LAYER_1
 62
     7
100
AcDbSpline
210
0.0
220
0.0
230
1.0
 70
    11
 71
     3
 72
    11
 73
     7
 74
     0
 42
0.0000000001
 43
0.0000000001
 40
0.0
 40
0.0
 40
0.0
 40
0.0
 40
1.0
 40
1.0
 40
1.0
 40
2.0
 40
2.0
 40
2.0
 40
2.0
 10
108.8520982530382
 20
138.319377983941
 30
0.0
 10
108.8520982530382
 20
137.1146280924479
 30
0.0
 10
110.3245320638021
 20
137.1146280924479
 30
0.0
 10
110.3245320638021
 20
138.1185289171007
 30
0.0
 10
110.3245320638021
 20
139.3901136610243
 30
0.0
 10
108.8520982530382
 20
139.3232788085937
 30
0.0
 10
108.8520982530382
 20
138.319377983941
 30
0.0
  0
SPLINE
  5
91
330
A
100
AcDbEntity
  8
LAYER_1
 62
     7
100
AcDbSpline
210
0.0
220
0.0
230
1.0
 70
    11
 71
     3
 72
    11
 73
     7
 74
     0
 42
0.0000000001
 43
0.0000000001
 40
0.0
 40
0.0
 40
0.0
 40
0.0
 40
1.0
 40
1.0
 40
1.0
 40
2.0
 40
2.0
 40
2.0
 40
2.0
 10
112.7336873372396
 20
143.2717027452257
 30
0.0
 10
112.7336873372396
 20
142.0672973632812
 30
0.0
 10
114.2061211480035
 20
142.0672973632812
 30
0.0
 10
114.2061211480035
 20
143.0708536783854
 30
0.0
 10
114.2061211480035
 20
144.342438422309
 30
0.0
 10
112.7336873372396
 20
144.2756035698785
 30
0.0
 10
112.7336873372396
 20
143.2717027452257
 30
0.0
  0
SPLINE
  5
90
330
A
100
AcDbEntity
  8
LAYER_1
 62
     7
100
AcDbSpline
210
0.0
220
0.0
230
1.0
 70
    11
 71
     3
 72
    11
 73
     7
 74
     0
 42
0.0000000001
 43
0.0000000001
 40
0.0
 40
0.0
 40
0.0
 40
0.0
 40
1.0
 40
1.0
 40
1.0
 40
2.0
 40
2.0
 40
2.0
 40
2.0
 10
112.666852484809
 20
133.4338880750868
 30
0.0
 10
112.666852484809
 20
132.2291381835937
 30
0.0
 10
114.1392862955729
 20
132.2291381835937
 30
0.0
 10
114.1392862955729
 20
133.2330390082465
 30
0.0
 10
114.1392862955729
 20
134.5046237521701
 30
0.0
 10
112.666852484809
 20
134.4377888997396
 30
0.0
 10
112.666852484809
 20
133.4338880750868
 30
0.0
  0
SPLINE
  5
8F
330
A
100
AcDbEntity
  8
LAYER_1
 62
     7
100
AcDbSpline
210
0.0
220
0.0
230
1.0
 70
    11
 71
     3
 72
    11
 73
     7
 74
     0
 42
0.0000000001
 43
0.0000000001
 40
0.0
 40
0.0
 40
0.0
 40
0.0
 40
1.0
 40
1.0
 40
1.0
 40
2.0
 40
2.0
 40
2.0
 40
2.0
 10
112.8008666992187
 20
124.0642618815104
 30
0.0
 10
112.8008666992187
 20
122.859856499566
 30
0.0
 10
114.2733005099826
 20
122.859856499566
 30
0.0
 10
114.2733005099826
 20
123.8634128146701
 30
0.0
 10
114.2733005099826
 20
125.1349975585937
 30
0.0
 10
112.8008666992187
 20
125.0681627061632
 30
0.0
 10
112.8008666992187
 20
124.0642618815104
 30
0.0
  0
SPLINE
  5
8E
330
A
100
AcDbEntity
  8
LAYER_1
 62
     7
100
AcDbSpline
210
0.0
220
0.0
230
1.0
 70
    11
 71
     3
 72
    11
 73
     7
 74
     0
 42
0.0000000001
 43
0.0000000001
 40
0.0
 40
0.0
 40
0.0
 40
0.0
 40
1.0
 40
1.0
 40
1.0
 40
2.0
 40
2.0
 40
2.0
 40
2.0
 10
112.5328382703993
 20
114.2264472113715
 30
0.0
 10
112.5328382703993
 20
113.0216973198785
 30
0.0
 10
114.0052720811632
 20
113.0216973198785
 30
0.0
 10
114.0052720811632
 20
114.0255981445312
 30
0.0
 10
114.0052720811632
 20
115.2971828884549
 30
0.0
 10
112.5328382703993
 20
115.2303480360243
 30
0.0
 10
112.5328382703993
 20
114.2264472113715
 30
0.0
  0
SPLINE
  5
8D
330
A
100
AcDbEntity
  8
LAYER_1
 62
     7
100
AcDbSpline
210
0.0
220
0.0
230
1.0
 70
     8
 71
     3
 72
    11
 73
     7
 74
     0
 42
0.0000000001
 43
0.0000000001
 40
0.0
 40
0.0
 40
0.0
 40
0.0
 40
1.0
 40
1.0
 40
1.0
 40
2.0
 40
2.0
 40
2.0
 40
2.0
 10
110.6709364149306
 20
110.5138400607639
 30
0.0
 10
110.8478420681424
 20
110.6309733072917
 30
0.0
 10
110.9725545247396
 20
110.8381958007812
 30
0.0
 10
110.9725545247396
 20
111.1303398980035
 30
0.0
 10
110.9725545247396
 20
112.1850558810764
 30
0.0
 10
109.9593519422743
 20
112.3187255859375
 30
0.0
 10
109.6138088650174
 20
111.7606201171875
 30
0.0
  0
SPLINE
  5
8C
330
A
100
AcDbEntity
  8
LAYER_1
 62
     7
100
AcDbSpline
210
0.0
220
0.0
230
1.0
 70
    11
 71
     3
 72
    11
 73
     7
 74
     0
 42
0.0000000001
 43
0.0000000001
 40
0.0
 40
0.0
 40
0.0
 40
0.0
 40
1.0
 40
1.0
 40
1.0
 40
2.0
 40
2.0
 40
2.0
 40
2.0
 10
109.2324367947049
 20
111.1303398980035
 30
0.0
 10
109.2324367947049
 20
109.9255900065104
 30
0.0
 10
110.7048706054687
 20
109.9255900065104
 30
0.0
 10
110.7048706054687
 20
110.9294908311632
 30
0.0
 10
110.7048706054687
 20
112.2010755750868
 30
0.0
 10
109.2324367947049
 20
112.1342407226562
 30
0.0
 10
109.2324367947049
 20
111.1303398980035
 30
0.0
  0
SPLINE
  5
8B
330
A
100
AcDbEntity
  8
LAYER_1
 62
     7
100
AcDbSpline
210
0.0
220
0.0
230
1.0
 70
    11
 71
     3
 72
    11
 73
     7
 74
     0
 42
0.0000000001
 43
0.0000000001
 40
0.0
 40
0.0
 40
0.0
 40
0.0
 40
1.0
 40
1.0
 40
1.0
 40
2.0
 40
2.0
 40
2.0
 40
2.0
 10
112.666852484809
 20
106.7309529622396
 30
0.0
 10
112.666852484809
 20
105.5262030707465
 30
0.0
 10
114.1392862955729
 20
105.5262030707465
 30
0.0
 10
114.1392862955729
 20
106.5301038953993
 30
0.0
 10
114.1392862955729
 20
107.8016886393229
 30
0.0
 10
112.666852484809
 20
107.7348537868923
 30
0.0
 10
112.666852484809
 20
106.7309529622396
 30
0.0
  0
HATCH
  5
8A
330
A
100
AcDbEntity
  8
LAYER_1
 62
     7
100
AcDbHatch
 10
0.0
 20
0.0
 30
0.0
210
0.0
220
0.0
230
1.0
  2
SOLID
 70
     1
 71
     0
 91
        1
 92
        1
 93
        1
 72
     4
 94
        3
 73
     0
 74
     0
 95
       56
 96
       52
 40
0.0
 40
0.0
 40
0.0
 40
0.0
 40
1.0
 40
1.0
 40
1.0
 40
2.0
 40
2.0
 40
2.0
 40
3.0
 40
3.0
 40
3.0
 40
4.0
 40
4.0
 40
4.0
 40
5.0
 40
5.0
 40
5.0
 40
6.0
 40
6.0
 40
6.0
 40
7.0
 40
7.0
 40
7.0
 40
8.0
 40
8.0
 40
8.0
 40
9.0
 40
9.0
 40
9.0
 40
10.0
 40
10.0
 40
10.0
 40
11.0
 40
11.0
 40
11.0
 40
12.0
 40
12.0
 40
12.0
 40
13.0
 40
13.0
 40
13.0
 40
14.0
 40
14.0
 40
14.0
 40
15.0
 40
15.0
 40
15.0
 40
16.0
 40
16.0
 40
16.0
 40
17.0
 40
17.0
 40
17.0
 40
17.0
 10
101.5636542426215
 20
114.9326917860243
 10
101.5722669813368
 20
115.0477579752604
 10
101.5123223198785
 20
115.1042575412326
 10
101.3941555447049
 20
115.0505140516493
 10
101.2222452799479
 20
114.9723103841146
 10
101.2036417643229
 20
114.855866156684
 10
101.2036417643229
 20
114.7731838650173
 10
101.2036417643229
 20
114.6994588216146
 10
101.236370171441
 20
114.6687974717882
 10
101.304583062066
 20
114.674309624566
 10
101.3614271375868
 20
114.6787882486979
 10
101.4168931749132
 20
114.6825778537326
 10
101.4740817599826
 20
114.6870564778646
 10
101.6759643554687
 20
114.7035929361979
 10
101.7128268771701
 20
114.649504937066
 10
101.7128268771701
 20
114.508600531684
 10
101.7128268771701
 20
114.3067179361979
 10
101.5863918728299
 20
114.1310180664062
 10
101.3814086914062
 20
114.0376559787326
 10
101.2763332790799
 20
113.9897691514757
 10
101.1509318033854
 20
113.9625528971354
 10
101.0899536132812
 20
114.0741739908854
 10
101.0672159830729
 20
114.1165486653646
 10
101.0685940212674
 20
114.2026760525174
 10
101.0672159830729
 20
114.258831108941
 10
101.0672159830729
 20
114.258831108941
 10
101.1850382486979
 20
114.3125745985243
 10
101.1850382486979
 20
114.3125745985243
 10
101.1795260959201
 20
114.1520331488715
 10
101.2094984266493
 20
114.0659057617187
 10
101.3872653537326
 20
114.1468655056424
 10
101.5068101671007
 20
114.2012980143229
 10
101.5905259874132
 20
114.3008612738715
 10
101.5905259874132
 20
114.4259182400174
 10
101.5905259874132
 20
114.5878377278646
 10
101.5250691731771
 20
114.5595879448785
 10
101.4168931749132
 20
114.5516642252604
 10
101.3586710611979
 20
114.5478746202257
 10
101.2649644639757
 20
114.5351277669271
 10
101.2077758789063
 20
114.5389173719618
 10
101.1068345811632
 20
114.5444295247396
 10
101.081340874566
 20
114.6181545681423
 10
101.081340874566
 20
114.7232299804687
 10
101.081340874566
 20
114.8996188693576
 10
101.2050198025174
 20
115.071184624566
 10
101.3786526150174
 20
115.1500773111979
 10
101.5736450195312
 20
115.2389607747396
 10
101.6931898328993
 20
115.1924519856771
 10
101.6818210177951
 20
114.9864352756076
 10
101.6818210177951
 20
114.9864352756076
 10
101.5636542426215
 20
114.9326917860243
 10
101.5636542426215
 20
114.9326917860243
 97
        0
 75
     0
 76
     1
 98
        1
 10
0.0
 20
0.0
  0
HATCH
  5
89
330
A
100
AcDbEntity
  8
LAYER_1
 62
     7
100
AcDbHatch
 10
0.0
 20
0.0
 30
0.0
210
0.0
220
0.0
230
1.0
  2
SOLID
 70
     1
 71
     0
 91
        1
 92
        1
 93
        1
 72
     4
 94
        3
 73
     0
 74
     0
 95
       17
 96
       13
 40
0.0
 40
0.0
 40
0.0
 40
0.0
 40
1.0
 40
1.0
 40
1.0
 40
2.0
 40
2.0
 40
2.0
 40
3.0
 40
3.0
 40
3.0
 40
4.0
 40
4.0
 40
4.0
 40
4.0
 10
102.044245062934
 20
114.3649400499132
 10
102.044245062934
 20
114.3649400499132
 10
102.044245062934
 20
115.4318861219618
 10
102.044245062934
 20
115.4318861219618
 10
102.044245062934
 20
115.4318861219618
 10
102.1624118381076
 20
115.4856296115451
 10
102.1624118381076
 20
115.4856296115451
 10
102.1624118381076
 20
115.4856296115451
 10
102.1624118381076
 20
114.4186835394965
 10
102.1624118381076
 20
114.4186835394965
 10
102.1624118381076
 20
114.4186835394965
 10
102.044245062934
 20
114.3649400499132
 10
102.044245062934
 20
114.3649400499132
 97
        0
 75
     0
 76
     1
 98
        1
 10
0.0
 20
0.0
  0
HATCH
  5
88
330
A
100
AcDbEntity
  8
LAYER_1
 62
     7
100
AcDbHatch
 10
0.0
 20
0.0
 30
0.0
210
0.0
220
0.0
230
1.0
  2
SOLID
 70
     1
 71
     0
 91
        1
 92
        1
 93
        1
 72
     4
 94
        3
 73
     0
 74
     0
 95
       71
 96
       67
 40
0.0
 40
0.0
 40
0.0
 40
0.0
 40
1.0
 40
1.0
 40
1.0
 40
2.0
 40
2.0
 40
2.0
 40
3.0
 40
3.0
 40
3.0
 40
4.0
 40
4.0
 40
4.0
 40
5.0
 40
5.0
 40
5.0
 40
6.0
 40
6.0
 40
6.0
 40
7.0
 40
7.0
 40
7.0
 40
8.0
 40
8.0
 40
8.0
 40
9.0
 40
9.0
 40
9.0
 40
10.0
 40
10.0
 40
10.0
 40
11.0
 40
11.0
 40
11.0
 40
12.0
 40
12.0
 40
12.0
 40
13.0
 40
13.0
 40
13.0
 40
14.0
 40
14.0
 40
14.0
 40
15.0
 40
15.0
 40
15.0
 40
16.0
 40
16.0
 40
16.0
 40
17.0
 40
17.0
 40
17.0
 40
18.0
 40
18.0
 40
18.0
 40
19.0
 40
19.0
 40
19.0
 40
20.0
 40
20.0
 40
20.0
 40
21.0
 40
21.0
 40
21.0
 40
22.0
 40
22.0
 40
22.0
 40
22.0
 10
103.2114434136285
 20
115.9631198459201
 10
103.2114434136285
 20
115.9631198459201
 10
103.419182671441
 20
116.0575154622396
 10
103.419182671441
 20
116.0575154622396
 10
103.419182671441
 20
116.0575154622396
 10
103.419182671441
 20
114.990569390191
 10
103.419182671441
 20
114.990569390191
 10
103.419182671441
 20
114.990569390191
 10
103.3010158962674
 20
114.9368259006076
 10
103.3010158962674
 20
114.9368259006076
 10
103.3010158962674
 20
114.9368259006076
 10
103.3010158962674
 20
115.8160142686632
 10
103.3010158962674
 20
115.8160142686632
 10
103.3010158962674
 20
115.8614895290799
 10
103.3037719726562
 20
115.9069647894965
 10
103.3010158962674
 20
115.9510620117187
 10
103.3010158962674
 20
115.9510620117187
 10
103.2982598198785
 20
115.9500284830729
 10
103.2982598198785
 20
115.9500284830729
 10
103.2851684570313
 20
115.8814710828993
 10
103.2751776801215
 20
115.8370293511285
 10
103.2655314127604
 20
115.7912095811632
 10
103.2655314127604
 20
115.7912095811632
 10
103.0419447157118
 20
114.8190036349826
 10
103.0419447157118
 20
114.8190036349826
 10
103.0419447157118
 20
114.8190036349826
 10
102.9010403103299
 20
114.754924858941
 10
102.9010403103299
 20
114.754924858941
 10
102.9010403103299
 20
114.754924858941
 10
102.6777981228299
 20
115.5366170247396
 10
102.6777981228299
 20
115.5366170247396
 10
102.6678073459201
 20
115.5693454318576
 10
102.6595391167535
 20
115.6010403103299
 10
102.6464477539062
 20
115.6534057617187
 10
102.6464477539062
 20
115.6534057617187
 10
102.6436916775174
 20
115.6520277235243
 10
102.6436916775174
 20
115.6520277235243
 10
102.6436916775174
 20
115.6065524631076
 10
102.6464477539062
 20
115.5607326931424
 10
102.6464477539062
 20
115.5152574327257
 10
102.6464477539062
 20
115.5152574327257
 10
102.6464477539062
 20
114.6391696506076
 10
102.6464477539062
 20
114.6391696506076
 10
102.6464477539062
 20
114.6391696506076
 10
102.5286254882812
 20
114.5854261610243
 10
102.5286254882812
 20
114.5854261610243
 10
102.5286254882812
 20
114.5854261610243
 10
102.5286254882812
 20
115.6523722330729
 10
102.5286254882812
 20
115.6523722330729
 10
102.5286254882812
 20
115.6523722330729
 10
102.7377427842882
 20
115.7474568684896
 10
102.7377427842882
 20
115.7474568684896
 10
102.7377427842882
 20
115.7474568684896
 10
102.9465155707465
 20
115.0105509440104
 10
102.9465155707465
 20
115.0105509440104
 10
102.9582288953993
 20
114.9702433268229
 10
102.9637410481771
 20
114.928557671441
 10
102.9695977105035
 20
114.8627563476562
 10
102.9695977105035
 20
114.8627563476562
 10
102.9723537868924
 20
114.8641343858507
 10
102.9723537868924
 20
114.8641343858507
 10
102.9792439778646
 20
114.9213229709201
 10
102.9864786783854
 20
114.9774780273437
 10
102.999225531684
 20
115.035700141059
 10
102.999225531684
 20
115.035700141059
 10
103.2114434136285
 20
115.9631198459201
 10
103.2114434136285
 20
115.9631198459201
 97
        0
 75
     0
 76
     1
 98
        1
 10
0.0
 20
0.0
  0
HATCH
  5
87
330
A
100
AcDbEntity
  8
LAYER_1
 62
     7
100
AcDbHatch
 10
0.0
 20
0.0
 30
0.0
210
0.0
220
0.0
230
1.0
  2
SOLID
 70
     1
 71
     0
 91
        2
 92
       16
 93
        1
 72
     4
 94
        3
 73
     0
 74
     0
 95
       20
 96
       16
 40
0.0
 40
0.0
 40
0.0
 40
0.0
 40
1.0
 40
1.0
 40
1.0
 40
2.0
 40
2.0
 40
2.0
 40
3.0
 40
3.0
 40
3.0
 40
4.0
 40
4.0
 40
4.0
 40
5.0
 40
5.0
 40
5.0
 40
5.0
 10
103.8863376193576
 20
115.7626152886285
 10
103.8863376193576
 20
115.7626152886285
 10
104.0017483181424
 20
115.8149807400174
 10
104.0017483181424
 20
115.8149807400174
 10
104.1636678059896
 20
115.8900838216146
 10
104.2632310655382
 20
115.9582967122396
 10
104.2618530273438
 20
116.1412312825521
 10
104.2618530273438
 20
116.313141547309
 10
104.152643500434
 20
116.2876478407118
 10
104.0086385091146
 20
116.2194349500868
 10
104.0086385091146
 20
116.2194349500868
 10
103.8863376193576
 20
116.1636244032118
 10
103.8863376193576
 20
116.1636244032118
 10
103.8863376193576
 20
116.1636244032118
 10
103.8863376193576
 20
115.7626152886285
 10
103.8863376193576
 20
115.7626152886285
 97
        0
 92
        1
 93
        1
 72
     4
 94
        3
 73
     0
 74
     0
 95
       32
 96
       28
 40
0.0
 40
0.0
 40
0.0
 40
0.0
 40
1.0
 40
1.0
 40
1.0
 40
2.0
 40
2.0
 40
2.0
 40
3.0
 40
3.0
 40
3.0
 40
4.0
 40
4.0
 40
4.0
 40
5.0
 40
5.0
 40
5.0
 40
6.0
 40
6.0
 40
6.0
 40
7.0
 40
7.0
 40
7.0
 40
8.0
 40
8.0
 40
8.0
 40
9.0
 40
9.0
 40
9.0
 40
9.0
 10
103.7685153537326
 20
115.1497328016493
 10
103.7685153537326
 20
115.1497328016493
 10
103.7685153537326
 20
116.2166788736979
 10
103.7685153537326
 20
116.2166788736979
 10
103.7685153537326
 20
116.2166788736979
 10
104.0486016167535
 20
116.344147406684
 10
104.0486016167535
 20
116.344147406684
 10
104.1309393988715
 20
116.3816989474826
 10
104.2349812825521
 20
116.4192504882812
 10
104.2976820203993
 20
116.3879001193576
 10
104.3614162868924
 20
116.3572387695312
 10
104.3841539171007
 20
116.2848917643229
 10
104.3841539171007
 20
116.199797905816
 10
104.3841539171007
 20
116.0816311306424
 10
104.3486694335937
 20
115.9500284830729
 10
104.2336032443576
 20
115.8449530707465
 10
104.1595336914062
 20
115.7801852756076
 10
104.0386108398437
 20
115.7250637478299
 10
103.9576510959201
 20
115.6882012261285
 10
103.9576510959201
 20
115.6882012261285
 10
103.8863376193576
 20
115.655817328559
 10
103.8863376193576
 20
115.655817328559
 10
103.8863376193576
 20
115.655817328559
 10
103.8863376193576
 20
115.2034762912326
 10
103.8863376193576
 20
115.2034762912326
 10
103.8863376193576
 20
115.2034762912326
 10
103.7685153537326
 20
115.1497328016493
 10
103.7685153537326
 20
115.1497328016493
 97
        0
 75
     0
 76
     1
 98
        1
 10
0.0
 20
0.0
  0
HATCH
  5
86
330
A
100
AcDbEntity
  8
LAYER_1
 62
     7
100
AcDbHatch
 10
0.0
 20
0.0
 30
0.0
210
0.0
220
0.0
230
1.0
  2
SOLID
 70
     1
 71
     0
 91
        1
 92
        1
 93
        1
 72
     4
 94
        3
 73
     0
 74
     0
 95
       56
 96
       52
 40
0.0
 40
0.0
 40
0.0
 40
0.0
 40
1.0
 40
1.0
 40
1.0
 40
2.0
 40
2.0
 40
2.0
 40
3.0
 40
3.0
 40
3.0
 40
4.0
 40
4.0
 40
4.0
 40
5.0
 40
5.0
 40
5.0
 40
6.0
 40
6.0
 40
6.0
 40
7.0
 40
7.0
 40
7.0
 40
8.0
 40
8.0
 40
8.0
 40
9.0
 40
9.0
 40
9.0
 40
10.0
 40
10.0
 40
10.0
 40
11.0
 40
11.0
 40
11.0
 40
12.0
 40
12.0
 40
12.0
 40
13.0
 40
13.0
 40
13.0
 40
14.0
 40
14.0
 40
14.0
 40
15.0
 40
15.0
 40
15.0
 40
16.0
 40
16.0
 40
16.0
 40
17.0
 40
17.0
 40
17.0
 40
17.0
 10
105.1255384657118
 20
116.5539537217882
 10
105.1338066948785
 20
116.6690199110243
 10
105.0742065429687
 20
116.7258639865451
 10
104.9560397677951
 20
116.6721204969618
 10
104.7841295030382
 20
116.5935723198785
 10
104.7655259874132
 20
116.4771280924479
 10
104.7655259874132
 20
116.3944458007812
 10
104.7655259874132
 20
116.3207207573785
 10
104.7982543945312
 20
116.2900594075521
 10
104.8664672851563
 20
116.2952270507812
 10
104.9233113606771
 20
116.3000501844618
 10
104.9787773980035
 20
116.3038397894965
 10
105.0359659830729
 20
116.3083184136285
 10
105.237848578559
 20
116.3248548719618
 10
105.2747111002604
 20
116.2707668728299
 10
105.2747111002604
 20
116.1298624674479
 10
105.2747111002604
 20
115.9279798719618
 10
105.1482760959201
 20
115.7522800021701
 10
104.9432929144965
 20
115.6589179144965
 10
104.8382175021701
 20
115.6110310872396
 10
104.7128160264757
 20
115.5838148328993
 10
104.6518378363715
 20
115.6954359266493
 10
104.6291002061632
 20
115.7378106011285
 10
104.6304782443576
 20
115.8239379882812
 10
104.6291002061632
 20
115.8800930447049
 10
104.6291002061632
 20
115.8800930447049
 10
104.7469224717882
 20
115.9338365342882
 10
104.7469224717882
 20
115.9338365342882
 10
104.7414103190104
 20
115.7732950846354
 10
104.7713826497396
 20
115.6871676974826
 10
104.9491495768229
 20
115.7681274414062
 10
105.068694390191
 20
115.8225599500868
 10
105.1524102105035
 20
115.9217787000868
 10
105.1524102105035
 20
116.0471801757812
 10
105.1524102105035
 20
116.2094441731771
 10
105.0869533962674
 20
116.1808498806424
 10
104.9787773980035
 20
116.1729261610243
 10
104.9205552842882
 20
116.1691365559896
 10
104.826848687066
 20
116.156389702691
 10
104.7700046115451
 20
116.1601793077257
 10
104.6687188042535
 20
116.1656914605035
 10
104.6432250976562
 20
116.2394165039062
 10
104.6432250976562
 20
116.3444919162326
 10
104.6432250976562
 20
116.5208808051215
 10
104.7669040256076
 20
116.6924465603299
 10
104.9405368381076
 20
116.7713392469618
 10
105.1355292426215
 20
116.8602227105035
 10
105.2550740559896
 20
116.813713921441
 10
105.2433607313368
 20
116.6076972113715
 10
105.2433607313368
 20
116.6076972113715
 10
105.1255384657118
 20
116.5539537217882
 10
105.1255384657118
 20
116.5539537217882
 97
        0
 75
     0
 76
     1
 98
        1
 10
0.0
 20
0.0
  0
HATCH
  5
85
330
A
100
AcDbEntity
  8
LAYER_1
 62
     7
100
AcDbHatch
 10
0.0
 20
0.0
 30
0.0
210
0.0
220
0.0
230
1.0
  2
SOLID
 70
     1
 71
     0
 91
        2
 92
       16
 93
        1
 72
     4
 94
        3
 73
     0
 74
     0
 95
       17
 96
       13
 40
0.0
 40
0.0
 40
0.0
 40
0.0
 40
1.0
 40
1.0
 40
1.0
 40
2.0
 40
2.0
 40
2.0
 40
3.0
 40
3.0
 40
3.0
 40
4.0
 40
4.0
 40
4.0
 40
4.0
 10
105.8993069118924
 20
117.1013793945312
 10
105.7170613606771
 20
117.018352593316
 10
105.6715861002604
 20
116.8068237304687
 10
105.6729641384549
 20
116.5701456705729
 10
105.6743421766493
 20
116.2621541341146
 10
105.7056925455729
 20
116.1126369900174
 10
105.9020629882812
 20
116.2022094726562
 10
106.0984334309896
 20
116.2914374457465
 10
106.1297837999132
 20
116.4692043728299
 10
106.1311618381076
 20
116.7785739474826
 10
106.1325398763021
 20
117.0166300455729
 10
106.0870646158854
 20
117.1868177625868
 10
105.8993069118924
 20
117.1013793945312
 97
        0
 92
        1
 93
        1
 72
     4
 94
        3
 73
     0
 74
     0
 95
       17
 96
       13
 40
0.0
 40
0.0
 40
0.0
 40
0.0
 40
1.0
 40
1.0
 40
1.0
 40
2.0
 40
2.0
 40
2.0
 40
3.0
 40
3.0
 40
3.0
 40
4.0
 40
4.0
 40
4.0
 40
4.0
 10
105.9048190646701
 20
117.210588921441
 10
106.2166002061632
 20
117.3521823459201
 10
106.254840766059
 20
117.0824313693576
 10
106.2534627278646
 20
116.8371405707465
 10
106.2520846896701
 20
116.5405178493923
 10
106.2134996202257
 20
116.237004937066
 10
105.9020629882812
 20
116.0954115125868
 10
105.5906263563368
 20
115.953473578559
 10
105.5537638346354
 20
116.2225355360243
 10
105.5506632486979
 20
116.5174357096354
 10
105.5506632486979
 20
116.7620374891493
 10
105.5878702799479
 20
117.0662394205729
 10
105.9048190646701
 20
117.210588921441
 97
        0
 75
     0
 76
     1
 98
        1
 10
0.0
 20
0.0
  0
HATCH
  5
84
330
A
100
AcDbEntity
  8
LAYER_1
 62
     7
100
AcDbHatch
 10
0.0
 20
0.0
 30
0.0
210
0.0
220
0.0
230
1.0
  2
SOLID
 70
     1
 71
     0
 91
        1
 92
        1
 93
        1
 72
     4
 94
        3
 73
     0
 74
     0
 95
       53
 96
       49
 40
0.0
 40
0.0
 40
0.0
 40
0.0
 40
1.0
 40
1.0
 40
1.0
 40
2.0
 40
2.0
 40
2.0
 40
3.0
 40
3.0
 40
3.0
 40
4.0
 40
4.0
 40
4.0
 40
5.0
 40
5.0
 40
5.0
 40
6.0
 40
6.0
 40
6.0
 40
7.0
 40
7.0
 40
7.0
 40
8.0
 40
8.0
 40
8.0
 40
9.0
 40
9.0
 40
9.0
 40
10.0
 40
10.0
 40
10.0
 40
11.0
 40
11.0
 40
11.0
 40
12.0
 40
12.0
 40
12.0
 40
13.0
 40
13.0
 40
13.0
 40
14.0
 40
14.0
 40
14.0
 40
15.0
 40
15.0
 40
15.0
 40
16.0
 40
16.0
 40
16.0
 40
16.0
 10
107.0968221028646
 20
117.7318318684896
 10
107.0968221028646
 20
117.7318318684896
 10
107.2149888780382
 20
117.7852308485243
 10
107.2149888780382
 20
117.7852308485243
 10
107.2149888780382
 20
117.7852308485243
 10
107.2149888780382
 20
116.7182847764757
 10
107.2149888780382
 20
116.7182847764757
 10
107.2149888780382
 20
116.7182847764757
 10
107.0213745117188
 20
116.6304348415799
 10
107.0213745117188
 20
116.6304348415799
 10
107.0213745117188
 20
116.6304348415799
 10
106.7226847330729
 20
117.3480482313368
 10
106.7226847330729
 20
117.3480482313368
 10
106.705803765191
 20
117.3887003580729
 10
106.6927124023437
 20
117.4310750325521
 10
106.682721625434
 20
117.4906751844618
 10
106.682721625434
 20
117.4906751844618
 10
106.6799655490451
 20
117.4892971462674
 10
106.6799655490451
 20
117.4892971462674
 10
106.6813435872396
 20
117.4358981662326
 10
106.682721625434
 20
117.3811211480035
 10
106.682721625434
 20
117.3270331488715
 10
106.682721625434
 20
117.3270331488715
 10
106.682721625434
 20
116.4764390733507
 10
106.682721625434
 20
116.4764390733507
 10
106.682721625434
 20
116.4764390733507
 10
106.564899359809
 20
116.4226955837674
 10
106.564899359809
 20
116.4226955837674
 10
106.564899359809
 20
116.4226955837674
 10
106.564899359809
 20
117.489641655816
 10
106.564899359809
 20
117.489641655816
 10
106.564899359809
 20
117.489641655816
 10
106.7567911783854
 20
117.5768025716146
 10
106.7567911783854
 20
117.5768025716146
 10
106.7567911783854
 20
117.5768025716146
 10
107.0599595811632
 20
116.8412746853299
 10
107.0599595811632
 20
116.8412746853299
 10
107.0727064344618
 20
116.8144029405382
 10
107.0826972113715
 20
116.7847751193576
 10
107.0968221028646
 20
116.7413669162326
 10
107.0968221028646
 20
116.7413669162326
 10
107.0995781792535
 20
116.7427449544271
 10
107.0995781792535
 20
116.7427449544271
 10
107.098200141059
 20
116.7806410047743
 10
107.0968221028646
 20
116.8212931315104
 10
107.0968221028646
 20
116.8609117296007
 10
107.0968221028646
 20
116.8609117296007
 10
107.0968221028646
 20
117.7318318684896
 10
107.0968221028646
 20
117.7318318684896
 97
        0
 75
     0
 76
     1
 98
        1
 10
0.0
 20
0.0
  0
HATCH
  5
83
330
A
100
AcDbEntity
  8
LAYER_1
 62
     7
100
AcDbHatch
 10
0.0
 20
0.0
 30
0.0
210
0.0
220
0.0
230
1.0
  2
SOLID
 70
     1
 71
     0
 91
        1
 92
        1
 93
        1
 72
     4
 94
        3
 73
     0
 74
     0
 95
       56
 96
       52
 40
0.0
 40
0.0
 40
0.0
 40
0.0
 40
1.0
 40
1.0
 40
1.0
 40
2.0
 40
2.0
 40
2.0
 40
3.0
 40
3.0
 40
3.0
 40
4.0
 40
4.0
 40
4.0
 40
5.0
 40
5.0
 40
5.0
 40
6.0
 40
6.0
 40
6.0
 40
7.0
 40
7.0
 40
7.0
 40
8.0
 40
8.0
 40
8.0
 40
9.0
 40
9.0
 40
9.0
 40
10.0
 40
10.0
 40
10.0
 40
11.0
 40
11.0
 40
11.0
 40
12.0
 40
12.0
 40
12.0
 40
13.0
 40
13.0
 40
13.0
 40
14.0
 40
14.0
 40
14.0
 40
15.0
 40
15.0
 40
15.0
 40
16.0
 40
16.0
 40
16.0
 40
17.0
 40
17.0
 40
17.0
 40
17.0
 10
101.5636542426215
 20
113.5715345594618
 10
101.5722669813368
 20
113.6862562391493
 10
101.5123223198785
 20
113.7431003146701
 10
101.3941555447049
 20
113.6893568250868
 10
101.2222452799479
 20
113.6111531575521
 10
101.2036417643229
 20
113.4943644205729
 10
101.2036417643229
 20
113.4120266384549
 10
101.2036417643229
 20
113.3379570855035
 10
101.236370171441
 20
113.3072957356771
 10
101.304583062066
 20
113.3128078884549
 10
101.3614271375868
 20
113.3172865125868
 10
101.4168931749132
 20
113.3214206271701
 10
101.4740817599826
 20
113.3258992513021
 10
101.6759643554687
 20
113.3424357096354
 10
101.7128268771701
 20
113.2880032009549
 10
101.7128268771701
 20
113.1470987955729
 10
101.7128268771701
 20
112.9452162000868
 10
101.5863918728299
 20
112.7695163302951
 10
101.3814086914062
 20
112.6764987521701
 10
101.2763332790799
 20
112.6286119249132
 10
101.1509318033854
 20
112.6013956705729
 10
101.0899536132812
 20
112.7130167643229
 10
101.0672159830729
 20
112.7550469292535
 10
101.0685940212674
 20
112.8411743164062
 10
101.0672159830729
 20
112.8973293728298
 10
101.0672159830729
 20
112.8973293728298
 10
101.1850382486979
 20
112.9510728624132
 10
101.1850382486979
 20
112.9510728624132
 10
101.1795260959201
 20
112.7905314127604
 10
101.2094984266493
 20
112.7047485351562
 10
101.3872653537326
 20
112.7857082790799
 10
101.5068101671007
 20
112.8401407877604
 10
101.5905259874132
 20
112.9393595377604
 10
101.5905259874132
 20
113.0644165039062
 10
101.5905259874132
 20
113.2266805013021
 10
101.5250691731771
 20
113.198430718316
 10
101.4168931749132
 20
113.1905069986979
 10
101.3586710611979
 20
113.1867173936632
 10
101.2649644639757
 20
113.1739705403646
 10
101.2077758789063
 20
113.1777601453993
 10
101.1068345811632
 20
113.1829277886285
 10
101.081340874566
 20
113.2566528320312
 10
101.081340874566
 20
113.3620727539062
 10
101.081340874566
 20
113.5384616427951
 10
101.2050198025174
 20
113.7100273980035
 10
101.3786526150174
 20
113.7889200846354
 10
101.5736450195312
 20
113.8778035481771
 10
101.6931898328993
 20
113.830950249566
 10
101.6818210177951
 20
113.6252780490451
 10
101.6818210177951
 20
113.6252780490451
 10
101.5636542426215
 20
113.5715345594618
 10
101.5636542426215
 20
113.5715345594618
 97
        0
 75
     0
 76
     1
 98
        1
 10
0.0
 20
0.0
  0
HATCH
  5
82
330
A
100
AcDbEntity
  8
LAYER_1
 62
     7
100
AcDbHatch
 10
0.0
 20
0.0
 30
0.0
210
0.0
220
0.0
230
1.0
  2
SOLID
 70
     1
 71
     0
 91
        1
 92
        1
 93
        1
 72
     4
 94
        3
 73
     0
 74
     0
 95
       53
 96
       49
 40
0.0
 40
0.0
 40
0.0
 40
0.0
 40
1.0
 40
1.0
 40
1.0
 40
2.0
 40
2.0
 40
2.0
 40
3.0
 40
3.0
 40
3.0
 40
4.0
 40
4.0
 40
4.0
 40
5.0
 40
5.0
 40
5.0
 40
6.0
 40
6.0
 40
6.0
 40
7.0
 40
7.0
 40
7.0
 40
8.0
 40
8.0
 40
8.0
 40
9.0
 40
9.0
 40
9.0
 40
10.0
 40
10.0
 40
10.0
 40
11.0
 40
11.0
 40
11.0
 40
12.0
 40
12.0
 40
12.0
 40
13.0
 40
13.0
 40
13.0
 40
14.0
 40
14.0
 40
14.0
 40
15.0
 40
15.0
 40
15.0
 40
16.0
 40
16.0
 40
16.0
 40
16.0
 10
102.0173733181424
 20
113.7823744032118
 10
102.0173733181424
 20
113.7823744032118
 10
102.149664984809
 20
113.8426635742187
 10
102.149664984809
 20
113.8426635742187
 10
102.149664984809
 20
113.8426635742187
 10
102.149664984809
 20
113.7472344292535
 10
102.149664984809
 20
113.7472344292535
 10
102.149664984809
 20
113.7472344292535
 10
102.0190958658854
 20
113.6876342773437
 10
102.0190958658854
 20
113.6876342773437
 10
102.0190958658854
 20
113.6876342773437
 10
102.0190958658854
 20
113.1484768337674
 10
102.0190958658854
 20
113.1484768337674
 10
102.0190958658854
 20
113.1216050889757
 10
102.0091050889757
 20
113.0830200195312
 10
102.0714613172743
 20
113.1112698025174
 10
102.0714613172743
 20
113.1112698025174
 10
102.1469089084201
 20
113.1457207573785
 10
102.1469089084201
 20
113.1457207573785
 10
102.1469089084201
 20
113.1457207573785
 10
102.1469089084201
 20
113.0502916124132
 10
102.1469089084201
 20
113.0502916124132
 10
102.1469089084201
 20
113.0502916124132
 10
102.0232299804687
 20
112.9941365559896
 10
102.0232299804687
 20
112.9941365559896
 10
101.9563951280382
 20
112.9620971679687
 10
101.9064412434896
 20
112.9507283528646
 10
101.9064412434896
 20
113.0702731662326
 10
101.9064412434896
 20
113.0702731662326
 10
101.9064412434896
 20
113.6366468641493
 10
101.9064412434896
 20
113.6366468641493
 10
101.9064412434896
 20
113.6366468641493
 10
101.7968872070313
 20
113.5866929796007
 10
101.7968872070313
 20
113.5866929796007
 10
101.7968872070313
 20
113.5866929796007
 10
101.7968872070313
 20
113.682122124566
 10
101.7968872070313
 20
113.682122124566
 10
101.7968872070313
 20
113.682122124566
 10
101.9064412434896
 20
113.7320760091146
 10
101.9064412434896
 20
113.7320760091146
 10
101.9064412434896
 20
113.7320760091146
 10
101.9064412434896
 20
113.9467054578993
 10
101.9064412434896
 20
113.9467054578993
 10
101.9064412434896
 20
113.9467054578993
 10
102.0173733181424
 20
113.9973483615451
 10
102.0173733181424
 20
113.9973483615451
 10
102.0173733181424
 20
113.9973483615451
 10
102.0173733181424
 20
113.7823744032118
 10
102.0173733181424
 20
113.7823744032118
 97
        0
 75
     0
 76
     1
 98
        1
 10
0.0
 20
0.0
  0
HATCH
  5
81
330
A
100
AcDbEntity
  8
LAYER_1
 62
     7
100
AcDbHatch
 10
0.0
 20
0.0
 30
0.0
210
0.0
220
0.0
230
1.0
  2
SOLID
 70
     1
 71
     0
 91
        1
 92
        1
 93
        1
 72
     4
 94
        3
 73
     0
 74
     0
 95
       32
 96
       28
 40
0.0
 40
0.0
 40
0.0
 40
0.0
 40
1.0
 40
1.0
 40
1.0
 40
2.0
 40
2.0
 40
2.0
 40
3.0
 40
3.0
 40
3.0
 40
4.0
 40
4.0
 40
4.0
 40
5.0
 40
5.0
 40
5.0
 40
6.0
 40
6.0
 40
6.0
 40
7.0
 40
7.0
 40
7.0
 40
8.0
 40
8.0
 40
8.0
 40
9.0
 40
9.0
 40
9.0
 40
9.0
 10
102.402190483941
 20
113.8281941731771
 10
102.402190483941
 20
113.8281941731771
 10
102.4049465603299
 20
113.8292277018229
 10
102.4049465603299
 20
113.8292277018229
 10
102.4521443684896
 20
113.9546291775174
 10
102.5189792209201
 20
114.0290432400173
 10
102.6368014865451
 20
114.072795952691
 10
102.6368014865451
 20
114.072795952691
 10
102.6368014865451
 20
113.9618638780382
 10
102.6368014865451
 20
113.9618638780382
 10
102.4917629665799
 20
113.9215562608507
 10
102.4066691080729
 20
113.7916761610243
 10
102.4066691080729
 20
113.6480156792535
 10
102.4066691080729
 20
113.6480156792535
 10
102.4066691080729
 20
113.1684583875868
 10
102.4066691080729
 20
113.1684583875868
 10
102.4066691080729
 20
113.1684583875868
 10
102.2940144856771
 20
113.1174709743924
 10
102.2940144856771
 20
113.1174709743924
 10
102.2940144856771
 20
113.1174709743924
 10
102.2940144856771
 20
113.9084648980035
 10
102.2940144856771
 20
113.9084648980035
 10
102.2940144856771
 20
113.9084648980035
 10
102.402190483941
 20
113.9573852539062
 10
102.402190483941
 20
113.9573852539062
 10
102.402190483941
 20
113.9573852539062
 10
102.402190483941
 20
113.8281941731771
 10
102.402190483941
 20
113.8281941731771
 97
        0
 75
     0
 76
     1
 98
        1
 10
0.0
 20
0.0
  0
HATCH
  5
80
330
A
100
AcDbEntity
  8
LAYER_1
 62
     7
100
AcDbHatch
 10
0.0
 20
0.0
 30
0.0
210
0.0
220
0.0
230
1.0
  2
SOLID
 70
     1
 71
     0
 91
        2
 92
       16
 93
        1
 72
     4
 94
        3
 73
     0
 74
     0
 95
       17
 96
       13
 40
0.0
 40
0.0
 40
0.0
 40
0.0
 40
1.0
 40
1.0
 40
1.0
 40
2.0
 40
2.0
 40
2.0
 40
3.0
 40
3.0
 40
3.0
 40
4.0
 40
4.0
 40
4.0
 40
4.0
 10
103.0071492513021
 20
114.1589233398437
 10
102.892083062066
 20
114.1065578884548
 10
102.8407511393229
 20
113.992180718316
 10
102.8407511393229
 20
113.7530910915799
 10
102.8407511393229
 20
113.5667114257812
 10
102.8762356228299
 20
113.4564683702257
 10
103.0071492513021
 20
113.5160685221354
 10
103.1411634657118
 20
113.576702202691
 10
103.1735473632812
 20
113.7182956271701
 10
103.1735473632812
 20
113.9046752929687
 10
103.1735473632812
 20
114.1437649197049
 10
103.1253160264757
 20
114.2126668294271
 10
103.0071492513021
 20
114.1589233398437
 97
        0
 92
        1
 93
        1
 72
     4
 94
        3
 73
     0
 74
     0
 95
       17
 96
       13
 40
0.0
 40
0.0
 40
0.0
 40
0.0
 40
1.0
 40
1.0
 40
1.0
 40
2.0
 40
2.0
 40
2.0
 40
3.0
 40
3.0
 40
3.0
 40
4.0
 40
4.0
 40
4.0
 40
4.0
 10
103.0071492513021
 20
113.4206393771701
 10
102.8366170247396
 20
113.342780219184
 10
102.7243069118924
 20
113.3941121419271
 10
102.7243069118924
 20
113.7355211046007
 10
102.7243069118924
 20
113.9746107313368
 10
102.8125013563368
 20
114.1654690212674
 10
103.0071492513021
 20
114.254352484809
 10
103.202141655816
 20
114.3428914388021
 10
103.2903361002604
 20
114.2323038736979
 10
103.2903361002604
 20
113.9932142469618
 10
103.2903361002604
 20
113.6504272460937
 10
103.1807820638021
 20
113.4995320638021
 10
103.0071492513021
 20
113.4206393771701
 97
        0
 75
     0
 76
     1
 98
        1
 10
0.0
 20
0.0
  0
HATCH
  5
7F
330
A
100
AcDbEntity
  8
LAYER_1
 62
     7
100
AcDbHatch
 10
0.0
 20
0.0
 30
0.0
210
0.0
220
0.0
230
1.0
  2
SOLID
 70
     1
 71
     0
 91
        1
 92
        1
 93
        1
 72
     4
 94
        3
 73
     0
 74
     0
 95
       47
 96
       43
 40
0.0
 40
0.0
 40
0.0
 40
0.0
 40
1.0
 40
1.0
 40
1.0
 40
2.0
 40
2.0
 40
2.0
 40
3.0
 40
3.0
 40
3.0
 40
4.0
 40
4.0
 40
4.0
 40
5.0
 40
5.0
 40
5.0
 40
6.0
 40
6.0
 40
6.0
 40
7.0
 40
7.0
 40
7.0
 40
8.0
 40
8.0
 40
8.0
 40
9.0
 40
9.0
 40
9.0
 40
10.0
 40
10.0
 40
10.0
 40
11.0
 40
11.0
 40
11.0
 40
12.0
 40
12.0
 40
12.0
 40
13.0
 40
13.0
 40
13.0
 40
14.0
 40
14.0
 40
14.0
 40
14.0
 10
103.5752454969618
 20
114.4045586480035
 10
103.5752454969618
 20
114.4045586480035
 10
103.5780015733507
 20
114.4059366861979
 10
103.5780015733507
 20
114.4059366861979
 10
103.6320895724826
 20
114.4989542643229
 10
103.6903116861979
 20
114.5651000976562
 10
103.7757500542535
 20
114.6040296766493
 10
103.8939168294271
 20
114.6577731662326
 10
103.9707424587674
 20
114.6302124023437
 10
103.9707424587674
 20
114.4906860351562
 10
103.9707424587674
 20
114.4906860351562
 10
103.9707424587674
 20
113.880559624566
 10
103.9707424587674
 20
113.880559624566
 10
103.9707424587674
 20
113.880559624566
 10
103.8584323459201
 20
113.8292277018229
 10
103.8584323459201
 20
113.8292277018229
 10
103.8584323459201
 20
113.8292277018229
 10
103.8584323459201
 20
114.4083482530382
 10
103.8584323459201
 20
114.4083482530382
 10
103.8584323459201
 20
114.4906860351562
 10
103.8312160915799
 20
114.5340942382812
 10
103.7402655707465
 20
114.4927530924479
 10
103.6989244249132
 20
114.4738050672743
 10
103.6593058268229
 20
114.4400431315104
 10
103.6293334960937
 20
114.3980129665799
 10
103.5838582356771
 20
114.3360012478299
 10
103.5780015733507
 20
114.2881144205729
 10
103.5780015733507
 20
114.2309258355035
 10
103.5780015733507
 20
114.2309258355035
 10
103.5780015733507
 20
113.7017591688368
 10
103.5780015733507
 20
113.7017591688368
 10
103.5780015733507
 20
113.7017591688368
 10
103.4656914605035
 20
113.6507717556424
 10
103.4656914605035
 20
113.6507717556424
 10
103.4656914605035
 20
113.6507717556424
 10
103.4656914605035
 20
114.4417656792535
 10
103.4656914605035
 20
114.4417656792535
 10
103.4656914605035
 20
114.4417656792535
 10
103.5752454969618
 20
114.4913750542535
 10
103.5752454969618
 20
114.4913750542535
 10
103.5752454969618
 20
114.4913750542535
 10
103.5752454969618
 20
114.4045586480035
 10
103.5752454969618
 20
114.4045586480035
 97
        0
 75
     0
 76
     1
 98
        1
 10
0.0
 20
0.0
  0
HATCH
  5
7E
330
A
100
AcDbEntity
  8
LAYER_1
 62
     7
100
AcDbHatch
 10
0.0
 20
0.0
 30
0.0
210
0.0
220
0.0
230
1.0
  2
SOLID
 70
     1
 71
     0
 91
        2
 92
       16
 93
        1
 72
     4
 94
        3
 73
     0
 74
     0
 95
       17
 96
       13
 40
0.0
 40
0.0
 40
0.0
 40
0.0
 40
1.0
 40
1.0
 40
1.0
 40
2.0
 40
2.0
 40
2.0
 40
3.0
 40
3.0
 40
3.0
 40
4.0
 40
4.0
 40
4.0
 40
4.0
 10
104.2528957790799
 20
114.4045586480035
 10
104.2528957790799
 20
114.210944281684
 10
104.2856241861979
 20
114.0979451497396
 10
104.3965562608507
 20
114.1482435438368
 10
104.5670884874132
 20
114.2261027018229
 10
104.5657104492187
 20
114.4372870551215
 10
104.5657104492187
 20
114.5637220594618
 10
104.5657104492187
 20
114.7204739040799
 10
104.5329820421007
 20
114.8534545898437
 10
104.4079250759549
 20
114.7966105143229
 10
104.2584079318576
 20
114.7283976236979
 10
104.2528957790799
 20
114.5110120985243
 10
104.2528957790799
 20
114.4045586480035
 97
        0
 92
        1
 93
        1
 72
     4
 94
        3
 73
     0
 74
     0
 95
       50
 96
       46
 40
0.0
 40
0.0
 40
0.0
 40
0.0
 40
1.0
 40
1.0
 40
1.0
 40
2.0
 40
2.0
 40
2.0
 40
3.0
 40
3.0
 40
3.0
 40
4.0
 40
4.0
 40
4.0
 40
5.0
 40
5.0
 40
5.0
 40
6.0
 40
6.0
 40
6.0
 40
7.0
 40
7.0
 40
7.0
 40
8.0
 40
8.0
 40
8.0
 40
9.0
 40
9.0
 40
9.0
 40
10.0
 40
10.0
 40
10.0
 40
11.0
 40
11.0
 40
11.0
 40
12.0
 40
12.0
 40
12.0
 40
13.0
 40
13.0
 40
13.0
 40
14.0
 40
14.0
 40
14.0
 40
15.0
 40
15.0
 40
15.0
 40
15.0
 10
104.5657104492187
 20
114.9423380533854
 10
104.5657104492187
 20
114.9423380533854
 10
104.678020562066
 20
114.9933254665799
 10
104.678020562066
 20
114.9933254665799
 10
104.678020562066
 20
114.9933254665799
 10
104.678020562066
 20
114.297760687934
 10
104.678020562066
 20
114.297760687934
 10
104.678020562066
 20
114.2009535047743
 10
104.6711303710937
 20
114.1237833658854
 10
104.6184204101563
 20
114.0159518771701
 10
104.5684665256076
 20
113.9150105794271
 10
104.487506781684
 20
113.8467976888021
 10
104.400690375434
 20
113.8075236002604
 10
104.2742553710937
 20
113.7496459960937
 10
104.1802042643229
 20
113.7651489257812
 10
104.1647013346354
 20
113.8933064778646
 10
104.1647013346354
 20
113.8933064778646
 10
104.2742553710937
 20
113.9432603624132
 10
104.2742553710937
 20
113.9432603624132
 10
104.2839016384549
 20
113.8767700195312
 10
104.3297214084201
 20
113.8702243381076
 10
104.3979342990451
 20
113.9012301974826
 10
104.5798353407118
 20
113.9842569986979
 10
104.5615763346354
 20
114.155133734809
 10
104.5629543728299
 20
114.2426391601562
 10
104.5629543728299
 20
114.2426391601562
 10
104.560198296441
 20
114.2412611219618
 10
104.560198296441
 20
114.2412611219618
 10
104.5130004882812
 20
114.1389417860243
 10
104.4620130750868
 20
114.0827867296007
 10
104.3893215603299
 20
114.049713812934
 10
104.2398044162326
 20
113.9818454318576
 10
104.1361070421007
 20
114.0383449978299
 10
104.1361070421007
 20
114.3570163302951
 10
104.1361070421007
 20
114.5234144422743
 10
104.177448187934
 20
114.7869642469618
 10
104.386565483941
 20
114.8820488823785
 10
104.4589124891493
 20
114.9151217990451
 10
104.5243693033854
 20
114.9092651367187
 10
104.5629543728299
 20
114.8513875325521
 10
104.5629543728299
 20
114.8513875325521
 10
104.5657104492187
 20
114.8527655707465
 10
104.5657104492187
 20
114.8527655707465
 10
104.5657104492187
 20
114.8527655707465
 10
104.5657104492187
 20
114.9423380533854
 10
104.5657104492187
 20
114.9423380533854
 97
        0
 75
     0
 76
     1
 98
        1
 10
0.0
 20
0.0
  0
HATCH
  5
7D
330
A
100
AcDbEntity
  8
LAYER_1
 62
     7
100
AcDbHatch
 10
0.0
 20
0.0
 30
0.0
210
0.0
220
0.0
230
1.0
  2
SOLID
 70
     1
 71
     0
 91
        1
 92
        1
 93
        1
 72
     4
 94
        3
 73
     0
 74
     0
 95
       29
 96
       25
 40
0.0
 40
0.0
 40
0.0
 40
0.0
 40
1.0
 40
1.0
 40
1.0
 40
2.0
 40
2.0
 40
2.0
 40
3.0
 40
3.0
 40
3.0
 40
4.0
 40
4.0
 40
4.0
 40
5.0
 40
5.0
 40
5.0
 40
6.0
 40
6.0
 40
6.0
 40
7.0
 40
7.0
 40
7.0
 40
8.0
 40
8.0
 40
8.0
 40
8.0
 10
105.1234714084201
 20
115.4721937391493
 10
105.1234714084201
 20
115.4721937391493
 10
105.7931979709201
 20
115.7770846896701
 10
105.7931979709201
 20
115.7770846896701
 10
105.7931979709201
 20
115.7770846896701
 10
105.7931979709201
 20
115.6702867296007
 10
105.7931979709201
 20
115.6702867296007
 10
105.7931979709201
 20
115.6702867296007
 10
105.5172458224826
 20
115.5448852539062
 10
105.5172458224826
 20
115.5448852539062
 10
105.5172458224826
 20
115.5448852539062
 10
105.5172458224826
 20
114.5843926323785
 10
105.5172458224826
 20
114.5843926323785
 10
105.5172458224826
 20
114.5843926323785
 10
105.3994235568576
 20
114.5306491427951
 10
105.3994235568576
 20
114.5306491427951
 10
105.3994235568576
 20
114.5306491427951
 10
105.3994235568576
 20
115.4911417643229
 10
105.3994235568576
 20
115.4911417643229
 10
105.3994235568576
 20
115.4911417643229
 10
105.1234714084201
 20
115.3653957790799
 10
105.1234714084201
 20
115.3653957790799
 10
105.1234714084201
 20
115.3653957790799
 10
105.1234714084201
 20
115.4721937391493
 10
105.1234714084201
 20
115.4721937391493
 97
        0
 75
     0
 76
     1
 98
        1
 10
0.0
 20
0.0
  0
HATCH
  5
7C
330
A
100
AcDbEntity
  8
LAYER_1
 62
     7
100
AcDbHatch
 10
0.0
 20
0.0
 30
0.0
210
0.0
220
0.0
230
1.0
  2
SOLID
 70
     1
 71
     0
 91
        2
 92
        1
 93
        1
 72
     4
 94
        3
 73
     0
 74
     0
 95
       17
 96
       13
 40
0.0
 40
0.0
 40
0.0
 40
0.0
 40
1.0
 40
1.0
 40
1.0
 40
2.0
 40
2.0
 40
2.0
 40
3.0
 40
3.0
 40
3.0
 40
4.0
 40
4.0
 40
4.0
 40
4.0
 10
105.888971625434
 20
115.6785549587674
 10
105.888971625434
 20
115.6785549587674
 10
105.888971625434
 20
115.8204928927951
 10
105.888971625434
 20
115.8204928927951
 10
105.888971625434
 20
115.8204928927951
 10
106.0012817382812
 20
115.8718248155382
 10
106.0012817382812
 20
115.8718248155382
 10
106.0012817382812
 20
115.8718248155382
 10
106.0012817382812
 20
115.7295423719618
 10
106.0012817382812
 20
115.7295423719618
 10
106.0012817382812
 20
115.7295423719618
 10
105.888971625434
 20
115.6785549587674
 10
105.888971625434
 20
115.6785549587674
 97
        0
 92
        1
 93
        1
 72
     4
 94
        3
 73
     0
 74
     0
 95
       17
 96
       13
 40
0.0
 40
0.0
 40
0.0
 40
0.0
 40
1.0
 40
1.0
 40
1.0
 40
2.0
 40
2.0
 40
2.0
 40
3.0
 40
3.0
 40
3.0
 40
4.0
 40
4.0
 40
4.0
 40
4.0
 10
105.888971625434
 20
114.7535468207465
 10
105.888971625434
 20
114.7535468207465
 10
105.888971625434
 20
115.5445407443576
 10
105.888971625434
 20
115.5445407443576
 10
105.888971625434
 20
115.5445407443576
 10
106.0012817382812
 20
115.5958726671007
 10
106.0012817382812
 20
115.5958726671007
 10
106.0012817382812
 20
115.5958726671007
 10
106.0012817382812
 20
114.8048787434896
 10
106.0012817382812
 20
114.8048787434896
 10
106.0012817382812
 20
114.8048787434896
 10
105.888971625434
 20
114.7535468207465
 10
105.888971625434
 20
114.7535468207465
 97
        0
 75
     0
 76
     1
 98
        1
 10
0.0
 20
0.0
  0
HATCH
  5
7B
330
A
100
AcDbEntity
  8
LAYER_1
 62
     7
100
AcDbHatch
 10
0.0
 20
0.0
 30
0.0
210
0.0
220
0.0
230
1.0
  2
SOLID
 70
     1
 71
     0
 91
        2
 92
       16
 93
        1
 72
     4
 94
        3
 73
     0
 74
     0
 95
       14
 96
       10
 40
0.0
 40
0.0
 40
0.0
 40
0.0
 40
1.0
 40
1.0
 40
1.0
 40
2.0
 40
2.0
 40
2.0
 40
3.0
 40
3.0
 40
3.0
 40
3.0
 10
106.5469848632812
 20
115.5311048719618
 10
106.5428507486979
 20
115.6217108832465
 10
106.5483629014757
 20
115.7708835177951
 10
106.4177937825521
 20
115.7112833658854
 10
106.2868801540799
 20
115.6516832139757
 10
106.2837795681424
 20
115.505266655816
 10
106.279645453559
 20
115.4094930013021
 10
106.279645453559
 20
115.4094930013021
 10
106.5469848632812
 20
115.5311048719618
 10
106.5469848632812
 20
115.5311048719618
 97
        0
 92
        1
 93
        1
 72
     4
 94
        3
 73
     0
 74
     0
 95
       29
 96
       25
 40
0.0
 40
0.0
 40
0.0
 40
0.0
 40
1.0
 40
1.0
 40
1.0
 40
2.0
 40
2.0
 40
2.0
 40
3.0
 40
3.0
 40
3.0
 40
4.0
 40
4.0
 40
4.0
 40
5.0
 40
5.0
 40
5.0
 40
6.0
 40
6.0
 40
6.0
 40
7.0
 40
7.0
 40
7.0
 40
8.0
 40
8.0
 40
8.0
 40
8.0
 10
106.657916937934
 20
115.3667738172743
 10
106.6651516384548
 20
115.2151896158854
 10
106.5855699327257
 20
115.0494805230035
 10
106.4191718207465
 20
114.973688422309
 10
106.2696546766493
 20
114.905475531684
 10
106.1632012261285
 20
114.9568074544271
 10
106.1632012261285
 20
115.2751342773437
 10
106.1632012261285
 20
115.4418768988715
 10
106.2072984483507
 20
115.7109388563368
 10
106.416071234809
 20
115.8060234917535
 10
106.6723863389757
 20
115.922467719184
 10
106.657916937934
 20
115.6740763346354
 10
106.6637736002604
 20
115.4918307834201
 10
106.6637736002604
 20
115.4918307834201
 10
106.279645453559
 20
115.3168199327257
 10
106.279645453559
 20
115.3168199327257
 10
106.2824015299479
 20
115.2117445203993
 10
106.2641425238715
 20
114.998493109809
 10
106.4219278971354
 20
115.0701510959201
 10
106.5301038953993
 20
115.1194159613715
 10
106.5600762261285
 20
115.2327596028646
 10
106.5528415256076
 20
115.3188869900174
 10
106.5528415256076
 20
115.3188869900174
 10
106.657916937934
 20
115.3667738172743
 10
106.657916937934
 20
115.3667738172743
 97
        0
 75
     0
 76
     1
 98
        1
 10
0.0
 20
0.0
  0
HATCH
  5
7A
330
A
100
AcDbEntity
  8
LAYER_1
 62
     7
100
AcDbHatch
 10
0.0
 20
0.0
 30
0.0
210
0.0
220
0.0
230
1.0
  2
SOLID
 70
     1
 71
     0
 91
        4
 92
       16
 93
        1
 72
     4
 94
        3
 73
     0
 74
     0
 95
       20
 96
       16
 40
0.0
 40
0.0
 40
0.0
 40
0.0
 40
1.0
 40
1.0
 40
1.0
 40
2.0
 40
2.0
 40
2.0
 40
3.0
 40
3.0
 40
3.0
 40
4.0
 40
4.0
 40
4.0
 40
5.0
 40
5.0
 40
5.0
 40
5.0
 10
106.9621188693576
 20
116.189118109809
 10
106.9979478624132
 20
116.2056545681424
 10
107.0537584092882
 20
116.226325141059
 10
107.0537584092882
 20
116.2786905924479
 10
107.0537584092882
 20
116.3172756618924
 10
107.0189629448785
 20
116.3059068467882
 10
106.9872680664062
 20
116.2910929361979
 10
106.9872680664062
 20
116.2910929361979
 10
106.9145765516493
 20
116.257331000434
 10
106.9145765516493
 20
116.257331000434
 10
106.9145765516493
 20
116.257331000434
 10
106.9145765516493
 20
116.1670694986979
 10
106.9145765516493
 20
116.1670694986979
 10
106.9145765516493
 20
116.1670694986979
 10
106.9621188693576
 20
116.189118109809
 10
106.9621188693576
 20
116.189118109809
 97
        0
 92
        1
 93
        1
 72
     4
 94
        3
 73
     0
 74
     0
 95
       38
 96
       34
 40
0.0
 40
0.0
 40
0.0
 40
0.0
 40
1.0
 40
1.0
 40
1.0
 40
2.0
 40
2.0
 40
2.0
 40
3.0
 40
3.0
 40
3.0
 40
4.0
 40
4.0
 40
4.0
 40
5.0
 40
5.0
 40
5.0
 40
6.0
 40
6.0
 40
6.0
 40
7.0
 40
7.0
 40
7.0
 40
8.0
 40
8.0
 40
8.0
 40
9.0
 40
9.0
 40
9.0
 40
10.0
 40
10.0
 40
10.0
 40
11.0
 40
11.0
 40
11.0
 40
11.0
 10
107.0826972113715
 20
116.1012681749132
 10
107.0826972113715
 20
116.1012681749132
 10
107.0444566514757
 20
116.083698187934
 10
107.0444566514757
 20
116.083698187934
 10
107.0444566514757
 20
116.083698187934
 10
106.9714206271701
 20
116.1684475368923
 10
106.9714206271701
 20
116.1684475368923
 10
106.9714206271701
 20
116.1684475368923
 10
106.9145765516493
 20
116.1422648111979
 10
106.9145765516493
 20
116.1422648111979
 10
106.9145765516493
 20
116.1422648111979
 10
106.9145765516493
 20
116.0234090169271
 10
106.9145765516493
 20
116.0234090169271
 10
106.9145765516493
 20
116.0234090169271
 10
106.8815036349826
 20
116.0082505967882
 10
106.8815036349826
 20
116.0082505967882
 10
106.8815036349826
 20
116.0082505967882
 10
106.8815036349826
 20
116.2669772677951
 10
106.8815036349826
 20
116.2669772677951
 10
106.8815036349826
 20
116.2669772677951
 10
106.9951917860243
 20
116.319342719184
 10
106.9951917860243
 20
116.319342719184
 10
107.0162068684896
 20
116.3293334960937
 10
107.0379109700521
 20
116.3393242730035
 10
107.0575480143229
 20
116.3341566297743
 10
107.0761515299479
 20
116.3324340820312
 10
107.0875203450521
 20
116.3138305664062
 10
107.0868313259549
 20
116.2924709743923
 10
107.0868313259549
 20
116.2414835611979
 10
107.0503133138021
 20
116.2056545681424
 10
107.0055270724826
 20
116.1842949761285
 10
107.0055270724826
 20
116.1842949761285
 10
107.0826972113715
 20
116.1012681749132
 10
107.0826972113715
 20
116.1012681749132
 97
        0
 92
       16
 93
        1
 72
     4
 94
        3
 73
     0
 74
     0
 95
       17
 96
       13
 40
0.0
 40
0.0
 40
0.0
 40
0.0
 40
1.0
 40
1.0
 40
1.0
 40
2.0
 40
2.0
 40
2.0
 40
3.0
 40
3.0
 40
3.0
 40
4.0
 40
4.0
 40
4.0
 40
4.0
 10
106.7716050889757
 20
116.0857652452257
 10
106.7716050889757
 20
115.976555718316
 10
106.8591105143229
 20
115.9303914388021
 10
106.967975531684
 20
115.9806898328993
 10
107.0768405490451
 20
116.0309882269965
 10
107.1629679361979
 20
116.158112250434
 10
107.1629679361979
 20
116.2676662868924
 10
107.1629679361979
 20
116.3754977756076
 10
107.0768405490451
 20
116.423040093316
 10
106.967975531684
 20
116.3727416992187
 10
106.8591105143229
 20
116.3220987955729
 10
106.7716050889757
 20
116.1939412434896
 10
106.7716050889757
 20
116.0857652452257
 97
        0
 92
        1
 93
        1
 72
     4
 94
        3
 73
     0
 74
     0
 95
       17
 96
       13
 40
0.0
 40
0.0
 40
0.0
 40
0.0
 40
1.0
 40
1.0
 40
1.0
 40
2.0
 40
2.0
 40
2.0
 40
3.0
 40
3.0
 40
3.0
 40
4.0
 40
4.0
 40
4.0
 40
4.0
 10
107.1977634006076
 20
116.2842027452257
 10
107.1977634006076
 20
116.1553561740451
 10
107.0950995551215
 20
116.0054945203993
 10
106.967975531684
 20
115.9465833875868
 10
106.8405069986979
 20
115.8873277452257
 10
106.7371541341146
 20
115.9417602539062
 10
106.7371541341146
 20
116.0706068250868
 10
106.7371541341146
 20
116.1973863389757
 10
106.8405069986979
 20
116.3475925021701
 10
106.967975531684
 20
116.4068481445312
 10
107.0950995551215
 20
116.4657592773437
 10
107.1977634006076
 20
116.4109822591146
 10
107.1977634006076
 20
116.2842027452257
 97
        0
 75
     0
 76
     1
 98
        1
 10
0.0
 20
0.0
  0
LWPOLYLINE
  5
75
330
A
100
AcDbEntity
  8
LAYER_1
 62
     7
100
AcDbPolyline
 90
        3
 70
     0
 43
0.0
 10
88.4319837782118
 20
184.104352484809
 10
59.71022271050347
 20
173.6622680664062
 10
60.02165934244791
 20
141.314543999566
  0
LWPOLYLINE
  5
6C
330
A
100
AcDbEntity
  8
LAYER_1
 62
     7
100
AcDbPolyline
 90
        7
 70
     0
 43
0.0
 10
60.02165934244791
 20
141.314543999566
 10
58.23193223741319
 20
137.8894300672743
 10
62.08423800998263
 20
135.2008775499132
 10
60.09951850043402
 20
131.6448499891493
 10
60.41095513237847
 20
93.70435791015625
 10
78.11495632595485
 20
82.21461995442708
 10
91.95976155598957
 20
90.26546359592012
  0
LWPOLYLINE
  5
67
330
A
100
AcDbEntity
  8
LAYER_1
 62
     7
100
AcDbPolyline
 90
        3
 70
     0
 43
0.0
 10
60.37202555338541
 20
100.121881781684
 10
77.95923800998263
 20
88.71930474175346
 10
96.61339653862846
 20
100.8408732096354
  0
LWPOLYLINE
  5
62
330
A
100
AcDbEntity
  8
LAYER_1
 62
     7
100
AcDbPolyline
 90
        3
 70
     0
 43
0.0
 10
60.29382188585069
 20
105.758747016059
 10
77.88172336154513
 20
94.70309109157985
 10
95.84031711154513
 20
106.1404635959201
  0
LWPOLYLINE
  5
5D
330
A
100
AcDbEntity
  8
LAYER_1
 62
     7
100
AcDbPolyline
 90
        3
 70
     0
 43
0.0
 10
60.21630723741319
 20
111.569245062934
 10
77.88172336154513
 20
100.9469821506076
 10
91.95976155598957
 20
109.6682413736979
  0
LWPOLYLINE
  5
58
330
A
100
AcDbEntity
  8
LAYER_1
 62
     7
100
AcDbPolyline
 90
        3
 70
     0
 43
0.0
 10
60.29382188585069
 20
117.5526869032118
 10
77.88172336154513
 20
107.104401312934
 10
97.25142822265624
 20
118.4876858181424
  0
LWPOLYLINE
  5
53
330
A
100
AcDbEntity
  8
LAYER_1
 62
     7
100
AcDbPolyline
 90
        3
 70
     0
 43
0.0
 10
60.13844807942708
 20
123.1030802408854
 10
77.88172336154513
 20
113.0010267469618
 10
97.25142822265624
 20
124.1321302625868
  0
LWPOLYLINE
  5
4E
330
A
100
AcDbEntity
  8
LAYER_1
 62
     7
100
AcDbPolyline
 90
        3
 70
     0
 43
0.0
 10
60.17737765842013
 20
128.349616156684
 10
77.8035196940104
 20
118.508356391059
 10
96.89865044487847
 20
128.7182413736979
  0
LINE
  5
4D
330
A
100
AcDbEntity
  8
LAYER_1
 62
     7
100
AcDbLine
 10
60.17737765842013
 20
131.6886027018229
 30
0.0
 11
77.7260050455729
 21
122.2376722547743
 31
0.0
  0
LINE
  5
4C
330
A
100
AcDbEntity
  8
LAYER_1
 62
     7
100
AcDbLine
 10
78.69855550130208
 20
124.4914537217882
 30
0.0
 11
94.07642822265625
 21
132.5987969292535
 31
0.0
  0
LINE
  5
4B
330
A
100
AcDbEntity
  8
LAYER_1
 62
     7
100
AcDbLine
 10
76.16951090494791
 20
128.7847317165798
 30
0.0
 11
93.01809488932291
 21
137.6441392686632
 31
0.0
  0
LINE
  5
4A
330
A
100
AcDbEntity
  8
LAYER_1
 62
     7
100
AcDbLine
 10
60.48846978081597
 20
141.5312405056424
 30
0.0
 11
77.45349799262152
 21
132.7741522894965
 31
0.0
  0
LINE
  5
49
330
A
100
AcDbEntity
  8
LAYER_1
 62
     7
100
AcDbLine
 10
59.98272976345486
 20
145.3907809787326
 30
0.0
 11
64.66668158637152
 21
142.8514010959201
 31
0.0
  0
LWPOLYLINE
  5
44
330
A
100
AcDbEntity
  8
LAYER_1
 62
     7
100
AcDbPolyline
 90
        3
 70
     0
 43
0.0
 10
64.32044949001735
 20
142.7935234917535
 10
77.7260050455729
 20
136.1127943250868
 10
93.37087266710068
 20
143.8876858181424
  0
LWPOLYLINE
  5
3F
330
A
100
AcDbEntity
  8
LAYER_1
 62
     7
100
AcDbPolyline
 90
        3
 70
     0
 43
0.0
 10
59.8569837782118
 20
150.7616848415798
 10
77.7260050455729
 20
142.1833970811632
 10
93.37087266710068
 20
149.179352484809
  0
LWPOLYLINE
  5
3A
330
A
100
AcDbEntity
  8
LAYER_1
 62
     7
100
AcDbPolyline
 90
        3
 70
     0
 43
0.0
 10
59.8662855360243
 20
156.794391547309
 10
77.68707546657986
 20
148.3401272243924
 10
88.78476155598958
 20
152.7798217773437
  0
LWPOLYLINE
  5
35
330
A
100
AcDbEntity
  8
LAYER_1
 62
     7
100
AcDbPolyline
 90
        3
 70
     0
 43
0.0
 10
59.74915228949652
 20
162.3447848849826
 10
77.60921630859374
 20
154.020745171441
 10
88.78476155598958
 20
158.4976467556423
  0
LWPOLYLINE
  5
30
330
A
100
AcDbEntity
  8
LAYER_1
 62
     7
100
AcDbPolyline
 90
        3
 70
     0
 43
0.0
 10
59.74915228949652
 20
168.1552829318576
 10
77.60921630859374
 20
159.9611233181423
 10
89.84309488932291
 20
164.2154717339409
  0
LINE
  5
2F
330
A
100
AcDbEntity
  8
LAYER_1
 62
     7
100
AcDbLine
 10
62.04496392144097
 20
135.2446302625868
 30
0.0
 11
75.74128553602429
 21
128.1339531792535
 31
0.0
  0
LWPOLYLINE
  5
27
330
A
100
AcDbEntity
  8
LAYER_1
 62
     7
100
AcDbPolyline
 90
        6
 70
     0
 43
0.0
 10
77.56994222005207
 20
165.6848049587674
 10
77.8035196940104
 20
133.2078898111979
 10
75.85841878255208
 20
128.0905449761285
 10
79.36035834418402
 20
126.3559393988715
 10
77.84279378255208
 20
122.2376722547743
 10
78.07637125651041
 20
82.30178087022568
  0
LWPOLYLINE
  5
22
330
A
100
AcDbEntity
  8
LAYER_1
 62
     7
100
AcDbPolyline
 90
        3
 70
     0
 43
0.0
 10
59.78808186848958
 20
173.6622680664062
 10
77.56994222005207
 20
165.6848049587674
 10
108.6577948676215
 20
176.6960191514757
  0
ENDSEC
  0
SECTION
  2
OBJECTS
  0
DICTIONARY
  5
19
330
0
100
AcDbDictionary
281
     1
  3
ACAD_COLOR
350
10A
  3
ACAD_GROUP
350
1A
  3
ACAD_LAYOUT
350
D7
  3
ACAD_MATERIAL
350
10C
  3
ACAD_MLINESTYLE
350
1B
  3
ACAD_PLOTSETTINGS
350
D8
  3
ACAD_PLOTSTYLENAME
350
D5
  3
ACDBHEADERROUNDTRIPXREC
350
109
  0
DICTIONARY
  5
10A
102
{ACAD_REACTORS
330
19
102
}
330
19
100
AcDbDictionary
281
     1
  0
DICTIONARY
  5
1A
102
{ACAD_REACTORS
330
19
102
}
330
19
100
AcDbDictionary
281
     1
  0
DICTIONARY
  5
D7
102
{ACAD_REACTORS
330
19
102
}
330
19
100
AcDbDictionary
281
     1
  3
Layout1
350
DA
  3
Model
350
D9
  0
DICTIONARY
  5
10C
102
{ACAD_REACTORS
330
19
102
}
330
19
100
AcDbDictionary
281
     1
  0
DICTIONARY
  5
1B
102
{ACAD_REACTORS
330
19
102
}
330
19
100
AcDbDictionary
281
     1
  3
STANDARD
350
1C
  0
DICTIONARY
  5
D8
102
{ACAD_REACTORS
330
19
102
}
330
19
100
AcDbDictionary
281
     1
  0
ACDBDICTIONARYWDFLT
  5
D5
102
{ACAD_REACTORS
330
19
102
}
330
19
100
AcDbDictionary
281
     1
  3
Normal
350
D6
100
AcDbDictionaryWithDefault
340
D6
  0
DICTIONARY
  5
109
102
{ACAD_REACTORS
330
19
102
}
330
19
100
AcDbDictionary
281
     1
  3
COLORDICT
350
10B
  3
MATERIALDICT
350
10D
  0
LAYOUT
  5
DA
102
{ACAD_REACTORS
330
D7
102
}
102
{ACAD_XDICTIONARY
360
10E
102
}
330
D7
100
AcDbPlotSettings
  1

  2
Support Center HP LaserJet 4
  4

  6

 40
0.0
 41
0.0
 42
0.0
 43
0.0
 44
0.0
 45
0.0
 46
0.0
 47
0.0
 48
0.0
 49
0.0
140
0.0
141
0.0
142
1.0
143
1.0
 70
   688
 72
     0
 73
     0
 74
     5
  7

 75
    16
147
1.0
148
0.0
149
0.0
100
AcDbLayout
  1
Layout1
 70
     0
 71
     1
 10
0.0
 20
0.0
 11
12.0
 21
9.0
 12
0.0
 22
0.0
 32
0.0
 14
1.000000000000000E+20
 24
1.000000000000000E+20
 34
1.000000000000000E+20
 15
-1.000000000000000E+20
 25
-1.000000000000000E+20
 35
-1.000000000000000E+20
146
0.0
 13
0.0
 23
0.0
 33
0.0
 16
1.0
 26
0.0
 36
0.0
 17
0.0
 27
1.0
 37
0.0
 76
     0
330
B
  0
LAYOUT
  5
D9
102
{ACAD_REACTORS
330
D7
102
}
102
{ACAD_XDICTIONARY
360
110
102
}
330
D7
100
AcDbPlotSettings
  1

  2
Support Center HP LaserJet 4
  4

  6

 40
0.0
 41
0.0
 42
0.0
 43
0.0
 44
0.0
 45
0.0
 46
0.0
 47
0.0
 48
0.0
 49
0.0
140
0.0
141
0.0
142
1.0
143
1.0
 70
  1712
 72
     0
 73
     0
 74
     0
  7

 75
     0
147
1.0
148
0.0
149
0.0
100
AcDbLayout
  1
Model
 70
     1
 71
     0
 10
0.0
 20
0.0
 11
12.0
 21
9.0
 12
0.0
 22
0.0
 32
0.0
 14
0.0
 24
0.0
 34
0.0
 15
0.0
 25
0.0
 35
0.0
146
0.0
 13
0.0
 23
0.0
 33
0.0
 16
1.0
 26
0.0
 36
0.0
 17
0.0
 27
1.0
 37
0.0
 76
     0
330
A
  0
MLINESTYLE
  5
1C
102
{ACAD_REACTORS
330
1B
102
}
330
1B
100
AcDbMlineStyle
  2
STANDARD
 70
     0
  3

 62
     0
 51
90.0000000000002
 52
90.0000000000002
 71
     2
 49
0.5
 62
   256
  6
BYLAYER
 49
-0.5
 62
   256
  6
BYLAYER
  0
ACDBPLACEHOLDER
  5
D6
102
{ACAD_REACTORS
330
D5
102
}
330
D5
  0
XRECORD
  5
10B
102
{ACAD_REACTORS
330
109
102
}
330
109
100
AcDbXrecord
340
10A
  0
XRECORD
  5
10D
102
{ACAD_REACTORS
330
109
102
}
330
109
100
AcDbXrecord
340
10C
  0
DICTIONARY
  5
10E
330
DA
100
AcDbDictionary
280
     1
281
     1
  3
ACAD_XREC_ROUNDTRIP
360
10F
  0
DICTIONARY
  5
110
330
D9
100
AcDbDictionary
280
     1
281
     1
  3
ACAD_XREC_ROUNDTRIP
360
111
  0
XRECORD
  5
10F
102
{ACAD_REACTORS
330
10E
102
}
330
10E
100
AcDbXrecord
102
SHADEPLOT
 70
 27424
102
SHADEPLOTRESLEVEL
 70
 25504
102
SHADEPLOTCUSTOMDPI
 70
 16888
  0
XRECORD
  5
111
102
{ACAD_REACTORS
330
110
102
}
330
110
100
AcDbXrecord
102
SHADEPLOT
 70
     0
102
SHADEPLOTRESLEVEL
 70
     0
102
SHADEPLOTCUSTOMDPI
 70
     0
  0
ENDSEC
  0
EOF
