  0
SECTION
  2
HEADER
  9
$ACADVER
  1
AC1015
  9
$ACADMAINTVER
 70
     6
  9
$DWGCODEPAGE
  3
ANSI_1252
  9
$INSBASE
 10
0.0
 20
0.0
 30
0.0
  9
$EXTMIN
 10
40.82678901268573
 20
80.95485648119872
 30
-0.0015258207003612
  9
$EXTMAX
 10
150.4571490862393
 20
218.3032235530205
 30
0.0000000349246008
  9
$LIMMIN
 10
62.96084255642361
 20
80.82710774739583
  9
$LIMMAX
 10
150.3344930013021
 20
203.9465521918403
  9
$ORTHOMODE
 70
     0
  9
$REGENMODE
 70
     1
  9
$FILLMODE
 70
     1
  9
$QTEXTMODE
 70
     0
  9
$MIRRTEXT
 70
     1
  9
$LTSCALE
 40
1.0
  9
$ATTMODE
 70
     1
  9
$TEXTSIZE
 40
0.2
  9
$TRACEWID
 40
0.05
  9
$TEXTSTYLE
  7
STANDARD
  9
$CLAYER
  8
0
  9
$CELTYPE
  6
CONTINUOUS
  9
$CECOLOR
 62
   256
  9
$CELTSCALE
 40
1.0
  9
$DISPSILH
 70
     0
  9
$DIMSCALE
 40
1.0
  9
$DIMASZ
 40
0.18
  9
$DIMEXO
 40
0.0625
  9
$DIMDLI
 40
0.38
  9
$DIMRND
 40
0.0
  9
$DIMDLE
 40
0.0
  9
$DIMEXE
 40
0.18
  9
$DIMTP
 40
0.0
  9
$DIMTM
 40
0.0
  9
$DIMTXT
 40
0.18
  9
$DIMCEN
 40
0.09
  9
$DIMTSZ
 40
0.0
  9
$DIMTOL
 70
     0
  9
$DIMLIM
 70
     0
  9
$DIMTIH
 70
     1
  9
$DIMTOH
 70
     1
  9
$DIMSE1
 70
     0
  9
$DIMSE2
 70
     0
  9
$DIMTAD
 70
     0
  9
$DIMZIN
 70
     0
  9
$DIMBLK
  1

  9
$DIMASO
 70
     1
  9
$DIMSHO
 70
     1
  9
$DIMPOST
  1

  9
$DIMAPOST
  1

  9
$DIMALT
 70
     0
  9
$DIMALTD
 70
     2
  9
$DIMALTF
 40
25.4
  9
$DIMLFAC
 40
1.0
  9
$DIMTOFL
 70
     0
  9
$DIMTVP
 40
0.0
  9
$DIMTIX
 70
     0
  9
$DIMSOXD
 70
     0
  9
$DIMSAH
 70
     0
  9
$DIMBLK1
  1

  9
$DIMBLK2
  1

  9
$DIMSTYLE
  2
STANDARD
  9
$DIMCLRD
 70
     0
  9
$DIMCLRE
 70
     0
  9
$DIMCLRT
 70
     0
  9
$DIMTFAC
 40
1.0
  9
$DIMGAP
 40
0.09
  9
$DIMJUST
 70
     0
  9
$DIMSD1
 70
     0
  9
$DIMSD2
 70
     0
  9
$DIMTOLJ
 70
     1
  9
$DIMTZIN
 70
     0
  9
$DIMALTZ
 70
     0
  9
$DIMALTTZ
 70
     0
  9
$DIMUPT
 70
     0
  9
$DIMDEC
 70
     4
  9
$DIMTDEC
 70
     4
  9
$DIMALTU
 70
     2
  9
$DIMALTTD
 70
     2
  9
$DIMTXSTY
  7
STANDARD
  9
$DIMAUNIT
 70
     0
  9
$DIMADEC
 70
     0
  9
$DIMALTRND
 40
0.0
  9
$DIMAZIN
 70
     0
  9
$DIMDSEP
 70
    46
  9
$DIMATFIT
 70
     3
  9
$DIMFRAC
 70
     0
  9
$DIMLDRBLK
  1

  9
$DIMLUNIT
 70
     2
  9
$DIMLWD
 70
    -2
  9
$DIMLWE
 70
    -2
  9
$DIMTMOVE
 70
     0
  9
$LUNITS
 70
     2
  9
$LUPREC
 70
     4
  9
$SKETCHINC
 40
0.1
  9
$FILLETRAD
 40
0.0
  9
$AUNITS
 70
     0
  9
$AUPREC
 70
     0
  9
$MENU
  1
acad
  9
$ELEVATION
 40
0.0
  9
$PELEVATION
 40
0.0
  9
$THICKNESS
 40
0.0
  9
$LIMCHECK
 70
     0
  9
$CHAMFERA
 40
0.0
  9
$CHAMFERB
 40
0.0
  9
$CHAMFERC
 40
0.0
  9
$CHAMFERD
 40
0.0
  9
$SKPOLY
 70
     0
  9
$TDCREATE
 40
2444971.666666667
  9
$TDUCREATE
 40
2444972.0
  9
$TDUPDATE
 40
2452215.621412616
  9
$TDUUPDATE
 40
2452215.954745949
  9
$TDINDWG
 40
0.0007653935
  9
$TDUSRTIMER
 40
0.0007653935
  9
$USRTIMER
 70
     1
  9
$ANGBASE
 50
0.0
  9
$ANGDIR
 70
     0
  9
$PDMODE
 70
     0
  9
$PDSIZE
 40
0.0
  9
$PLINEWID
 40
0.0
  9
$SPLFRAME
 70
     0
  9
$SPLINETYPE
 70
     6
  9
$SPLINESEGS
 70
     8
  9
$HANDSEED
  5
F0
  9
$SURFTAB1
 70
     6
  9
$SURFTAB2
 70
     6
  9
$SURFTYPE
 70
     6
  9
$SURFU
 70
     6
  9
$SURFV
 70
     6
  9
$UCSBASE
  2

  9
$UCSNAME
  2

  9
$UCSORG
 10
0.0
 20
0.0
 30
0.0
  9
$UCSXDIR
 10
1.0
 20
0.0
 30
0.0
  9
$UCSYDIR
 10
0.0
 20
1.0
 30
0.0
  9
$UCSORTHOREF
  2

  9
$UCSORTHOVIEW
 70
     0
  9
$UCSORGTOP
 10
0.0
 20
0.0
 30
0.0
  9
$UCSORGBOTTOM
 10
0.0
 20
0.0
 30
0.0
  9
$UCSORGLEFT
 10
0.0
 20
0.0
 30
0.0
  9
$UCSORGRIGHT
 10
0.0
 20
0.0
 30
0.0
  9
$UCSORGFRONT
 10
0.0
 20
0.0
 30
0.0
  9
$UCSORGBACK
 10
0.0
 20
0.0
 30
0.0
  9
$PUCSBASE
  2

  9
$PUCSNAME
  2

  9
$PUCSORG
 10
0.0
 20
0.0
 30
0.0
  9
$PUCSXDIR
 10
1.0
 20
0.0
 30
0.0
  9
$PUCSYDIR
 10
0.0
 20
1.0
 30
0.0
  9
$PUCSORTHOREF
  2

  9
$PUCSORTHOVIEW
 70
     0
  9
$PUCSORGTOP
 10
0.0
 20
0.0
 30
0.0
  9
$PUCSORGBOTTOM
 10
0.0
 20
0.0
 30
0.0
  9
$PUCSORGLEFT
 10
0.0
 20
0.0
 30
0.0
  9
$PUCSORGRIGHT
 10
0.0
 20
0.0
 30
0.0
  9
$PUCSORGFRONT
 10
0.0
 20
0.0
 30
0.0
  9
$PUCSORGBACK
 10
0.0
 20
0.0
 30
0.0
  9
$USERI1
 70
     0
  9
$USERI2
 70
     0
  9
$USERI3
 70
     0
  9
$USERI4
 70
     0
  9
$USERI5
 70
     0
  9
$USERR1
 40
0.0
  9
$USERR2
 40
0.0
  9
$USERR3
 40
0.0
  9
$USERR4
 40
0.0
  9
$USERR5
 40
0.0
  9
$WORLDVIEW
 70
     1
  9
$SHADEDGE
 70
     3
  9
$SHADEDIF
 70
    70
  9
$TILEMODE
 70
     1
  9
$MAXACTVP
 70
    16
  9
$PINSBASE
 10
0.0
 20
0.0
 30
0.0
  9
$PLIMCHECK
 70
     0
  9
$PEXTMIN
 10
1.000000000000000E+20
 20
1.000000000000000E+20
 30
1.000000000000000E+20
  9
$PEXTMAX
 10
-1.000000000000000E+20
 20
-1.000000000000000E+20
 30
-1.000000000000000E+20
  9
$PLIMMIN
 10
0.0
 20
0.0
  9
$PLIMMAX
 10
12.0
 20
9.0
  9
$UNITMODE
 70
     0
  9
$VISRETAIN
 70
     0
  9
$PLINEGEN
 70
     1
  9
$PSLTSCALE
 70
     0
  9
$TREEDEPTH
 70
  3020
  9
$CMLSTYLE
  2
STANDARD
  9
$CMLJUST
 70
     0
  9
$CMLSCALE
 40
1.0
  9
$PROXYGRAPHICS
 70
     0
  9
$MEASUREMENT
 70
     0
  9
$CELWEIGHT
370
    -1
  9
$ENDCAPS
280
     0
  9
$JOINSTYLE
280
     0
  9
$LWDISPLAY
290
     0
  9
$INSUNITS
 70
     0
  9
$HYPERLINKBASE
  1

  9
$STYLESHEET
  1

  9
$XEDIT
290
     1
  9
$CEPSNTYPE
380
     0
  9
$PSTYLEMODE
290
     1
  9
$FINGERPRINTGUID
  2
{48E2211A-CED6-11D5-923F-00805F198AD5}
  9
$VERSIONGUID
  2
{48E2211C-CED6-11D5-923F-00805F198AD5}
  9
$EXTNAMES
290
     1
  9
$PSVPSCALE
 40
0.0
  9
$OLESTARTUP
290
     0
  0
ENDSEC
  0
SECTION
  2
CLASSES
  0
CLASS
  1
LWPOLYLINE
  2
AcDbPolyline
  3
AutoCAD 2000
 90
        0
280
     0
281
     1
  0
CLASS
  1
IMAGE
  2
AcDbRasterImage
  3
ISM
 90
      127
280
     0
281
     1
  0
CLASS
  1
OLE2FRAME
  2
AcDbOle2Frame
  3
AutoCAD 2000
 90
        0
280
     0
281
     1
  0
CLASS
  1
HATCH
  2
AcDbHatch
  3
AutoCAD 2000
 90
        0
280
     0
281
     1
  0
CLASS
  1
DICTIONARYVAR
  2
AcDbDictionaryVar
  3
AutoCAD 2000
 90
        0
280
     0
281
     0
  0
CLASS
  1
RASTERVARIABLES
  2
AcDbRasterVariables
  3
ISM
 90
        0
280
     0
281
     0
  0
CLASS
  1
IMAGEDEF
  2
AcDbRasterImageDef
  3
ISM
 90
        0
280
     0
281
     0
  0
CLASS
  1
IMAGEDEF_REACTOR
  2
AcDbRasterImageDefReactor
  3
ISM
 90
        1
280
     0
281
     0
  0
CLASS
  1
IDBUFFER
  2
AcDbIdBuffer
  3
AutoCAD 2000
 90
        0
280
     0
281
     0
  0
CLASS
  1
SPATIAL_FILTER
  2
AcDbSpatialFilter
  3
AutoCAD 2000
 90
        0
280
     0
281
     0
  0
CLASS
  1
XRECORD
  2
AcDbXrecord
  3
AutoCAD 2000
 90
        0
280
     0
281
     0
  0
CLASS
  1
SORTENTSTABLE
  2
AcDbSortentsTable
  3
AutoCAD 2000
 90
        0
280
     0
281
     0
  0
CLASS
  1
LAYER_INDEX
  2
AcDbLayerIndex
  3
AutoCAD 2000
 90
        0
280
     0
281
     0
  0
CLASS
  1
SPATIAL_INDEX
  2
AcDbSpatialIndex
  3
AutoCAD 2000
 90
        0
280
     0
281
     0
  0
CLASS
  1
OBJECT_PTR
  2
CAseDLPNTableRecord
  3
ASE-LPNTableRecord
 90
        1
280
     1
281
     0
  0
CLASS
  1
LAYOUT
  2
AcDbLayout
  3
ObjectDBX Classes
 90
        0
280
     0
281
     0
  0
CLASS
  1
PLOTSETTINGS
  2
AcDbPlotSettings
  3
AutoCAD 2000
 90
        0
280
     0
281
     0
  0
CLASS
  1
ACDBDICTIONARYWDFLT
  2
AcDbDictionaryWithDefault
  3
AutoCAD 2000
 90
        0
280
     0
281
     0
  0
CLASS
  1
ACDBPLACEHOLDER
  2
AcDbPlaceHolder
  3
ObjectDBX Classes
 90
        0
280
     0
281
     0
  0
CLASS
  1
VBAPROJECT
  2
AcDbVbaProject
  3
ObjectDBX Classes
 90
        0
280
     0
281
     0
  0
CLASS
  1
WIPEOUT
  2
AcDbWipeout
  3
WipeOut|AutoCAD Express Tool|expresstools@autodesk.com
 90
      127
280
     0
281
     1
  0
CLASS
  1
WIPEOUTVARIABLES
  2
AcDbWipeoutVariables
  3
WipeOut|AutoCAD Express Tool|expresstools@autodesk.com
 90
        0
280
     0
281
     0
  0
CLASS
  1
RTEXT
  2
RText
  3
RText|AutoCAD Express Tool|expresstools@autodesk.com
 90
        0
280
     0
281
     1
  0
CLASS
  1
ARCALIGNEDTEXT
  2
AcDbArcAlignedText
  3
ATEXT|AutoCAD Express Tool|expresstools@autodesk.com
 90
        0
280
     0
281
     1
  0
CLASS
  1
LONG_TRANSACTION
  2
AcDbLongTransaction
  3
AutoCAD 2000
 90
        0
280
     1
281
     0
  0
CLASS
  1
LWPOLYLINE
  2
AcDbPolyline
  3
AutoCAD 2000
 90
        0
280
     0
281
     1
  0
CLASS
  1
HATCH
  2
AcDbHatch
  3
AutoCAD 2000
 90
        0
280
     0
281
     1
  0
CLASS
  1
XRECORD
  2
AcDbXrecord
  3
AutoCAD 2000
 90
        0
280
     0
281
     0
  0
ENDSEC
  0
SECTION
  2
TABLES
  0
TABLE
  2
VPORT
  5
7
330
0
100
AcDbSymbolTable
 70
     2
  0
VPORT
  5
BC
330
7
100
AcDbSymbolTableRecord
100
AcDbViewportTableRecord
  2
*Active
 70
     0
 10
0.0
 20
0.0
 11
1.0
 21
1.0
 12
95.64196904946253
 22
149.6290400171096
 13
0.0
 23
0.0
 14
1.0
 24
1.0
 15
0.0
 25
0.0
 16
0.0
 26
0.0
 36
1.0
 17
0.0
 27
0.0
 37
0.0
 40
139.5113334824017
 41
1.836842105263158
 42
50.0
 43
0.0
 44
0.0
 50
0.0
 51
0.0
 71
     0
 72
   100
 73
     1
 74
     1
 75
     0
 76
     0
 77
     0
 78
     0
281
     0
 65
     1
110
0.0
120
0.0
130
0.0
111
1.0
121
0.0
131
0.0
112
0.0
122
1.0
132
0.0
 79
     0
146
0.0
  0
ENDTAB
  0
TABLE
  2
LTYPE
  5
4
330
0
100
AcDbSymbolTable
 70
     1
  0
LTYPE
  5
11
330
4
100
AcDbSymbolTableRecord
100
AcDbLinetypeTableRecord
  2
BYBLOCK
 70
     0
  3

 72
    65
 73
     0
 40
0.0
  0
LTYPE
  5
12
330
4
100
AcDbSymbolTableRecord
100
AcDbLinetypeTableRecord
  2
BYLAYER
 70
     0
  3

 72
    65
 73
     0
 40
0.0
  0
LTYPE
  5
13
330
4
100
AcDbSymbolTableRecord
100
AcDbLinetypeTableRecord
  2
CONTINUOUS
 70
     0
  3
Solid line
 72
    65
 73
     0
 40
0.0
  0
ENDTAB
  0
TABLE
  2
LAYER
  5
2
330
0
100
AcDbSymbolTable
 70
     2
  0
LAYER
  5
14
330
2
100
AcDbSymbolTableRecord
100
AcDbLayerTableRecord
  2
0
 70
     0
 62
     7
  6
CONTINUOUS
370
    -3
390
0
  0
LAYER
  5
21
330
2
100
AcDbSymbolTableRecord
100
AcDbLayerTableRecord
  2
LAYER_1
 70
     0
 62
     5
  6
CONTINUOUS
370
    -3
390
0
  0
ENDTAB
  0
TABLE
  2
STYLE
  5
3
330
0
100
AcDbSymbolTable
 70
     5
  0
STYLE
  5
17
330
3
100
AcDbSymbolTableRecord
100
AcDbTextStyleTableRecord
  2
STANDARD
 70
     0
 40
0.0
 41
1.0
 50
0.0
 71
     0
 42
0.2
  3
txt
  4

  0
STYLE
  5
1D
330
3
100
AcDbSymbolTableRecord
100
AcDbTextStyleTableRecord
  2
STD
 70
     0
 40
0.0
 41
1.0
 50
0.0
 71
     0
 42
0.2
  3
txt
  4

  0
STYLE
  5
1E
330
3
100
AcDbSymbolTableRecord
100
AcDbTextStyleTableRecord
  2
TATESTD
 70
     4
 40
0.0
 41
1.0
 50
0.0
 71
     0
 42
0.2
  3
txt
  4

  0
STYLE
  5
1F
330
3
100
AcDbSymbolTableRecord
100
AcDbTextStyleTableRecord
  2
KANJISTD
 70
     0
 40
0.0
 41
1.0
 50
0.0
 71
     0
 42
0.2
  3
txt
  4
extfont
  0
STYLE
  5
20
330
3
100
AcDbSymbolTableRecord
100
AcDbTextStyleTableRecord
  2
KANJITATE
 70
     4
 40
0.0
 41
1.0
 50
0.0
 71
     0
 42
0.2
  3
txt
  4
extfont
  0
ENDTAB
  0
TABLE
  2
VIEW
  5
5
330
0
100
AcDbSymbolTable
 70
     0
  0
ENDTAB
  0
TABLE
  2
UCS
  5
6
330
0
100
AcDbSymbolTable
 70
     0
  0
ENDTAB
  0
TABLE
  2
APPID
  5
8
330
0
100
AcDbSymbolTable
 70
     1
  0
APPID
  5
16
330
8
100
AcDbSymbolTableRecord
100
AcDbRegAppTableRecord
  2
ACAD
 70
     0
  0
ENDTAB
  0
TABLE
  2
DIMSTYLE
  5
9
330
0
100
AcDbSymbolTable
 70
     1
100
AcDbDimStyleTable
  0
DIMSTYLE
105
18
330
9
100
AcDbSymbolTableRecord
100
AcDbDimStyleTableRecord
  2
STANDARD
 70
     0
  3

  4

289
     0
340
17
  0
ENDTAB
  0
TABLE
  2
BLOCK_RECORD
  5
1
330
0
100
AcDbSymbolTable
 70
     2
  0
BLOCK_RECORD
  5
A
330
1
100
AcDbSymbolTableRecord
100
AcDbBlockTableRecord
  2
*MODEL_SPACE
340
B7
  0
BLOCK_RECORD
  5
B
330
1
100
AcDbSymbolTableRecord
100
AcDbBlockTableRecord
  2
*PAPER_SPACE
340
B8
  0
BLOCK_RECORD
  5
50
330
1
100
AcDbSymbolTableRecord
100
AcDbBlockTableRecord
  2
AI9-BLK1
340
0
102
{BLKREFS
331
51
102
}
  0
BLOCK_RECORD
  5
84
330
1
100
AcDbSymbolTableRecord
100
AcDbBlockTableRecord
  2
AI9-BLK2
340
0
102
{BLKREFS
331
85
102
}
  0
ENDTAB
  0
ENDSEC
  0
SECTION
  2
BLOCKS
  0
BLOCK
  5
D
330
A
100
AcDbEntity
  8
0
100
AcDbBlockBegin
  2
*MODEL_SPACE
 70
     0
 10
0.0
 20
0.0
 30
0.0
  3
*MODEL_SPACE
  1

  4

  0
ENDBLK
  5
E
330
A
100
AcDbEntity
  8
0
100
AcDbBlockEnd
  0
BLOCK
  5
F
330
B
100
AcDbEntity
 67
     1
  8
0
100
AcDbBlockBegin
  2
*PAPER_SPACE
 70
     0
 10
0.0
 20
0.0
 30
0.0
  3
*PAPER_SPACE
  1

  4

  0
ENDBLK
  5
10
330
B
100
AcDbEntity
 67
     1
  8
0
100
AcDbBlockEnd
  0
BLOCK
  5
52
330
50
100
AcDbEntity
  8
LAYER_1
 62
     7
100
AcDbBlockBegin
  2
AI9-BLK1
 70
     0
 10
0.0
 20
0.0
 30
0.0
  3
AI9-BLK1
  1

  4

  0
SPLINE
  5
82
330
50
100
AcDbEntity
  8
LAYER_1
 62
     7
100
AcDbSpline
210
0.0
220
0.0
230
1.0
 70
     8
 71
     3
 72
    35
 73
    31
 74
     0
 42
0.0000000001
 43
0.0000000001
 40
0.0
 40
0.0
 40
0.0
 40
0.0
 40
1.0
 40
1.0
 40
1.0
 40
2.0
 40
2.0
 40
2.0
 40
3.0
 40
3.0
 40
3.0
 40
4.0
 40
4.0
 40
4.0
 40
5.0
 40
5.0
 40
5.0
 40
6.0
 40
6.0
 40
6.0
 40
7.0
 40
7.0
 40
7.0
 40
8.0
 40
8.0
 40
8.0
 40
9.0
 40
9.0
 40
9.0
 40
10.0
 40
10.0
 40
10.0
 40
10.0
 10
-7.176736789279513
 20
16.44085693359375
 30
0.0
 10
-7.176736789279513
 20
16.44085693359375
 30
0.0
 10
-7.176736789279513
 20
-18.63951687282986
 30
0.0
 10
-7.176736789279513
 20
-18.63951687282986
 30
0.0
 10
-7.176736789279513
 20
-18.63951687282986
 30
0.0
 10
16.71500040690104
 20
-51.97701687282986
 30
0.0
 10
16.71500040690104
 20
-51.97701687282986
 30
0.0
 10
17.82621595594618
 20
-53.36607937282986
 30
0.0
 10
18.38208211263021
 20
-54.56996799045138
 30
0.0
 10
21.34520874023437
 20
-54.29212103949652
 30
0.0
 10
21.34520874023437
 20
-54.29212103949652
 30
0.0
 10
19.67829928927951
 20
-52.06951768663194
 30
0.0
 10
19.67829928927951
 20
-52.06951768663194
 30
0.0
 10
19.21527845594618
 20
-51.60649685329861
 30
0.0
 10
19.1227776421441
 20
-51.05097520616319
 30
0.0
 10
19.1227776421441
 20
-50.12493353949652
 30
0.0
 10
19.1227776421441
 20
-50.12493353949652
 30
0.0
 10
19.1227776421441
 20
-19.93607855902778
 30
0.0
 10
19.1227776421441
 20
-19.93607855902778
 30
0.0
 10
19.1227776421441
 20
-18.82469075520833
 30
0.0
 10
19.63196275499132
 20
-18.31550564236111
 30
0.0
 10
20.69684176974826
 20
-17.71347520616319
 30
0.0
 10
20.69684176974826
 20
-17.71347520616319
 30
0.0
 10
32.17986178927951
 20
-11.416357421875
 30
0.0
 10
32.17986178927951
 20
-11.416357421875
 30
0.0
 10
32.17986178927951
 20
-11.416357421875
 30
0.0
 10
32.17986178927951
 20
-8.731077745225694
 30
0.0
 10
32.17986178927951
 20
-8.731077745225694
 30
0.0
 10
32.17986178927951
 20
-8.731077745225694
 30
0.0
 10
20.94213256835937
 20
4.789199490017361
 30
0.0
 10
20.94213256835937
 20
4.789199490017361
 30
0.0
  0
LWPOLYLINE
  5
7D
330
50
100
AcDbEntity
  8
LAYER_1
 62
     7
100
AcDbPolyline
 90
        3
 70
     0
 43
0.0
 10
-32.17986178927951
 20
49.83726806640625
 10
-32.17986178927951
 20
47.84996473524305
 10
-26.21261189778646
 20
41.24020453559027
  0
LWPOLYLINE
  5
77
330
50
100
AcDbEntity
  8
LAYER_1
 62
     7
100
AcDbPolyline
 90
        4
 70
     0
 43
0.0
 10
8.380625406901041
 20
36.90196804470486
 10
8.380625406901041
 20
54.33225640190972
 10
-32.17986178927951
 20
54.33225640190972
 10
-32.17986178927951
 20
53.36521809895833
  0
LWPOLYLINE
  5
72
330
50
100
AcDbEntity
  8
LAYER_1
 62
     7
100
AcDbPolyline
 90
        3
 70
     0
 43
0.0
 10
15.61963229709201
 20
-0.551904296875
 10
12.08479207356771
 20
-5.119411892361111
 10
11.79126993815104
 20
-2.029678005642361
  0
SPLINE
  5
71
330
50
100
AcDbEntity
  8
LAYER_1
 62
     7
100
AcDbSpline
210
0.0
220
0.0
230
1.0
 70
     8
 71
     3
 72
    17
 73
    13
 74
     0
 42
0.0000000001
 43
0.0000000001
 40
0.0
 40
0.0
 40
0.0
 40
0.0
 40
1.0
 40
1.0
 40
1.0
 40
2.0
 40
2.0
 40
2.0
 40
3.0
 40
3.0
 40
3.0
 40
4.0
 40
4.0
 40
4.0
 40
4.0
 10
32.17986178927951
 20
-8.823578559027776
 30
0.0
 10
32.17986178927951
 20
-8.823578559027776
 30
0.0
 10
19.49312540690104
 20
-15.79214545355903
 30
0.0
 10
19.49312540690104
 20
-15.79214545355903
 30
0.0
 10
17.64104207356771
 20
-16.78002658420139
 30
0.0
 10
16.93514200846354
 20
-17.89106987847222
 30
0.0
 10
16.93514200846354
 20
-19.44239637586805
 30
0.0
 10
16.93514200846354
 20
-19.44239637586805
 30
0.0
 10
16.93514200846354
 20
-50.95812988281249
 30
0.0
 10
16.93514200846354
 20
-50.95812988281249
 30
0.0
 10
16.93514200846354
 20
-51.60649685329861
 30
0.0
 10
17.27069430881076
 20
-52.62521158854166
 30
0.0
 10
17.7337151421441
 20
-53.18090549045139
 30
0.0
  0
SPLINE
  5
70
330
50
100
AcDbEntity
  8
LAYER_1
 62
     7
100
AcDbSpline
210
0.0
220
0.0
230
1.0
 70
     8
 71
     3
 72
    17
 73
    13
 74
     0
 42
0.0000000001
 43
0.0000000001
 40
0.0
 40
0.0
 40
0.0
 40
0.0
 40
1.0
 40
1.0
 40
1.0
 40
2.0
 40
2.0
 40
2.0
 40
3.0
 40
3.0
 40
3.0
 40
4.0
 40
4.0
 40
4.0
 40
4.0
 10
12.13130086263021
 20
-5.003656684027777
 30
0.0
 10
12.13130086263021
 20
-5.003656684027777
 30
0.0
 10
10.7884026421441
 20
-6.670393880208333
 30
0.0
 10
10.7884026421441
 20
-6.670393880208333
 30
0.0
 10
10.32538180881076
 20
-7.272596571180555
 30
0.0
 10
10.04770711263021
 20
-8.337475585937499
 30
0.0
 10
10.55689222547743
 20
-9.217008463541665
 30
0.0
 10
11.06607733832465
 20
-10.09688585069444
 30
0.0
 10
12.13130086263021
 20
-10.95333658854167
 30
0.0
 10
12.29322035047743
 20
-11.62495795355903
 30
0.0
 10
12.45513983832465
 20
-12.29623480902778
 30
0.0
 10
12.33938462999132
 20
-13.36128607855903
 30
0.0
 10
10.95032212999132
 20
-13.36128607855903
 30
0.0
  0
SPLINE
  5
6F
330
50
100
AcDbEntity
  8
LAYER_1
 62
     7
100
AcDbSpline
210
0.0
220
0.0
230
1.0
 70
     8
 71
     3
 72
    14
 73
    10
 74
     0
 42
0.0000000001
 43
0.0000000001
 40
0.0
 40
0.0
 40
0.0
 40
0.0
 40
1.0
 40
1.0
 40
1.0
 40
2.0
 40
2.0
 40
2.0
 40
3.0
 40
3.0
 40
3.0
 40
3.0
 10
9.736270480685763
 20
-2.249302842881944
 30
0.0
 10
9.736270480685763
 20
-2.249302842881944
 30
0.0
 10
10.23270874023437
 20
-7.480680338541666
 30
0.0
 10
10.23270874023437
 20
-7.480680338541666
 30
0.0
 10
10.41788262261285
 20
-9.587700737847221
 30
0.0
 10
10.0938713921441
 20
-10.69891628689236
 30
0.0
 10
9.954861789279512
 20
-11.25443793402778
 30
0.0
 10
9.816196695963541
 20
-11.8101318359375
 30
0.0
 10
9.399340142144096
 20
-13.43070475260417
 30
0.0
 10
11.04316745334201
 20
-13.43070475260417
 30
0.0
  0
LINE
  5
6E
330
50
100
AcDbEntity
  8
LAYER_1
 62
     7
100
AcDbLine
 10
6.343540445963541
 20
53.96173638237847
 30
0.0
 11
6.343540445963541
 21
39.95983479817708
 31
0.0
  0
SPLINE
  5
6D
330
50
100
AcDbEntity
  8
LAYER_1
 62
     7
100
AcDbSpline
210
0.0
220
0.0
230
1.0
 70
     8
 71
     3
 72
     8
 73
     4
 74
     0
 42
0.0000000001
 43
0.0000000001
 40
0.0
 40
0.0
 40
0.0
 40
0.0
 40
1.0
 40
1.0
 40
1.0
 40
1.0
 10
9.954861789279512
 20
-11.25443793402778
 30
0.0
 10
9.816196695963541
 20
-11.8101318359375
 30
0.0
 10
9.376085747612846
 20
-13.31477728949653
 30
0.0
 10
11.01991305881076
 20
-13.31477728949653
 30
0.0
  0
LINE
  5
6C
330
50
100
AcDbEntity
  8
LAYER_1
 62
     7
100
AcDbLine
 10
13.17723185221354
 20
-10.32047254774306
 30
0.0
 11
17.54836900499132
 21
-15.76889105902778
 31
0.0
  0
LINE
  5
6B
330
50
100
AcDbEntity
  8
LAYER_1
 62
     7
100
AcDbLine
 10
11.15875040690104
 20
-7.805036078559027
 30
0.0
 11
12.27203301323785
 21
-9.192548285590277
 31
0.0
  0
LINE
  5
6A
330
50
100
AcDbEntity
  8
LAYER_1
 62
     7
100
AcDbLine
 10
14.26794908311632
 20
-13.94833034939236
 30
0.0
 11
16.49451429578993
 21
-16.72335476345486
 31
0.0
  0
LINE
  5
69
330
50
100
AcDbEntity
  8
LAYER_1
 62
     7
100
AcDbLine
 10
12.86510620117188
 20
-12.19977213541667
 30
0.0
 11
13.60735202365451
 21
-13.12512478298611
 31
0.0
  0
LINE
  5
68
330
50
100
AcDbEntity
  8
LAYER_1
 62
     7
100
AcDbLine
 10
-29.89576348198785
 20
51.95427924262152
 30
0.0
 11
-29.89576348198785
 21
53.24774034288194
 31
0.0
  0
LINE
  5
67
330
50
100
AcDbEntity
  8
LAYER_1
 62
     7
100
AcDbLine
 10
-29.89576348198785
 20
45.56552191840277
 30
0.0
 11
-29.89576348198785
 21
48.07372368706596
 31
0.0
  0
SPLINE
  5
66
330
50
100
AcDbEntity
  8
LAYER_1
 62
     7
100
AcDbSpline
210
0.0
220
0.0
230
1.0
 70
     8
 71
     3
 72
    17
 73
    13
 74
     0
 42
0.0000000001
 43
0.0000000001
 40
0.0
 40
0.0
 40
0.0
 40
0.0
 40
1.0
 40
1.0
 40
1.0
 40
2.0
 40
2.0
 40
2.0
 40
3.0
 40
3.0
 40
3.0
 40
4.0
 40
4.0
 40
4.0
 40
4.0
 10
-2.651087103949652
 20
12.78629964192708
 30
0.0
 10
-2.651087103949652
 20
12.78629964192708
 30
0.0
 10
-0.6327779134114583
 20
-2.094618055555555
 30
0.0
 10
-0.6327779134114583
 20
-2.094618055555555
 30
0.0
 10
-0.6327779134114583
 20
-2.094618055555555
 30
0.0
 10
-0.6327779134114583
 20
-17.6516357421875
 30
0.0
 10
-0.6327779134114583
 20
-17.6516357421875
 30
0.0
 10
-0.6327779134114583
 20
-19.01003689236111
 30
0.0
 10
-0.3857645670572916
 20
-19.62739800347222
 30
0.0
 10
0.4784376356336805
 20
-20.24475911458333
 30
0.0
 10
1.342639838324653
 20
-20.86212022569444
 30
0.0
 10
2.330520968967014
 20
-20.73861355251736
 30
0.0
 10
2.330520968967014
 20
-19.01003689236111
 30
0.0
  0
LWPOLYLINE
  5
61
330
50
100
AcDbEntity
  8
LAYER_1
 62
     7
100
AcDbPolyline
 90
        3
 70
     0
 43
0.0
 10
2.330520968967014
 20
-5.999289279513889
 10
2.330520968967014
 20
-3.452674696180555
 10
1.386737060546875
 20
3.654557291666666
  0
LINE
  5
60
330
50
100
AcDbEntity
  8
LAYER_1
 62
     7
100
AcDbLine
 10
2.330520968967014
 20
-17.38946397569444
 30
0.0
 11
2.330520968967014
 21
-8.314393446180555
 31
0.0
  0
SPLINE
  5
5F
330
50
100
AcDbEntity
  8
LAYER_1
 62
     7
100
AcDbSpline
210
0.0
220
0.0
230
1.0
 70
     8
 71
     3
 72
     8
 73
     4
 74
     0
 42
0.0000000001
 43
0.0000000001
 40
0.0
 40
0.0
 40
0.0
 40
0.0
 40
1.0
 40
1.0
 40
1.0
 40
1.0
 10
0.3936882866753472
 20
-20.30659857855903
 30
0.0
 10
1.257890489366319
 20
-20.92378743489583
 30
0.0
 10
2.330520968967014
 20
-20.83145887586806
 30
0.0
 10
2.330520968967014
 20
-19.10253770616319
 30
0.0
  0
SPLINE
  5
5E
330
50
100
AcDbEntity
  8
LAYER_1
 62
     7
100
AcDbSpline
210
0.0
220
0.0
230
1.0
 70
     8
 71
     3
 72
    17
 73
    13
 74
     0
 42
0.0000000001
 43
0.0000000001
 40
0.0
 40
0.0
 40
0.0
 40
0.0
 40
1.0
 40
1.0
 40
1.0
 40
2.0
 40
2.0
 40
2.0
 40
3.0
 40
3.0
 40
3.0
 40
4.0
 40
4.0
 40
4.0
 40
4.0
 10
2.639201524522569
 20
3.61373291015625
 30
0.0
 10
2.639201524522569
 20
3.61373291015625
 30
0.0
 10
3.997430419921875
 20
-6.122623697916666
 30
0.0
 10
3.997430419921875
 20
-6.122623697916666
 30
0.0
 10
3.997430419921875
 20
-6.122623697916666
 30
0.0
 10
3.997430419921875
 20
-23.9024169921875
 30
0.0
 10
3.997430419921875
 20
-23.9024169921875
 30
0.0
 10
3.997430419921875
 20
-25.26081814236111
 30
0.0
 10
4.244443766276041
 20
-25.87817925347222
 30
0.0
 10
5.108645968967013
 20
-26.49536810980903
 30
0.0
 10
5.972848171657986
 20
-27.11290147569444
 30
0.0
 10
6.960729302300346
 20
-26.98939480251736
 30
0.0
 10
6.960729302300346
 20
-25.26081814236111
 30
0.0
  0
LWPOLYLINE
  5
59
330
50
100
AcDbEntity
  8
LAYER_1
 62
     7
100
AcDbPolyline
 90
        3
 70
     0
 43
0.0
 10
6.960729302300346
 20
-10.027294921875
 10
6.960729302300346
 20
-7.480680338541666
 10
6.256551784939235
 20
-1.667942979600694
  0
LINE
  5
58
330
50
100
AcDbEntity
  8
LAYER_1
 62
     7
100
AcDbLine
 10
6.960729302300346
 20
-23.64024522569444
 30
0.0
 11
6.960729302300346
 21
-12.34239908854167
 31
0.0
  0
SPLINE
  5
57
330
50
100
AcDbEntity
  8
LAYER_1
 62
     7
100
AcDbSpline
210
0.0
220
0.0
230
1.0
 70
     8
 71
     3
 72
     8
 73
     4
 74
     0
 42
0.0000000001
 43
0.0000000001
 40
0.0
 40
0.0
 40
0.0
 40
0.0
 40
1.0
 40
1.0
 40
1.0
 40
1.0
 10
5.023896620008681
 20
-26.55720757378472
 30
0.0
 10
5.887926567925347
 20
-27.17456868489583
 30
0.0
 10
6.960729302300346
 20
-27.08189561631944
 30
0.0
 10
6.960729302300346
 20
-25.35331895616319
 30
0.0
  0
SPLINE
  5
56
330
50
100
AcDbEntity
  8
LAYER_1
 62
     7
100
AcDbSpline
210
0.0
220
0.0
230
1.0
 70
     8
 71
     3
 72
    14
 73
    10
 74
     0
 42
0.0000000001
 43
0.0000000001
 40
0.0
 40
0.0
 40
0.0
 40
0.0
 40
1.0
 40
1.0
 40
1.0
 40
2.0
 40
2.0
 40
2.0
 40
3.0
 40
3.0
 40
3.0
 40
3.0
 10
2.554452175564236
 20
3.567396375868055
 30
0.0
 10
2.554452175564236
 20
3.567396375868055
 30
0.0
 10
3.93559095594618
 20
-6.122623697916666
 30
0.0
 10
3.93559095594618
 20
-6.122623697916666
 30
0.0
 10
3.93559095594618
 20
-6.122623697916666
 30
0.0
 10
3.93559095594618
 20
-23.9024169921875
 30
0.0
 10
3.93559095594618
 20
-23.9024169921875
 30
0.0
 10
3.93559095594618
 20
-25.26081814236111
 30
0.0
 10
4.182604302300347
 20
-25.87817925347222
 30
0.0
 10
5.046806504991319
 20
-26.49536810980903
 30
0.0
  0
SPLINE
  5
55
330
50
100
AcDbEntity
  8
LAYER_1
 62
     7
100
AcDbSpline
210
0.0
220
0.0
230
1.0
 70
    11
 71
     3
 72
    17
 73
    13
 74
     0
 42
0.0000000001
 43
0.0000000001
 40
0.0
 40
0.0
 40
0.0
 40
0.0
 40
1.0
 40
1.0
 40
1.0
 40
2.0
 40
2.0
 40
2.0
 40
3.0
 40
3.0
 40
3.0
 40
4.0
 40
4.0
 40
4.0
 40
4.0
 10
25.81952650282118
 20
-6.878822157118055
 30
0.0
 10
25.35753919813368
 20
-6.705189344618055
 30
0.0
 10
24.79030422634548
 20
-6.659025065104166
 30
0.0
 10
24.20463799370659
 20
-6.783909776475694
 30
0.0
 10
23.38022664388021
 20
-6.959092881944444
 30
0.0
 10
22.7256585015191
 20
-7.425731065538193
 30
0.0
 10
22.41766696506076
 20
-7.982286241319444
 30
0.0
 10
22.87999877929687
 20
-8.155919053819444
 30
0.0
 10
23.44671698676215
 20
-8.201738823784721
 30
0.0
 10
24.03272772894965
 20
-8.0770263671875
 30
0.0
 10
24.85713907877604
 20
-7.902015516493055
 30
0.0
 10
25.51170722113715
 20
-7.435032823350694
 30
0.0
 10
25.81952650282118
 20
-6.878822157118055
 30
0.0
  0
ELLIPSE
  5
54
330
50
100
AcDbEntity
  8
LAYER_1
 62
     7
100
AcDbEllipse
 10
23.72508070203993
 20
-6.458089870876735
 30
0.0
 11
2.305802408854166
 21
0.4901509602864583
 31
0.0
210
0.0
220
0.0
230
1.0
 40
0.72220904356521
 41
0.0
 42
6.283185307179586
  0
SPLINE
  5
53
330
50
100
AcDbEntity
  8
LAYER_1
 62
     7
100
AcDbSpline
210
0.0
220
0.0
230
1.0
 70
     8
 71
     3
 72
    11
 73
     7
 74
     0
 42
0.0000000001
 43
0.0000000001
 40
0.0
 40
0.0
 40
0.0
 40
0.0
 40
1.0
 40
1.0
 40
1.0
 40
2.0
 40
2.0
 40
2.0
 40
2.0
 10
21.44046563042534
 20
-7.023516167534722
 30
0.0
 10
21.63580254448785
 20
-7.943012152777777
 30
0.0
 10
22.82659979926215
 20
-8.469078233506943
 30
0.0
 10
24.10025160047743
 20
-8.198638237847222
 30
0.0
 10
25.3735588921441
 20
-7.927853732638888
 30
0.0
 10
26.24740736219618
 20
-6.96271023220486
 30
0.0
 10
26.05207044813368
 20
-6.0430419921875
 30
0.0
  0
ENDBLK
  5
83
330
50
100
AcDbEntity
  8
LAYER_1
100
AcDbBlockEnd
  0
BLOCK
  5
86
330
84
100
AcDbEntity
  8
LAYER_1
 62
     7
100
AcDbBlockBegin
  2
AI9-BLK2
 70
     0
 10
0.0
 20
0.0
 30
0.0
  3
AI9-BLK2
  1

  4

  0
LWPOLYLINE
  5
9F
330
84
100
AcDbEntity
  8
LAYER_1
 62
     7
100
AcDbPolyline
 90
        4
 70
     0
 43
0.0
 10
-7.420477294921875
 20
47.33647325303819
 10
-7.452516682942708
 20
61.38092176649305
 10
32.36693047417534
 20
61.28824869791666
 10
32.36693047417534
 20
-61.31925455729166
  0
LINE
  5
9E
330
84
100
AcDbEntity
  8
LAYER_1
 62
     7
100
AcDbLine
 10
32.42876993815104
 20
-14.83216959635417
 30
0.0
 11
8.241615804036458
 21
15.05506727430555
 31
0.0
  0
LWPOLYLINE
  5
98
330
84
100
AcDbEntity
  8
LAYER_1
 62
     7
100
AcDbPolyline
 90
        4
 70
     0
 43
0.0
 10
0.9016676161024305
 20
-41.49186876085069
 10
-32.08512166341146
 20
-61.31925455729166
 10
18.29130384657118
 20
-61.38092176649305
 10
7.699013264973957
 20
-47.08945990668402
  0
LWPOLYLINE
  5
91
330
84
100
AcDbEntity
  8
LAYER_1
 62
     7
100
AcDbPolyline
 90
        5
 70
     0
 43
0.0
 10
8.237137179904513
 20
15.07642686631944
 10
32.42876993815104
 20
-14.83216959635417
 10
32.42876993815104
 20
-61.38092176649305
 10
18.29130384657118
 20
-61.38092176649305
 10
5.539282904730903
 20
-44.03796657986111
  0
LWPOLYLINE
  5
8C
330
84
100
AcDbEntity
  8
LAYER_1
 62
     7
100
AcDbPolyline
 90
        3
 70
     0
 43
0.0
 10
-20.85032077365451
 20
-8.14833984375
 10
-26.08135375976562
 20
-1.033873155381944
 10
-26.08135375976562
 20
25.58138427734375
  0
LINE
  5
8B
330
84
100
AcDbEntity
  8
LAYER_1
 62
     7
100
AcDbLine
 10
5.754945882161458
 20
-11.62185736762153
 30
0.0
 11
32.30526326497395
 21
-46.93477511935763
 31
0.0
  0
SPLINE
  5
8A
330
84
100
AcDbEntity
  8
LAYER_1
 62
     7
100
AcDbSpline
210
0.0
220
0.0
230
1.0
 70
     8
 71
     3
 72
    38
 73
    34
 74
     0
 42
0.0000000001
 43
0.0000000001
 40
0.0
 40
0.0
 40
0.0
 40
0.0
 40
1.0
 40
1.0
 40
1.0
 40
2.0
 40
2.0
 40
2.0
 40
3.0
 40
3.0
 40
3.0
 40
4.0
 40
4.0
 40
4.0
 40
5.0
 40
5.0
 40
5.0
 40
6.0
 40
6.0
 40
6.0
 40
7.0
 40
7.0
 40
7.0
 40
8.0
 40
8.0
 40
8.0
 40
9.0
 40
9.0
 40
9.0
 40
10.0
 40
10.0
 40
10.0
 40
11.0
 40
11.0
 40
11.0
 40
11.0
 10
7.85783216688368
 20
61.22658148871528
 30
0.0
 10
6.376441107855902
 20
60.9795681423611
 30
0.0
 10
5.141546630859375
 20
60.85606146918402
 30
0.0
 10
5.388559977213541
 20
60.23887261284722
 30
0.0
 10
5.635573323567708
 20
59.62151150173611
 30
0.0
 10
5.265053304036458
 20
59.37449815538194
 30
0.0
 10
4.153665500217014
 20
59.37449815538194
 30
0.0
 10
3.042449951171875
 20
59.37449815538194
 30
0.0
 10
1.560886637369792
 20
58.38678927951388
 30
0.0
 10
1.313873291015625
 20
57.76942816840278
 30
0.0
 10
1.067204454210069
 20
57.15189480251735
 30
0.0
 10
1.067204454210069
 20
56.41102701822916
 30
0.0
 10
0.5731777615017361
 20
56.04085150824653
 30
0.0
 10
0.0793233235677083
 20
55.67033148871527
 30
0.0
 10
0.3261644151475694
 20
55.29981146918402
 30
0.0
 10
0.3261644151475694
 20
54.55894368489583
 30
0.0
 10
0.3261644151475694
 20
53.81824815538194
 30
0.0
 10
0.3261644151475694
 20
52.58352593315972
 30
0.0
 10
-0.1676900227864583
 20
52.46019151475694
 30
0.0
 10
-0.6617167154947916
 20
52.33668484157985
 30
0.0
 10
-1.031892225477431
 20
51.84265814887152
 30
0.0
 10
-1.772760009765625
 20
51.71915147569444
 30
0.0
 10
-2.513800048828125
 20
51.59564480251736
 30
0.0
 10
-2.760641140407986
 20
50.48460150824652
 30
0.0
 10
-2.760641140407986
 20
49.99057481553819
 30
0.0
 10
-2.760641140407986
 20
49.49672037760416
 30
0.0
 10
-3.13098890516493
 20
48.13849148220486
 30
0.0
 10
-3.13098890516493
 20
46.90394151475694
 30
0.0
 10
-3.13098890516493
 20
45.66921929253472
 30
0.0
 10
-2.266786702473958
 20
43.94047037760416
 30
0.0
 10
-2.513800048828125
 20
42.70574815538194
 30
0.0
 10
-2.637306722005208
 20
42.08838704427083
 30
0.0
 10
-2.667968071831597
 20
40.97717149522569
 30
0.0
 10
-2.621631537543403
 20
39.92762315538194
 30
0.0
  0
SPLINE
  5
89
330
84
100
AcDbEntity
  8
LAYER_1
 62
     7
100
AcDbSpline
210
0.0
220
0.0
230
1.0
 70
     8
 71
     3
 72
    62
 73
    58
 74
     0
 42
0.0000000001
 43
0.0000000001
 40
0.0
 40
0.0
 40
0.0
 40
0.0
 40
1.0
 40
1.0
 40
1.0
 40
2.0
 40
2.0
 40
2.0
 40
3.0
 40
3.0
 40
3.0
 40
4.0
 40
4.0
 40
4.0
 40
5.0
 40
5.0
 40
5.0
 40
6.0
 40
6.0
 40
6.0
 40
7.0
 40
7.0
 40
7.0
 40
8.0
 40
8.0
 40
8.0
 40
9.0
 40
9.0
 40
9.0
 40
10.0
 40
10.0
 40
10.0
 40
11.0
 40
11.0
 40
11.0
 40
12.0
 40
12.0
 40
12.0
 40
13.0
 40
13.0
 40
13.0
 40
14.0
 40
14.0
 40
14.0
 40
15.0
 40
15.0
 40
15.0
 40
16.0
 40
16.0
 40
16.0
 40
17.0
 40
17.0
 40
17.0
 40
18.0
 40
18.0
 40
18.0
 40
19.0
 40
19.0
 40
19.0
 40
19.0
 10
15.88352661132812
 20
61.10307481553819
 30
0.0
 10
15.01915215386285
 20
60.9795681423611
 30
0.0
 10
13.90810885959201
 20
60.36220703124999
 30
0.0
 10
13.66109551323785
 20
59.49800482855903
 30
0.0
 10
13.41408216688368
 20
58.63380262586805
 30
0.0
 10
12.54987996419271
 20
57.64592149522569
 30
0.0
 10
12.05602552625868
 20
57.5224148220486
 30
0.0
 10
11.56199883355035
 20
57.39890814887152
 30
0.0
 10
10.45078328450521
 20
57.27540147569444
 30
0.0
 10
10.20394219292535
 20
56.65804036458333
 30
0.0
 10
9.956928846571179
 20
56.04085150824653
 30
0.0
 10
9.833594428168402
 20
54.80595703125
 30
0.0
 10
9.956928846571179
 20
54.31193033854166
 30
0.0
 10
10.08060777452257
 20
53.81824815538194
 30
0.0
 10
9.216233317057291
 20
52.83053927951389
 30
0.0
 10
8.845713297526041
 20
52.7068603515625
 30
0.0
 10
8.475193277994791
 20
52.58352593315972
 30
0.0
 10
8.598699951171874
 20
52.46019151475694
 30
0.0
 10
8.351858859592014
 20
51.71915147569444
 30
0.0
 10
8.104845513237846
 20
50.97845594618055
 30
0.0
 10
7.240643310546874
 20
50.60810818142361
 30
0.0
 10
6.252762179904513
 20
50.48460150824652
 30
0.0
 10
5.265053304036458
 20
50.36109483506944
 30
0.0
 10
3.783489990234375
 20
50.11408148871527
 30
0.0
 10
3.042449951171875
 20
49.12637261284722
 30
0.0
 10
2.30158216688368
 20
48.13849148220486
 30
0.0
 10
0.8201911078559027
 20
46.78043484157985
 30
0.0
 10
0.8201911078559027
 20
46.03939480251736
 30
0.0
 10
0.8201911078559027
 20
45.29852701822917
 30
0.0
 10
0.9435255262586805
 20
43.57012261284722
 30
0.0
 10
0.4494988335503472
 20
42.70574815538194
 30
0.0
 10
-0.044183349609375
 20
41.84137369791667
 30
0.0
 10
-0.044183349609375
 20
40.2363037109375
 30
0.0
 10
0.2028299967447917
 20
39.24859483506944
 30
0.0
 10
0.4494988335503472
 20
38.26088595920139
 30
0.0
 10
0.2028299967447917
 20
36.03811035156249
 30
0.0
 10
0.5731777615017361
 20
35.17390814887153
 30
0.0
 10
0.9435255262586805
 20
34.30970594618055
 30
0.0
 10
1.437379964192708
 20
32.58095703124999
 30
0.0
 10
1.313873291015625
 20
31.84026150173611
 30
0.0
 10
1.190366617838542
 20
31.09956597222222
 30
0.0
 10
1.190366617838542
 20
29.74116482204861
 30
0.0
 10
2.054913330078125
 20
29.49449598524305
 30
0.0
 10
2.919287787543403
 20
29.24748263888889
 30
0.0
 10
3.906996663411458
 20
28.38310818142361
 30
0.0
 10
3.783489990234375
 20
27.39539930555555
 30
0.0
 10
3.659983317057292
 20
26.40751817491319
 30
0.0
 10
4.153665500217014
 20
24.92595486111111
 30
0.0
 10
4.647692192925347
 20
24.30842149522569
 30
0.0
 10
5.141546630859375
 20
23.69123263888889
 30
0.0
 10
6.005748833550347
 20
22.2094970703125
 30
0.0
 10
6.129427761501735
 20
21.34529486762153
 30
0.0
 10
6.252762179904513
 20
20.48109266493055
 30
0.0
 10
7.610818820529513
 20
17.39411485460069
 30
0.0
 10
7.981511094835069
 20
17.02359483506944
 30
0.0
 10
8.351858859592014
 20
16.6532470703125
 30
0.0
 10
7.981511094835069
 20
15.17151150173611
 30
0.0
 10
8.722206624348958
 20
14.43081597222222
 30
0.0
  0
SPLINE
  5
88
330
84
100
AcDbEntity
  8
LAYER_1
 62
     7
100
AcDbSpline
210
0.0
220
0.0
230
1.0
 70
     8
 71
     3
 72
    50
 73
    46
 74
     0
 42
0.0000000001
 43
0.0000000001
 40
0.0
 40
0.0
 40
0.0
 40
0.0
 40
1.0
 40
1.0
 40
1.0
 40
2.0
 40
2.0
 40
2.0
 40
3.0
 40
3.0
 40
3.0
 40
4.0
 40
4.0
 40
4.0
 40
5.0
 40
5.0
 40
5.0
 40
6.0
 40
6.0
 40
6.0
 40
7.0
 40
7.0
 40
7.0
 40
8.0
 40
8.0
 40
8.0
 40
9.0
 40
9.0
 40
9.0
 40
10.0
 40
10.0
 40
10.0
 40
11.0
 40
11.0
 40
11.0
 40
12.0
 40
12.0
 40
12.0
 40
13.0
 40
13.0
 40
13.0
 40
14.0
 40
14.0
 40
14.0
 40
15.0
 40
15.0
 40
15.0
 40
15.0
 10
20.57540215386285
 20
-0.0155029296875
 30
0.0
 10
19.58769327799479
 20
1.589567057291667
 30
0.0
 10
19.21734551323785
 20
2.947968207465277
 30
0.0
 10
19.09401109483507
 20
3.812342664930555
 30
0.0
 10
18.97033216688368
 20
4.676544867621527
 30
0.0
 10
18.22963663736979
 20
6.281614854600694
 30
0.0
 10
17.85911661783854
 20
7.145817057291666
 30
0.0
 10
17.4889411078559
 20
8.010191514756944
 30
0.0
 10
16.50105997721354
 20
9.862274848090276
 30
0.0
 10
16.62456665039062
 20
10.84998372395833
 30
0.0
 10
16.7479010687934
 20
11.83786485460069
 30
0.0
 10
16.62456665039062
 20
13.07275933159722
 30
0.0
 10
16.37755330403646
 20
13.44293484157986
 30
0.0
 10
16.13053995768229
 20
13.81345486111111
 30
0.0
 10
16.00703328450521
 20
15.78904486762153
 30
0.0
 10
16.62456665039062
 20
16.03588595920139
 30
0.0
 10
17.24192776150174
 20
16.28289930555555
 30
0.0
 10
17.24192776150174
 20
16.90008816189236
 30
0.0
 10
16.7479010687934
 20
18.0113037109375
 30
0.0
 10
16.25404663085937
 20
19.12269151475694
 30
0.0
 10
15.63685777452257
 20
21.59213595920139
 30
0.0
 10
16.13053995768229
 20
21.83914930555556
 30
0.0
 10
16.62456665039062
 20
22.08616265190972
 30
0.0
 10
16.50105997721354
 20
22.95036485460069
 30
0.0
 10
16.99491441514757
 20
23.19737820095486
 30
0.0
 10
17.4889411078559
 20
23.44421929253472
 30
0.0
 10
18.8469977484809
 20
24.06158040364583
 30
0.0
 10
18.59998440212673
 20
25.04946153428819
 30
0.0
 10
18.35314331054687
 20
26.03699815538194
 30
0.0
 10
19.46418660481771
 20
26.28401150173611
 30
0.0
 10
19.46418660481771
 20
27.02470703125
 30
0.0
 10
19.46418660481771
 20
27.7657470703125
 30
0.0
 10
19.95821329752604
 20
29.86467149522569
 30
0.0
 10
20.69908108181424
 20
30.48220486111111
 30
0.0
 10
21.43977661132812
 20
31.09956597222222
 30
0.0
 10
24.03255547417535
 20
31.96376817491319
 30
0.0
 10
24.27956882052951
 20
33.19866265190972
 30
0.0
 10
24.52658216688368
 20
34.43304036458333
 30
0.0
 10
26.37866550021701
 20
35.05074598524305
 30
0.0
 10
26.99602661132812
 20
35.29741482204861
 30
0.0
 10
27.61355997721354
 20
35.54442816840277
 30
0.0
 10
28.35442776150173
 20
35.79144151475694
 30
0.0
 10
28.84810994466146
 20
36.28512369791666
 30
0.0
 10
29.34213663736979
 20
36.779150390625
 30
0.0
 10
31.56456773546007
 20
37.14949815538194
 30
0.0
 10
32.30526326497395
 20
36.90282931857639
 30
0.0
  0
SPLINE
  5
87
330
84
100
AcDbEntity
  8
LAYER_1
 62
     7
100
AcDbSpline
210
0.0
220
0.0
230
1.0
 70
     8
 71
     3
 72
    56
 73
    52
 74
     0
 42
0.0000000001
 43
0.0000000001
 40
0.0
 40
0.0
 40
0.0
 40
0.0
 40
1.0
 40
1.0
 40
1.0
 40
2.0
 40
2.0
 40
2.0
 40
3.0
 40
3.0
 40
3.0
 40
4.0
 40
4.0
 40
4.0
 40
5.0
 40
5.0
 40
5.0
 40
6.0
 40
6.0
 40
6.0
 40
7.0
 40
7.0
 40
7.0
 40
8.0
 40
8.0
 40
8.0
 40
9.0
 40
9.0
 40
9.0
 40
10.0
 40
10.0
 40
10.0
 40
11.0
 40
11.0
 40
11.0
 40
12.0
 40
12.0
 40
12.0
 40
13.0
 40
13.0
 40
13.0
 40
14.0
 40
14.0
 40
14.0
 40
15.0
 40
15.0
 40
15.0
 40
16.0
 40
16.0
 40
16.0
 40
17.0
 40
17.0
 40
17.0
 40
17.0
 10
27.49005330403645
 20
-8.535051812065971
 30
0.0
 10
26.13165215386285
 20
-7.053143988715277
 30
0.0
 10
25.26744995117187
 20
-4.707378472222222
 30
0.0
 10
25.02043660481771
 20
-3.843004014756944
 30
0.0
 10
24.77359551323784
 20
-2.978801812065972
 30
0.0
 10
24.77359551323784
 20
-1.743907335069444
 30
0.0
 10
24.27956882052951
 20
-1.126718478732639
 30
0.0
 10
23.78588663736979
 20
-0.5091851128472221
 30
0.0
 10
22.79817776150173
 20
0.601858181423611
 30
0.0
 10
23.16835327148437
 20
1.342898220486111
 30
0.0
 10
23.53887329101562
 20
2.08359375
 30
0.0
 10
22.79817776150173
 20
3.318315972222222
 30
0.0
 10
22.42748548719618
 20
3.812342664930555
 30
0.0
 10
22.05730997721354
 20
4.306024848090277
 30
0.0
 10
21.81029663085937
 20
6.652134874131944
 30
0.0
 10
21.56328328450521
 20
7.392830403645832
 30
0.0
 10
21.31626993815104
 20
8.133698187934026
 30
0.0
 10
20.82241550021701
 20
9.738768174913194
 30
0.0
 10
20.45206773546007
 20
10.10928819444444
 30
0.0
 10
20.08171997070312
 20
10.47963595920139
 30
0.0
 10
19.83470662434896
 20
11.96137152777778
 30
0.0
 10
20.57540215386285
 20
12.33171929253472
 30
0.0
 10
21.31626993815104
 20
12.70206705729167
 30
0.0
 10
21.68678995768229
 20
14.06046820746528
 30
0.0
 10
21.43977661132812
 20
14.92484266493056
 30
0.0
 10
21.19276326497396
 20
15.78904486762153
 30
0.0
 10
20.45206773546007
 20
17.27060818142361
 30
0.0
 10
20.45206773546007
 20
18.13498263888889
 30
0.0
 10
20.45206773546007
 20
18.99918484157986
 30
0.0
 10
20.32838880750868
 20
20.85126817491319
 30
0.0
 10
20.82241550021701
 20
21.34529486762153
 30
0.0
 10
21.31626993815104
 20
21.83914930555556
 30
0.0
 10
22.18047214084201
 20
23.81456705729167
 30
0.0
 10
22.55116441514757
 20
23.93824598524305
 30
0.0
 10
22.92151217990451
 20
24.06158040364583
 30
0.0
 10
24.15623440212674
 20
24.80244818793403
 30
0.0
 10
23.78588663736979
 20
25.41963704427083
 30
0.0
 10
23.41536661783854
 20
26.03699815538194
 30
0.0
 10
23.53887329101562
 20
27.51873372395833
 30
0.0
 10
23.90939331054687
 20
28.01258816189236
 30
0.0
 10
24.27956882052951
 20
28.50661485460069
 30
0.0
 10
25.26744995117187
 20
29.98817816840278
 30
0.0
 10
25.63796997070312
 20
30.72887369791667
 30
0.0
 10
26.00831773546007
 20
31.46974148220486
 30
0.0
 10
26.87251993815104
 20
32.70463595920138
 30
0.0
 10
27.73672214084201
 20
32.58095703124999
 30
0.0
 10
28.60109659830729
 20
32.45762261284722
 30
0.0
 10
29.46547105577257
 20
32.58095703124999
 30
0.0
 10
30.08283216688368
 20
32.58095703124999
 30
0.0
 10
30.70019327799479
 20
32.58095703124999
 30
0.0
 10
31.56456773546007
 20
32.33428819444444
 30
0.0
 10
32.42876993815104
 20
31.59324815538194
 30
0.0
  0
ENDBLK
  5
A5
330
84
100
AcDbEntity
  8
LAYER_1
100
AcDbBlockEnd
  0
ENDSEC
  0
SECTION
  2
ENTITIES
  0
LWPOLYLINE
  5
AC
330
A
100
AcDbEntity
  8
LAYER_1
 62
     7
100
AcDbPolyline
 90
        4
 70
     1
 43
0.0
 10
150.1403618706597
 20
81.02141113281249
 10
150.1403618706597
 20
203.6289143880208
 10
63.09313422309027
 20
203.6289143880208
 10
63.09313422309027
 20
81.02141113281249
  0
LWPOLYLINE
  5
A6
330
A
100
AcDbEntity
  8
LAYER_1
 62
     7
100
AcDbPolyline
 90
        4
 70
     1
 43
0.0
 10
150.1403618706597
 20
81.02141113281249
 10
150.1403618706597
 20
203.6289143880208
 10
63.09313422309027
 20
203.6289143880208
 10
63.09313422309027
 20
81.02141113281249
  0
INSERT
  5
85
330
A
100
AcDbEntity
  8
LAYER_1
 62
     7
100
AcDbBlockReference
  2
AI9-BLK2
 10
117.7734313964844
 20
142.3406656901042
 30
0.0
  0
INSERT
  5
51
330
A
100
AcDbEntity
  8
LAYER_1
 62
     7
100
AcDbBlockReference
  2
AI9-BLK1
 10
104.1627204047309
 20
149.4820041232639
 30
0.0
  0
SPLINE
  5
4F
330
A
100
AcDbEntity
  8
LAYER_1
 62
     7
100
AcDbSpline
210
0.0
220
0.0
230
1.0
 70
    11
 71
     3
 72
    65
 73
    61
 74
     0
 42
0.0000000001
 43
0.0000000001
 40
0.0
 40
0.0
 40
0.0
 40
0.0
 40
1.0
 40
1.0
 40
1.0
 40
2.0
 40
2.0
 40
2.0
 40
3.0
 40
3.0
 40
3.0
 40
4.0
 40
4.0
 40
4.0
 40
5.0
 40
5.0
 40
5.0
 40
6.0
 40
6.0
 40
6.0
 40
7.0
 40
7.0
 40
7.0
 40
8.0
 40
8.0
 40
8.0
 40
9.0
 40
9.0
 40
9.0
 40
10.0
 40
10.0
 40
10.0
 40
11.0
 40
11.0
 40
11.0
 40
12.0
 40
12.0
 40
12.0
 40
13.0
 40
13.0
 40
13.0
 40
14.0
 40
14.0
 40
14.0
 40
15.0
 40
15.0
 40
15.0
 40
16.0
 40
16.0
 40
16.0
 40
17.0
 40
17.0
 40
17.0
 40
18.0
 40
18.0
 40
18.0
 40
19.0
 40
19.0
 40
19.0
 40
20.0
 40
20.0
 40
20.0
 40
20.0
 10
116.5255316840278
 20
174.366273328993
 30
0.0
 10
116.8032063802083
 20
172.5141899956597
 30
0.0
 10
118.3776150173611
 20
168.6246771918403
 30
0.0
 10
119.118310546875
 20
167.5132893880208
 30
0.0
 10
119.6738321940104
 20
167.6061347113715
 30
0.0
 10
120.8777208116319
 20
167.1431138780382
 30
0.0
 10
121.3407416449653
 20
166.40224609375
 30
0.0
 10
121.3407416449653
 20
166.40224609375
 30
0.0
 10
125.6931030273437
 20
159.1792588975694
 30
0.0
 10
125.6931030273437
 20
159.1792588975694
 30
0.0
 10
126.3412977430556
 20
158.06787109375
 30
0.0
 10
126.2486246744792
 20
154.2710313585069
 30
0.0
 10
121.7110894097222
 20
150.2891899956597
 30
0.0
 10
117.1735541449653
 20
146.3071763780382
 30
0.0
 10
111.1542833116319
 20
146.6776963975694
 30
0.0
 10
110.3209147135417
 20
147.9740858289931
 30
0.0
 10
110.3209147135417
 20
147.9740858289931
 30
0.0
 10
104.8571655273437
 20
155.6600938585069
 30
0.0
 10
104.8571655273437
 20
155.6600938585069
 30
0.0
 10
104.3016438802083
 20
156.4011338975694
 30
0.0
 10
104.4869900173611
 20
157.6048502604166
 30
0.0
 10
104.6721638997396
 20
158.4382188585069
 30
0.0
 10
99.94911024305554
 20
165.4762044270833
 30
0.0
 10
94.115185546875
 20
168.0691555447048
 30
0.0
 10
89.67032335069443
 20
168.0691555447048
 30
0.0
 10
85.22528889973958
 20
168.0691555447048
 30
0.0
 10
82.44716389973958
 20
166.4949191623264
 30
0.0
 10
78.65049641927082
 20
163.9944688585069
 30
0.0
 10
78.74299723307291
 20
163.4389472113715
 30
0.0
 10
78.0948025173611
 20
162.8830810546875
 30
0.0
 10
77.3539347330729
 20
162.5129055447048
 30
0.0
 10
77.3539347330729
 20
162.5129055447048
 30
0.0
 10
68.74171278211804
 20
156.67880859375
 30
0.0
 10
63.09313422309027
 20
152.6969672309028
 30
0.0
 10
63.09313422309027
 20
152.6969672309028
 30
0.0
 10
63.09313422309027
 20
173.4402316623264
 30
0.0
 10
63.09313422309027
 20
173.4402316623264
 30
0.0
 10
63.09313422309027
 20
173.4402316623264
 30
0.0
 10
65.77841389973958
 20
175.8476643880208
 30
0.0
 10
66.42660861545139
 20
176.4035305447048
 30
0.0
 10
67.07497558593749
 20
176.9590521918403
 30
0.0
 10
67.53799641927083
 20
177.2367268880208
 30
0.0
 10
68.18636338975693
 20
177.1443983289931
 30
0.0
 10
71.61251085069443
 20
179.8296780056423
 30
0.0
 10
74.76098361545138
 20
183.1636691623264
 30
0.0
 10
76.7984130859375
 20
186.6824896918403
 30
0.0
 10
78.83549804687499
 20
190.2013102213542
 30
0.0
 10
77.63178168402777
 20
193.4424560546875
 30
0.0
 10
76.61306694878472
 20
195.2945393880208
 30
0.0
 10
75.59435221354165
 20
197.1466227213542
 30
0.0
 10
70.59379611545138
 20
200.5731146918403
 30
0.0
 10
63.09313422309027
 20
203.7215874565972
 30
0.0
 10
63.09313422309027
 20
203.7215874565972
 30
0.0
 10
96.70796440972221
 20
203.7215874565972
 30
0.0
 10
96.70796440972221
 20
203.7215874565972
 30
0.0
 10
104.5793185763889
 20
198.4430121527778
 30
0.0
 10
111.3704630533854
 20
189.1829399956597
 30
0.0
 10
116.3708468967014
 20
179.922523328993
 30
0.0
 10
116.5561930338542
 20
178.6876288519965
 30
0.0
 10
116.6796997070312
 20
175.230475531684
 30
0.0
 10
116.5255316840278
 20
174.366273328993
 30
0.0
  0
LINE
  5
4E
330
A
100
AcDbEntity
  8
LAYER_1
 62
     7
100
AcDbLine
 10
106.5626600477431
 20
154.7188937717014
 30
0.0
 11
111.4323025173611
 21
147.8814127604167
 31
0.0
  0
LINE
  5
4D
330
A
100
AcDbEntity
  8
LAYER_1
 62
     7
100
AcDbLine
 10
107.7898030598958
 20
154.3020372178819
 30
0.0
 11
112.4816786024306
 21
147.6654052734375
 31
0.0
  0
LINE
  5
4C
330
A
100
AcDbEntity
  8
LAYER_1
 62
     7
100
AcDbLine
 10
109.7111328125
 20
154.0705268012153
 30
0.0
 11
114.0867485894097
 21
147.8197455512153
 31
0.0
  0
SPLINE
  5
4B
330
A
100
AcDbEntity
  8
LAYER_1
 62
     7
100
AcDbSpline
210
0.0
220
0.0
230
1.0
 70
     8
 71
     3
 72
     8
 73
     4
 74
     0
 42
0.0000000001
 43
0.0000000001
 40
0.0
 40
0.0
 40
0.0
 40
0.0
 40
1.0
 40
1.0
 40
1.0
 40
1.0
 10
77.80989312065971
 20
170.0571478949653
 30
0.0
 10
78.92438151041667
 20
167.3389675564236
 30
0.0
 10
79.04702690972222
 20
164.7220730251736
 30
0.0
 10
78.65049641927082
 20
163.9944688585069
 30
0.0
  0
SPLINE
  5
4A
330
A
100
AcDbEntity
  8
LAYER_1
 62
     7
100
AcDbSpline
210
0.0
220
0.0
230
1.0
 70
     8
 71
     3
 72
     8
 73
     4
 74
     0
 42
0.0000000001
 43
0.0000000001
 40
0.0
 40
0.0
 40
0.0
 40
0.0
 40
1.0
 40
1.0
 40
1.0
 40
1.0
 10
75.96487223307291
 20
173.2548855251736
 30
0.0
 10
76.54313151041666
 20
172.5224582248264
 30
0.0
 10
77.02113850911458
 20
171.7376654730903
 30
0.0
 10
77.41060655381943
 20
170.9452935112847
 30
0.0
  0
SPLINE
  5
49
330
A
100
AcDbEntity
  8
LAYER_1
 62
     7
100
AcDbSpline
210
0.0
220
0.0
230
1.0
 70
     8
 71
     3
 72
     8
 73
     4
 74
     0
 42
0.0000000001
 43
0.0000000001
 40
0.0
 40
0.0
 40
0.0
 40
0.0
 40
1.0
 40
1.0
 40
1.0
 40
1.0
 10
68.18636338975693
 20
177.1443983289931
 30
0.0
 10
68.86366916232639
 20
177.1443983289931
 30
0.0
 10
69.76111653645833
 20
177.0892768012153
 30
0.0
 10
70.76708441840277
 20
176.8209038628472
 30
0.0
  0
SPLINE
  5
48
330
A
100
AcDbEntity
  8
LAYER_1
 62
     7
100
AcDbSpline
210
0.0
220
0.0
230
1.0
 70
     8
 71
     3
 72
     8
 73
     4
 74
     0
 42
0.0000000001
 43
0.0000000001
 40
0.0
 40
0.0
 40
0.0
 40
0.0
 40
1.0
 40
1.0
 40
1.0
 40
1.0
 10
71.9490966796875
 20
176.4159328884549
 30
0.0
 10
72.46844482421875
 20
176.1966525607639
 30
0.0
 10
73.00364040798611
 20
175.9131212022569
 30
0.0
 10
73.54141981336805
 20
175.5472520616319
 30
0.0
  0
SPLINE
  5
47
330
A
100
AcDbEntity
  8
LAYER_1
 62
     7
100
AcDbSpline
210
0.0
220
0.0
230
1.0
 70
     8
 71
     3
 72
     8
 73
     4
 74
     0
 42
0.0000000001
 43
0.0000000001
 40
0.0
 40
0.0
 40
0.0
 40
0.0
 40
1.0
 40
1.0
 40
1.0
 40
1.0
 10
73.00587972005208
 20
166.9134982638889
 30
0.0
 10
74.39442545572916
 20
163.6558159722222
 30
0.0
 10
74.07678765190971
 20
160.7951809353299
 30
0.0
 10
73.64976806640624
 20
160.0126274956597
 30
0.0
  0
SPLINE
  5
46
330
A
100
AcDbEntity
  8
LAYER_1
 62
     7
100
AcDbSpline
210
0.0
220
0.0
230
1.0
 70
     8
 71
     3
 72
     8
 73
     4
 74
     0
 42
0.0000000001
 43
0.0000000001
 40
0.0
 40
0.0
 40
0.0
 40
0.0
 40
1.0
 40
1.0
 40
1.0
 40
1.0
 10
71.61423339843749
 20
169.4129150390625
 30
0.0
 10
71.96287706163194
 20
168.9150987413194
 30
0.0
 10
72.26466742621527
 20
168.4164211697049
 30
0.0
 10
72.52528889973958
 20
167.9229112413194
 30
0.0
  0
SPLINE
  5
45
330
A
100
AcDbEntity
  8
LAYER_1
 62
     7
100
AcDbSpline
210
0.0
220
0.0
230
1.0
 70
     8
 71
     3
 72
     8
 73
     4
 74
     0
 42
0.0000000001
 43
0.0000000001
 40
0.0
 40
0.0
 40
0.0
 40
0.0
 40
1.0
 40
1.0
 40
1.0
 40
1.0
 10
68.12538519965277
 20
172.6730088975694
 30
0.0
 10
68.63973795572916
 20
172.3877549913194
 30
0.0
 10
69.16098090277777
 20
172.0325656467014
 30
0.0
 10
69.67636718749999
 20
171.5902153862847
 30
0.0
  0
SPLINE
  5
44
330
A
100
AcDbEntity
  8
LAYER_1
 62
     7
100
AcDbSpline
210
0.0
220
0.0
230
1.0
 70
     8
 71
     3
 72
     8
 73
     4
 74
     0
 42
0.0000000001
 43
0.0000000001
 40
0.0
 40
0.0
 40
0.0
 40
0.0
 40
1.0
 40
1.0
 40
1.0
 40
1.0
 10
63.46330973307291
 20
173.810407172309
 30
0.0
 10
64.36661376953124
 20
173.810407172309
 30
0.0
 10
65.67402750651041
 20
173.723590766059
 30
0.0
 10
67.10115831163193
 20
173.1573893229167
 30
0.0
  0
SPLINE
  5
43
330
A
100
AcDbEntity
  8
LAYER_1
 62
     7
100
AcDbSpline
210
0.0
220
0.0
230
1.0
 70
     8
 71
     3
 72
    11
 73
     7
 74
     0
 42
0.0000000001
 43
0.0000000001
 40
0.0
 40
0.0
 40
0.0
 40
0.0
 40
1.0
 40
1.0
 40
1.0
 40
2.0
 40
2.0
 40
2.0
 40
2.0
 10
70.20036621093749
 20
203.7215874565972
 30
0.0
 10
71.62009006076389
 20
203.0425591362847
 30
0.0
 10
75.44001193576388
 20
200.9126288519965
 30
0.0
 10
76.30438639322917
 20
200.1100938585069
 30
0.0
 10
75.00799696180555
 20
201.7768310546875
 30
0.0
 10
73.21000162760416
 20
203.675250922309
 30
0.0
 10
73.21000162760416
 20
203.675250922309
 30
0.0
  0
SPLINE
  5
42
330
A
100
AcDbEntity
  8
LAYER_1
 62
     7
100
AcDbSpline
210
0.0
220
0.0
230
1.0
 70
     8
 71
     3
 72
     8
 73
     4
 74
     0
 42
0.0000000001
 43
0.0000000001
 40
0.0
 40
0.0
 40
0.0
 40
0.0
 40
1.0
 40
1.0
 40
1.0
 40
1.0
 10
76.30438639322917
 20
200.1100938585069
 30
0.0
 10
75.00799696180555
 20
201.7768310546875
 30
0.0
 10
73.21000162760416
 20
203.675250922309
 30
0.0
 10
73.21000162760416
 20
203.675250922309
 30
0.0
  0
SPLINE
  5
41
330
A
100
AcDbEntity
  8
LAYER_1
 62
     7
100
AcDbSpline
210
0.0
220
0.0
230
1.0
 70
     8
 71
     3
 72
     8
 73
     4
 74
     0
 42
0.0000000001
 43
0.0000000001
 40
0.0
 40
0.0
 40
0.0
 40
0.0
 40
1.0
 40
1.0
 40
1.0
 40
1.0
 10
78.04450412326388
 20
179.6012681749132
 30
0.0
 10
77.60732150607639
 20
179.1966417100694
 30
0.0
 10
77.15119086371527
 20
178.7894314236111
 30
0.0
 10
76.67490641276041
 20
178.3787760416666
 30
0.0
  0
SPLINE
  5
40
330
A
100
AcDbEntity
  8
LAYER_1
 62
     7
100
AcDbSpline
210
0.0
220
0.0
230
1.0
 70
     8
 71
     3
 72
     8
 73
     4
 74
     0
 42
0.0000000001
 43
0.0000000001
 40
0.0
 40
0.0
 40
0.0
 40
0.0
 40
1.0
 40
1.0
 40
1.0
 40
1.0
 10
81.49063313802083
 20
183.2050103081597
 30
0.0
 10
80.75062662760416
 20
182.3113525390625
 30
0.0
 10
79.92070312499999
 20
181.4140774197049
 30
0.0
 10
78.99362792968749
 20
180.5047444661458
 30
0.0
  0
SPLINE
  5
3F
330
A
100
AcDbEntity
  8
LAYER_1
 62
     7
100
AcDbSpline
210
0.0
220
0.0
230
1.0
 70
     8
 71
     3
 72
    11
 73
     7
 74
     0
 42
0.0000000001
 43
0.0000000001
 40
0.0
 40
0.0
 40
0.0
 40
0.0
 40
1.0
 40
1.0
 40
1.0
 40
2.0
 40
2.0
 40
2.0
 40
2.0
 10
80.13205973307291
 20
203.7215874565972
 30
0.0
 10
84.14507921006944
 20
200.4496080186632
 30
0.0
 10
87.23154025607639
 20
196.5909288194444
 30
0.0
 10
86.05882975260415
 20
191.899225531684
 30
0.0
 10
85.41011827256943
 20
189.304896375868
 30
0.0
 10
84.25187717013888
 20
186.861634657118
 30
0.0
 10
82.43786214192707
 20
184.4125162760417
 30
0.0
  0
SPLINE
  5
3E
330
A
100
AcDbEntity
  8
LAYER_1
 62
     7
100
AcDbSpline
210
0.0
220
0.0
230
1.0
 70
     8
 71
     3
 72
    11
 73
     7
 74
     0
 42
0.0000000001
 43
0.0000000001
 40
0.0
 40
0.0
 40
0.0
 40
0.0
 40
1.0
 40
1.0
 40
1.0
 40
2.0
 40
2.0
 40
2.0
 40
2.0
 10
105.351708984375
 20
156.2550618489583
 30
0.0
 10
107.4776774088542
 20
154.4322618272569
 30
0.0
 10
111.6458984375
 20
154.6539537217882
 30
0.0
 10
115.3731472439236
 20
156.9650960286458
 30
0.0
 10
119.4648871527778
 20
159.5024088541667
 30
0.0
 10
121.5371120876736
 20
163.6353176540798
 30
0.0
 10
120.1828450520833
 20
166.3943223741319
 30
0.0
  0
SPLINE
  5
3D
330
A
100
AcDbEntity
  8
LAYER_1
 62
     7
100
AcDbSpline
210
0.0
220
0.0
230
1.0
 70
     8
 71
     3
 72
    11
 73
     7
 74
     0
 42
0.0000000001
 43
0.0000000001
 40
0.0
 40
0.0
 40
0.0
 40
0.0
 40
1.0
 40
1.0
 40
1.0
 40
2.0
 40
2.0
 40
2.0
 40
2.0
 10
116.5255316840278
 20
174.366273328993
 30
0.0
 10
116.1241780598958
 20
169.0570366753472
 30
0.0
 10
113.7164008246528
 20
167.760302734375
 30
0.0
 10
112.2346652560764
 20
167.2049533420139
 30
0.0
 10
111.0056274414062
 20
168.03935546875
 30
0.0
 10
109.7069986979167
 20
168.671875
 30
0.0
 10
108.3768473307292
 20
169.147125922309
 30
0.0
  0
SPLINE
  5
3C
330
A
100
AcDbEntity
  8
LAYER_1
 62
     7
100
AcDbSpline
210
0.0
220
0.0
230
1.0
 70
     8
 71
     3
 72
     8
 73
     4
 74
     0
 42
0.0000000001
 43
0.0000000001
 40
0.0
 40
0.0
 40
0.0
 40
0.0
 40
1.0
 40
1.0
 40
1.0
 40
1.0
 10
112.2346652560764
 20
167.2049533420139
 30
0.0
 10
113.7164008246528
 20
167.760302734375
 30
0.0
 10
116.2166788736979
 20
168.7481838650174
 30
0.0
 10
116.6178602430556
 20
174.0574205186632
 30
0.0
  0
SPLINE
  5
3B
330
A
100
AcDbEntity
  8
LAYER_1
 62
     7
100
AcDbSpline
210
0.0
220
0.0
230
1.0
 70
     8
 71
     3
 72
     8
 73
     4
 74
     0
 42
0.0000000001
 43
0.0000000001
 40
0.0
 40
0.0
 40
0.0
 40
0.0
 40
1.0
 40
1.0
 40
1.0
 40
1.0
 10
95.75436197916666
 20
170.3623833550347
 30
0.0
 10
99.0547634548611
 20
170.5549641927083
 30
0.0
 10
103.1260050455729
 20
170.6617621527778
 30
0.0
 10
107.0373942057292
 20
169.5717339409722
 30
0.0
  0
SPLINE
  5
3A
330
A
100
AcDbEntity
  8
LAYER_1
 62
     7
100
AcDbSpline
210
0.0
220
0.0
230
1.0
 70
     8
 71
     3
 72
     8
 73
     4
 74
     0
 42
0.0000000001
 43
0.0000000001
 40
0.0
 40
0.0
 40
0.0
 40
0.0
 40
1.0
 40
1.0
 40
1.0
 40
1.0
 10
92.41761474609375
 20
170.1682522243924
 30
0.0
 10
92.93334554036457
 20
170.1880615234375
 30
0.0
 10
93.49334581163194
 20
170.2214789496528
 30
0.0
 10
94.09038085937499
 20
170.2590304904514
 30
0.0
  0
LWPOLYLINE
  5
34
330
A
100
AcDbEntity
  8
LAYER_1
 62
     7
100
AcDbPolyline
 90
        4
 70
     1
 43
0.0
 10
150.1403618706597
 20
81.02141113281249
 10
150.1403618706597
 20
203.6289143880208
 10
63.09313422309027
 20
203.6289143880208
 10
63.09313422309027
 20
81.02141113281249
  0
HATCH
  5
33
330
A
100
AcDbEntity
  8
LAYER_1
 62
     7
100
AcDbHatch
 10
0.0
 20
0.0
 30
0.0
210
0.0
220
0.0
230
1.0
  2
SOLID
 70
     1
 71
     0
 91
        1
 92
        1
 93
        1
 72
     4
 94
        3
 73
     0
 74
     0
 95
       56
 96
       52
 40
0.0
 40
0.0
 40
0.0
 40
0.0
 40
1.0
 40
1.0
 40
1.0
 40
2.0
 40
2.0
 40
2.0
 40
3.0
 40
3.0
 40
3.0
 40
4.0
 40
4.0
 40
4.0
 40
5.0
 40
5.0
 40
5.0
 40
6.0
 40
6.0
 40
6.0
 40
7.0
 40
7.0
 40
7.0
 40
8.0
 40
8.0
 40
8.0
 40
9.0
 40
9.0
 40
9.0
 40
10.0
 40
10.0
 40
10.0
 40
11.0
 40
11.0
 40
11.0
 40
12.0
 40
12.0
 40
12.0
 40
13.0
 40
13.0
 40
13.0
 40
14.0
 40
14.0
 40
14.0
 40
15.0
 40
15.0
 40
15.0
 40
16.0
 40
16.0
 40
16.0
 40
17.0
 40
17.0
 40
17.0
 40
17.0
 10
119.0676676432292
 20
125.2874430338542
 10
119.4149332682292
 20
124.7610324435764
 10
119.6774495442708
 20
124.6662923177083
 10
119.6774495442708
 20
125.2076890733507
 10
119.6774495442708
 20
125.9971327039931
 10
119.3391411675347
 20
126.5566162109375
 10
119.0807590060764
 20
126.9190402560764
 10
118.8492485894097
 20
127.2439127604167
 10
118.7069661458333
 20
127.2938666449653
 10
118.6266954210069
 20
127.093017578125
 10
118.5598605685764
 20
126.9259304470486
 10
118.4930257161458
 20
126.7653889973958
 10
118.4263631184896
 20
126.5979573567708
 10
118.1902018229167
 20
126.0029893663194
 10
117.9676486545139
 20
126.145960828993
 10
117.5266764322917
 20
126.76435546875
 10
116.8945014105903
 20
127.6518120659722
 10
116.5248426649306
 20
128.7507975260417
 10
116.5248426649306
 20
129.6901028103299
 10
116.5248426649306
 20
130.172760687934
 10
116.6185492621528
 20
130.6156277126736
 10
117.0548706054687
 20
130.2838650173611
 10
117.2193739149305
 20
130.1570855034722
 10
117.4867133246528
 20
129.7757134331597
 10
117.6648247612847
 20
129.5321451822917
 10
117.6648247612847
 20
129.5321451822917
 10
117.6648247612847
 20
128.990576171875
 10
117.6648247612847
 20
128.990576171875
 10
117.1706258138021
 20
129.7106011284722
 10
116.8586724175347
 20
130.0106689453125
 10
116.8586724175347
 20
129.1955593532986
 10
116.8586724175347
 20
128.6474446614583
 10
117.0502197265625
 20
127.9940823025174
 10
117.4422715928819
 20
127.444245062934
 10
117.9499064127604
 20
126.7319715711805
 10
117.9542127821181
 20
127.0256659613715
 10
118.0834038628472
 20
127.3400309244792
 10
118.1547173394097
 20
127.5074625651042
 10
118.2480794270833
 20
127.8070136176215
 10
118.3416137695312
 20
127.9367214626736
 10
118.5019829644097
 20
128.1749498155382
 10
118.7693223741319
 20
127.9174289279514
 10
119.0986735026042
 20
127.4550971137153
 10
119.6509223090278
 20
126.6802951388889
 10
120.0116238064236
 20
125.6066311306424
 10
120.0116238064236
 20
124.8108140733507
 10
120.0116238064236
 20
123.9169840494792
 10
119.6955362955729
 20
123.8129421657986
 10
119.0676676432292
 20
124.7458740234375
 10
119.0676676432292
 20
124.7458740234375
 10
119.0676676432292
 20
125.2874430338542
 10
119.0676676432292
 20
125.2874430338542
 97
        0
 75
     0
 76
     1
 98
        1
 10
0.0
 20
0.0
  0
HATCH
  5
32
330
A
100
AcDbEntity
  8
LAYER_1
 62
     7
100
AcDbHatch
 10
0.0
 20
0.0
 30
0.0
210
0.0
220
0.0
230
1.0
  2
SOLID
 70
     1
 71
     0
 91
        1
 92
        1
 93
        1
 72
     4
 94
        3
 73
     0
 74
     0
 95
       17
 96
       13
 40
0.0
 40
0.0
 40
0.0
 40
0.0
 40
1.0
 40
1.0
 40
1.0
 40
2.0
 40
2.0
 40
2.0
 40
3.0
 40
3.0
 40
3.0
 40
4.0
 40
4.0
 40
4.0
 40
4.0
 10
116.6051133897569
 20
127.1526177300347
 10
116.6051133897569
 20
127.1526177300347
 10
119.944788953993
 20
122.4662543402778
 10
119.944788953993
 20
122.4662543402778
 10
119.944788953993
 20
122.4662543402778
 10
119.944788953993
 20
121.9250298394097
 10
119.944788953993
 20
121.9250298394097
 10
119.944788953993
 20
121.9250298394097
 10
116.6051133897569
 20
126.6112209743924
 10
116.6051133897569
 20
126.6112209743924
 10
116.6051133897569
 20
126.6112209743924
 10
116.6051133897569
 20
127.1526177300347
 10
116.6051133897569
 20
127.1526177300347
 97
        0
 75
     0
 76
     1
 98
        1
 10
0.0
 20
0.0
  0
HATCH
  5
31
330
A
100
AcDbEntity
  8
LAYER_1
 62
     7
100
AcDbHatch
 10
0.0
 20
0.0
 30
0.0
210
0.0
220
0.0
230
1.0
  2
SOLID
 70
     1
 71
     0
 91
        1
 92
        1
 93
        1
 72
     4
 94
        3
 73
     0
 74
     0
 95
       71
 96
       67
 40
0.0
 40
0.0
 40
0.0
 40
0.0
 40
1.0
 40
1.0
 40
1.0
 40
2.0
 40
2.0
 40
2.0
 40
3.0
 40
3.0
 40
3.0
 40
4.0
 40
4.0
 40
4.0
 40
5.0
 40
5.0
 40
5.0
 40
6.0
 40
6.0
 40
6.0
 40
7.0
 40
7.0
 40
7.0
 40
8.0
 40
8.0
 40
8.0
 40
9.0
 40
9.0
 40
9.0
 40
10.0
 40
10.0
 40
10.0
 40
11.0
 40
11.0
 40
11.0
 40
12.0
 40
12.0
 40
12.0
 40
13.0
 40
13.0
 40
13.0
 40
14.0
 40
14.0
 40
14.0
 40
15.0
 40
15.0
 40
15.0
 40
16.0
 40
16.0
 40
16.0
 40
17.0
 40
17.0
 40
17.0
 40
18.0
 40
18.0
 40
18.0
 40
19.0
 40
19.0
 40
19.0
 40
20.0
 40
20.0
 40
20.0
 40
21.0
 40
21.0
 40
21.0
 40
22.0
 40
22.0
 40
22.0
 40
22.0
 10
119.944788953993
 20
117.7321763780382
 10
119.944788953993
 20
117.7321763780382
 10
119.944788953993
 20
116.7797797309028
 10
119.944788953993
 20
116.7797797309028
 10
119.944788953993
 20
116.7797797309028
 10
116.6051133897569
 20
121.4661431206597
 10
116.6051133897569
 20
121.4661431206597
 10
116.6051133897569
 20
121.4661431206597
 10
116.6051133897569
 20
122.0073676215278
 10
116.6051133897569
 20
122.0073676215278
 10
116.6051133897569
 20
122.0073676215278
 10
119.3570556640625
 20
118.1457600911458
 10
119.3570556640625
 20
118.1457600911458
 10
119.4993381076389
 20
117.9461168077257
 10
119.6376586914062
 20
117.739411078559
 10
119.7801133897569
 20
117.5523423936632
 10
119.7801133897569
 20
117.5523423936632
 10
119.7801133897569
 20
117.5656060112847
 10
119.7801133897569
 20
117.5656060112847
 10
119.5840874565972
 20
117.8990912543403
 10
119.459375
 20
118.1197496202257
 10
119.3301839192708
 20
118.3466091579861
 10
119.3301839192708
 20
118.3466091579861
 10
116.6051133897569
 20
123.1945475260417
 10
116.6051133897569
 20
123.1945475260417
 10
116.6051133897569
 20
123.1945475260417
 10
116.6051133897569
 20
123.8403306749132
 10
116.6051133897569
 20
123.8403306749132
 10
116.6051133897569
 20
123.8403306749132
 10
119.3701470269097
 20
120.9845187717014
 10
119.3701470269097
 20
120.9845187717014
 10
119.4862467447917
 20
120.8673855251736
 10
119.5973510742187
 20
120.7502522786458
 10
119.7801133897569
 20
120.5528483072917
 10
119.7801133897569
 20
120.5528483072917
 10
119.7801133897569
 20
120.5661119249132
 10
119.7801133897569
 20
120.5661119249132
 10
119.6376586914062
 20
120.7657552083333
 10
119.4907253689236
 20
120.9590250651042
 10
119.3480984157986
 20
121.1591851128472
 10
119.3480984157986
 20
121.1591851128472
 10
116.6051133897569
 20
125.0080457899306
 10
116.6051133897569
 20
125.0080457899306
 10
116.6051133897569
 20
125.0080457899306
 10
116.6051133897569
 20
125.5496148003472
 10
116.6051133897569
 20
125.5496148003472
 10
116.6051133897569
 20
125.5496148003472
 10
119.944788953993
 20
120.8632514105903
 10
119.944788953993
 20
120.8632514105903
 10
119.944788953993
 20
120.8632514105903
 10
119.944788953993
 20
119.9044813368056
 10
119.944788953993
 20
119.9044813368056
 10
119.944788953993
 20
119.9044813368056
 10
117.3399522569444
 20
122.6006130642361
 10
117.3399522569444
 20
122.6006130642361
 10
117.1973253038194
 20
122.7484076605903
 10
117.0591769748264
 20
122.9161838107639
 10
116.8455810546875
 20
123.1897243923611
 10
116.8455810546875
 20
123.1897243923611
 10
116.8455810546875
 20
123.1768052842882
 10
116.8455810546875
 20
123.1768052842882
 10
117.0147352430555
 20
122.9068820529514
 10
117.1794108072917
 20
122.6429877387153
 10
117.3442586263021
 20
122.353082953559
 10
117.3442586263021
 20
122.353082953559
 10
119.944788953993
 20
117.7321763780382
 10
119.944788953993
 20
117.7321763780382
 97
        0
 75
     0
 76
     1
 98
        1
 10
0.0
 20
0.0
  0
HATCH
  5
30
330
A
100
AcDbEntity
  8
LAYER_1
 62
     7
100
AcDbHatch
 10
0.0
 20
0.0
 30
0.0
210
0.0
220
0.0
230
1.0
  2
SOLID
 70
     1
 71
     0
 91
        2
 92
       16
 93
        1
 72
     4
 94
        3
 73
     0
 74
     0
 95
       20
 96
       16
 40
0.0
 40
0.0
 40
0.0
 40
0.0
 40
1.0
 40
1.0
 40
1.0
 40
2.0
 40
2.0
 40
2.0
 40
3.0
 40
3.0
 40
3.0
 40
4.0
 40
4.0
 40
4.0
 40
5.0
 40
5.0
 40
5.0
 40
5.0
 10
118.3550496419271
 20
117.4798231336805
 10
118.3550496419271
 20
117.4798231336805
 10
118.3550496419271
 20
116.9513454861111
 10
118.3550496419271
 20
116.9513454861111
 10
118.3593560112847
 20
116.201520453559
 10
118.4306694878472
 20
115.6449652777778
 10
119.0051391601562
 20
114.8455308702257
 10
119.5441243489583
 20
114.0895046657986
 10
119.6195719401042
 20
114.4856906467014
 10
119.6107869466146
 20
115.1567952473958
 10
119.6107869466146
 20
115.1567952473958
 10
119.6107869466146
 20
115.717829047309
 10
119.6107869466146
 20
115.717829047309
 10
119.6107869466146
 20
115.717829047309
 10
118.3550496419271
 20
117.4798231336805
 10
118.3550496419271
 20
117.4798231336805
 97
        0
 92
        1
 93
        1
 72
     4
 94
        3
 73
     0
 74
     0
 95
       32
 96
       28
 40
0.0
 40
0.0
 40
0.0
 40
0.0
 40
1.0
 40
1.0
 40
1.0
 40
2.0
 40
2.0
 40
2.0
 40
3.0
 40
3.0
 40
3.0
 40
4.0
 40
4.0
 40
4.0
 40
5.0
 40
5.0
 40
5.0
 40
6.0
 40
6.0
 40
6.0
 40
7.0
 40
7.0
 40
7.0
 40
8.0
 40
8.0
 40
8.0
 40
9.0
 40
9.0
 40
9.0
 40
9.0
 10
116.6051133897569
 20
120.4767116970486
 10
116.6051133897569
 20
120.4767116970486
 10
119.944788953993
 20
115.7903483072917
 10
119.944788953993
 20
115.7903483072917
 10
119.944788953993
 20
115.7903483072917
 10
119.944788953993
 20
114.5054999457465
 10
119.944788953993
 20
114.5054999457465
 10
119.944788953993
 20
114.1272284613715
 10
119.9136108398437
 20
113.6946967230903
 10
119.7265421549479
 20
113.6702365451389
 10
119.5394734700521
 20
113.6392306857639
 10
119.281263563368
 20
113.896923828125
 10
119.0142686631944
 20
114.2719224717882
 10
118.6444376627604
 20
114.7907538519965
 10
118.2837361653646
 20
115.459619140625
 10
118.1192328559028
 20
116.2192626953125
 10
118.0212198893229
 20
116.6960639105903
 10
118.0212198893229
 20
117.2505520290799
 10
118.0212198893229
 20
117.6224500868055
 10
118.0212198893229
 20
117.6224500868055
 10
118.0212198893229
 20
117.9483561197917
 10
118.0212198893229
 20
117.9483561197917
 10
118.0212198893229
 20
117.9483561197917
 10
116.6051133897569
 20
119.9354871961806
 10
116.6051133897569
 20
119.9354871961806
 10
116.6051133897569
 20
119.9354871961806
 10
116.6051133897569
 20
120.4767116970486
 10
116.6051133897569
 20
120.4767116970486
 97
        0
 75
     0
 76
     1
 98
        1
 10
0.0
 20
0.0
  0
HATCH
  5
2F
330
A
100
AcDbEntity
  8
LAYER_1
 62
     7
100
AcDbHatch
 10
0.0
 20
0.0
 30
0.0
210
0.0
220
0.0
230
1.0
  2
SOLID
 70
     1
 71
     0
 91
        1
 92
        1
 93
        1
 72
     4
 94
        3
 73
     0
 74
     0
 95
       56
 96
       52
 40
0.0
 40
0.0
 40
0.0
 40
0.0
 40
1.0
 40
1.0
 40
1.0
 40
2.0
 40
2.0
 40
2.0
 40
3.0
 40
3.0
 40
3.0
 40
4.0
 40
4.0
 40
4.0
 40
5.0
 40
5.0
 40
5.0
 40
6.0
 40
6.0
 40
6.0
 40
7.0
 40
7.0
 40
7.0
 40
8.0
 40
8.0
 40
8.0
 40
9.0
 40
9.0
 40
9.0
 40
10.0
 40
10.0
 40
10.0
 40
11.0
 40
11.0
 40
11.0
 40
12.0
 40
12.0
 40
12.0
 40
13.0
 40
13.0
 40
13.0
 40
14.0
 40
14.0
 40
14.0
 40
15.0
 40
15.0
 40
15.0
 40
16.0
 40
16.0
 40
16.0
 40
17.0
 40
17.0
 40
17.0
 40
17.0
 10
119.0676676432292
 20
111.4131822374132
 10
119.4149332682292
 20
110.8865993923611
 10
119.6774495442708
 20
110.7920315212674
 10
119.6774495442708
 20
111.3334282769097
 10
119.6774495442708
 20
112.1226996527778
 10
119.3391411675347
 20
112.6823554144965
 10
119.0807590060764
 20
113.0446072048611
 10
118.8492485894097
 20
113.3696519639757
 10
118.7069661458333
 20
113.41943359375
 10
118.6266954210069
 20
113.2189290364583
 10
118.5598605685764
 20
113.0514973958333
 10
118.4930257161458
 20
112.8911282009549
 10
118.4263631184896
 20
112.7238688151042
 10
118.1902018229167
 20
112.1285563151042
 10
117.9676486545139
 20
112.2715277777778
 10
117.5266764322917
 20
112.890094672309
 10
116.8945014105903
 20
113.7773790147569
 10
116.5248426649306
 20
114.8765367296007
 10
116.5248426649306
 20
115.8158420138889
 10
116.5248426649306
 20
116.2986721462674
 10
116.6185492621528
 20
116.7411946614583
 10
117.0548706054687
 20
116.4094319661458
 10
117.2193739149305
 20
116.2826524522569
 10
117.4867133246528
 20
115.9012803819444
 10
117.6648247612847
 20
115.6578843858507
 10
117.6648247612847
 20
115.6578843858507
 10
117.6648247612847
 20
115.1164876302083
 10
117.6648247612847
 20
115.1164876302083
 10
117.1706258138021
 20
115.8361680772569
 10
116.8586724175347
 20
116.1364081488715
 10
116.8586724175347
 20
115.3211263020833
 10
116.8586724175347
 20
114.7731838650173
 10
117.0502197265625
 20
114.1198215060764
 10
117.4422715928819
 20
113.5699842664931
 10
117.9499064127604
 20
112.8575385199653
 10
117.9542127821181
 20
113.1514051649306
 10
118.0834038628472
 20
113.4657701280382
 10
118.1547173394097
 20
113.6333740234375
 10
118.2480794270833
 20
113.9327528211805
 10
118.3416137695312
 20
114.0622884114583
 10
118.5019829644097
 20
114.3006890190972
 10
118.7693223741319
 20
114.0429958767361
 10
119.0986735026042
 20
113.5806640625
 10
119.6509223090278
 20
112.8058620876736
 10
120.0116238064236
 20
111.7323703342014
 10
120.0116238064236
 20
110.9365532769097
 10
120.0116238064236
 20
110.0428955078125
 10
119.6955362955729
 20
109.9385091145833
 10
119.0676676432292
 20
110.8717854817708
 10
119.0676676432292
 20
110.8717854817708
 10
119.0676676432292
 20
111.4131822374132
 10
119.0676676432292
 20
111.4131822374132
 97
        0
 75
     0
 76
     1
 98
        1
 10
0.0
 20
0.0
  0
HATCH
  5
2E
330
A
100
AcDbEntity
  8
LAYER_1
 62
     7
100
AcDbHatch
 10
0.0
 20
0.0
 30
0.0
210
0.0
220
0.0
230
1.0
  2
SOLID
 70
     1
 71
     0
 91
        2
 92
       16
 93
        1
 72
     4
 94
        3
 73
     0
 74
     0
 95
       17
 96
       13
 40
0.0
 40
0.0
 40
0.0
 40
0.0
 40
1.0
 40
1.0
 40
1.0
 40
2.0
 40
2.0
 40
2.0
 40
3.0
 40
3.0
 40
3.0
 40
4.0
 40
4.0
 40
4.0
 40
4.0
 10
119.6774495442708
 20
107.6232326931424
 10
119.6774495442708
 20
108.4581515842014
 10
119.0807590060764
 20
109.504254828559
 10
118.3373074001736
 20
110.5410563151042
 10
117.3709581163194
 20
111.8905002170139
 10
116.8586724175347
 20
112.4654866536458
 10
116.8586724175347
 20
111.565283203125
 10
116.8586724175347
 20
110.6650797526042
 10
117.3709581163194
 20
109.8031168619792
 10
118.3373074001736
 20
108.4407538519965
 10
119.0807590060764
 20
107.3906887478299
 10
119.6774495442708
 20
106.7621310763889
 10
119.6774495442708
 20
107.6232326931424
 97
        0
 92
        1
 93
        1
 72
     4
 94
        3
 73
     0
 74
     0
 95
       17
 96
       13
 40
0.0
 40
0.0
 40
0.0
 40
0.0
 40
1.0
 40
1.0
 40
1.0
 40
2.0
 40
2.0
 40
2.0
 40
3.0
 40
3.0
 40
3.0
 40
4.0
 40
4.0
 40
4.0
 40
4.0
 10
120.0116238064236
 20
107.1283447265625
 10
120.0116238064236
 20
105.7000081380208
 10
119.112109375
 20
106.7860744900174
 10
118.3462646484375
 20
107.867145453559
 10
117.4198784722222
 20
109.173353407118
 10
116.5248426649306
 20
110.6054796006944
 10
116.5248426649306
 20
112.0341606987847
 10
116.5248426649306
 20
113.4624972873264
 10
117.4198784722222
 20
112.3762586805556
 10
118.3462646484375
 20
111.0896877712674
 10
119.112109375
 20
110.0148179796007
 10
120.0116238064236
 20
108.5832085503472
 10
120.0116238064236
 20
107.1283447265625
 97
        0
 75
     0
 76
     1
 98
        1
 10
0.0
 20
0.0
  0
HATCH
  5
2D
330
A
100
AcDbEntity
  8
LAYER_1
 62
     7
100
AcDbHatch
 10
0.0
 20
0.0
 30
0.0
210
0.0
220
0.0
230
1.0
  2
SOLID
 70
     1
 71
     0
 91
        1
 92
        1
 93
        1
 72
     4
 94
        3
 73
     0
 74
     0
 95
       53
 96
       49
 40
0.0
 40
0.0
 40
0.0
 40
0.0
 40
1.0
 40
1.0
 40
1.0
 40
2.0
 40
2.0
 40
2.0
 40
3.0
 40
3.0
 40
3.0
 40
4.0
 40
4.0
 40
4.0
 40
5.0
 40
5.0
 40
5.0
 40
6.0
 40
6.0
 40
6.0
 40
7.0
 40
7.0
 40
7.0
 40
8.0
 40
8.0
 40
8.0
 40
9.0
 40
9.0
 40
9.0
 40
10.0
 40
10.0
 40
10.0
 40
11.0
 40
11.0
 40
11.0
 40
12.0
 40
12.0
 40
12.0
 40
13.0
 40
13.0
 40
13.0
 40
14.0
 40
14.0
 40
14.0
 40
15.0
 40
15.0
 40
15.0
 40
16.0
 40
16.0
 40
16.0
 40
16.0
 10
119.944788953993
 20
102.3710123697917
 10
119.944788953993
 20
102.3710123697917
 10
119.944788953993
 20
101.829443359375
 10
119.944788953993
 20
101.829443359375
 10
119.944788953993
 20
101.829443359375
 10
116.6051133897569
 20
106.5158067491319
 10
116.6051133897569
 20
106.5158067491319
 10
116.6051133897569
 20
106.5158067491319
 10
116.6051133897569
 20
107.4030910915799
 10
116.6051133897569
 20
107.4030910915799
 10
116.6051133897569
 20
107.4030910915799
 10
119.2769571940104
 20
105.0239081488715
 10
119.2769571940104
 20
105.0239081488715
 10
119.428369140625
 20
104.8897216796875
 10
119.5796088324653
 20
104.7357259114583
 10
119.7801133897569
 20
104.5004258897569
 10
119.7801133897569
 20
104.5004258897569
 10
119.7801133897569
 20
104.5135172526042
 10
119.7801133897569
 20
104.5135172526042
 10
119.6107869466146
 20
104.7443386501736
 10
119.4371541341146
 20
104.9815334743924
 10
119.2678276909722
 20
105.2190728081597
 10
119.2678276909722
 20
105.2190728081597
 10
116.6051133897569
 20
108.9554511176215
 10
116.6051133897569
 20
108.9554511176215
 10
116.6051133897569
 20
108.9554511176215
 10
116.6051133897569
 20
109.4968478732639
 10
116.6051133897569
 20
109.4968478732639
 10
116.6051133897569
 20
109.4968478732639
 10
119.944788953993
 20
104.8108289930556
 10
119.944788953993
 20
104.8108289930556
 10
119.944788953993
 20
104.8108289930556
 10
119.944788953993
 20
103.9302625868055
 10
119.944788953993
 20
103.9302625868055
 10
119.944788953993
 20
103.9302625868055
 10
117.2107611762153
 20
106.3769694010417
 10
117.2107611762153
 20
106.3769694010417
 10
117.1080973307292
 20
106.4620632595486
 10
117.0012993706597
 20
106.5664496527778
 10
116.8455810546875
 20
106.719928656684
 10
116.8455810546875
 20
106.719928656684
 10
116.8455810546875
 20
106.7066650390625
 10
116.8455810546875
 20
106.7066650390625
 10
116.9658148871528
 20
106.5447455512153
 10
117.0950059678819
 20
106.3700792100694
 10
117.2193739149305
 20
106.195068359375
 10
117.2193739149305
 20
106.195068359375
 10
119.944788953993
 20
102.3710123697917
 10
119.944788953993
 20
102.3710123697917
 97
        0
 75
     0
 76
     1
 98
        1
 10
0.0
 20
0.0
  0
HATCH
  5
2C
330
A
100
AcDbEntity
  8
LAYER_1
 62
     7
100
AcDbHatch
 10
0.0
 20
0.0
 30
0.0
210
0.0
220
0.0
230
1.0
  2
SOLID
 70
     1
 71
     0
 91
        1
 92
        1
 93
        1
 72
     4
 94
        3
 73
     0
 74
     0
 95
       56
 96
       52
 40
0.0
 40
0.0
 40
0.0
 40
0.0
 40
1.0
 40
1.0
 40
1.0
 40
2.0
 40
2.0
 40
2.0
 40
3.0
 40
3.0
 40
3.0
 40
4.0
 40
4.0
 40
4.0
 40
5.0
 40
5.0
 40
5.0
 40
6.0
 40
6.0
 40
6.0
 40
7.0
 40
7.0
 40
7.0
 40
8.0
 40
8.0
 40
8.0
 40
9.0
 40
9.0
 40
9.0
 40
10.0
 40
10.0
 40
10.0
 40
11.0
 40
11.0
 40
11.0
 40
12.0
 40
12.0
 40
12.0
 40
13.0
 40
13.0
 40
13.0
 40
14.0
 40
14.0
 40
14.0
 40
15.0
 40
15.0
 40
15.0
 40
16.0
 40
16.0
 40
16.0
 40
17.0
 40
17.0
 40
17.0
 40
17.0
 10
115.1740207248264
 20
131.0814046223958
 10
115.4828735351562
 20
130.613560655382
 10
115.7164510091146
 20
130.5295003255208
 10
115.7164510091146
 20
131.0109524197048
 10
115.7164510091146
 20
131.7125461154514
 10
115.4156941731771
 20
132.2096733940972
 10
115.1860785590278
 20
132.5317898220486
 10
114.9804063585069
 20
132.8204888237847
 10
114.8536268446181
 20
132.8649305555555
 10
114.7823133680555
 20
132.6863023546007
 10
114.7230577256944
 20
132.537646484375
 10
114.6634575737847
 20
132.3948472764757
 10
114.6043741861979
 20
132.24619140625
 10
114.3945678710937
 20
131.7170247395833
 10
114.1966471354167
 20
131.8439765082465
 10
113.8045952690972
 20
132.3936414930556
 10
113.2427001953125
 20
133.1822238498264
 10
112.9143825954861
 20
134.1589084201389
 10
112.9143825954861
 20
134.9939995659722
 10
112.9143825954861
 20
135.422913953993
 10
112.9972371419271
 20
135.8163438585069
 10
113.3853271484375
 20
135.5214436848958
 10
113.5315714518229
 20
135.4087890625
 10
113.7691107855903
 20
135.0701361762153
 10
113.9274129231771
 20
134.8537841796875
 10
113.9274129231771
 20
134.8537841796875
 10
113.9274129231771
 20
134.3725043402778
 10
113.9274129231771
 20
134.3725043402778
 10
113.4881632486979
 20
135.0119140625
 10
113.2111775716146
 20
135.2789089626736
 10
113.2111775716146
 20
134.5540608723958
 10
113.2111775716146
 20
134.067096625434
 10
113.3811930338542
 20
133.4862535264757
 10
113.7294921875
 20
132.9975667317708
 10
114.1806274414062
 20
132.3648749457465
 10
114.1847615559896
 20
132.6261854383681
 10
114.2994832356771
 20
132.9055826822917
 10
114.3627007378472
 20
133.0544108072917
 10
114.4460720486111
 20
133.320716688368
 10
114.5289265950521
 20
133.4357828776042
 10
114.6715535481771
 20
133.64765625
 10
114.9090928819444
 20
133.4189019097222
 10
115.2019259982639
 20
133.0082465277778
 10
115.6926798502604
 20
132.3195719401042
 10
116.0132459852431
 20
131.3654527452257
 10
116.0132459852431
 20
130.6583468967014
 10
116.0132459852431
 20
129.8639078776042
 10
115.7321261935764
 20
129.7708902994792
 10
115.1740207248264
 20
130.6004692925347
 10
115.1740207248264
 20
130.6004692925347
 10
115.1740207248264
 20
131.0814046223958
 10
115.1740207248264
 20
131.0814046223958
 97
        0
 75
     0
 76
     1
 98
        1
 10
0.0
 20
0.0
  0
HATCH
  5
2B
330
A
100
AcDbEntity
  8
LAYER_1
 62
     7
100
AcDbHatch
 10
0.0
 20
0.0
 30
0.0
210
0.0
220
0.0
230
1.0
  2
SOLID
 70
     1
 71
     0
 91
        1
 92
        1
 93
        1
 72
     4
 94
        3
 73
     0
 74
     0
 95
       53
 96
       49
 40
0.0
 40
0.0
 40
0.0
 40
0.0
 40
1.0
 40
1.0
 40
1.0
 40
2.0
 40
2.0
 40
2.0
 40
3.0
 40
3.0
 40
3.0
 40
4.0
 40
4.0
 40
4.0
 40
5.0
 40
5.0
 40
5.0
 40
6.0
 40
6.0
 40
6.0
 40
7.0
 40
7.0
 40
7.0
 40
8.0
 40
8.0
 40
8.0
 40
9.0
 40
9.0
 40
9.0
 40
10.0
 40
10.0
 40
10.0
 40
11.0
 40
11.0
 40
11.0
 40
12.0
 40
12.0
 40
12.0
 40
13.0
 40
13.0
 40
13.0
 40
14.0
 40
14.0
 40
14.0
 40
15.0
 40
15.0
 40
15.0
 40
16.0
 40
16.0
 40
16.0
 40
16.0
 10
115.1860785590278
 20
129.2105455186632
 10
115.1860785590278
 20
129.2105455186632
 10
115.1860785590278
 20
128.6715603298611
 10
115.1860785590278
 20
128.6715603298611
 10
115.1860785590278
 20
128.6715603298611
 10
114.9208062065972
 20
129.0432861328125
 10
114.9208062065972
 20
129.0432861328125
 10
114.9208062065972
 20
129.0432861328125
 10
114.9208062065972
 20
129.5769314236111
 10
114.9208062065972
 20
129.5769314236111
 10
114.9208062065972
 20
129.5769314236111
 10
113.4208116319444
 20
131.6808512369792
 10
113.4208116319444
 20
131.6808512369792
 10
113.3455362955729
 20
131.7866156684028
 10
113.2506239149305
 20
131.9602484809028
 10
113.2506239149305
 20
131.7053114149306
 10
113.2506239149305
 20
131.7053114149306
 10
113.2506239149305
 20
131.3980088975694
 10
113.2506239149305
 20
131.3980088975694
 10
113.2506239149305
 20
131.3980088975694
 10
112.9853515625
 20
131.7697347005208
 10
112.9853515625
 20
131.7697347005208
 10
112.9853515625
 20
131.7697347005208
 10
112.9853515625
 20
132.2740966796875
 10
112.9853515625
 20
132.2740966796875
 10
112.9815619574653
 20
132.5524603949653
 10
113.0132568359375
 20
132.7109347873264
 10
113.3455362955729
 20
132.2444688585069
 10
113.3455362955729
 20
132.2444688585069
 10
114.9208062065972
 20
130.0347846137153
 10
114.9208062065972
 20
130.0347846137153
 10
114.9208062065972
 20
130.0347846137153
 10
114.9208062065972
 20
130.4812689887153
 10
114.9208062065972
 20
130.4812689887153
 10
114.9208062065972
 20
130.4812689887153
 10
115.1860785590278
 20
130.1095431857639
 10
115.1860785590278
 20
130.1095431857639
 10
115.1860785590278
 20
130.1095431857639
 10
115.1860785590278
 20
129.6630588107639
 10
115.1860785590278
 20
129.6630588107639
 10
115.1860785590278
 20
129.6630588107639
 10
115.7836303710937
 20
128.8245225694444
 10
115.7836303710937
 20
128.8245225694444
 10
115.7836303710937
 20
128.8245225694444
 10
115.7836303710937
 20
128.3723537868924
 10
115.7836303710937
 20
128.3723537868924
 10
115.7836303710937
 20
128.3723537868924
 10
115.1860785590278
 20
129.2105455186632
 10
115.1860785590278
 20
129.2105455186632
 97
        0
 75
     0
 76
     1
 98
        1
 10
0.0
 20
0.0
  0
HATCH
  5
2A
330
A
100
AcDbEntity
  8
LAYER_1
 62
     7
100
AcDbHatch
 10
0.0
 20
0.0
 30
0.0
210
0.0
220
0.0
230
1.0
  2
SOLID
 70
     1
 71
     0
 91
        1
 92
        1
 93
        1
 72
     4
 94
        3
 73
     0
 74
     0
 95
       32
 96
       28
 40
0.0
 40
0.0
 40
0.0
 40
0.0
 40
1.0
 40
1.0
 40
1.0
 40
2.0
 40
2.0
 40
2.0
 40
3.0
 40
3.0
 40
3.0
 40
4.0
 40
4.0
 40
4.0
 40
5.0
 40
5.0
 40
5.0
 40
6.0
 40
6.0
 40
6.0
 40
7.0
 40
7.0
 40
7.0
 40
8.0
 40
8.0
 40
8.0
 40
9.0
 40
9.0
 40
9.0
 40
9.0
 10
114.8257215711806
 20
128.1460110134549
 10
114.8257215711806
 20
128.1460110134549
 10
114.8257215711806
 20
128.1344699435764
 10
114.8257215711806
 20
128.1344699435764
 10
115.1147650824653
 20
127.5377794053819
 10
115.2374104817708
 20
127.093017578125
 10
115.2098497178819
 20
126.6506673177083
 10
115.2098497178819
 20
126.6506673177083
 10
114.9009969075521
 20
127.0837158203125
 10
114.9009969075521
 20
127.0837158203125
 10
114.9723103841146
 20
127.5753309461805
 10
114.7190958658854
 20
128.2784749348958
 10
114.3191202799479
 20
128.8393364800347
 10
114.3191202799479
 20
128.8393364800347
 10
112.9853515625
 20
130.7101955837674
 10
112.9853515625
 20
130.7101955837674
 10
112.9853515625
 20
130.7101955837674
 10
112.9853515625
 20
131.1682210286458
 10
112.9853515625
 20
131.1682210286458
 10
112.9853515625
 20
131.1682210286458
 10
115.1860785590278
 20
128.0814154730903
 10
115.1860785590278
 20
128.0814154730903
 10
115.1860785590278
 20
128.0814154730903
 10
115.1860785590278
 20
127.6406155056423
 10
115.1860785590278
 20
127.6406155056423
 10
115.1860785590278
 20
127.6406155056423
 10
114.8257215711806
 20
128.1460110134549
 10
114.8257215711806
 20
128.1460110134549
 97
        0
 75
     0
 76
     1
 98
        1
 10
0.0
 20
0.0
  0
HATCH
  5
29
330
A
100
AcDbEntity
  8
LAYER_1
 62
     7
100
AcDbHatch
 10
0.0
 20
0.0
 30
0.0
210
0.0
220
0.0
230
1.0
  2
SOLID
 70
     1
 71
     0
 91
        2
 92
       16
 93
        1
 72
     4
 94
        3
 73
     0
 74
     0
 95
       17
 96
       13
 40
0.0
 40
0.0
 40
0.0
 40
0.0
 40
1.0
 40
1.0
 40
1.0
 40
2.0
 40
2.0
 40
2.0
 40
3.0
 40
3.0
 40
3.0
 40
4.0
 40
4.0
 40
4.0
 40
4.0
 10
114.9804063585069
 20
125.4610758463542
 10
114.9804063585069
 20
125.9309868706597
 10
114.7268473307292
 20
126.4949490017361
 10
114.0619439019097
 20
127.4277086046007
 10
113.54345703125
 20
128.1551405164931
 10
113.1913682725694
 20
128.5041286892361
 10
113.1913682725694
 20
127.9704833984375
 10
113.1913682725694
 20
127.425641547309
 10
113.54345703125
 20
126.7982896592882
 10
114.0619439019097
 20
126.0708577473958
 10
114.7268473307292
 20
125.1382703993055
 10
114.9804063585069
 20
124.980140516493
 10
114.9804063585069
 20
125.4610758463542
 97
        0
 92
        1
 93
        1
 72
     4
 94
        3
 73
     0
 74
     0
 95
       17
 96
       13
 40
0.0
 40
0.0
 40
0.0
 40
0.0
 40
1.0
 40
1.0
 40
1.0
 40
2.0
 40
2.0
 40
2.0
 40
3.0
 40
3.0
 40
3.0
 40
4.0
 40
4.0
 40
4.0
 40
4.0
 10
112.9260959201389
 20
128.3425537109375
 10
112.9260959201389
 20
129.0384629991319
 10
113.2111775716146
 20
129.0966851128472
 10
114.1609903971354
 20
127.7644666883681
 10
114.8257215711806
 20
126.8315348307292
 10
115.2453342013889
 20
125.8836168077257
 10
115.2453342013889
 20
125.0893500434028
 10
115.2453342013889
 20
124.2949110243056
 10
114.8257215711806
 20
124.5240098741319
 10
114.1609903971354
 20
125.4567694769965
 10
113.2070434570312
 20
126.7946723090278
 10
112.9260959201389
 20
127.6352756076389
 10
112.9260959201389
 20
128.3425537109375
 97
        0
 75
     0
 76
     1
 98
        1
 10
0.0
 20
0.0
  0
HATCH
  5
28
330
A
100
AcDbEntity
  8
LAYER_1
 62
     7
100
AcDbHatch
 10
0.0
 20
0.0
 30
0.0
210
0.0
220
0.0
230
1.0
  2
SOLID
 70
     1
 71
     0
 91
        1
 92
        1
 93
        1
 72
     4
 94
        3
 73
     0
 74
     0
 95
       47
 96
       43
 40
0.0
 40
0.0
 40
0.0
 40
0.0
 40
1.0
 40
1.0
 40
1.0
 40
2.0
 40
2.0
 40
2.0
 40
3.0
 40
3.0
 40
3.0
 40
4.0
 40
4.0
 40
4.0
 40
5.0
 40
5.0
 40
5.0
 40
6.0
 40
6.0
 40
6.0
 40
7.0
 40
7.0
 40
7.0
 40
8.0
 40
8.0
 40
8.0
 40
9.0
 40
9.0
 40
9.0
 40
10.0
 40
10.0
 40
10.0
 40
11.0
 40
11.0
 40
11.0
 40
12.0
 40
12.0
 40
12.0
 40
13.0
 40
13.0
 40
13.0
 40
14.0
 40
14.0
 40
14.0
 40
14.0
 10
114.9445773654514
 20
123.19248046875
 10
114.9445773654514
 20
123.19248046875
 10
114.9445773654514
 20
123.1809393988715
 10
114.9445773654514
 20
123.1809393988715
 10
115.1345743815104
 20
122.694147406684
 10
115.2453342013889
 20
122.301234266493
 10
115.2453342013889
 20
121.9531073676215
 10
115.2453342013889
 20
121.4719997829861
 10
115.0713568793403
 20
121.4032701280382
 10
114.6834391276042
 20
121.9470784505208
 10
114.6834391276042
 20
121.9470784505208
 10
112.9853515625
 20
124.329017469618
 10
112.9853515625
 20
124.329017469618
 10
112.9853515625
 20
124.329017469618
 10
112.9853515625
 20
124.7870429144965
 10
112.9853515625
 20
124.7870429144965
 10
112.9853515625
 20
124.7870429144965
 10
114.5962782118055
 20
122.5275770399306
 10
114.5962782118055
 20
122.5275770399306
 10
114.8257215711806
 20
122.2052883572049
 10
114.9804063585069
 20
122.0990071614583
 10
114.9804063585069
 20
122.4700439453125
 10
114.9804063585069
 20
122.638336859809
 10
114.9366536458333
 20
122.861579047309
 10
114.8575887044271
 20
123.0942952473958
 10
114.7428670247396
 20
123.4408718532986
 10
114.6159152560764
 20
123.6418931749132
 10
114.4577853732639
 20
123.863929578993
 10
114.4577853732639
 20
123.863929578993
 10
112.9853515625
 20
125.9290920681424
 10
112.9853515625
 20
125.9290920681424
 10
112.9853515625
 20
125.9290920681424
 10
112.9853515625
 20
126.3871175130208
 10
112.9853515625
 20
126.3871175130208
 10
112.9853515625
 20
126.3871175130208
 10
115.1860785590278
 20
123.3003119574653
 10
115.1860785590278
 20
123.3003119574653
 10
115.1860785590278
 20
123.3003119574653
 10
115.1860785590278
 20
122.8538275824653
 10
115.1860785590278
 20
122.8538275824653
 10
115.1860785590278
 20
122.8538275824653
 10
114.9445773654514
 20
123.19248046875
 10
114.9445773654514
 20
123.19248046875
 97
        0
 75
     0
 76
     1
 98
        1
 10
0.0
 20
0.0
  0
HATCH
  5
27
330
A
100
AcDbEntity
  8
LAYER_1
 62
     7
100
AcDbHatch
 10
0.0
 20
0.0
 30
0.0
210
0.0
220
0.0
230
1.0
  2
SOLID
 70
     1
 71
     0
 91
        2
 92
       16
 93
        1
 72
     4
 94
        3
 73
     0
 74
     0
 95
       17
 96
       13
 40
0.0
 40
0.0
 40
0.0
 40
0.0
 40
1.0
 40
1.0
 40
1.0
 40
2.0
 40
2.0
 40
2.0
 40
3.0
 40
3.0
 40
3.0
 40
4.0
 40
4.0
 40
4.0
 40
4.0
 10
114.0857150607639
 20
121.6321967230903
 10
113.5475911458333
 20
122.3873616536458
 10
113.1913682725694
 20
122.753919813368
 10
113.1913682725694
 20
122.3014065212674
 10
113.1913682725694
 20
121.6058417426215
 10
113.7808241102431
 20
120.784186469184
 10
114.1332573784722
 20
120.2901597764757
 10
114.5687174479167
 20
119.6793443467882
 10
114.9804063585069
 20
119.2354437934028
 10
114.9804063585069
 20
119.7454901801215
 10
114.9804063585069
 20
120.3544108072917
 10
114.3826822916667
 20
121.216029188368
 10
114.0857150607639
 20
121.6321967230903
 97
        0
 92
        1
 93
        1
 72
     4
 94
        3
 73
     0
 74
     0
 95
       50
 96
       46
 40
0.0
 40
0.0
 40
0.0
 40
0.0
 40
1.0
 40
1.0
 40
1.0
 40
2.0
 40
2.0
 40
2.0
 40
3.0
 40
3.0
 40
3.0
 40
4.0
 40
4.0
 40
4.0
 40
5.0
 40
5.0
 40
5.0
 40
6.0
 40
6.0
 40
6.0
 40
7.0
 40
7.0
 40
7.0
 40
8.0
 40
8.0
 40
8.0
 40
9.0
 40
9.0
 40
9.0
 40
10.0
 40
10.0
 40
10.0
 40
11.0
 40
11.0
 40
11.0
 40
12.0
 40
12.0
 40
12.0
 40
13.0
 40
13.0
 40
13.0
 40
14.0
 40
14.0
 40
14.0
 40
15.0
 40
15.0
 40
15.0
 40
15.0
 10
115.1860785590278
 20
118.8134195963542
 10
115.1860785590278
 20
118.8134195963542
 10
115.1860785590278
 20
118.3553941514757
 10
115.1860785590278
 20
118.3553941514757
 10
115.1860785590278
 20
118.3553941514757
 10
113.2506239149305
 20
121.0703016493056
 10
113.2506239149305
 20
121.0703016493056
 10
112.9815619574653
 20
121.447711859809
 10
112.7758897569444
 20
121.7655219184028
 10
112.5423122829861
 20
122.3076076931423
 10
112.3244099934896
 20
122.815931532118
 10
112.2374213324653
 20
123.2682725694444
 10
112.2374213324653
 20
123.622083875868
 10
112.2374213324653
 20
124.1379869249132
 10
112.3996853298611
 20
124.2930162217882
 10
112.7758897569444
 20
123.8294786241319
 10
112.7758897569444
 20
123.8294786241319
 10
112.7758897569444
 20
123.3829942491319
 10
112.7758897569444
 20
123.3829942491319
 10
112.5777967664931
 20
123.6200168185764
 10
112.5026936848958
 20
123.5400906032986
 10
112.5026936848958
 20
123.2617268880208
 10
112.5026936848958
 20
122.5194810655382
 10
113.0013712565104
 20
121.8954020182292
 10
113.2427001953125
 20
121.5508924696181
 10
113.2427001953125
 20
121.5508924696181
 10
113.2427001953125
 20
121.5624335394965
 10
113.2427001953125
 20
121.5624335394965
 10
113.0170464409722
 20
122.0704128689236
 10
112.9260959201389
 20
122.4068264431424
 10
112.9260959201389
 20
122.7024156358507
 10
112.9260959201389
 20
123.3111640082465
 10
113.2151394314236
 20
123.3292507595486
 10
114.1015625
 20
122.0855712890625
 10
114.5645833333333
 20
121.4361707899305
 10
115.2453342013889
 20
120.312897406684
 10
115.2453342013889
 20
119.4604085286458
 10
115.2453342013889
 20
119.1648193359375
 10
115.1464599609375
 20
119.0370062934028
 10
114.9366536458333
 20
119.1748101128472
 10
114.9366536458333
 20
119.1748101128472
 10
114.9366536458333
 20
119.1630967881944
 10
114.9366536458333
 20
119.1630967881944
 10
114.9366536458333
 20
119.1630967881944
 10
115.1860785590278
 20
118.8134195963542
 10
115.1860785590278
 20
118.8134195963542
 97
        0
 75
     0
 76
     1
 98
        1
 10
0.0
 20
0.0
  0
HATCH
  5
26
330
A
100
AcDbEntity
  8
LAYER_1
 62
     7
100
AcDbHatch
 10
0.0
 20
0.0
 30
0.0
210
0.0
220
0.0
230
1.0
  2
SOLID
 70
     1
 71
     0
 91
        1
 92
        1
 93
        1
 72
     4
 94
        3
 73
     0
 74
     0
 95
       17
 96
       13
 40
0.0
 40
0.0
 40
0.0
 40
0.0
 40
1.0
 40
1.0
 40
1.0
 40
2.0
 40
2.0
 40
2.0
 40
3.0
 40
3.0
 40
3.0
 40
4.0
 40
4.0
 40
4.0
 40
4.0
 10
114.0740017361111
 20
119.2257975260417
 10
114.0740017361111
 20
119.2257975260417
 10
114.4023193359375
 20
118.7651882595486
 10
114.4023193359375
 20
118.7651882595486
 10
114.4023193359375
 20
118.7651882595486
 10
114.4023193359375
 20
117.3561442057292
 10
114.4023193359375
 20
117.3561442057292
 10
114.4023193359375
 20
117.3561442057292
 10
114.0740017361111
 20
117.8170979817708
 10
114.0740017361111
 20
117.8170979817708
 10
114.0740017361111
 20
117.8170979817708
 10
114.0740017361111
 20
119.2257975260417
 10
114.0740017361111
 20
119.2257975260417
 97
        0
 75
     0
 76
     1
 98
        1
 10
0.0
 20
0.0
  0
HATCH
  5
25
330
A
100
AcDbEntity
  8
LAYER_1
 62
     7
100
AcDbHatch
 10
0.0
 20
0.0
 30
0.0
210
0.0
220
0.0
230
1.0
  2
SOLID
 70
     1
 71
     0
 91
        1
 92
        1
 93
        1
 72
     4
 94
        3
 73
     0
 74
     0
 95
       29
 96
       25
 40
0.0
 40
0.0
 40
0.0
 40
0.0
 40
1.0
 40
1.0
 40
1.0
 40
2.0
 40
2.0
 40
2.0
 40
3.0
 40
3.0
 40
3.0
 40
4.0
 40
4.0
 40
4.0
 40
5.0
 40
5.0
 40
5.0
 40
6.0
 40
6.0
 40
6.0
 40
7.0
 40
7.0
 40
7.0
 40
8.0
 40
8.0
 40
8.0
 40
8.0
 10
115.9539903428819
 20
115.761237250434
 10
115.9539903428819
 20
115.761237250434
 10
115.9539903428819
 20
113.030482313368
 10
115.9539903428819
 20
113.030482313368
 10
115.9539903428819
 20
113.030482313368
 10
115.6570231119792
 20
113.4469943576389
 10
115.6570231119792
 20
113.4469943576389
 10
115.6570231119792
 20
113.4469943576389
 10
115.6570231119792
 20
114.5716457790798
 10
115.6570231119792
 20
114.5716457790798
 10
115.6570231119792
 20
114.5716457790798
 10
112.9853515625
 20
118.3192206488715
 10
112.9853515625
 20
118.3192206488715
 10
112.9853515625
 20
118.3192206488715
 10
112.9853515625
 20
118.8003282335069
 10
112.9853515625
 20
118.8003282335069
 10
112.9853515625
 20
118.8003282335069
 10
115.6570231119792
 20
115.0527533637153
 10
115.6570231119792
 20
115.0527533637153
 10
115.6570231119792
 20
115.0527533637153
 10
115.6570231119792
 20
116.1777492947049
 10
115.6570231119792
 20
116.1777492947049
 10
115.6570231119792
 20
116.1777492947049
 10
115.9539903428819
 20
115.761237250434
 10
115.9539903428819
 20
115.761237250434
 97
        0
 75
     0
 76
     1
 98
        1
 10
0.0
 20
0.0
  0
HATCH
  5
24
330
A
100
AcDbEntity
  8
LAYER_1
 62
     7
100
AcDbHatch
 10
0.0
 20
0.0
 30
0.0
210
0.0
220
0.0
230
1.0
  2
SOLID
 70
     1
 71
     0
 91
        2
 92
        1
 93
        1
 72
     4
 94
        3
 73
     0
 74
     0
 95
       17
 96
       13
 40
0.0
 40
0.0
 40
0.0
 40
0.0
 40
1.0
 40
1.0
 40
1.0
 40
2.0
 40
2.0
 40
2.0
 40
3.0
 40
3.0
 40
3.0
 40
4.0
 40
4.0
 40
4.0
 40
4.0
 10
115.5581488715278
 20
113.1858561197917
 10
115.5581488715278
 20
113.1858561197917
 10
115.9539903428819
 20
112.6308512369792
 10
115.9539903428819
 20
112.6308512369792
 10
115.9539903428819
 20
112.6308512369792
 10
115.9539903428819
 20
112.1728257921007
 10
115.9539903428819
 20
112.1728257921007
 10
115.9539903428819
 20
112.1728257921007
 10
115.5581488715278
 20
112.7280029296875
 10
115.5581488715278
 20
112.7280029296875
 10
115.5581488715278
 20
112.7280029296875
 10
115.5581488715278
 20
113.1858561197917
 10
115.5581488715278
 20
113.1858561197917
 97
        0
 92
        1
 93
        1
 72
     4
 94
        3
 73
     0
 74
     0
 95
       17
 96
       13
 40
0.0
 40
0.0
 40
0.0
 40
0.0
 40
1.0
 40
1.0
 40
1.0
 40
2.0
 40
2.0
 40
2.0
 40
3.0
 40
3.0
 40
3.0
 40
4.0
 40
4.0
 40
4.0
 40
4.0
 10
112.9853515625
 20
116.7947658962674
 10
112.9853515625
 20
116.7947658962674
 10
115.1860785590278
 20
113.7077880859375
 10
115.1860785590278
 20
113.7077880859375
 10
115.1860785590278
 20
113.7077880859375
 10
115.1860785590278
 20
113.2499348958333
 10
115.1860785590278
 20
113.2499348958333
 10
115.1860785590278
 20
113.2499348958333
 10
112.9853515625
 20
116.3367404513889
 10
112.9853515625
 20
116.3367404513889
 10
112.9853515625
 20
116.3367404513889
 10
112.9853515625
 20
116.7947658962674
 10
112.9853515625
 20
116.7947658962674
 97
        0
 75
     0
 76
     1
 98
        1
 10
0.0
 20
0.0
  0
HATCH
  5
23
330
A
100
AcDbEntity
  8
LAYER_1
 62
     7
100
AcDbHatch
 10
0.0
 20
0.0
 30
0.0
210
0.0
220
0.0
230
1.0
  2
SOLID
 70
     1
 71
     0
 91
        2
 92
       16
 93
        1
 72
     4
 94
        3
 73
     0
 74
     0
 95
       14
 96
       10
 40
0.0
 40
0.0
 40
0.0
 40
0.0
 40
1.0
 40
1.0
 40
1.0
 40
2.0
 40
2.0
 40
2.0
 40
3.0
 40
3.0
 40
3.0
 40
3.0
 10
114.3151584201389
 20
112.2456895616319
 10
114.5725070529514
 20
111.9020412868924
 10
114.9804063585069
 20
111.3072455512153
 10
114.9804063585069
 20
111.8405463324653
 10
114.9804063585069
 20
112.3738471137153
 10
114.5764689127604
 20
112.9519341362847
 10
114.3151584201389
 20
113.3355455186632
 10
114.3151584201389
 20
113.3355455186632
 10
114.3151584201389
 20
112.2456895616319
 10
114.3151584201389
 20
112.2456895616319
 97
        0
 92
        1
 93
        1
 72
     4
 94
        3
 73
     0
 74
     0
 95
       29
 96
       25
 40
0.0
 40
0.0
 40
0.0
 40
0.0
 40
1.0
 40
1.0
 40
1.0
 40
2.0
 40
2.0
 40
2.0
 40
3.0
 40
3.0
 40
3.0
 40
4.0
 40
4.0
 40
4.0
 40
5.0
 40
5.0
 40
5.0
 40
6.0
 40
6.0
 40
6.0
 40
7.0
 40
7.0
 40
7.0
 40
8.0
 40
8.0
 40
8.0
 40
8.0
 10
113.7176066080729
 20
112.6317125108507
 10
113.2864529079861
 20
113.2079047309028
 10
112.9260959201389
 20
114.0378282335069
 10
112.9260959201389
 20
114.7161675347222
 10
112.9260959201389
 20
115.324915907118
 10
113.2030815972222
 20
115.3710801866319
 10
114.0896769205729
 20
114.1274007161458
 10
114.5526977539062
 20
113.4780002170139
 10
115.2453342013889
 20
112.3266493055556
 10
115.2453342013889
 20
111.4743326822917
 10
115.2453342013889
 20
110.4308132595486
 10
114.5725070529514
 20
111.4326470269097
 10
114.058154296875
 20
112.131312391493
 10
114.058154296875
 20
112.131312391493
 10
114.058154296875
 20
113.6964192708333
 10
114.058154296875
 20
113.6964192708333
 10
113.7611870659722
 20
114.1013902452257
 10
113.1913682725694
 20
114.975927734375
 10
113.1913682725694
 20
114.332728407118
 10
113.1913682725694
 20
113.8917561848958
 10
113.4683539496528
 20
113.3815375434028
 10
113.7176066080729
 20
113.0607991536458
 10
113.7176066080729
 20
113.0607991536458
 10
113.7176066080729
 20
112.6317125108507
 10
113.7176066080729
 20
112.6317125108507
 97
        0
 75
     0
 76
     1
 98
        1
 10
0.0
 20
0.0
  0
HATCH
  5
22
330
A
100
AcDbEntity
  8
LAYER_1
 62
     7
100
AcDbHatch
 10
0.0
 20
0.0
 30
0.0
210
0.0
220
0.0
230
1.0
  2
SOLID
 70
     1
 71
     0
 91
        4
 92
       16
 93
        1
 72
     4
 94
        3
 73
     0
 74
     0
 95
       20
 96
       16
 40
0.0
 40
0.0
 40
0.0
 40
0.0
 40
1.0
 40
1.0
 40
1.0
 40
2.0
 40
2.0
 40
2.0
 40
3.0
 40
3.0
 40
3.0
 40
4.0
 40
4.0
 40
4.0
 40
5.0
 40
5.0
 40
5.0
 40
5.0
 10
115.3018337673611
 20
109.1564724392361
 10
115.3018337673611
 20
108.9544175889757
 10
115.2813354492187
 20
108.6681301540799
 10
115.4827012803819
 20
108.3859768337673
 10
115.6318739149306
 20
108.1766872829861
 10
115.6501329210069
 20
108.3467027452257
 10
115.6501329210069
 20
108.5255032009548
 10
115.6501329210069
 20
108.5255032009548
 10
115.6501329210069
 20
108.9363308376736
 10
115.6501329210069
 20
108.9363308376736
 10
115.6501329210069
 20
108.9363308376736
 10
115.3018337673611
 20
109.4246731228298
 10
115.3018337673611
 20
109.4246731228298
 10
115.3018337673611
 20
109.4246731228298
 10
115.3018337673611
 20
109.1564724392361
 10
115.3018337673611
 20
109.1564724392361
 97
        0
 92
        1
 93
        1
 72
     4
 94
        3
 73
     0
 74
     0
 95
       38
 96
       34
 40
0.0
 40
0.0
 40
0.0
 40
0.0
 40
1.0
 40
1.0
 40
1.0
 40
2.0
 40
2.0
 40
2.0
 40
3.0
 40
3.0
 40
3.0
 40
4.0
 40
4.0
 40
4.0
 40
5.0
 40
5.0
 40
5.0
 40
6.0
 40
6.0
 40
6.0
 40
7.0
 40
7.0
 40
7.0
 40
8.0
 40
8.0
 40
8.0
 40
9.0
 40
9.0
 40
9.0
 40
10.0
 40
10.0
 40
10.0
 40
11.0
 40
11.0
 40
11.0
 40
11.0
 10
114.7499294704861
 20
109.2512125651042
 10
114.7499294704861
 20
109.2512125651042
 10
114.7499294704861
 20
109.4668755425347
 10
114.7499294704861
 20
109.4668755425347
 10
114.7499294704861
 20
109.4668755425347
 10
115.2067491319444
 20
109.2365709092882
 10
115.2067491319444
 20
109.2365709092882
 10
115.2067491319444
 20
109.2365709092882
 10
115.2067491319444
 20
109.5579983181424
 10
115.2067491319444
 20
109.5579983181424
 10
115.2067491319444
 20
109.5579983181424
 10
114.7499294704861
 20
110.198786078559
 10
114.7499294704861
 20
110.198786078559
 10
114.7499294704861
 20
110.198786078559
 10
114.7499294704861
 20
110.3843044704861
 10
114.7499294704861
 20
110.3843044704861
 10
114.7499294704861
 20
110.3843044704861
 10
115.7452175564236
 20
108.9885240342882
 10
115.7452175564236
 20
108.9885240342882
 10
115.7452175564236
 20
108.9885240342882
 10
115.7452175564236
 20
108.3492865668403
 10
115.7452175564236
 20
108.3492865668403
 10
115.7452175564236
 20
108.2299140082465
 10
115.7452175564236
 20
108.1074408637153
 10
115.6907850477431
 20
108.0740234375
 10
115.6501329210069
 20
108.0252753363715
 10
115.5595269097222
 20
108.0893541124132
 10
115.47822265625
 20
108.2066596137153
 10
115.2813354492187
 20
108.4829562717014
 10
115.2089884440104
 20
108.7895697699653
 10
115.2067491319444
 20
109.0445068359375
 10
115.2067491319444
 20
109.0445068359375
 10
114.7499294704861
 20
109.2512125651042
 10
114.7499294704861
 20
109.2512125651042
 97
        0
 92
       16
 93
        1
 72
     4
 94
        3
 73
     0
 74
     0
 95
       17
 96
       13
 40
0.0
 40
0.0
 40
0.0
 40
0.0
 40
1.0
 40
1.0
 40
1.0
 40
2.0
 40
2.0
 40
2.0
 40
3.0
 40
3.0
 40
3.0
 40
4.0
 40
4.0
 40
4.0
 40
4.0
 10
115.2451619466146
 20
110.3092013888889
 10
114.8245157877604
 20
110.8990017361111
 10
114.4898247612847
 20
110.8748860677083
 10
114.4898247612847
 20
110.2620035807292
 10
114.4898247612847
 20
109.64912109375
 10
114.8245157877604
 20
108.6929348415799
 10
115.2451619466146
 20
108.102789984809
 10
115.6615017361111
 20
107.5190185546875
 10
115.9984320746528
 20
107.5334879557292
 10
115.9984320746528
 20
108.1463704427083
 10
115.9984320746528
 20
108.7590806749132
 10
115.6615017361111
 20
109.7254299587674
 10
115.2451619466146
 20
110.3092013888889
 97
        0
 92
        1
 93
        1
 72
     4
 94
        3
 73
     0
 74
     0
 95
       17
 96
       13
 40
0.0
 40
0.0
 40
0.0
 40
0.0
 40
1.0
 40
1.0
 40
1.0
 40
2.0
 40
2.0
 40
2.0
 40
3.0
 40
3.0
 40
3.0
 40
4.0
 40
4.0
 40
4.0
 40
4.0
 10
115.2474012586805
 20
107.9041802300347
 10
114.7521687825521
 20
108.598883734809
 10
114.3585666232639
 20
109.7305976019965
 10
114.3585666232639
 20
110.4459716796875
 10
114.3585666232639
 20
111.1649631076389
 10
114.7521687825521
 20
111.1959689670139
 10
115.2474012586805
 20
110.5014377170139
 10
115.7360880533854
 20
109.8162082248264
 10
116.1296902126736
 20
108.6813937717014
 10
116.1296902126736
 20
107.96240234375
 10
116.1296902126736
 20
107.2468560112847
 10
115.7360880533854
 20
107.2191229926215
 10
115.2474012586805
 20
107.9041802300347
 97
        0
 75
     0
 76
     1
 98
        1
 10
0.0
 20
0.0
  0
ENDSEC
  0
SECTION
  2
OBJECTS
  0
DICTIONARY
  5
19
330
0
100
AcDbDictionary
281
     1
  3
ACAD_COLOR
350
E8
  3
ACAD_GROUP
350
1A
  3
ACAD_LAYOUT
350
B5
  3
ACAD_MATERIAL
350
EA
  3
ACAD_MLINESTYLE
350
1B
  3
ACAD_PLOTSETTINGS
350
B6
  3
ACAD_PLOTSTYLENAME
350
B3
  3
ACDBHEADERROUNDTRIPXREC
350
E7
  0
DICTIONARY
  5
E8
102
{ACAD_REACTORS
330
19
102
}
330
19
100
AcDbDictionary
281
     1
  0
DICTIONARY
  5
1A
102
{ACAD_REACTORS
330
19
102
}
330
19
100
AcDbDictionary
281
     1
  0
DICTIONARY
  5
B5
102
{ACAD_REACTORS
330
19
102
}
330
19
100
AcDbDictionary
281
     1
  3
Layout1
350
B8
  3
Model
350
B7
  0
DICTIONARY
  5
EA
102
{ACAD_REACTORS
330
19
102
}
330
19
100
AcDbDictionary
281
     1
  0
DICTIONARY
  5
1B
102
{ACAD_REACTORS
330
19
102
}
330
19
100
AcDbDictionary
281
     1
  3
STANDARD
350
1C
  0
DICTIONARY
  5
B6
102
{ACAD_REACTORS
330
19
102
}
330
19
100
AcDbDictionary
281
     1
  0
ACDBDICTIONARYWDFLT
  5
B3
102
{ACAD_REACTORS
330
19
102
}
330
19
100
AcDbDictionary
281
     1
  3
Normal
350
B4
100
AcDbDictionaryWithDefault
340
B4
  0
DICTIONARY
  5
E7
102
{ACAD_REACTORS
330
19
102
}
330
19
100
AcDbDictionary
281
     1
  3
COLORDICT
350
E9
  3
MATERIALDICT
350
EB
  0
LAYOUT
  5
B8
102
{ACAD_REACTORS
330
B5
102
}
102
{ACAD_XDICTIONARY
360
EC
102
}
330
B5
100
AcDbPlotSettings
  1

  2
Support Center HP LaserJet 4
  4

  6

 40
0.0
 41
0.0
 42
0.0
 43
0.0
 44
0.0
 45
0.0
 46
0.0
 47
0.0
 48
0.0
 49
0.0
140
0.0
141
0.0
142
1.0
143
1.0
 70
   688
 72
     0
 73
     0
 74
     5
  7

 75
    16
147
1.0
148
0.0
149
0.0
100
AcDbLayout
  1
Layout1
 70
     0
 71
     1
 10
0.0
 20
0.0
 11
12.0
 21
9.0
 12
0.0
 22
0.0
 32
0.0
 14
1.000000000000000E+20
 24
1.000000000000000E+20
 34
1.000000000000000E+20
 15
-1.000000000000000E+20
 25
-1.000000000000000E+20
 35
-1.000000000000000E+20
146
0.0
 13
0.0
 23
0.0
 33
0.0
 16
1.0
 26
0.0
 36
0.0
 17
0.0
 27
1.0
 37
0.0
 76
     0
330
B
  0
LAYOUT
  5
B7
102
{ACAD_REACTORS
330
B5
102
}
102
{ACAD_XDICTIONARY
360
EE
102
}
330
B5
100
AcDbPlotSettings
  1

  2
Support Center HP LaserJet 4
  4

  6

 40
0.0
 41
0.0
 42
0.0
 43
0.0
 44
0.0
 45
0.0
 46
0.0
 47
0.0
 48
0.0
 49
0.0
140
0.0
141
0.0
142
1.0
143
1.0
 70
  1712
 72
     0
 73
     0
 74
     0
  7

 75
     0
147
1.0
148
0.0
149
0.0
100
AcDbLayout
  1
Model
 70
     1
 71
     0
 10
0.0
 20
0.0
 11
12.0
 21
9.0
 12
0.0
 22
0.0
 32
0.0
 14
0.0
 24
0.0
 34
0.0
 15
0.0
 25
0.0
 35
0.0
146
0.0
 13
0.0
 23
0.0
 33
0.0
 16
1.0
 26
0.0
 36
0.0
 17
0.0
 27
1.0
 37
0.0
 76
     0
330
A
  0
MLINESTYLE
  5
1C
102
{ACAD_REACTORS
330
1B
102
}
330
1B
100
AcDbMlineStyle
  2
STANDARD
 70
     0
  3

 62
     0
 51
90.0000000000002
 52
90.0000000000002
 71
     2
 49
0.5
 62
   256
  6
BYLAYER
 49
-0.5
 62
   256
  6
BYLAYER
  0
ACDBPLACEHOLDER
  5
B4
102
{ACAD_REACTORS
330
B3
102
}
330
B3
  0
XRECORD
  5
E9
102
{ACAD_REACTORS
330
E7
102
}
330
E7
100
AcDbXrecord
340
E8
  0
XRECORD
  5
EB
102
{ACAD_REACTORS
330
E7
102
}
330
E7
100
AcDbXrecord
340
EA
  0
DICTIONARY
  5
EC
330
B8
100
AcDbDictionary
280
     1
281
     1
  3
ACAD_XREC_ROUNDTRIP
360
ED
  0
DICTIONARY
  5
EE
330
B7
100
AcDbDictionary
280
     1
281
     1
  3
ACAD_XREC_ROUNDTRIP
360
EF
  0
XRECORD
  5
ED
102
{ACAD_REACTORS
330
EC
102
}
330
EC
100
AcDbXrecord
102
SHADEPLOT
 70
 16392
102
SHADEPLOTRESLEVEL
 70
 16472
102
SHADEPLOTCUSTOMDPI
 70
-29840
  0
XRECORD
  5
EF
102
{ACAD_REACTORS
330
EE
102
}
330
EE
100
AcDbXrecord
102
SHADEPLOT
 70
-30344
102
SHADEPLOTRESLEVEL
 70
-30384
102
SHADEPLOTCUSTOMDPI
 70
-30424
  0
ENDSEC
  0
EOF
