  0
SECTION
  2
HEADER
  9
$ACADVER
  1
AC1015
  9
$ACADMAINTVER
 70
     6
  9
$DWGCODEPAGE
  3
ANSI_1252
  9
$INSBASE
 10
0.0
 20
0.0
 30
0.0
  9
$EXTMIN
 10
62.01159289429875
 20
80.95485648119872
 30
-0.0015258207003612
  9
$EXTMAX
 10
153.970173518464
 20
223.8640383110133
 30
0.0000000349246008
  9
$LIMMIN
 10
62.96084255642361
 20
80.82710774739583
  9
$LIMMAX
 10
150.3344930013021
 20
203.9465521918403
  9
$ORTHOMODE
 70
     0
  9
$REGENMODE
 70
     1
  9
$FILLMODE
 70
     1
  9
$QTEXTMODE
 70
     0
  9
$MIRRTEXT
 70
     1
  9
$LTSCALE
 40
1.0
  9
$ATTMODE
 70
     1
  9
$TEXTSIZE
 40
0.2
  9
$TRACEWID
 40
0.05
  9
$TEXTSTYLE
  7
STANDARD
  9
$CLAYER
  8
0
  9
$CELTYPE
  6
CONTINUOUS
  9
$CECOLOR
 62
   256
  9
$CELTSCALE
 40
1.0
  9
$DISPSILH
 70
     0
  9
$DIMSCALE
 40
1.0
  9
$DIMASZ
 40
0.18
  9
$DIMEXO
 40
0.0625
  9
$DIMDLI
 40
0.38
  9
$DIMRND
 40
0.0
  9
$DIMDLE
 40
0.0
  9
$DIMEXE
 40
0.18
  9
$DIMTP
 40
0.0
  9
$DIMTM
 40
0.0
  9
$DIMTXT
 40
0.18
  9
$DIMCEN
 40
0.09
  9
$DIMTSZ
 40
0.0
  9
$DIMTOL
 70
     0
  9
$DIMLIM
 70
     0
  9
$DIMTIH
 70
     1
  9
$DIMTOH
 70
     1
  9
$DIMSE1
 70
     0
  9
$DIMSE2
 70
     0
  9
$DIMTAD
 70
     0
  9
$DIMZIN
 70
     0
  9
$DIMBLK
  1

  9
$DIMASO
 70
     1
  9
$DIMSHO
 70
     1
  9
$DIMPOST
  1

  9
$DIMAPOST
  1

  9
$DIMALT
 70
     0
  9
$DIMALTD
 70
     2
  9
$DIMALTF
 40
25.4
  9
$DIMLFAC
 40
1.0
  9
$DIMTOFL
 70
     0
  9
$DIMTVP
 40
0.0
  9
$DIMTIX
 70
     0
  9
$DIMSOXD
 70
     0
  9
$DIMSAH
 70
     0
  9
$DIMBLK1
  1

  9
$DIMBLK2
  1

  9
$DIMSTYLE
  2
STANDARD
  9
$DIMCLRD
 70
     0
  9
$DIMCLRE
 70
     0
  9
$DIMCLRT
 70
     0
  9
$DIMTFAC
 40
1.0
  9
$DIMGAP
 40
0.09
  9
$DIMJUST
 70
     0
  9
$DIMSD1
 70
     0
  9
$DIMSD2
 70
     0
  9
$DIMTOLJ
 70
     1
  9
$DIMTZIN
 70
     0
  9
$DIMALTZ
 70
     0
  9
$DIMALTTZ
 70
     0
  9
$DIMUPT
 70
     0
  9
$DIMDEC
 70
     4
  9
$DIMTDEC
 70
     4
  9
$DIMALTU
 70
     2
  9
$DIMALTTD
 70
     2
  9
$DIMTXSTY
  7
STANDARD
  9
$DIMAUNIT
 70
     0
  9
$DIMADEC
 70
     0
  9
$DIMALTRND
 40
0.0
  9
$DIMAZIN
 70
     0
  9
$DIMDSEP
 70
    46
  9
$DIMATFIT
 70
     3
  9
$DIMFRAC
 70
     0
  9
$DIMLDRBLK
  1

  9
$DIMLUNIT
 70
     2
  9
$DIMLWD
 70
    -2
  9
$DIMLWE
 70
    -2
  9
$DIMTMOVE
 70
     0
  9
$LUNITS
 70
     2
  9
$LUPREC
 70
     4
  9
$SKETCHINC
 40
0.1
  9
$FILLETRAD
 40
0.0
  9
$AUNITS
 70
     0
  9
$AUPREC
 70
     0
  9
$MENU
  1
acad
  9
$ELEVATION
 40
0.0
  9
$PELEVATION
 40
0.0
  9
$THICKNESS
 40
0.0
  9
$LIMCHECK
 70
     0
  9
$CHAMFERA
 40
0.0
  9
$CHAMFERB
 40
0.0
  9
$CHAMFERC
 40
0.0
  9
$CHAMFERD
 40
0.0
  9
$SKPOLY
 70
     0
  9
$TDCREATE
 40
2444971.666666667
  9
$TDUCREATE
 40
2444972.0
  9
$TDUPDATE
 40
2452215.621976505
  9
$TDUUPDATE
 40
2452215.955309838
  9
$TDINDWG
 40
0.0000515046
  9
$TDUSRTIMER
 40
0.0000515046
  9
$USRTIMER
 70
     1
  9
$ANGBASE
 50
0.0
  9
$ANGDIR
 70
     0
  9
$PDMODE
 70
     0
  9
$PDSIZE
 40
0.0
  9
$PLINEWID
 40
0.0
  9
$SPLFRAME
 70
     0
  9
$SPLINETYPE
 70
     6
  9
$SPLINESEGS
 70
     8
  9
$HANDSEED
  5
D9
  9
$SURFTAB1
 70
     6
  9
$SURFTAB2
 70
     6
  9
$SURFTYPE
 70
     6
  9
$SURFU
 70
     6
  9
$SURFV
 70
     6
  9
$UCSBASE
  2

  9
$UCSNAME
  2

  9
$UCSORG
 10
0.0
 20
0.0
 30
0.0
  9
$UCSXDIR
 10
1.0
 20
0.0
 30
0.0
  9
$UCSYDIR
 10
0.0
 20
1.0
 30
0.0
  9
$UCSORTHOREF
  2

  9
$UCSORTHOVIEW
 70
     0
  9
$UCSORGTOP
 10
0.0
 20
0.0
 30
0.0
  9
$UCSORGBOTTOM
 10
0.0
 20
0.0
 30
0.0
  9
$UCSORGLEFT
 10
0.0
 20
0.0
 30
0.0
  9
$UCSORGRIGHT
 10
0.0
 20
0.0
 30
0.0
  9
$UCSORGFRONT
 10
0.0
 20
0.0
 30
0.0
  9
$UCSORGBACK
 10
0.0
 20
0.0
 30
0.0
  9
$PUCSBASE
  2

  9
$PUCSNAME
  2

  9
$PUCSORG
 10
0.0
 20
0.0
 30
0.0
  9
$PUCSXDIR
 10
1.0
 20
0.0
 30
0.0
  9
$PUCSYDIR
 10
0.0
 20
1.0
 30
0.0
  9
$PUCSORTHOREF
  2

  9
$PUCSORTHOVIEW
 70
     0
  9
$PUCSORGTOP
 10
0.0
 20
0.0
 30
0.0
  9
$PUCSORGBOTTOM
 10
0.0
 20
0.0
 30
0.0
  9
$PUCSORGLEFT
 10
0.0
 20
0.0
 30
0.0
  9
$PUCSORGRIGHT
 10
0.0
 20
0.0
 30
0.0
  9
$PUCSORGFRONT
 10
0.0
 20
0.0
 30
0.0
  9
$PUCSORGBACK
 10
0.0
 20
0.0
 30
0.0
  9
$USERI1
 70
     0
  9
$USERI2
 70
     0
  9
$USERI3
 70
     0
  9
$USERI4
 70
     0
  9
$USERI5
 70
     0
  9
$USERR1
 40
0.0
  9
$USERR2
 40
0.0
  9
$USERR3
 40
0.0
  9
$USERR4
 40
0.0
  9
$USERR5
 40
0.0
  9
$WORLDVIEW
 70
     1
  9
$SHADEDGE
 70
     3
  9
$SHADEDIF
 70
    70
  9
$TILEMODE
 70
     1
  9
$MAXACTVP
 70
    16
  9
$PINSBASE
 10
0.0
 20
0.0
 30
0.0
  9
$PLIMCHECK
 70
     0
  9
$PEXTMIN
 10
1.000000000000000E+20
 20
1.000000000000000E+20
 30
1.000000000000000E+20
  9
$PEXTMAX
 10
-1.000000000000000E+20
 20
-1.000000000000000E+20
 30
-1.000000000000000E+20
  9
$PLIMMIN
 10
0.0
 20
0.0
  9
$PLIMMAX
 10
12.0
 20
9.0
  9
$UNITMODE
 70
     0
  9
$VISRETAIN
 70
     0
  9
$PLINEGEN
 70
     1
  9
$PSLTSCALE
 70
     0
  9
$TREEDEPTH
 70
  3020
  9
$CMLSTYLE
  2
STANDARD
  9
$CMLJUST
 70
     0
  9
$CMLSCALE
 40
1.0
  9
$PROXYGRAPHICS
 70
     0
  9
$MEASUREMENT
 70
     0
  9
$CELWEIGHT
370
    -1
  9
$ENDCAPS
280
     0
  9
$JOINSTYLE
280
     0
  9
$LWDISPLAY
290
     0
  9
$INSUNITS
 70
     0
  9
$HYPERLINKBASE
  1

  9
$STYLESHEET
  1

  9
$XEDIT
290
     1
  9
$CEPSNTYPE
380
     0
  9
$PSTYLEMODE
290
     1
  9
$FINGERPRINTGUID
  2
{48E22120-CED6-11D5-923F-00805F198AD5}
  9
$VERSIONGUID
  2
{48E22122-CED6-11D5-923F-00805F198AD5}
  9
$EXTNAMES
290
     1
  9
$PSVPSCALE
 40
0.0
  9
$OLESTARTUP
290
     0
  0
ENDSEC
  0
SECTION
  2
CLASSES
  0
CLASS
  1
LWPOLYLINE
  2
AcDbPolyline
  3
AutoCAD 2000
 90
        0
280
     0
281
     1
  0
CLASS
  1
IMAGE
  2
AcDbRasterImage
  3
ISM
 90
      127
280
     0
281
     1
  0
CLASS
  1
OLE2FRAME
  2
AcDbOle2Frame
  3
AutoCAD 2000
 90
        0
280
     0
281
     1
  0
CLASS
  1
HATCH
  2
AcDbHatch
  3
AutoCAD 2000
 90
        0
280
     0
281
     1
  0
CLASS
  1
DICTIONARYVAR
  2
AcDbDictionaryVar
  3
AutoCAD 2000
 90
        0
280
     0
281
     0
  0
CLASS
  1
RASTERVARIABLES
  2
AcDbRasterVariables
  3
ISM
 90
        0
280
     0
281
     0
  0
CLASS
  1
IMAGEDEF
  2
AcDbRasterImageDef
  3
ISM
 90
        0
280
     0
281
     0
  0
CLASS
  1
IMAGEDEF_REACTOR
  2
AcDbRasterImageDefReactor
  3
ISM
 90
        1
280
     0
281
     0
  0
CLASS
  1
IDBUFFER
  2
AcDbIdBuffer
  3
AutoCAD 2000
 90
        0
280
     0
281
     0
  0
CLASS
  1
SPATIAL_FILTER
  2
AcDbSpatialFilter
  3
AutoCAD 2000
 90
        0
280
     0
281
     0
  0
CLASS
  1
XRECORD
  2
AcDbXrecord
  3
AutoCAD 2000
 90
        0
280
     0
281
     0
  0
CLASS
  1
SORTENTSTABLE
  2
AcDbSortentsTable
  3
AutoCAD 2000
 90
        0
280
     0
281
     0
  0
CLASS
  1
LAYER_INDEX
  2
AcDbLayerIndex
  3
AutoCAD 2000
 90
        0
280
     0
281
     0
  0
CLASS
  1
SPATIAL_INDEX
  2
AcDbSpatialIndex
  3
AutoCAD 2000
 90
        0
280
     0
281
     0
  0
CLASS
  1
OBJECT_PTR
  2
CAseDLPNTableRecord
  3
ASE-LPNTableRecord
 90
        1
280
     1
281
     0
  0
CLASS
  1
LAYOUT
  2
AcDbLayout
  3
ObjectDBX Classes
 90
        0
280
     0
281
     0
  0
CLASS
  1
PLOTSETTINGS
  2
AcDbPlotSettings
  3
AutoCAD 2000
 90
        0
280
     0
281
     0
  0
CLASS
  1
ACDBDICTIONARYWDFLT
  2
AcDbDictionaryWithDefault
  3
AutoCAD 2000
 90
        0
280
     0
281
     0
  0
CLASS
  1
ACDBPLACEHOLDER
  2
AcDbPlaceHolder
  3
ObjectDBX Classes
 90
        0
280
     0
281
     0
  0
CLASS
  1
VBAPROJECT
  2
AcDbVbaProject
  3
ObjectDBX Classes
 90
        0
280
     0
281
     0
  0
CLASS
  1
WIPEOUT
  2
AcDbWipeout
  3
WipeOut|AutoCAD Express Tool|expresstools@autodesk.com
 90
      127
280
     0
281
     1
  0
CLASS
  1
WIPEOUTVARIABLES
  2
AcDbWipeoutVariables
  3
WipeOut|AutoCAD Express Tool|expresstools@autodesk.com
 90
        0
280
     0
281
     0
  0
CLASS
  1
RTEXT
  2
RText
  3
RText|AutoCAD Express Tool|expresstools@autodesk.com
 90
        0
280
     0
281
     1
  0
CLASS
  1
ARCALIGNEDTEXT
  2
AcDbArcAlignedText
  3
ATEXT|AutoCAD Express Tool|expresstools@autodesk.com
 90
        0
280
     0
281
     1
  0
CLASS
  1
LONG_TRANSACTION
  2
AcDbLongTransaction
  3
AutoCAD 2000
 90
        0
280
     1
281
     0
  0
CLASS
  1
LWPOLYLINE
  2
AcDbPolyline
  3
AutoCAD 2000
 90
        0
280
     0
281
     1
  0
CLASS
  1
HATCH
  2
AcDbHatch
  3
AutoCAD 2000
 90
        0
280
     0
281
     1
  0
CLASS
  1
XRECORD
  2
AcDbXrecord
  3
AutoCAD 2000
 90
        0
280
     0
281
     0
  0
ENDSEC
  0
SECTION
  2
TABLES
  0
TABLE
  2
VPORT
  5
7
330
0
100
AcDbSymbolTable
 70
     2
  0
VPORT
  5
A5
330
7
100
AcDbSymbolTableRecord
100
AcDbViewportTableRecord
  2
*Active
 70
     0
 10
0.0
 20
0.0
 11
1.0
 21
1.0
 12
107.9908832063814
 22
152.409447396106
 13
0.0
 23
0.0
 14
1.0
 24
1.0
 15
0.0
 25
0.0
 16
0.0
 26
0.0
 36
1.0
 17
0.0
 27
0.0
 37
0.0
 40
145.1597201263471
 41
1.836842105263158
 42
50.0
 43
0.0
 44
0.0
 50
0.0
 51
0.0
 71
     0
 72
   100
 73
     1
 74
     1
 75
     0
 76
     0
 77
     0
 78
     0
281
     0
 65
     1
110
0.0
120
0.0
130
0.0
111
1.0
121
0.0
131
0.0
112
0.0
122
1.0
132
0.0
 79
     0
146
0.0
  0
ENDTAB
  0
TABLE
  2
LTYPE
  5
4
330
0
100
AcDbSymbolTable
 70
     1
  0
LTYPE
  5
11
330
4
100
AcDbSymbolTableRecord
100
AcDbLinetypeTableRecord
  2
BYBLOCK
 70
     0
  3

 72
    65
 73
     0
 40
0.0
  0
LTYPE
  5
12
330
4
100
AcDbSymbolTableRecord
100
AcDbLinetypeTableRecord
  2
BYLAYER
 70
     0
  3

 72
    65
 73
     0
 40
0.0
  0
LTYPE
  5
13
330
4
100
AcDbSymbolTableRecord
100
AcDbLinetypeTableRecord
  2
CONTINUOUS
 70
     0
  3
Solid line
 72
    65
 73
     0
 40
0.0
  0
ENDTAB
  0
TABLE
  2
LAYER
  5
2
330
0
100
AcDbSymbolTable
 70
     2
  0
LAYER
  5
14
330
2
100
AcDbSymbolTableRecord
100
AcDbLayerTableRecord
  2
0
 70
     0
 62
     7
  6
CONTINUOUS
370
    -3
390
0
  0
LAYER
  5
21
330
2
100
AcDbSymbolTableRecord
100
AcDbLayerTableRecord
  2
LAYER_1
 70
     0
 62
     5
  6
CONTINUOUS
370
    -3
390
0
  0
ENDTAB
  0
TABLE
  2
STYLE
  5
3
330
0
100
AcDbSymbolTable
 70
     5
  0
STYLE
  5
17
330
3
100
AcDbSymbolTableRecord
100
AcDbTextStyleTableRecord
  2
STANDARD
 70
     0
 40
0.0
 41
1.0
 50
0.0
 71
     0
 42
0.2
  3
txt
  4

  0
STYLE
  5
1D
330
3
100
AcDbSymbolTableRecord
100
AcDbTextStyleTableRecord
  2
STD
 70
     0
 40
0.0
 41
1.0
 50
0.0
 71
     0
 42
0.2
  3
txt
  4

  0
STYLE
  5
1E
330
3
100
AcDbSymbolTableRecord
100
AcDbTextStyleTableRecord
  2
TATESTD
 70
     4
 40
0.0
 41
1.0
 50
0.0
 71
     0
 42
0.2
  3
txt
  4

  0
STYLE
  5
1F
330
3
100
AcDbSymbolTableRecord
100
AcDbTextStyleTableRecord
  2
KANJISTD
 70
     0
 40
0.0
 41
1.0
 50
0.0
 71
     0
 42
0.2
  3
txt
  4
extfont
  0
STYLE
  5
20
330
3
100
AcDbSymbolTableRecord
100
AcDbTextStyleTableRecord
  2
KANJITATE
 70
     4
 40
0.0
 41
1.0
 50
0.0
 71
     0
 42
0.2
  3
txt
  4
extfont
  0
ENDTAB
  0
TABLE
  2
VIEW
  5
5
330
0
100
AcDbSymbolTable
 70
     0
  0
ENDTAB
  0
TABLE
  2
UCS
  5
6
330
0
100
AcDbSymbolTable
 70
     0
  0
ENDTAB
  0
TABLE
  2
APPID
  5
8
330
0
100
AcDbSymbolTable
 70
     1
  0
APPID
  5
16
330
8
100
AcDbSymbolTableRecord
100
AcDbRegAppTableRecord
  2
ACAD
 70
     0
  0
ENDTAB
  0
TABLE
  2
DIMSTYLE
  5
9
330
0
100
AcDbSymbolTable
 70
     1
100
AcDbDimStyleTable
  0
DIMSTYLE
105
18
330
9
100
AcDbSymbolTableRecord
100
AcDbDimStyleTableRecord
  2
STANDARD
 70
     0
  3

  4

289
     0
340
17
  0
ENDTAB
  0
TABLE
  2
BLOCK_RECORD
  5
1
330
0
100
AcDbSymbolTable
 70
     3
  0
BLOCK_RECORD
  5
A
330
1
100
AcDbSymbolTableRecord
100
AcDbBlockTableRecord
  2
*MODEL_SPACE
340
A0
  0
BLOCK_RECORD
  5
B
330
1
100
AcDbSymbolTableRecord
100
AcDbBlockTableRecord
  2
*PAPER_SPACE
340
A1
  0
BLOCK_RECORD
  5
28
330
1
100
AcDbSymbolTableRecord
100
AcDbBlockTableRecord
  2
AI9-BLK1
340
0
102
{BLKREFS
331
29
102
}
  0
BLOCK_RECORD
  5
3E
330
1
100
AcDbSymbolTableRecord
100
AcDbBlockTableRecord
  2
AI9-BLK2
340
0
102
{BLKREFS
331
3F
102
}
  0
BLOCK_RECORD
  5
6C
330
1
100
AcDbSymbolTableRecord
100
AcDbBlockTableRecord
  2
AI9-BLK3
340
0
102
{BLKREFS
331
6D
102
}
  0
ENDTAB
  0
ENDSEC
  0
SECTION
  2
BLOCKS
  0
BLOCK
  5
D
330
A
100
AcDbEntity
  8
0
100
AcDbBlockBegin
  2
*MODEL_SPACE
 70
     0
 10
0.0
 20
0.0
 30
0.0
  3
*MODEL_SPACE
  1

  4

  0
ENDBLK
  5
E
330
A
100
AcDbEntity
  8
0
100
AcDbBlockEnd
  0
BLOCK
  5
F
330
B
100
AcDbEntity
 67
     1
  8
0
100
AcDbBlockBegin
  2
*PAPER_SPACE
 70
     0
 10
0.0
 20
0.0
 30
0.0
  3
*PAPER_SPACE
  1

  4

  0
ENDBLK
  5
10
330
B
100
AcDbEntity
 67
     1
  8
0
100
AcDbBlockEnd
  0
BLOCK
  5
2A
330
28
100
AcDbEntity
  8
LAYER_1
 62
     7
100
AcDbBlockBegin
  2
AI9-BLK1
 70
     0
 10
0.0
 20
0.0
 30
0.0
  3
AI9-BLK1
  1

  4

  0
HATCH
  5
3C
330
28
100
AcDbEntity
  8
LAYER_1
 62
     7
100
AcDbHatch
 10
0.0
 20
0.0
 30
0.0
210
0.0
220
0.0
230
1.0
  2
SOLID
 70
     1
 71
     0
 91
        1
 92
        1
 93
        1
 72
     4
 94
        3
 73
     0
 74
     0
 95
       56
 96
       52
 40
0.0
 40
0.0
 40
0.0
 40
0.0
 40
1.0
 40
1.0
 40
1.0
 40
2.0
 40
2.0
 40
2.0
 40
3.0
 40
3.0
 40
3.0
 40
4.0
 40
4.0
 40
4.0
 40
5.0
 40
5.0
 40
5.0
 40
6.0
 40
6.0
 40
6.0
 40
7.0
 40
7.0
 40
7.0
 40
8.0
 40
8.0
 40
8.0
 40
9.0
 40
9.0
 40
9.0
 40
10.0
 40
10.0
 40
10.0
 40
11.0
 40
11.0
 40
11.0
 40
12.0
 40
12.0
 40
12.0
 40
13.0
 40
13.0
 40
13.0
 40
14.0
 40
14.0
 40
14.0
 40
15.0
 40
15.0
 40
15.0
 40
16.0
 40
16.0
 40
16.0
 40
17.0
 40
17.0
 40
17.0
 40
17.0
 10
2.943489583333333
 20
6.607951524522569
 10
3.290755208333333
 20
6.081368679470486
 10
3.553615993923611
 20
5.98662855360243
 10
3.553615993923611
 20
6.528197564019097
 10
3.553615993923611
 20
7.317468939887152
 10
3.214963107638889
 20
7.877124701605903
 10
2.956580946180555
 20
8.239376491970486
 10
2.725070529513889
 20
8.564421251085069
 10
2.5827880859375
 20
8.614202880859374
 10
2.502517361111111
 20
8.413526068793402
 10
2.435682508680555
 20
8.246266682942707
 10
2.36884765625
 20
8.08572523328993
 10
2.30218505859375
 20
7.918465847439236
 10
2.066023763020833
 20
7.323325602213541
 10
1.843470594618055
 20
7.466297064887153
 10
1.402498372395833
 20
8.084863959418403
 10
0.7703233506944444
 20
8.972148301866319
 10
0.4006646050347222
 20
10.07130601671007
 10
0.4006646050347222
 20
11.01061130099826
 10
0.4006646050347222
 20
11.49326917860243
 10
0.4943712022569444
 20
11.93596394856771
 10
0.9306925455729166
 20
11.60420125325521
 10
1.095195855034722
 20
11.47742173936632
 10
1.362535264756944
 20
11.09604966905382
 10
1.540646701388889
 20
10.85265367296007
 10
1.540646701388889
 20
10.85265367296007
 10
1.540646701388889
 20
10.3110846625434
 10
1.540646701388889
 20
10.3110846625434
 10
1.04644775390625
 20
11.03059285481771
 10
0.7344943576388888
 20
11.3311774359809
 10
0.7344943576388888
 20
10.51589558919271
 10
0.7344943576388888
 20
9.967953152126736
 10
0.9260416666666665
 20
9.314590793185763
 10
1.318093532986111
 20
8.764409044053819
 10
1.825728352864583
 20
8.052307807074651
 10
1.830034722222222
 20
8.34617445203993
 10
1.959225802951389
 20
8.660539415147568
 10
2.030539279513889
 20
8.827971055772569
 10
2.1239013671875
 20
9.127522108289929
 10
2.217435709635416
 20
9.257057698567708
 10
2.377804904513889
 20
9.495458306206597
 10
2.645144314236111
 20
9.237765163845486
 10
2.974495442708333
 20
8.775261094835068
 10
3.526744249131944
 20
8.000631374782985
 10
3.887445746527777
 20
6.927139621310763
 10
3.887445746527777
 20
6.131322564019096
 10
3.887445746527777
 20
5.237492540147569
 10
3.571358235677083
 20
5.133278401692708
 10
2.943489583333333
 20
6.066382514105902
 10
2.943489583333333
 20
6.066382514105902
 10
2.943489583333333
 20
6.607951524522569
 10
2.943489583333333
 20
6.607951524522569
 97
        0
 75
     0
 76
     1
 98
        1
 10
0.0
 20
0.0
  0
HATCH
  5
3B
330
28
100
AcDbEntity
  8
LAYER_1
 62
     7
100
AcDbHatch
 10
0.0
 20
0.0
 30
0.0
210
0.0
220
0.0
230
1.0
  2
SOLID
 70
     1
 71
     0
 91
        1
 92
        1
 93
        1
 72
     4
 94
        3
 73
     0
 74
     0
 95
       17
 96
       13
 40
0.0
 40
0.0
 40
0.0
 40
0.0
 40
1.0
 40
1.0
 40
1.0
 40
2.0
 40
2.0
 40
2.0
 40
3.0
 40
3.0
 40
3.0
 40
4.0
 40
4.0
 40
4.0
 40
4.0
 10
0.4809353298611111
 20
8.472953965928818
 10
0.4809353298611111
 20
8.472953965928818
 10
3.820610894097222
 20
3.786590576171875
 10
3.820610894097222
 20
3.786590576171875
 10
3.820610894097222
 20
3.786590576171875
 10
3.820610894097222
 20
3.245366075303819
 10
3.820610894097222
 20
3.245366075303819
 10
3.820610894097222
 20
3.245366075303819
 10
0.4809353298611111
 20
7.931729465060763
 10
0.4809353298611111
 20
7.931729465060763
 10
0.4809353298611111
 20
7.931729465060763
 10
0.4809353298611111
 20
8.472953965928818
 10
0.4809353298611111
 20
8.472953965928818
 97
        0
 75
     0
 76
     1
 98
        1
 10
0.0
 20
0.0
  0
HATCH
  5
3A
330
28
100
AcDbEntity
  8
LAYER_1
 62
     7
100
AcDbHatch
 10
0.0
 20
0.0
 30
0.0
210
0.0
220
0.0
230
1.0
  2
SOLID
 70
     1
 71
     0
 91
        1
 92
        1
 93
        1
 72
     4
 94
        3
 73
     0
 74
     0
 95
       71
 96
       67
 40
0.0
 40
0.0
 40
0.0
 40
0.0
 40
1.0
 40
1.0
 40
1.0
 40
2.0
 40
2.0
 40
2.0
 40
3.0
 40
3.0
 40
3.0
 40
4.0
 40
4.0
 40
4.0
 40
5.0
 40
5.0
 40
5.0
 40
6.0
 40
6.0
 40
6.0
 40
7.0
 40
7.0
 40
7.0
 40
8.0
 40
8.0
 40
8.0
 40
9.0
 40
9.0
 40
9.0
 40
10.0
 40
10.0
 40
10.0
 40
11.0
 40
11.0
 40
11.0
 40
12.0
 40
12.0
 40
12.0
 40
13.0
 40
13.0
 40
13.0
 40
14.0
 40
14.0
 40
14.0
 40
15.0
 40
15.0
 40
15.0
 40
16.0
 40
16.0
 40
16.0
 40
17.0
 40
17.0
 40
17.0
 40
18.0
 40
18.0
 40
18.0
 40
19.0
 40
19.0
 40
19.0
 40
20.0
 40
20.0
 40
20.0
 40
21.0
 40
21.0
 40
21.0
 40
22.0
 40
22.0
 40
22.0
 40
22.0
 10
3.820610894097222
 20
-0.9473151312934027
 10
3.820610894097222
 20
-0.9473151312934027
 10
3.820610894097222
 20
-1.899884033203125
 10
3.820610894097222
 20
-1.899884033203125
 10
3.820610894097222
 20
-1.899884033203125
 10
0.4809353298611111
 20
2.786479356553819
 10
0.4809353298611111
 20
2.786479356553819
 10
0.4809353298611111
 20
2.786479356553819
 10
0.4809353298611111
 20
3.327703857421875
 10
0.4809353298611111
 20
3.327703857421875
 10
0.4809353298611111
 20
3.327703857421875
 10
3.232877604166666
 20
-0.5337314181857639
 10
3.232877604166666
 20
-0.5337314181857639
 10
3.375160047743055
 20
-0.7333747016059027
 10
3.513308376736111
 20
-0.9404249403211805
 10
3.655935329861111
 20
-1.127149115668403
 10
3.655935329861111
 20
-1.127149115668403
 10
3.655935329861111
 20
-1.11405775282118
 10
3.655935329861111
 20
-1.11405775282118
 10
3.459909396701389
 20
-0.780572509765625
 10
3.335196940104166
 20
-0.5597418891059027
 10
3.206005859375
 20
-0.3330546061197917
 10
3.206005859375
 20
-0.3330546061197917
 10
0.4809353298611111
 20
4.515056016710069
 10
0.4809353298611111
 20
4.515056016710069
 10
0.4809353298611111
 20
4.515056016710069
 10
0.4809353298611111
 20
5.160839165581597
 10
0.4809353298611111
 20
5.160839165581597
 10
0.4809353298611111
 20
5.160839165581597
 10
3.245968967013889
 20
2.304510498046875
 10
3.245968967013889
 20
2.304510498046875
 10
3.362068684895833
 20
2.187721761067708
 10
3.473173014322916
 20
2.070760769314236
 10
3.655935329861111
 20
1.873356797960069
 10
3.655935329861111
 20
1.873356797960069
 10
3.655935329861111
 20
1.886620415581597
 10
3.655935329861111
 20
1.886620415581597
 10
3.513308376736111
 20
2.086263699001736
 10
3.366547309027777
 20
2.279533555772569
 10
3.223920355902778
 20
2.479521348741319
 10
3.223920355902778
 20
2.479521348741319
 10
0.4809353298611111
 20
6.328382025824652
 10
0.4809353298611111
 20
6.328382025824652
 10
0.4809353298611111
 20
6.328382025824652
 10
0.4809353298611111
 20
6.869606526692707
 10
0.4809353298611111
 20
6.869606526692707
 10
0.4809353298611111
 20
6.869606526692707
 10
3.820610894097222
 20
2.183587646484375
 10
3.820610894097222
 20
2.183587646484375
 10
3.820610894097222
 20
2.183587646484375
 10
3.820610894097222
 20
1.224473063151042
 10
3.820610894097222
 20
1.224473063151042
 10
3.820610894097222
 20
1.224473063151042
 10
1.215774197048611
 20
3.920949300130208
 10
1.215774197048611
 20
3.920949300130208
 10
1.073147243923611
 20
4.068743896484374
 10
0.9349989149305554
 20
4.236175537109375
 10
0.7214029947916666
 20
4.510060628255208
 10
0.7214029947916666
 20
4.510060628255208
 10
0.7214029947916666
 20
4.497313774956597
 10
0.7214029947916666
 20
4.497313774956597
 10
0.8905571831597221
 20
4.227218288845486
 10
1.055232747395833
 20
3.963323974609375
 10
1.22008056640625
 20
3.67359144422743
 10
1.22008056640625
 20
3.67359144422743
 10
3.820610894097222
 20
-0.9473151312934027
 10
3.820610894097222
 20
-0.9473151312934027
 97
        0
 75
     0
 76
     1
 98
        1
 10
0.0
 20
0.0
  0
HATCH
  5
39
330
28
100
AcDbEntity
  8
LAYER_1
 62
     7
100
AcDbHatch
 10
0.0
 20
0.0
 30
0.0
210
0.0
220
0.0
230
1.0
  2
SOLID
 70
     1
 71
     0
 91
        2
 92
       16
 93
        1
 72
     4
 94
        3
 73
     0
 74
     0
 95
       20
 96
       16
 40
0.0
 40
0.0
 40
0.0
 40
0.0
 40
1.0
 40
1.0
 40
1.0
 40
2.0
 40
2.0
 40
2.0
 40
3.0
 40
3.0
 40
3.0
 40
4.0
 40
4.0
 40
4.0
 40
5.0
 40
5.0
 40
5.0
 40
5.0
 10
2.23087158203125
 20
-1.199840630425347
 10
2.23087158203125
 20
-1.199840630425347
 10
2.23087158203125
 20
-1.728318277994791
 10
2.23087158203125
 20
-1.728318277994791
 10
2.235177951388889
 20
-2.477971055772569
 10
2.306491427951389
 20
-3.034698486328125
 10
2.880961100260417
 20
-3.833960639105902
 10
3.4199462890625
 20
-4.590159098307291
 10
3.495738389756944
 20
-4.194317626953125
 10
3.48660888671875
 20
-3.522696261935764
 10
3.48660888671875
 20
-3.522696261935764
 10
3.48660888671875
 20
-2.961662462022569
 10
3.48660888671875
 20
-2.961662462022569
 10
3.48660888671875
 20
-2.961662462022569
 10
2.23087158203125
 20
-1.199840630425347
 10
2.23087158203125
 20
-1.199840630425347
 97
        0
 92
        1
 93
        1
 72
     4
 94
        3
 73
     0
 74
     0
 95
       32
 96
       28
 40
0.0
 40
0.0
 40
0.0
 40
0.0
 40
1.0
 40
1.0
 40
1.0
 40
2.0
 40
2.0
 40
2.0
 40
3.0
 40
3.0
 40
3.0
 40
4.0
 40
4.0
 40
4.0
 40
5.0
 40
5.0
 40
5.0
 40
6.0
 40
6.0
 40
6.0
 40
7.0
 40
7.0
 40
7.0
 40
8.0
 40
8.0
 40
8.0
 40
9.0
 40
9.0
 40
9.0
 40
9.0
 10
0.4809353298611111
 20
1.797047932942708
 10
0.4809353298611111
 20
1.797047932942708
 10
3.820610894097222
 20
-2.88914320203993
 10
3.820610894097222
 20
-2.88914320203993
 10
3.820610894097222
 20
-2.88914320203993
 10
3.820610894097222
 20
-4.173991563585069
 10
3.820610894097222
 20
-4.173991563585069
 10
3.820610894097222
 20
-4.552263047960069
 10
3.789432779947916
 20
-4.984967041015625
 10
3.602364095052083
 20
-5.009427218967013
 10
3.41529541015625
 20
-5.040433078342013
 10
3.157085503472222
 20
-4.782567681206597
 10
2.890090603298611
 20
-4.407569037543403
 10
2.520259602864583
 20
-3.88908216688368
 10
2.15955810546875
 20
-3.219872368706597
 10
1.995054796006944
 20
-2.460228814019097
 10
1.896869574652778
 20
-1.983599853515625
 10
1.896869574652778
 20
-1.428939480251736
 10
1.896869574652778
 20
-1.057558186848958
 10
1.896869574652778
 20
-1.057558186848958
 10
1.896869574652778
 20
-0.7311353895399305
 10
1.896869574652778
 20
-0.7311353895399305
 10
1.896869574652778
 20
-0.7311353895399305
 10
0.4809353298611111
 20
1.255823432074653
 10
0.4809353298611111
 20
1.255823432074653
 10
0.4809353298611111
 20
1.255823432074653
 10
0.4809353298611111
 20
1.797047932942708
 10
0.4809353298611111
 20
1.797047932942708
 97
        0
 75
     0
 76
     1
 98
        1
 10
0.0
 20
0.0
  0
HATCH
  5
38
330
28
100
AcDbEntity
  8
LAYER_1
 62
     7
100
AcDbHatch
 10
0.0
 20
0.0
 30
0.0
210
0.0
220
0.0
230
1.0
  2
SOLID
 70
     1
 71
     0
 91
        1
 92
        1
 93
        1
 72
     4
 94
        3
 73
     0
 74
     0
 95
       56
 96
       52
 40
0.0
 40
0.0
 40
0.0
 40
0.0
 40
1.0
 40
1.0
 40
1.0
 40
2.0
 40
2.0
 40
2.0
 40
3.0
 40
3.0
 40
3.0
 40
4.0
 40
4.0
 40
4.0
 40
5.0
 40
5.0
 40
5.0
 40
6.0
 40
6.0
 40
6.0
 40
7.0
 40
7.0
 40
7.0
 40
8.0
 40
8.0
 40
8.0
 40
9.0
 40
9.0
 40
9.0
 40
10.0
 40
10.0
 40
10.0
 40
11.0
 40
11.0
 40
11.0
 40
12.0
 40
12.0
 40
12.0
 40
13.0
 40
13.0
 40
13.0
 40
14.0
 40
14.0
 40
14.0
 40
15.0
 40
15.0
 40
15.0
 40
16.0
 40
16.0
 40
16.0
 40
17.0
 40
17.0
 40
17.0
 40
17.0
 10
2.943489583333333
 20
-7.266309271918402
 10
3.290755208333333
 20
-7.793064371744791
 10
3.553615993923611
 20
-7.887459988064236
 10
3.553615993923611
 20
-7.34623548719618
 10
3.553615993923611
 20
-6.556964111328124
 10
3.214963107638889
 20
-5.997136094835069
 10
2.956580946180555
 20
-5.635056559244791
 10
2.725070529513889
 20
-5.309839545355902
 10
2.5827880859375
 20
-5.260057915581597
 10
2.502517361111111
 20
-5.460734727647569
 10
2.435682508680555
 20
-5.627994113498263
 10
2.36884765625
 20
-5.788363308376735
 10
2.30218505859375
 20
-5.955794949001736
 10
2.066023763020833
 20
-6.55093519422743
 10
1.843470594618055
 20
-6.408135986328125
 10
1.402498372395833
 20
-5.789396837022569
 10
0.7703233506944444
 20
-4.902284749348958
 10
0.4006646050347222
 20
-3.802954779730902
 10
0.4006646050347222
 20
-2.863821750217014
 10
0.4006646050347222
 20
-2.381163872612847
 10
0.4943712022569444
 20
-1.938296847873264
 10
0.9306925455729166
 20
-2.270059543185764
 10
1.095195855034722
 20
-2.397011311848958
 10
1.362535264756944
 20
-2.778383382161458
 10
1.540646701388889
 20
-3.021607123480902
 10
1.540646701388889
 20
-3.021607123480902
 10
1.540646701388889
 20
-3.563176133897569
 10
1.540646701388889
 20
-3.563176133897569
 10
1.04644775390625
 20
-2.843495686848958
 10
0.7344943576388888
 20
-2.543083360460069
 10
0.7344943576388888
 20
-3.358365207248264
 10
0.7344943576388888
 20
-3.906307644314236
 10
0.9260416666666665
 20
-4.559842258029513
 10
1.318093532986111
 20
-5.109679497612847
 10
1.825728352864583
 20
-5.822125244140625
 10
1.830034722222222
 20
-5.528258599175347
 10
1.959225802951389
 20
-5.213721381293403
 10
2.030539279513889
 20
-5.046289740668402
 10
2.1239013671875
 20
-4.746910942925346
 10
2.217435709635416
 20
-4.617203097873263
 10
2.377804904513889
 20
-4.37897474500868
 10
2.645144314236111
 20
-4.636667887369791
 10
2.974495442708333
 20
-5.098827446831597
 10
3.526744249131944
 20
-5.873801676432291
 10
3.887445746527777
 20
-6.947293429904513
 10
3.887445746527777
 20
-7.74311048719618
 10
3.887445746527777
 20
-8.636768256293403
 10
3.571358235677083
 20
-8.740982394748263
 10
2.943489583333333
 20
-7.807878282335069
 10
2.943489583333333
 20
-7.807878282335069
 10
2.943489583333333
 20
-7.266309271918402
 10
2.943489583333333
 20
-7.266309271918402
 97
        0
 75
     0
 76
     1
 98
        1
 10
0.0
 20
0.0
  0
HATCH
  5
37
330
28
100
AcDbEntity
  8
LAYER_1
 62
     7
100
AcDbHatch
 10
0.0
 20
0.0
 30
0.0
210
0.0
220
0.0
230
1.0
  2
SOLID
 70
     1
 71
     0
 91
        2
 92
       16
 93
        1
 72
     4
 94
        3
 73
     0
 74
     0
 95
       17
 96
       13
 40
0.0
 40
0.0
 40
0.0
 40
0.0
 40
1.0
 40
1.0
 40
1.0
 40
2.0
 40
2.0
 40
2.0
 40
3.0
 40
3.0
 40
3.0
 40
4.0
 40
4.0
 40
4.0
 40
4.0
 10
3.553615993923611
 20
-11.05625881618924
 10
3.553615993923611
 20
-10.22151217990451
 10
2.956580946180555
 20
-9.175236680772569
 10
2.213129340277777
 20
-8.13843519422743
 10
1.246780056423611
 20
-6.789163547092013
 10
0.7344943576388888
 20
-6.214004855685763
 10
0.7344943576388888
 20
-7.114208306206597
 10
0.7344943576388888
 20
-8.01441175672743
 10
1.246780056423611
 20
-8.876546902126735
 10
2.213129340277777
 20
-10.23873765733507
 10
2.956580946180555
 20
-11.28880276150174
 10
3.553615993923611
 20
-11.91753268771701
 10
3.553615993923611
 20
-11.05625881618924
 97
        0
 92
        1
 93
        1
 72
     4
 94
        3
 73
     0
 74
     0
 95
       17
 96
       13
 40
0.0
 40
0.0
 40
0.0
 40
0.0
 40
1.0
 40
1.0
 40
1.0
 40
2.0
 40
2.0
 40
2.0
 40
3.0
 40
3.0
 40
3.0
 40
4.0
 40
4.0
 40
4.0
 40
4.0
 10
3.887445746527777
 20
-11.5511467827691
 10
3.887445746527777
 20
-12.97965562608507
 10
2.987931315104166
 20
-11.89341701931424
 10
2.222086588541667
 20
-10.81234605577257
 10
1.295700412326389
 20
-9.506310356987846
 10
0.4006646050347222
 20
-8.074184163411458
 10
0.4006646050347222
 20
-6.645847574869791
 10
0.4006646050347222
 20
-5.217166476779513
 10
1.295700412326389
 20
-6.303405083550347
 10
2.222086588541667
 20
-7.589803738064235
 10
2.987931315104166
 20
-8.664673529730901
 10
3.887445746527777
 20
-10.09645521375868
 10
3.887445746527777
 20
-11.5511467827691
 97
        0
 75
     0
 76
     1
 98
        1
 10
0.0
 20
0.0
  0
HATCH
  5
36
330
28
100
AcDbEntity
  8
LAYER_1
 62
     7
100
AcDbHatch
 10
0.0
 20
0.0
 30
0.0
210
0.0
220
0.0
230
1.0
  2
SOLID
 70
     1
 71
     0
 91
        1
 92
        1
 93
        1
 72
     4
 94
        3
 73
     0
 74
     0
 95
       53
 96
       49
 40
0.0
 40
0.0
 40
0.0
 40
0.0
 40
1.0
 40
1.0
 40
1.0
 40
2.0
 40
2.0
 40
2.0
 40
3.0
 40
3.0
 40
3.0
 40
4.0
 40
4.0
 40
4.0
 40
5.0
 40
5.0
 40
5.0
 40
6.0
 40
6.0
 40
6.0
 40
7.0
 40
7.0
 40
7.0
 40
8.0
 40
8.0
 40
8.0
 40
9.0
 40
9.0
 40
9.0
 40
10.0
 40
10.0
 40
10.0
 40
11.0
 40
11.0
 40
11.0
 40
12.0
 40
12.0
 40
12.0
 40
13.0
 40
13.0
 40
13.0
 40
14.0
 40
14.0
 40
14.0
 40
15.0
 40
15.0
 40
15.0
 40
16.0
 40
16.0
 40
16.0
 40
16.0
 10
3.820610894097222
 20
-16.30847913953993
 10
3.820610894097222
 20
-16.30847913953993
 10
3.820610894097222
 20
-16.8500481499566
 10
3.820610894097222
 20
-16.8500481499566
 10
3.820610894097222
 20
-16.8500481499566
 10
0.4809353298611111
 20
-12.16385701497396
 10
0.4809353298611111
 20
-12.16385701497396
 10
0.4809353298611111
 20
-12.16385701497396
 10
0.4809353298611111
 20
-11.27640041775173
 10
0.4809353298611111
 20
-11.27640041775173
 10
0.4809353298611111
 20
-11.27640041775173
 10
3.152779134114583
 20
-13.65558336046007
 10
3.152779134114583
 20
-13.65558336046007
 10
3.304191080729166
 20
-13.7897698296441
 10
3.455430772569444
 20
-13.94376559787326
 10
3.655935329861111
 20
-14.17923787434896
 10
3.655935329861111
 20
-14.17923787434896
 10
3.655935329861111
 20
-14.16614651150174
 10
3.655935329861111
 20
-14.16614651150174
 10
3.48660888671875
 20
-13.93532511393229
 10
3.31297607421875
 20
-13.69795803493924
 10
3.143649631076388
 20
-13.46059095594618
 10
3.143649631076388
 20
-13.46059095594618
 10
0.4809353298611111
 20
-9.724040391710069
 10
0.4809353298611111
 20
-9.724040391710069
 10
0.4809353298611111
 20
-9.724040391710069
 10
0.4809353298611111
 20
-9.182815890842013
 10
0.4809353298611111
 20
-9.182815890842013
 10
0.4809353298611111
 20
-9.182815890842013
 10
3.820610894097222
 20
-13.86883477105035
 10
3.820610894097222
 20
-13.86883477105035
 10
3.820610894097222
 20
-13.86883477105035
 10
3.820610894097222
 20
-14.74974568684896
 10
3.820610894097222
 20
-14.74974568684896
 10
3.820610894097222
 20
-14.74974568684896
 10
1.086583116319444
 20
-12.30252210828993
 10
1.086583116319444
 20
-12.30252210828993
 10
0.9839192708333332
 20
-12.21760050455729
 10
0.8771213107638888
 20
-12.11321411132813
 10
0.7214029947916666
 20
-11.95956285264757
 10
0.7214029947916666
 20
-11.95956285264757
 10
0.7214029947916666
 20
-11.9728264702691
 10
0.7214029947916666
 20
-11.9728264702691
 10
0.8416368272569443
 20
-12.13491821289062
 10
0.9708279079861111
 20
-12.30975680881076
 10
1.095195855034722
 20
-12.4845954047309
 10
1.095195855034722
 20
-12.4845954047309
 10
3.820610894097222
 20
-16.30847913953993
 10
3.820610894097222
 20
-16.30847913953993
 97
        0
 75
     0
 76
     1
 98
        1
 10
0.0
 20
0.0
  0
HATCH
  5
35
330
28
100
AcDbEntity
  8
LAYER_1
 62
     7
100
AcDbHatch
 10
0.0
 20
0.0
 30
0.0
210
0.0
220
0.0
230
1.0
  2
SOLID
 70
     1
 71
     0
 91
        1
 92
        1
 93
        1
 72
     4
 94
        3
 73
     0
 74
     0
 95
       56
 96
       52
 40
0.0
 40
0.0
 40
0.0
 40
0.0
 40
1.0
 40
1.0
 40
1.0
 40
2.0
 40
2.0
 40
2.0
 40
3.0
 40
3.0
 40
3.0
 40
4.0
 40
4.0
 40
4.0
 40
5.0
 40
5.0
 40
5.0
 40
6.0
 40
6.0
 40
6.0
 40
7.0
 40
7.0
 40
7.0
 40
8.0
 40
8.0
 40
8.0
 40
9.0
 40
9.0
 40
9.0
 40
10.0
 40
10.0
 40
10.0
 40
11.0
 40
11.0
 40
11.0
 40
12.0
 40
12.0
 40
12.0
 40
13.0
 40
13.0
 40
13.0
 40
14.0
 40
14.0
 40
14.0
 40
15.0
 40
15.0
 40
15.0
 40
16.0
 40
16.0
 40
16.0
 40
17.0
 40
17.0
 40
17.0
 40
17.0
 10
-0.9482625325520833
 20
12.40311889648437
 10
-0.6392374674479167
 20
11.9356194390191
 10
-0.4056599934895833
 20
11.85121459960937
 10
-0.4056599934895833
 20
12.33214992947049
 10
-0.4056599934895833
 20
13.0333991156684
 10
-0.7065890842013888
 20
13.53052639431424
 10
-0.9363769531249999
 20
13.85247056749132
 10
-1.142393663194444
 20
14.14134182400174
 10
-1.269173177083333
 20
14.18578355577257
 10
-1.340142144097222
 20
14.00749986436632
 10
-1.399742296006944
 20
13.85901624891493
 10
-1.458997938368055
 20
13.71638929578993
 10
-1.518598090277778
 20
13.56773342556424
 10
-1.72857666015625
 20
13.03908352322049
 10
-1.926497395833333
 20
13.16586303710937
 10
-2.318721516927083
 20
13.71570027669271
 10
-2.881133355034722
 20
14.50411037868924
 10
-3.209795464409722
 20
15.48062269422743
 10
-3.209795464409722
 20
16.31502482096354
 10
-3.209795464409722
 20
16.74376695421007
 10
-3.126768663194444
 20
17.13736911349826
 10
-2.738506401909722
 20
16.84212443033854
 10
-2.59208984375
 20
16.72946980794271
 10
-2.354378255208333
 20
16.39047241210938
 10
-2.195903862847222
 20
16.1742926703559
 10
-2.195903862847222
 20
16.1742926703559
 10
-2.195903862847222
 20
15.6935295952691
 10
-2.195903862847222
 20
15.6935295952691
 10
-2.635498046875
 20
16.33293931749132
 10
-2.91300048828125
 20
16.59993421766493
 10
-2.91300048828125
 20
15.87543063693576
 10
-2.91300048828125
 20
15.38863864474826
 10
-2.74246826171875
 20
14.80796780056424
 10
-2.393996853298611
 20
14.31962551540799
 10
-1.94251708984375
 20
13.68658921983507
 10
-1.938382975260417
 20
13.94755520290799
 10
-1.823661295572917
 20
14.2271247016059
 10
-1.760099283854167
 20
14.3757805718316
 10
-1.677072482638889
 20
14.64156968858507
 10
-1.594045681423611
 20
14.75680813259548
 10
-1.451418728298611
 20
14.96833699544271
 10
-1.213707139756944
 20
14.73958265516493
 10
-0.9203572591145832
 20
14.32858276367187
 10
-0.42943115234375
 20
13.64025268554688
 10
-0.1085205078125
 20
12.68630574544271
 10
-0.1085205078125
 20
11.97937215169271
 10
-0.1085205078125
 20
11.18562215169271
 10
-0.3896402994791666
 20
11.09329359266493
 10
-0.9482625325520833
 20
11.92218356662326
 10
-0.9482625325520833
 20
11.92218356662326
 10
-0.9482625325520833
 20
12.40311889648437
 10
-0.9482625325520833
 20
12.40311889648437
 97
        0
 75
     0
 76
     1
 98
        1
 10
0.0
 20
0.0
  0
HATCH
  5
34
330
28
100
AcDbEntity
  8
LAYER_1
 62
     7
100
AcDbHatch
 10
0.0
 20
0.0
 30
0.0
210
0.0
220
0.0
230
1.0
  2
SOLID
 70
     1
 71
     0
 91
        1
 92
        1
 93
        1
 72
     4
 94
        3
 73
     0
 74
     0
 95
       53
 96
       49
 40
0.0
 40
0.0
 40
0.0
 40
0.0
 40
1.0
 40
1.0
 40
1.0
 40
2.0
 40
2.0
 40
2.0
 40
3.0
 40
3.0
 40
3.0
 40
4.0
 40
4.0
 40
4.0
 40
5.0
 40
5.0
 40
5.0
 40
6.0
 40
6.0
 40
6.0
 40
7.0
 40
7.0
 40
7.0
 40
8.0
 40
8.0
 40
8.0
 40
9.0
 40
9.0
 40
9.0
 40
10.0
 40
10.0
 40
10.0
 40
11.0
 40
11.0
 40
11.0
 40
12.0
 40
12.0
 40
12.0
 40
13.0
 40
13.0
 40
13.0
 40
14.0
 40
14.0
 40
14.0
 40
15.0
 40
15.0
 40
15.0
 40
16.0
 40
16.0
 40
16.0
 40
16.0
 10
-0.9363769531249999
 20
10.53139851888021
 10
-0.9363769531249999
 20
10.53139851888021
 10
-0.9363769531249999
 20
9.992757839626735
 10
-0.9363769531249999
 20
9.992757839626735
 10
-0.9363769531249999
 20
9.992757839626735
 10
-1.201649305555556
 20
10.36465589735243
 10
-1.201649305555556
 20
10.36465589735243
 10
-1.201649305555556
 20
10.36465589735243
 10
-1.201649305555556
 20
10.89795667860243
 10
-1.201649305555556
 20
10.89795667860243
 10
-1.201649305555556
 20
10.89795667860243
 10
-2.703021918402778
 20
13.00187649197049
 10
-2.703021918402778
 20
13.00187649197049
 10
-2.778125
 20
13.10729641384549
 10
-2.873209635416667
 20
13.2812737358941
 10
-2.873209635416667
 20
13.02616441514757
 10
-2.873209635416667
 20
13.02616441514757
 10
-2.873209635416667
 20
12.71920640733507
 10
-2.873209635416667
 20
12.71920640733507
 10
-2.873209635416667
 20
12.71920640733507
 10
-3.138481987847222
 20
13.09110446506076
 10
-3.138481987847222
 20
13.09110446506076
 10
-3.138481987847222
 20
13.09110446506076
 10
-3.138481987847222
 20
13.59512193467882
 10
-3.138481987847222
 20
13.59512193467882
 10
-3.142616102430555
 20
13.87314114040798
 10
-3.110921223958333
 20
14.0316155327691
 10
-2.778125
 20
13.56514960394965
 10
-2.778125
 20
13.56514960394965
 10
-1.201649305555556
 20
11.35546535915799
 10
-1.201649305555556
 20
11.35546535915799
 10
-1.201649305555556
 20
11.35546535915799
 10
-1.201649305555556
 20
11.80160522460937
 10
-1.201649305555556
 20
11.80160522460937
 10
-1.201649305555556
 20
11.80160522460937
 10
-0.9363769531249999
 20
11.42987942165799
 10
-0.9363769531249999
 20
11.42987942165799
 10
-0.9363769531249999
 20
11.42987942165799
 10
-0.9363769531249999
 20
10.9837395562066
 10
-0.9363769531249999
 20
10.9837395562066
 10
-0.9363769531249999
 20
10.9837395562066
 10
-0.3383083767361111
 20
10.14520331488715
 10
-0.3383083767361111
 20
10.14520331488715
 10
-0.3383083767361111
 20
10.14520331488715
 10
-0.3383083767361111
 20
9.693206787109375
 10
-0.3383083767361111
 20
9.693206787109375
 10
-0.3383083767361111
 20
9.693206787109375
 10
-0.9363769531249999
 20
10.53139851888021
 10
-0.9363769531249999
 20
10.53139851888021
 97
        0
 75
     0
 76
     1
 98
        1
 10
0.0
 20
0.0
  0
HATCH
  5
33
330
28
100
AcDbEntity
  8
LAYER_1
 62
     7
100
AcDbHatch
 10
0.0
 20
0.0
 30
0.0
210
0.0
220
0.0
230
1.0
  2
SOLID
 70
     1
 71
     0
 91
        1
 92
        1
 93
        1
 72
     4
 94
        3
 73
     0
 74
     0
 95
       32
 96
       28
 40
0.0
 40
0.0
 40
0.0
 40
0.0
 40
1.0
 40
1.0
 40
1.0
 40
2.0
 40
2.0
 40
2.0
 40
3.0
 40
3.0
 40
3.0
 40
4.0
 40
4.0
 40
4.0
 40
5.0
 40
5.0
 40
5.0
 40
6.0
 40
6.0
 40
6.0
 40
7.0
 40
7.0
 40
7.0
 40
8.0
 40
8.0
 40
8.0
 40
9.0
 40
9.0
 40
9.0
 40
9.0
 10
-1.296733940972222
 20
9.466864013671874
 10
-1.296733940972222
 20
9.466864013671874
 10
-1.296733940972222
 20
9.455322943793401
 10
-1.296733940972222
 20
9.455322943793401
 10
-1.0076904296875
 20
8.858804660373263
 10
-0.8847005208333333
 20
8.414387342664929
 10
-0.9126057942708332
 20
7.972209337022568
 10
-0.9126057942708332
 20
7.972209337022568
 10
-1.221630859375
 20
8.405257839626735
 10
-1.221630859375
 20
8.405257839626735
 10
-1.1503173828125
 20
8.896356201171875
 10
-1.403876410590278
 20
9.599155680338541
 10
-1.803851996527778
 20
10.16018948025174
 10
-1.803851996527778
 20
10.16018948025174
 10
-3.138481987847222
 20
12.03104858398437
 10
-3.138481987847222
 20
12.03104858398437
 10
-3.138481987847222
 20
12.03104858398437
 10
-3.138481987847222
 20
12.48890177408854
 10
-3.138481987847222
 20
12.48890177408854
 10
-3.138481987847222
 20
12.48890177408854
 10
-0.9363769531249999
 20
9.402096218532986
 10
-0.9363769531249999
 20
9.402096218532986
 10
-0.9363769531249999
 20
9.402096218532986
 10
-0.9363769531249999
 20
8.961468505859374
 10
-0.9363769531249999
 20
8.961468505859374
 10
-0.9363769531249999
 20
8.961468505859374
 10
-1.296733940972222
 20
9.466864013671874
 10
-1.296733940972222
 20
9.466864013671874
 97
        0
 75
     0
 76
     1
 98
        1
 10
0.0
 20
0.0
  0
HATCH
  5
32
330
28
100
AcDbEntity
  8
LAYER_1
 62
     7
100
AcDbHatch
 10
0.0
 20
0.0
 30
0.0
210
0.0
220
0.0
230
1.0
  2
SOLID
 70
     1
 71
     0
 91
        2
 92
       16
 93
        1
 72
     4
 94
        3
 73
     0
 74
     0
 95
       17
 96
       13
 40
0.0
 40
0.0
 40
0.0
 40
0.0
 40
1.0
 40
1.0
 40
1.0
 40
2.0
 40
2.0
 40
2.0
 40
3.0
 40
3.0
 40
3.0
 40
4.0
 40
4.0
 40
4.0
 40
4.0
 10
-1.142393663194444
 20
6.782445610894096
 10
-1.142393663194444
 20
7.251839870876736
 10
-1.395780436197917
 20
7.815629747178819
 10
-2.061372884114583
 20
8.748389350043402
 10
-2.580204264322917
 20
9.475821261935764
 10
-2.932637532552083
 20
9.825153944227429
 10
-2.932637532552083
 20
9.29185316297743
 10
-2.932637532552083
 20
8.747183566623264
 10
-2.580204264322917
 20
8.119831678602429
 10
-2.061372884114583
 20
7.392399766710069
 10
-1.395780436197917
 20
6.459984673394096
 10
-1.142393663194444
 20
6.301510281032986
 10
-1.142393663194444
 20
6.782445610894096
 97
        0
 92
        1
 93
        1
 72
     4
 94
        3
 73
     0
 74
     0
 95
       17
 96
       13
 40
0.0
 40
0.0
 40
0.0
 40
0.0
 40
1.0
 40
1.0
 40
1.0
 40
2.0
 40
2.0
 40
2.0
 40
3.0
 40
3.0
 40
3.0
 40
4.0
 40
4.0
 40
4.0
 40
4.0
 10
-3.198082139756944
 20
9.66392347547743
 10
-3.198082139756944
 20
10.35914374457465
 10
-2.91300048828125
 20
10.41736585828993
 10
-1.962154134114583
 20
9.084802924262151
 10
-1.296733940972222
 20
8.152043321397569
 10
-0.8769490559895833
 20
7.204297553168402
 10
-0.8769490559895833
 20
6.410547553168402
 10
-0.8769490559895833
 20
5.616625298394097
 10
-1.296733940972222
 20
5.845724148220485
 10
-1.962154134114583
 20
6.778483751085068
 10
-2.916962348090277
 20
8.11673109266493
 10
-3.198082139756944
 20
8.956989881727429
 10
-3.198082139756944
 20
9.66392347547743
 97
        0
 75
     0
 76
     1
 98
        1
 10
0.0
 20
0.0
  0
HATCH
  5
31
330
28
100
AcDbEntity
  8
LAYER_1
 62
     7
100
AcDbHatch
 10
0.0
 20
0.0
 30
0.0
210
0.0
220
0.0
230
1.0
  2
SOLID
 70
     1
 71
     0
 91
        1
 92
        1
 93
        1
 72
     4
 94
        3
 73
     0
 74
     0
 95
       47
 96
       43
 40
0.0
 40
0.0
 40
0.0
 40
0.0
 40
1.0
 40
1.0
 40
1.0
 40
2.0
 40
2.0
 40
2.0
 40
3.0
 40
3.0
 40
3.0
 40
4.0
 40
4.0
 40
4.0
 40
5.0
 40
5.0
 40
5.0
 40
6.0
 40
6.0
 40
6.0
 40
7.0
 40
7.0
 40
7.0
 40
8.0
 40
8.0
 40
8.0
 40
9.0
 40
9.0
 40
9.0
 40
10.0
 40
10.0
 40
10.0
 40
11.0
 40
11.0
 40
11.0
 40
12.0
 40
12.0
 40
12.0
 40
13.0
 40
13.0
 40
13.0
 40
14.0
 40
14.0
 40
14.0
 40
14.0
 10
-1.177878146701389
 20
4.513505723741319
 10
-1.177878146701389
 20
4.513505723741319
 10
-1.177878146701389
 20
4.501792399088541
 10
-1.177878146701389
 20
4.501792399088541
 10
-0.9877088758680555
 20
4.015000406901041
 10
-0.8769490559895833
 20
3.622087266710069
 10
-0.8769490559895833
 20
3.274649386935764
 10
-0.8769490559895833
 20
2.793369547526042
 10
-1.0510986328125
 20
2.724984402126736
 10
-1.439360894097222
 20
3.268792724609375
 10
-1.439360894097222
 20
3.268792724609375
 10
-3.138481987847222
 20
5.650731743706597
 10
-3.138481987847222
 20
5.650731743706597
 10
-3.138481987847222
 20
5.650731743706597
 10
-3.138481987847222
 20
6.108584933810763
 10
-3.138481987847222
 20
6.108584933810763
 10
-3.138481987847222
 20
6.108584933810763
 10
-1.526521809895833
 20
3.848946804470486
 10
-1.526521809895833
 20
3.848946804470486
 10
-1.296733940972222
 20
3.527002631293402
 10
-1.142393663194444
 20
3.420549180772569
 10
-1.142393663194444
 20
3.79141370985243
 10
-1.142393663194444
 20
3.959189860026041
 10
-1.18597412109375
 20
4.182776557074653
 10
-1.2650390625
 20
4.415320502387153
 10
-1.380105251736111
 20
4.76189710828993
 10
-1.506540256076389
 20
4.962573920355903
 10
-1.6650146484375
 20
5.184782579210069
 10
-1.6650146484375
 20
5.184782579210069
 10
-3.138481987847222
 20
7.249945068359375
 10
-3.138481987847222
 20
7.249945068359375
 10
-3.138481987847222
 20
7.249945068359375
 10
-3.138481987847222
 20
7.707798258463541
 10
-3.138481987847222
 20
7.707798258463541
 10
-3.138481987847222
 20
7.707798258463541
 10
-0.9363769531249999
 20
4.620992702907985
 10
-0.9363769531249999
 20
4.620992702907985
 10
-0.9363769531249999
 20
4.620992702907985
 10
-0.9363769531249999
 20
4.174852837456597
 10
-0.9363769531249999
 20
4.174852837456597
 10
-0.9363769531249999
 20
4.174852837456597
 10
-1.177878146701389
 20
4.513505723741319
 10
-1.177878146701389
 20
4.513505723741319
 97
        0
 75
     0
 76
     1
 98
        1
 10
0.0
 20
0.0
  0
HATCH
  5
30
330
28
100
AcDbEntity
  8
LAYER_1
 62
     7
100
AcDbHatch
 10
0.0
 20
0.0
 30
0.0
210
0.0
220
0.0
230
1.0
  2
SOLID
 70
     1
 71
     0
 91
        2
 92
       16
 93
        1
 72
     4
 94
        3
 73
     0
 74
     0
 95
       17
 96
       13
 40
0.0
 40
0.0
 40
0.0
 40
0.0
 40
1.0
 40
1.0
 40
1.0
 40
2.0
 40
2.0
 40
2.0
 40
3.0
 40
3.0
 40
3.0
 40
4.0
 40
4.0
 40
4.0
 40
4.0
 10
-2.037601725260417
 20
2.953221978081597
 10
-2.576070149739583
 20
3.708042399088541
 10
-2.932637532552083
 20
4.074600558810763
 10
-2.932637532552083
 20
3.622604031032986
 10
-2.932637532552083
 20
2.927383761935764
 10
-2.34249267578125
 20
2.105728488498264
 10
-1.990059407552083
 20
1.61170179578993
 10
-1.554082573784722
 20
1.001058620876736
 10
-1.142393663194444
 20
0.5568135579427083
 10
-1.142393663194444
 20
1.066687689887153
 10
-1.142393663194444
 20
1.675091552734375
 10
-1.740462239583333
 20
2.536709933810764
 10
-2.037601725260417
 20
2.953221978081597
 97
        0
 92
        1
 93
        1
 72
     4
 94
        3
 73
     0
 74
     0
 95
       50
 96
       46
 40
0.0
 40
0.0
 40
0.0
 40
0.0
 40
1.0
 40
1.0
 40
1.0
 40
2.0
 40
2.0
 40
2.0
 40
3.0
 40
3.0
 40
3.0
 40
4.0
 40
4.0
 40
4.0
 40
5.0
 40
5.0
 40
5.0
 40
6.0
 40
6.0
 40
6.0
 40
7.0
 40
7.0
 40
7.0
 40
8.0
 40
8.0
 40
8.0
 40
9.0
 40
9.0
 40
9.0
 40
10.0
 40
10.0
 40
10.0
 40
11.0
 40
11.0
 40
11.0
 40
12.0
 40
12.0
 40
12.0
 40
13.0
 40
13.0
 40
13.0
 40
14.0
 40
14.0
 40
14.0
 40
15.0
 40
15.0
 40
15.0
 40
15.0
 10
-0.9363769531249999
 20
0.1349616156684028
 10
-0.9363769531249999
 20
0.1349616156684028
 10
-0.9363769531249999
 20
-0.3228915744357639
 10
-0.9363769531249999
 20
-0.3228915744357639
 10
-0.9363769531249999
 20
-0.3228915744357639
 10
-2.873209635416667
 20
2.392015923394097
 10
-2.873209635416667
 20
2.392015923394097
 10
-3.142616102430555
 20
2.769426133897569
 10
-3.3486328125
 20
3.087236192491319
 10
-3.582210286458333
 20
3.629149712456597
 10
-3.800284830729166
 20
4.137301296657986
 10
-3.887445746527777
 20
4.589642333984375
 10
-3.887445746527777
 20
4.943109130859375
 10
-3.887445746527777
 20
5.458839925130208
 10
-3.724837239583333
 20
5.613696967230903
 10
-3.3486328125
 20
5.150159369574652
 10
-3.3486328125
 20
5.150159369574652
 10
-3.3486328125
 20
4.704019504123264
 10
-3.3486328125
 20
4.704019504123264
 10
-3.546553548177083
 20
4.940869818793402
 10
-3.622001139322916
 20
4.861115858289931
 10
-3.622001139322916
 20
4.582752143012153
 10
-3.622001139322916
 20
3.84102308485243
 10
-3.122806803385416
 20
3.216944037543402
 10
-2.881133355034722
 20
2.872606743706597
 10
-2.881133355034722
 20
2.872606743706597
 10
-2.881133355034722
 20
2.883975558810764
 10
-2.881133355034722
 20
2.883975558810764
 10
-3.107131618923611
 20
3.391610378689236
 10
-3.198082139756944
 20
3.728023952907986
 10
-3.198082139756944
 20
4.023613145616319
 10
-3.198082139756944
 20
4.631844753689236
 10
-2.908866373697916
 20
4.649586995442708
 10
-2.02158203125
 20
3.406079779730903
 10
-1.558216688368056
 20
2.756507025824653
 10
-0.8769490559895833
 20
1.633578152126736
 10
-0.8769490559895833
 20
0.7817782931857639
 10
-0.8769490559895833
 20
0.4861891004774305
 10
-0.9759955512152777
 20
0.3583760579427083
 10
-1.18597412109375
 20
0.4961798773871528
 10
-1.18597412109375
 20
0.4961798773871528
 10
-1.18597412109375
 20
0.4844665527343749
 10
-1.18597412109375
 20
0.4844665527343749
 10
-1.18597412109375
 20
0.4844665527343749
 10
-0.9363769531249999
 20
0.1349616156684028
 10
-0.9363769531249999
 20
0.1349616156684028
 97
        0
 75
     0
 76
     1
 98
        1
 10
0.0
 20
0.0
  0
HATCH
  5
2F
330
28
100
AcDbEntity
  8
LAYER_1
 62
     7
100
AcDbHatch
 10
0.0
 20
0.0
 30
0.0
210
0.0
220
0.0
230
1.0
  2
SOLID
 70
     1
 71
     0
 91
        1
 92
        1
 93
        1
 72
     4
 94
        3
 73
     0
 74
     0
 95
       17
 96
       13
 40
0.0
 40
0.0
 40
0.0
 40
0.0
 40
1.0
 40
1.0
 40
1.0
 40
2.0
 40
2.0
 40
2.0
 40
3.0
 40
3.0
 40
3.0
 40
4.0
 40
4.0
 40
4.0
 40
4.0
 10
-2.0494873046875
 20
0.546478271484375
 10
-2.0494873046875
 20
0.546478271484375
 10
-1.720480685763889
 20
0.0855244954427083
 10
-1.720480685763889
 20
0.0855244954427083
 10
-1.720480685763889
 20
0.0855244954427083
 10
-1.720480685763889
 20
-1.322313774956597
 10
-1.720480685763889
 20
-1.322313774956597
 10
-1.720480685763889
 20
-1.322313774956597
 10
-2.0494873046875
 20
-0.861532253689236
 10
-2.0494873046875
 20
-0.861532253689236
 10
-2.0494873046875
 20
-0.861532253689236
 10
-2.0494873046875
 20
0.546478271484375
 10
-2.0494873046875
 20
0.546478271484375
 97
        0
 75
     0
 76
     1
 98
        1
 10
0.0
 20
0.0
  0
HATCH
  5
2E
330
28
100
AcDbEntity
  8
LAYER_1
 62
     7
100
AcDbHatch
 10
0.0
 20
0.0
 30
0.0
210
0.0
220
0.0
230
1.0
  2
SOLID
 70
     1
 71
     0
 91
        1
 92
        1
 93
        1
 72
     4
 94
        3
 73
     0
 74
     0
 95
       29
 96
       25
 40
0.0
 40
0.0
 40
0.0
 40
0.0
 40
1.0
 40
1.0
 40
1.0
 40
2.0
 40
2.0
 40
2.0
 40
3.0
 40
3.0
 40
3.0
 40
4.0
 40
4.0
 40
4.0
 40
5.0
 40
5.0
 40
5.0
 40
6.0
 40
6.0
 40
6.0
 40
7.0
 40
7.0
 40
7.0
 40
8.0
 40
8.0
 40
8.0
 40
8.0
 10
-0.1679484049479167
 20
-2.918254258897569
 10
-0.1679484049479167
 20
-2.918254258897569
 10
-0.1679484049479167
 20
-5.647631157769097
 10
-0.1679484049479167
 20
-5.647631157769097
 10
-0.1679484049479167
 20
-5.647631157769097
 10
-0.4647433810763889
 20
-5.231291368272569
 10
-0.4647433810763889
 20
-5.231291368272569
 10
-0.4647433810763889
 20
-5.231291368272569
 10
-0.4647433810763889
 20
-4.107156711154514
 10
-0.4647433810763889
 20
-4.107156711154514
 10
-0.4647433810763889
 20
-4.107156711154514
 10
-3.138481987847222
 20
-0.3595818413628472
 10
-3.138481987847222
 20
-0.3595818413628472
 10
-3.138481987847222
 20
-0.3595818413628472
 10
-3.138481987847222
 20
0.1215257432725694
 10
-3.138481987847222
 20
0.1215257432725694
 10
-3.138481987847222
 20
0.1215257432725694
 10
-0.4647433810763889
 20
-3.626049126519097
 10
-0.4647433810763889
 20
-3.626049126519097
 10
-0.4647433810763889
 20
-3.626049126519097
 10
-0.4647433810763889
 20
-2.501742214626736
 10
-0.4647433810763889
 20
-2.501742214626736
 10
-0.4647433810763889
 20
-2.501742214626736
 10
-0.1679484049479167
 20
-2.918254258897569
 10
-0.1679484049479167
 20
-2.918254258897569
 97
        0
 75
     0
 76
     1
 98
        1
 10
0.0
 20
0.0
  0
HATCH
  5
2D
330
28
100
AcDbEntity
  8
LAYER_1
 62
     7
100
AcDbHatch
 10
0.0
 20
0.0
 30
0.0
210
0.0
220
0.0
230
1.0
  2
SOLID
 70
     1
 71
     0
 91
        2
 92
        1
 93
        1
 72
     4
 94
        3
 73
     0
 74
     0
 95
       17
 96
       13
 40
0.0
 40
0.0
 40
0.0
 40
0.0
 40
1.0
 40
1.0
 40
1.0
 40
2.0
 40
2.0
 40
2.0
 40
3.0
 40
3.0
 40
3.0
 40
4.0
 40
4.0
 40
4.0
 40
4.0
 10
-0.5639621310763888
 20
-5.493463134765625
 10
-0.5639621310763888
 20
-5.493463134765625
 10
-0.1679484049479167
 20
-6.048468017578125
 10
-0.1679484049479167
 20
-6.048468017578125
 10
-0.1679484049479167
 20
-6.048468017578125
 10
-0.1679484049479167
 20
-6.506321207682291
 10
-0.1679484049479167
 20
-6.506321207682291
 10
-0.1679484049479167
 20
-6.506321207682291
 10
-0.5639621310763888
 20
-5.95097181532118
 10
-0.5639621310763888
 20
-5.95097181532118
 10
-0.5639621310763888
 20
-5.95097181532118
 10
-0.5639621310763888
 20
-5.493463134765625
 10
-0.5639621310763888
 20
-5.493463134765625
 97
        0
 92
        1
 93
        1
 72
     4
 94
        3
 73
     0
 74
     0
 95
       17
 96
       13
 40
0.0
 40
0.0
 40
0.0
 40
0.0
 40
1.0
 40
1.0
 40
1.0
 40
2.0
 40
2.0
 40
2.0
 40
3.0
 40
3.0
 40
3.0
 40
4.0
 40
4.0
 40
4.0
 40
4.0
 10
-3.138481987847222
 20
-1.88455335828993
 10
-3.138481987847222
 20
-1.88455335828993
 10
-0.9363769531249999
 20
-4.971531168619792
 10
-0.9363769531249999
 20
-4.971531168619792
 10
-0.9363769531249999
 20
-4.971531168619792
 10
-0.9363769531249999
 20
-5.429384358723958
 10
-0.9363769531249999
 20
-5.429384358723958
 10
-0.9363769531249999
 20
-5.429384358723958
 10
-3.138481987847222
 20
-2.342406548394097
 10
-3.138481987847222
 20
-2.342406548394097
 10
-3.138481987847222
 20
-2.342406548394097
 10
-3.138481987847222
 20
-1.88455335828993
 10
-3.138481987847222
 20
-1.88455335828993
 97
        0
 75
     0
 76
     1
 98
        1
 10
0.0
 20
0.0
  0
HATCH
  5
2C
330
28
100
AcDbEntity
  8
LAYER_1
 62
     7
100
AcDbHatch
 10
0.0
 20
0.0
 30
0.0
210
0.0
220
0.0
230
1.0
  2
SOLID
 70
     1
 71
     0
 91
        2
 92
       16
 93
        1
 72
     4
 94
        3
 73
     0
 74
     0
 95
       14
 96
       10
 40
0.0
 40
0.0
 40
0.0
 40
0.0
 40
1.0
 40
1.0
 40
1.0
 40
2.0
 40
2.0
 40
2.0
 40
3.0
 40
3.0
 40
3.0
 40
3.0
 10
-1.8076416015625
 20
-6.432940673828124
 10
-1.55029296875
 20
-6.776416693793403
 10
-1.142393663194444
 20
-7.371556939019096
 10
-1.142393663194444
 20
-6.838256157769097
 10
-1.142393663194444
 20
-6.305127631293402
 10
-1.546503363715278
 20
-5.727385118272569
 10
-1.8076416015625
 20
-5.343601481119792
 10
-1.8076416015625
 20
-5.343601481119792
 10
-1.8076416015625
 20
-6.432940673828124
 10
-1.8076416015625
 20
-6.432940673828124
 97
        0
 92
        1
 93
        1
 72
     4
 94
        3
 73
     0
 74
     0
 95
       29
 96
       25
 40
0.0
 40
0.0
 40
0.0
 40
0.0
 40
1.0
 40
1.0
 40
1.0
 40
2.0
 40
2.0
 40
2.0
 40
3.0
 40
3.0
 40
3.0
 40
4.0
 40
4.0
 40
4.0
 40
5.0
 40
5.0
 40
5.0
 40
6.0
 40
6.0
 40
6.0
 40
7.0
 40
7.0
 40
7.0
 40
8.0
 40
8.0
 40
8.0
 40
8.0
 10
-2.405710177951389
 20
-6.046573215060763
 10
-2.837552897135416
 20
-5.47038099500868
 10
-3.198082139756944
 20
-4.640802001953125
 10
-3.198082139756944
 20
-3.962807210286458
 10
-3.198082139756944
 20
-3.35423109266493
 10
-2.920751953125
 20
-3.308239067925347
 10
-2.033467610677083
 20
-4.551918538411458
 10
-1.570274522569444
 20
-5.201319037543402
 10
-0.8769490559895833
 20
-6.352669949001736
 10
-0.8769490559895833
 20
-7.204642062717014
 10
-0.8769490559895833
 20
-8.247816975911457
 10
-1.55029296875
 20
-7.245638699001735
 10
-2.065334743923611
 20
-6.547317843967013
 10
-2.065334743923611
 20
-6.547317843967013
 10
-2.065334743923611
 20
-4.982899983723958
 10
-2.065334743923611
 20
-4.982899983723958
 10
-2.362301974826389
 20
-4.577929009331597
 10
-2.932637532552083
 20
-3.70304701063368
 10
-2.932637532552083
 20
-4.34641859266493
 10
-2.932637532552083
 20
-4.78670179578993
 10
-2.655479600694444
 20
-5.297092692057292
 10
-2.405710177951389
 20
-5.617831081814235
 10
-2.405710177951389
 20
-5.617831081814235
 10
-2.405710177951389
 20
-6.046573215060763
 10
-2.405710177951389
 20
-6.046573215060763
 97
        0
 75
     0
 76
     1
 98
        1
 10
0.0
 20
0.0
  0
HATCH
  5
2B
330
28
100
AcDbEntity
  8
LAYER_1
 62
     7
100
AcDbHatch
 10
0.0
 20
0.0
 30
0.0
210
0.0
220
0.0
230
1.0
  2
SOLID
 70
     1
 71
     0
 91
        4
 92
       16
 93
        1
 72
     4
 94
        3
 73
     0
 74
     0
 95
       20
 96
       16
 40
0.0
 40
0.0
 40
0.0
 40
0.0
 40
1.0
 40
1.0
 40
1.0
 40
2.0
 40
2.0
 40
2.0
 40
3.0
 40
3.0
 40
3.0
 40
4.0
 40
4.0
 40
4.0
 40
5.0
 40
5.0
 40
5.0
 40
5.0
 10
-0.8223442925347222
 20
-9.52319132486979
 10
-0.8223442925347222
 20
-9.725073920355902
 10
-0.8428426106770832
 20
-10.01101684570312
 10
-0.6414767795138888
 20
-10.29334242078993
 10
-0.4923041449652778
 20
-10.50297648111979
 10
-0.4740451388888888
 20
-10.33313327365451
 10
-0.4740451388888888
 20
-10.15433281792535
 10
-0.4740451388888888
 20
-10.15433281792535
 10
-0.4740451388888888
 20
-9.744021945529513
 10
-0.4740451388888888
 20
-9.744021945529513
 10
-0.4740451388888888
 20
-9.744021945529513
 10
-0.8223442925347222
 20
-9.255162896050347
 10
-0.8223442925347222
 20
-9.255162896050347
 10
-0.8223442925347222
 20
-9.255162896050347
 10
-0.8223442925347222
 20
-9.52319132486979
 10
-0.8223442925347222
 20
-9.52319132486979
 97
        0
 92
        1
 93
        1
 72
     4
 94
        3
 73
     0
 74
     0
 95
       38
 96
       34
 40
0.0
 40
0.0
 40
0.0
 40
0.0
 40
1.0
 40
1.0
 40
1.0
 40
2.0
 40
2.0
 40
2.0
 40
3.0
 40
3.0
 40
3.0
 40
4.0
 40
4.0
 40
4.0
 40
5.0
 40
5.0
 40
5.0
 40
6.0
 40
6.0
 40
6.0
 40
7.0
 40
7.0
 40
7.0
 40
8.0
 40
8.0
 40
8.0
 40
9.0
 40
9.0
 40
9.0
 40
10.0
 40
10.0
 40
10.0
 40
11.0
 40
11.0
 40
11.0
 40
11.0
 10
-1.374248589409722
 20
-9.42672865125868
 10
-1.374248589409722
 20
-9.42672865125868
 10
-1.374248589409722
 20
-9.211754692925346
 10
-1.374248589409722
 20
-9.211754692925346
 10
-1.374248589409722
 20
-9.211754692925346
 10
-0.9172566731770833
 20
-9.442748345269097
 10
-0.9172566731770833
 20
-9.442748345269097
 10
-0.9172566731770833
 20
-9.442748345269097
 10
-0.9172566731770833
 20
-9.121837700737846
 10
-0.9172566731770833
 20
-9.121837700737846
 10
-0.9172566731770833
 20
-9.121837700737846
 10
-1.374248589409722
 20
-8.480360921223957
 10
-1.374248589409722
 20
-8.480360921223957
 10
-1.374248589409722
 20
-8.480360921223957
 10
-1.374248589409722
 20
-8.29501478407118
 10
-1.374248589409722
 20
-8.29501478407118
 10
-1.374248589409722
 20
-8.29501478407118
 10
-0.3789605034722222
 20
-9.692001003689235
 10
-0.3789605034722222
 20
-9.692001003689235
 10
-0.3789605034722222
 20
-9.692001003689235
 10
-0.3789605034722222
 20
-10.33072170681423
 10
-0.3789605034722222
 20
-10.33072170681423
 10
-0.3789605034722222
 20
-10.44992201063368
 10
-0.3789605034722222
 20
-10.57239515516493
 10
-0.4333930121527778
 20
-10.6054680718316
 10
-0.4740451388888888
 20
-10.65421617296007
 10
-0.564651150173611
 20
-10.5899651421441
 10
-0.6459554036458333
 20
-10.4723151312934
 10
-0.8428426106770832
 20
-10.1961907280816
 10
-0.9151896158854166
 20
-9.889404975043401
 10
-0.9172566731770833
 20
-9.634812418619791
 10
-0.9172566731770833
 20
-9.634812418619791
 10
-1.374248589409722
 20
-9.42672865125868
 10
-1.374248589409722
 20
-9.42672865125868
 97
        0
 92
       16
 93
        1
 72
     4
 94
        3
 73
     0
 74
     0
 95
       17
 96
       13
 40
0.0
 40
0.0
 40
0.0
 40
0.0
 40
1.0
 40
1.0
 40
1.0
 40
2.0
 40
2.0
 40
2.0
 40
3.0
 40
3.0
 40
3.0
 40
4.0
 40
4.0
 40
4.0
 40
4.0
 10
-0.87901611328125
 20
-8.371495903862847
 10
-1.299662272135417
 20
-7.780834282769097
 10
-1.634353298611111
 20
-7.804088677300347
 10
-1.634353298611111
 20
-8.416454399956596
 10
-1.634353298611111
 20
-9.028475613064236
 10
-1.299662272135417
 20
-9.985178629557291
 10
-0.87901611328125
 20
-10.57549574110243
 10
-0.4626763237847222
 20
-11.15995619032118
 10
-0.1257459852430556
 20
-11.14652031792535
 10
-0.1257459852430556
 20
-10.5341545952691
 10
-0.1257459852430556
 20
-9.922133382161457
 10
-0.4626763237847222
 20
-8.955784098307291
 10
-0.87901611328125
 20
-8.371495903862847
 97
        0
 92
        1
 93
        1
 72
     4
 94
        3
 73
     0
 74
     0
 95
       17
 96
       13
 40
0.0
 40
0.0
 40
0.0
 40
0.0
 40
1.0
 40
1.0
 40
1.0
 40
2.0
 40
2.0
 40
2.0
 40
3.0
 40
3.0
 40
3.0
 40
4.0
 40
4.0
 40
4.0
 40
4.0
 10
-0.8767768012152777
 20
-10.77393324110243
 10
-1.37200927734375
 20
-10.0785407172309
 10
-1.765611436631944
 20
-8.947171359592014
 10
-1.765611436631944
 20
-8.232314046223957
 10
-1.765611436631944
 20
-7.514183892144096
 10
-1.37200927734375
 20
-7.484039306640624
 10
-0.8767768012152777
 20
-8.179604085286458
 10
-0.3880900065104166
 20
-8.865178087022569
 10
0.0055121527777778
 20
-10.00033704969618
 10
0.0055121527777778
 20
-10.71829494900173
 10
0.0055121527777778
 20
-11.4333245171441
 10
-0.3880900065104166
 20
-11.46002400716146
 10
-0.8767768012152777
 20
-10.77393324110243
 97
        0
 75
     0
 76
     1
 98
        1
 10
0.0
 20
0.0
  0
ENDBLK
  5
3D
330
28
100
AcDbEntity
  8
LAYER_1
100
AcDbBlockEnd
  0
BLOCK
  5
40
330
3E
100
AcDbEntity
  8
LAYER_1
 62
     7
100
AcDbBlockBegin
  2
AI9-BLK2
 70
     0
 10
0.0
 20
0.0
 30
0.0
  3
AI9-BLK2
  1

  4

  0
SPLINE
  5
6A
330
3E
100
AcDbEntity
  8
LAYER_1
 62
     7
100
AcDbSpline
210
0.0
220
0.0
230
1.0
 70
    11
 71
     3
 72
    62
 73
    58
 74
     0
 42
0.0000000001
 43
0.0000000001
 40
0.0
 40
0.0
 40
0.0
 40
0.0
 40
1.0
 40
1.0
 40
1.0
 40
2.0
 40
2.0
 40
2.0
 40
3.0
 40
3.0
 40
3.0
 40
4.0
 40
4.0
 40
4.0
 40
5.0
 40
5.0
 40
5.0
 40
6.0
 40
6.0
 40
6.0
 40
7.0
 40
7.0
 40
7.0
 40
8.0
 40
8.0
 40
8.0
 40
9.0
 40
9.0
 40
9.0
 40
10.0
 40
10.0
 40
10.0
 40
11.0
 40
11.0
 40
11.0
 40
12.0
 40
12.0
 40
12.0
 40
13.0
 40
13.0
 40
13.0
 40
14.0
 40
14.0
 40
14.0
 40
15.0
 40
15.0
 40
15.0
 40
16.0
 40
16.0
 40
16.0
 40
17.0
 40
17.0
 40
17.0
 40
18.0
 40
18.0
 40
18.0
 40
19.0
 40
19.0
 40
19.0
 40
19.0
 10
8.380625406901041
 20
54.33225640190972
 30
0.0
 10
8.380625406901041
 20
54.33225640190972
 30
0.0
 10
-32.17986178927951
 20
54.33225640190972
 30
0.0
 10
-32.17986178927951
 20
54.33225640190972
 30
0.0
 10
-32.17986178927951
 20
54.33225640190972
 30
0.0
 10
-32.17986178927951
 20
47.84996473524305
 30
0.0
 10
-32.17986178927951
 20
47.84996473524305
 30
0.0
 10
-32.17986178927951
 20
47.84996473524305
 30
0.0
 10
-20.14132012261285
 20
34.51486138237847
 30
0.0
 10
-20.14132012261285
 20
34.51486138237847
 30
0.0
 10
-20.14132012261285
 20
34.51486138237847
 30
0.0
 10
-12.45513983832465
 20
38.03385416666666
 30
0.0
 10
-12.45513983832465
 20
38.03385416666666
 30
0.0
 10
-11.89961819118924
 20
38.31187337239583
 30
0.0
 10
-11.15892266167535
 20
38.31187337239583
 30
0.0
 10
-10.51055569118924
 20
37.66350640190972
 30
0.0
 10
-10.51055569118924
 20
37.66350640190972
 30
0.0
 10
-7.176909044053819
 20
33.49631890190972
 30
0.0
 10
-7.176909044053819
 20
33.49631890190972
 30
0.0
 10
-7.176909044053819
 20
33.49631890190972
 30
0.0
 10
-7.176909044053819
 20
-18.63951687282986
 30
0.0
 10
-7.176909044053819
 20
-18.63951687282986
 30
0.0
 10
-7.176909044053819
 20
-18.63951687282986
 30
0.0
 10
16.71500040690104
 20
-51.97701687282986
 30
0.0
 10
16.71500040690104
 20
-51.97701687282986
 30
0.0
 10
17.82621595594618
 20
-53.36607937282986
 30
0.0
 10
18.3817376030816
 20
-54.56996799045138
 30
0.0
 10
21.34520874023437
 20
-54.29212103949652
 30
0.0
 10
21.34520874023437
 20
-54.29212103949652
 30
0.0
 10
19.67829928927951
 20
-52.06951768663194
 30
0.0
 10
19.67829928927951
 20
-52.06951768663194
 30
0.0
 10
19.21527845594618
 20
-51.60649685329861
 30
0.0
 10
19.1227776421441
 20
-51.05097520616319
 30
0.0
 10
19.1227776421441
 20
-50.12493353949652
 30
0.0
 10
19.1227776421441
 20
-50.12493353949652
 30
0.0
 10
19.1227776421441
 20
-19.93607855902778
 30
0.0
 10
19.1227776421441
 20
-19.93607855902778
 30
0.0
 10
19.1227776421441
 20
-18.82469075520833
 30
0.0
 10
19.63196275499132
 20
-18.31550564236111
 30
0.0
 10
20.69684176974826
 20
-17.71347520616319
 30
0.0
 10
20.69684176974826
 20
-17.71347520616319
 30
0.0
 10
32.17986178927951
 20
-11.416357421875
 30
0.0
 10
32.17986178927951
 20
-11.416357421875
 30
0.0
 10
32.17986178927951
 20
-11.416357421875
 30
0.0
 10
32.17986178927951
 20
-8.731077745225694
 30
0.0
 10
32.17986178927951
 20
-8.731077745225694
 30
0.0
 10
32.17986178927951
 20
-8.731077745225694
 30
0.0
 10
20.32649400499132
 20
5.530067274305555
 30
0.0
 10
20.32649400499132
 20
5.530067274305555
 30
0.0
 10
20.32649400499132
 20
5.530067274305555
 30
0.0
 10
12.08479207356771
 20
-5.119411892361111
 30
0.0
 10
12.08479207356771
 20
-5.119411892361111
 30
0.0
 10
12.08479207356771
 20
-5.119411892361111
 30
0.0
 10
8.380625406901041
 20
33.86683892144097
 30
0.0
 10
8.380625406901041
 20
33.86683892144097
 30
0.0
 10
8.380625406901041
 20
33.86683892144097
 30
0.0
 10
8.380625406901041
 20
54.33225640190972
 30
0.0
 10
8.380625406901041
 20
54.33225640190972
 30
0.0
  0
SPLINE
  5
69
330
3E
100
AcDbEntity
  8
LAYER_1
 62
     7
100
AcDbSpline
210
0.0
220
0.0
230
1.0
 70
     8
 71
     3
 72
    17
 73
    13
 74
     0
 42
0.0000000001
 43
0.0000000001
 40
0.0
 40
0.0
 40
0.0
 40
0.0
 40
1.0
 40
1.0
 40
1.0
 40
2.0
 40
2.0
 40
2.0
 40
3.0
 40
3.0
 40
3.0
 40
4.0
 40
4.0
 40
4.0
 40
4.0
 10
31.99468790690104
 20
-9.008924696180555
 30
0.0
 10
31.99468790690104
 20
-9.008924696180555
 30
0.0
 10
19.49312540690104
 20
-15.86139187282986
 30
0.0
 10
19.49312540690104
 20
-15.86139187282986
 30
0.0
 10
17.64104207356771
 20
-16.84927300347222
 30
0.0
 10
16.93479749891493
 20
-17.89106987847222
 30
0.0
 10
16.93479749891493
 20
-19.44239637586805
 30
0.0
 10
16.93479749891493
 20
-19.44239637586805
 30
0.0
 10
16.93479749891493
 20
-50.95812988281249
 30
0.0
 10
16.93479749891493
 20
-50.95812988281249
 30
0.0
 10
16.93479749891493
 20
-51.60649685329861
 30
0.0
 10
17.27069430881076
 20
-52.62521158854166
 30
0.0
 10
17.7337151421441
 20
-53.18090549045139
 30
0.0
  0
SPLINE
  5
68
330
3E
100
AcDbEntity
  8
LAYER_1
 62
     7
100
AcDbSpline
210
0.0
220
0.0
230
1.0
 70
     8
 71
     3
 72
    17
 73
    13
 74
     0
 42
0.0000000001
 43
0.0000000001
 40
0.0
 40
0.0
 40
0.0
 40
0.0
 40
1.0
 40
1.0
 40
1.0
 40
2.0
 40
2.0
 40
2.0
 40
3.0
 40
3.0
 40
3.0
 40
4.0
 40
4.0
 40
4.0
 40
4.0
 10
12.13130086263021
 20
-5.003656684027777
 30
0.0
 10
12.13130086263021
 20
-5.003656684027777
 30
0.0
 10
10.7884026421441
 20
-6.670393880208333
 30
0.0
 10
10.7884026421441
 20
-6.670393880208333
 30
0.0
 10
10.32538180881076
 20
-7.272596571180555
 30
0.0
 10
10.04770711263021
 20
-8.337475585937499
 30
0.0
 10
10.55689222547743
 20
-9.217008463541665
 30
0.0
 10
11.06607733832465
 20
-10.09688585069444
 30
0.0
 10
12.13130086263021
 20
-10.95333658854167
 30
0.0
 10
12.29322035047743
 20
-11.62495795355903
 30
0.0
 10
12.45513983832465
 20
-12.29623480902778
 30
0.0
 10
12.33938462999132
 20
-13.36128607855903
 30
0.0
 10
10.95032212999132
 20
-13.36128607855903
 30
0.0
  0
SPLINE
  5
67
330
3E
100
AcDbEntity
  8
LAYER_1
 62
     7
100
AcDbSpline
210
0.0
220
0.0
230
1.0
 70
     8
 71
     3
 72
    17
 73
    13
 74
     0
 42
0.0000000001
 43
0.0000000001
 40
0.0
 40
0.0
 40
0.0
 40
0.0
 40
1.0
 40
1.0
 40
1.0
 40
2.0
 40
2.0
 40
2.0
 40
3.0
 40
3.0
 40
3.0
 40
4.0
 40
4.0
 40
4.0
 40
4.0
 10
6.343540445963541
 20
53.96173638237847
 30
0.0
 10
6.343540445963541
 20
53.96173638237847
 30
0.0
 10
6.343540445963541
 20
33.49631890190972
 30
0.0
 10
6.343540445963541
 20
33.49631890190972
 30
0.0
 10
6.343540445963541
 20
33.49631890190972
 30
0.0
 10
10.23270874023437
 20
-7.480680338541666
 30
0.0
 10
10.23270874023437
 20
-7.480680338541666
 30
0.0
 10
10.41788262261285
 20
-9.587700737847221
 30
0.0
 10
10.0938713921441
 20
-10.69891628689236
 30
0.0
 10
9.954861789279512
 20
-11.25443793402778
 30
0.0
 10
9.816196695963541
 20
-11.8101318359375
 30
0.0
 10
9.399340142144096
 20
-13.43070475260417
 30
0.0
 10
11.04316745334201
 20
-13.43070475260417
 30
0.0
  0
SPLINE
  5
66
330
3E
100
AcDbEntity
  8
LAYER_1
 62
     7
100
AcDbSpline
210
0.0
220
0.0
230
1.0
 70
     8
 71
     3
 72
     8
 73
     4
 74
     0
 42
0.0000000001
 43
0.0000000001
 40
0.0
 40
0.0
 40
0.0
 40
0.0
 40
1.0
 40
1.0
 40
1.0
 40
1.0
 10
9.954861789279512
 20
-11.25443793402778
 30
0.0
 10
9.816196695963541
 20
-11.8101318359375
 30
0.0
 10
9.376085747612846
 20
-13.31477728949653
 30
0.0
 10
11.01991305881076
 20
-13.31477728949653
 30
0.0
  0
LINE
  5
65
330
3E
100
AcDbEntity
  8
LAYER_1
 62
     7
100
AcDbLine
 10
13.17723185221354
 20
-10.32047254774306
 30
0.0
 11
17.54836900499132
 21
-15.76889105902778
 31
0.0
  0
LINE
  5
64
330
3E
100
AcDbEntity
  8
LAYER_1
 62
     7
100
AcDbLine
 10
11.15875040690104
 20
-7.805036078559027
 30
0.0
 11
12.27203301323785
 21
-9.192548285590277
 31
0.0
  0
LINE
  5
63
330
3E
100
AcDbEntity
  8
LAYER_1
 62
     7
100
AcDbLine
 10
14.26794908311632
 20
-13.94833034939236
 30
0.0
 11
16.49416978624132
 21
-16.72335476345486
 31
0.0
  0
LINE
  5
62
330
3E
100
AcDbEntity
  8
LAYER_1
 62
     7
100
AcDbLine
 10
12.86510620117188
 20
-12.19977213541667
 30
0.0
 11
13.60735202365451
 21
-13.12512478298611
 31
0.0
  0
LINE
  5
61
330
3E
100
AcDbEntity
  8
LAYER_1
 62
     7
100
AcDbLine
 10
-29.89576348198785
 20
45.56552191840277
 30
0.0
 11
-29.89576348198785
 21
54.20874972873263
 31
0.0
  0
LINE
  5
60
330
3E
100
AcDbEntity
  8
LAYER_1
 62
     7
100
AcDbLine
 10
-11.61401977539062
 20
43.59010416666666
 30
0.0
 11
-11.61401977539062
 21
53.95398491753472
 31
0.0
  0
LINE
  5
5F
330
3E
100
AcDbEntity
  8
LAYER_1
 62
     7
100
AcDbLine
 10
-11.61401977539062
 20
39.8859375
 30
0.0
 11
-11.61401977539062
 21
41.61468641493055
 31
0.0
  0
LINE
  5
5E
330
3E
100
AcDbEntity
  8
LAYER_1
 62
     7
100
AcDbLine
 10
-10.61855943467882
 20
43.3432630750868
 30
0.0
 11
-10.61855943467882
 21
53.95398491753472
 31
0.0
  0
LINE
  5
5D
330
3E
100
AcDbEntity
  8
LAYER_1
 62
     7
100
AcDbLine
 10
-10.61855943467882
 20
39.51558973524305
 30
0.0
 11
-10.61855943467882
 21
41.12065972222222
 31
0.0
  0
SPLINE
  5
5C
330
3E
100
AcDbEntity
  8
LAYER_1
 62
     7
100
AcDbSpline
210
0.0
220
0.0
230
1.0
 70
     8
 71
     3
 72
    23
 73
    19
 74
     0
 42
0.0000000001
 43
0.0000000001
 40
0.0
 40
0.0
 40
0.0
 40
0.0
 40
1.0
 40
1.0
 40
1.0
 40
2.0
 40
2.0
 40
2.0
 40
3.0
 40
3.0
 40
3.0
 40
4.0
 40
4.0
 40
4.0
 40
5.0
 40
5.0
 40
5.0
 40
6.0
 40
6.0
 40
6.0
 40
6.0
 10
-4.100955539279513
 20
44.76591525607638
 30
0.0
 10
-4.351758490668402
 20
46.05059136284722
 30
0.0
 10
-4.72313978407118
 20
46.67690972222222
 30
0.0
 10
-5.818680148654513
 20
46.67690972222222
 30
0.0
 10
-6.929895697699652
 20
46.67690972222222
 30
0.0
 10
-7.053402370876736
 20
45.4421875
 30
0.0
 10
-6.929895697699652
 20
44.33114420572916
 30
0.0
 10
-6.929895697699652
 20
44.33114420572916
 30
0.0
 10
-0.6327779134114583
 20
-2.094618055555555
 30
0.0
 10
-0.6327779134114583
 20
-2.094618055555555
 30
0.0
 10
-0.6327779134114583
 20
-2.094618055555555
 30
0.0
 10
-0.6327779134114583
 20
-17.6516357421875
 30
0.0
 10
-0.6327779134114583
 20
-17.6516357421875
 30
0.0
 10
-0.6327779134114583
 20
-19.01003689236111
 30
0.0
 10
-0.3857645670572916
 20
-19.62739800347222
 30
0.0
 10
0.4784376356336805
 20
-20.24475911458333
 30
0.0
 10
1.342639838324653
 20
-20.86212022569444
 30
0.0
 10
2.330520968967014
 20
-20.73861355251736
 30
0.0
 10
2.330520968967014
 20
-19.01003689236111
 30
0.0
  0
SPLINE
  5
5B
330
3E
100
AcDbEntity
  8
LAYER_1
 62
     7
100
AcDbSpline
210
0.0
220
0.0
230
1.0
 70
     8
 71
     3
 72
     8
 73
     4
 74
     0
 42
0.0000000001
 43
0.0000000001
 40
0.0
 40
0.0
 40
0.0
 40
0.0
 40
1.0
 40
1.0
 40
1.0
 40
1.0
 10
-4.100955539279513
 20
44.71975097656249
 30
0.0
 10
-4.351758490668402
 20
46.00442708333333
 30
0.0
 10
-4.738298204210069
 20
46.59973958333333
 30
0.0
 10
-5.834183078342013
 20
46.59973958333333
 30
0.0
  0
LINE
  5
5A
330
3E
100
AcDbEntity
  8
LAYER_1
 62
     7
100
AcDbLine
 10
-2.389604356553819
 20
32.08658582899305
 30
0.0
 11
-3.825347900390625
 21
42.89798448350694
 31
0.0
  0
LINE
  5
59
330
3E
100
AcDbEntity
  8
LAYER_1
 62
     7
100
AcDbLine
 10
-0.6823872884114582
 20
19.23396809895833
 30
0.0
 11
-2.011160617404514
 21
29.23680284288194
 31
0.0
  0
LINE
  5
58
330
3E
100
AcDbEntity
  8
LAYER_1
 62
     7
100
AcDbLine
 10
1.072544352213542
 20
6.020476616753472
 30
0.0
 11
-0.3075608995225694
 21
16.41002332899306
 31
0.0
  0
LWPOLYLINE
  5
53
330
3E
100
AcDbEntity
  8
LAYER_1
 62
     7
100
AcDbPolyline
 90
        3
 70
     0
 43
0.0
 10
2.330520968967014
 20
-5.999289279513889
 10
2.330520968967014
 20
-3.452674696180555
 10
1.386737060546875
 20
3.654557291666666
  0
LINE
  5
52
330
3E
100
AcDbEntity
  8
LAYER_1
 62
     7
100
AcDbLine
 10
2.330520968967014
 20
-17.38946397569444
 30
0.0
 11
2.330520968967014
 21
-8.314393446180555
 31
0.0
  0
SPLINE
  5
51
330
3E
100
AcDbEntity
  8
LAYER_1
 62
     7
100
AcDbSpline
210
0.0
220
0.0
230
1.0
 70
     8
 71
     3
 72
     8
 73
     4
 74
     0
 42
0.0000000001
 43
0.0000000001
 40
0.0
 40
0.0
 40
0.0
 40
0.0
 40
1.0
 40
1.0
 40
1.0
 40
1.0
 10
0.3936882866753472
 20
-20.30659857855903
 30
0.0
 10
1.257718234592014
 20
-20.92378743489583
 30
0.0
 10
2.330520968967014
 20
-20.83145887586806
 30
0.0
 10
2.330520968967014
 20
-19.10253770616319
 30
0.0
  0
SPLINE
  5
50
330
3E
100
AcDbEntity
  8
LAYER_1
 62
     7
100
AcDbSpline
210
0.0
220
0.0
230
1.0
 70
     8
 71
     3
 72
    17
 73
    13
 74
     0
 42
0.0000000001
 43
0.0000000001
 40
0.0
 40
0.0
 40
0.0
 40
0.0
 40
1.0
 40
1.0
 40
1.0
 40
2.0
 40
2.0
 40
2.0
 40
3.0
 40
3.0
 40
3.0
 40
4.0
 40
4.0
 40
4.0
 40
4.0
 10
-5.903601752387153
 20
46.63074544270833
 30
0.0
 10
-7.014645046657986
 20
46.63074544270833
 30
0.0
 10
-7.138151719835069
 20
45.3958509657118
 30
0.0
 10
-7.014645046657986
 20
44.28463541666666
 30
0.0
 10
-7.014645046657986
 20
44.28463541666666
 30
0.0
 10
-0.6946173773871527
 20
-2.094618055555555
 30
0.0
 10
-0.6946173773871527
 20
-2.094618055555555
 30
0.0
 10
-0.6946173773871527
 20
-2.094618055555555
 30
0.0
 10
-0.6946173773871527
 20
-17.6516357421875
 30
0.0
 10
-0.6946173773871527
 20
-17.6516357421875
 30
0.0
 10
-0.6946173773871527
 20
-19.01003689236111
 30
0.0
 10
-0.4476040310329861
 20
-19.62739800347222
 30
0.0
 10
0.4165981716579861
 20
-20.24475911458333
 30
0.0
  0
SPLINE
  5
4F
330
3E
100
AcDbEntity
  8
LAYER_1
 62
     7
100
AcDbSpline
210
0.0
220
0.0
230
1.0
 70
     8
 71
     3
 72
    23
 73
    19
 74
     0
 42
0.0000000001
 43
0.0000000001
 40
0.0
 40
0.0
 40
0.0
 40
0.0
 40
1.0
 40
1.0
 40
1.0
 40
2.0
 40
2.0
 40
2.0
 40
3.0
 40
3.0
 40
3.0
 40
4.0
 40
4.0
 40
4.0
 40
5.0
 40
5.0
 40
5.0
 40
6.0
 40
6.0
 40
6.0
 40
6.0
 10
0.5292527940538194
 20
40.73773735894097
 30
0.0
 10
0.2784498426649305
 20
42.0224134657118
 30
0.0
 10
-0.0929314507378472
 20
42.6487318250868
 30
0.0
 10
-1.18847181532118
 20
42.6487318250868
 30
0.0
 10
-2.299687364366319
 20
42.6487318250868
 30
0.0
 10
-2.423194037543403
 20
41.41383734809028
 30
0.0
 10
-2.299687364366319
 20
40.30262179904513
 30
0.0
 10
-2.299687364366319
 20
40.30262179904513
 30
0.0
 10
3.997430419921875
 20
-6.122623697916666
 30
0.0
 10
3.997430419921875
 20
-6.122623697916666
 30
0.0
 10
3.997430419921875
 20
-6.122623697916666
 30
0.0
 10
3.997430419921875
 20
-23.9024169921875
 30
0.0
 10
3.997430419921875
 20
-23.9024169921875
 30
0.0
 10
3.997430419921875
 20
-25.26081814236111
 30
0.0
 10
4.244443766276041
 20
-25.87817925347222
 30
0.0
 10
5.108645968967013
 20
-26.49536810980903
 30
0.0
 10
5.972848171657986
 20
-27.11290147569444
 30
0.0
 10
6.960729302300346
 20
-26.98939480251736
 30
0.0
 10
6.960729302300346
 20
-25.26081814236111
 30
0.0
  0
SPLINE
  5
4E
330
3E
100
AcDbEntity
  8
LAYER_1
 62
     7
100
AcDbSpline
210
0.0
220
0.0
230
1.0
 70
     8
 71
     3
 72
     8
 73
     4
 74
     0
 42
0.0000000001
 43
0.0000000001
 40
0.0
 40
0.0
 40
0.0
 40
0.0
 40
1.0
 40
1.0
 40
1.0
 40
1.0
 10
0.5292527940538194
 20
40.69122856987847
 30
0.0
 10
0.2784498426649305
 20
41.9759046766493
 30
0.0
 10
-0.1080898708767361
 20
42.5713894314236
 30
0.0
 10
-1.20397474500868
 20
42.5713894314236
 30
0.0
  0
LINE
  5
4D
330
3E
100
AcDbEntity
  8
LAYER_1
 62
     7
100
AcDbLine
 10
2.240603976779514
 20
28.05840793185764
 30
0.0
 11
0.8048604329427083
 21
38.86963433159722
 31
0.0
  0
LINE
  5
4C
330
3E
100
AcDbEntity
  8
LAYER_1
 62
     7
100
AcDbLine
 10
3.947821044921875
 20
15.20561794704861
 30
0.0
 11
2.619047715928819
 21
25.20879720052083
 31
0.0
  0
LINE
  5
4B
330
3E
100
AcDbEntity
  8
LAYER_1
 62
     7
100
AcDbLine
 10
5.702752685546875
 20
1.991954210069444
 30
0.0
 11
4.322647433810763
 21
12.38184543185764
 31
0.0
  0
LWPOLYLINE
  5
46
330
3E
100
AcDbEntity
  8
LAYER_1
 62
     7
100
AcDbPolyline
 90
        3
 70
     0
 43
0.0
 10
6.960729302300346
 20
-10.027294921875
 10
6.960729302300346
 20
-7.480680338541666
 10
6.016945393880208
 20
-0.3737928602430555
  0
LINE
  5
45
330
3E
100
AcDbEntity
  8
LAYER_1
 62
     7
100
AcDbLine
 10
6.960729302300346
 20
-23.64024522569444
 30
0.0
 11
6.960729302300346
 21
-12.34239908854167
 31
0.0
  0
SPLINE
  5
44
330
3E
100
AcDbEntity
  8
LAYER_1
 62
     7
100
AcDbSpline
210
0.0
220
0.0
230
1.0
 70
     8
 71
     3
 72
     8
 73
     4
 74
     0
 42
0.0000000001
 43
0.0000000001
 40
0.0
 40
0.0
 40
0.0
 40
0.0
 40
1.0
 40
1.0
 40
1.0
 40
1.0
 10
5.023896620008681
 20
-26.55720757378472
 30
0.0
 10
5.887926567925347
 20
-27.17456868489583
 30
0.0
 10
6.960729302300346
 20
-27.08189561631944
 30
0.0
 10
6.960729302300346
 20
-25.35331895616319
 30
0.0
  0
SPLINE
  5
43
330
3E
100
AcDbEntity
  8
LAYER_1
 62
     7
100
AcDbSpline
210
0.0
220
0.0
230
1.0
 70
     8
 71
     3
 72
    17
 73
    13
 74
     0
 42
0.0000000001
 43
0.0000000001
 40
0.0
 40
0.0
 40
0.0
 40
0.0
 40
1.0
 40
1.0
 40
1.0
 40
2.0
 40
2.0
 40
2.0
 40
3.0
 40
3.0
 40
3.0
 40
4.0
 40
4.0
 40
4.0
 40
4.0
 10
-1.273393419053819
 20
42.6022230360243
 30
0.0
 10
-2.384436713324653
 20
42.6022230360243
 30
0.0
 10
-2.507943386501736
 20
41.36767306857639
 30
0.0
 10
-2.384436713324653
 20
40.25628526475694
 30
0.0
 10
-2.384436713324653
 20
40.25628526475694
 30
0.0
 10
3.93559095594618
 20
-6.122623697916666
 30
0.0
 10
3.93559095594618
 20
-6.122623697916666
 30
0.0
 10
3.93559095594618
 20
-6.122623697916666
 30
0.0
 10
3.93559095594618
 20
-23.9024169921875
 30
0.0
 10
3.93559095594618
 20
-23.9024169921875
 30
0.0
 10
3.93559095594618
 20
-25.26081814236111
 30
0.0
 10
4.182604302300347
 20
-25.87817925347222
 30
0.0
 10
5.046806504991319
 20
-26.49536810980903
 30
0.0
  0
SPLINE
  5
42
330
3E
100
AcDbEntity
  8
LAYER_1
 62
     7
100
AcDbSpline
210
0.0
220
0.0
230
1.0
 70
    11
 71
     3
 72
    23
 73
    19
 74
     0
 42
0.0000000001
 43
0.0000000001
 40
0.0
 40
0.0
 40
0.0
 40
0.0
 40
1.0
 40
1.0
 40
1.0
 40
2.0
 40
2.0
 40
2.0
 40
3.0
 40
3.0
 40
3.0
 40
4.0
 40
4.0
 40
4.0
 40
5.0
 40
5.0
 40
5.0
 40
6.0
 40
6.0
 40
6.0
 40
6.0
 10
28.58163180881076
 20
-7.011802842881944
 30
0.0
 10
28.96128133138021
 20
-8.79670681423611
 30
0.0
 10
27.2652608235677
 20
-10.66946072048611
 30
0.0
 10
24.79409383138021
 20
-11.19483778211806
 30
0.0
 10
22.3225823296441
 20
-11.72004258897569
 30
0.0
 10
20.01161227756076
 20
-10.69891628689236
 30
0.0
 10
19.63230726453993
 20
-8.914012315538194
 30
0.0
 10
19.63230726453993
 20
-8.914012315538194
 30
0.0
 10
19.29434339735243
 20
-7.324617513020833
 30
0.0
 10
19.29434339735243
 20
-7.324617513020833
 30
0.0
 10
18.9150383843316
 20
-5.540058051215278
 30
0.0
 10
20.61105889214409
 20
-3.667304144965277
 30
0.0
 10
23.0822258843316
 20
-3.141927083333333
 30
0.0
 10
25.55339287651909
 20
-2.616722276475694
 30
0.0
 10
27.86470743815104
 20
-3.637676323784722
 30
0.0
 10
28.24401245117187
 20
-5.422580295138888
 30
0.0
 10
28.24401245117187
 20
-5.422580295138888
 30
0.0
 10
28.58163180881076
 20
-7.011802842881944
 30
0.0
 10
28.58163180881076
 20
-7.011802842881944
 30
0.0
  0
ELLIPSE
  5
41
330
3E
100
AcDbEntity
  8
LAYER_1
 62
     7
100
AcDbEllipse
 10
23.76134033203125
 20
-6.337080891927083
 30
0.0
 11
4.474748399522569
 21
0.9513631184895832
 31
0.0
210
0.0
220
0.0
230
1.0
 40
0.7221923450882078
 41
0.0
 42
6.283185307179586
  0
ENDBLK
  5
6B
330
3E
100
AcDbEntity
  8
LAYER_1
100
AcDbBlockEnd
  0
BLOCK
  5
6E
330
6C
100
AcDbEntity
  8
LAYER_1
 62
     7
100
AcDbBlockBegin
  2
AI9-BLK3
 70
     0
 10
0.0
 20
0.0
 30
0.0
  3
AI9-BLK3
  1

  4

  0
LWPOLYLINE
  5
89
330
6C
100
AcDbEntity
  8
LAYER_1
 62
     7
100
AcDbPolyline
 90
        3
 70
     0
 43
0.0
 10
-7.452516682942708
 20
61.38109402126736
 10
32.36693047417534
 20
61.28842095269097
 10
32.36693047417534
 20
-61.31908230251736
  0
LINE
  5
88
330
6C
100
AcDbEntity
  8
LAYER_1
 62
     7
100
AcDbLine
 10
32.42876993815104
 20
-14.83199734157986
 30
0.0
 11
-4.235486518012152
 21
30.4727308485243
 31
0.0
  0
LWPOLYLINE
  5
82
330
6C
100
AcDbEntity
  8
LAYER_1
 62
     7
100
AcDbPolyline
 90
        4
 70
     0
 43
0.0
 10
0.7145989312065971
 20
-41.60435112847222
 10
-32.08512166341146
 20
-61.31908230251736
 10
18.29130384657118
 20
-61.38074951171875
 10
7.740698920355902
 20
-47.14561496310763
  0
LWPOLYLINE
  5
7C
330
6C
100
AcDbEntity
  8
LAYER_1
 62
     7
100
AcDbPolyline
 90
        4
 70
     0
 43
0.0
 10
-20.79433797200521
 20
-8.224131944444444
 10
-26.08135375976562
 20
-1.033700900607639
 10
-26.08135375976562
 20
31.5858412000868
 10
-20.85703870985243
 20
33.77089301215278
  0
LWPOLYLINE
  5
75
330
6C
100
AcDbEntity
  8
LAYER_1
 62
     7
100
AcDbPolyline
 90
        5
 70
     0
 43
0.0
 10
-4.201896837022569
 20
30.45481635199652
 10
32.42876993815104
 20
-14.83199734157986
 10
32.42876993815104
 20
-61.38074951171875
 10
18.29130384657118
 20
-61.38074951171875
 10
5.428867594401042
 20
-43.88793267144097
  0
LINE
  5
74
330
6C
100
AcDbEntity
  8
LAYER_1
 62
     7
100
AcDbLine
 10
5.601294623480903
 20
-11.41739095052083
 30
0.0
 11
32.30526326497395
 21
-46.93460286458333
 31
0.0
  0
LINE
  5
73
330
6C
100
AcDbEntity
  8
LAYER_1
 62
     7
100
AcDbLine
 10
-26.08135375976562
 20
30.72146674262153
 30
0.0
 11
-20.82947794596354
 21
23.73619113498264
 31
0.0
  0
SPLINE
  5
72
330
6C
100
AcDbEntity
  8
LAYER_1
 62
     7
100
AcDbSpline
210
0.0
220
0.0
230
1.0
 70
     8
 71
     3
 72
    50
 73
    46
 74
     0
 42
0.0000000001
 43
0.0000000001
 40
0.0
 40
0.0
 40
0.0
 40
0.0
 40
1.0
 40
1.0
 40
1.0
 40
2.0
 40
2.0
 40
2.0
 40
3.0
 40
3.0
 40
3.0
 40
4.0
 40
4.0
 40
4.0
 40
5.0
 40
5.0
 40
5.0
 40
6.0
 40
6.0
 40
6.0
 40
7.0
 40
7.0
 40
7.0
 40
8.0
 40
8.0
 40
8.0
 40
9.0
 40
9.0
 40
9.0
 40
10.0
 40
10.0
 40
10.0
 40
11.0
 40
11.0
 40
11.0
 40
12.0
 40
12.0
 40
12.0
 40
13.0
 40
13.0
 40
13.0
 40
14.0
 40
14.0
 40
14.0
 40
15.0
 40
15.0
 40
15.0
 40
15.0
 10
7.85783216688368
 20
61.22675374348957
 30
0.0
 10
6.376441107855902
 20
60.97974039713541
 30
0.0
 10
5.141546630859375
 20
60.85623372395833
 30
0.0
 10
5.388559977213541
 20
60.23904486762152
 30
0.0
 10
5.635401068793402
 20
59.62168375651041
 30
0.0
 10
5.265053304036458
 20
59.37467041015624
 30
0.0
 10
4.153665500217014
 20
59.37467041015624
 30
0.0
 10
3.042449951171875
 20
59.37467041015624
 30
0.0
 10
1.560886637369792
 20
58.38696153428819
 30
0.0
 10
1.313873291015625
 20
57.76960042317708
 30
0.0
 10
1.067204454210069
 20
57.15206705729166
 30
0.0
 10
1.067204454210069
 20
56.41119927300347
 30
0.0
 10
0.5731777615017361
 20
56.04102376302083
 30
0.0
 10
0.0793233235677083
 20
55.67050374348958
 30
0.0
 10
0.3261644151475694
 20
55.29998372395833
 30
0.0
 10
0.3261644151475694
 20
54.55911593967014
 30
0.0
 10
0.3261644151475694
 20
53.81842041015624
 30
0.0
 10
0.3261644151475694
 20
52.58369818793403
 30
0.0
 10
-0.1676900227864583
 20
52.46036376953125
 30
0.0
 10
-0.6617167154947916
 20
52.33685709635416
 30
0.0
 10
-1.031892225477431
 20
51.84283040364583
 30
0.0
 10
-1.772760009765625
 20
51.71932373046874
 30
0.0
 10
-2.513800048828125
 20
51.59581705729166
 30
0.0
 10
-2.760641140407986
 20
50.48477376302083
 30
0.0
 10
-2.760641140407986
 20
49.99074707031249
 30
0.0
 10
-2.760641140407986
 20
49.49689263237847
 30
0.0
 10
-3.13098890516493
 20
48.13866373697916
 30
0.0
 10
-3.13098890516493
 20
46.90411376953124
 30
0.0
 10
-3.13098890516493
 20
45.66939154730903
 30
0.0
 10
-2.266786702473958
 20
43.94064263237847
 30
0.0
 10
-2.513800048828125
 20
42.70592041015625
 30
0.0
 10
-2.760641140407986
 20
41.47137044270833
 30
0.0
 10
-2.636962212456597
 20
38.26105821397569
 30
0.0
 10
-2.266786702473958
 20
37.5201904296875
 30
0.0
 10
-1.896266682942708
 20
36.7793226453993
 30
0.0
 10
-1.525918918185764
 20
35.42109375
 30
0.0
 10
-1.525918918185764
 20
33.81602376302083
 30
0.0
 10
-1.525918918185764
 20
32.21095377604166
 30
0.0
 10
-1.402584499782986
 20
30.23536376953125
 30
0.0
 10
-1.031892225477431
 20
29.74133707682292
 30
0.0
 10
-0.6617167154947916
 20
29.24765489366319
 30
0.0
 10
-0.044183349609375
 20
28.38328043619791
 30
0.0
 10
0.2028299967447917
 20
27.14855821397569
 30
0.0
 10
0.4494988335503472
 20
25.91383599175347
 30
0.0
 10
1.313873291015625
 20
24.06175265842014
 30
0.0
 10
2.178247748480902
 20
22.82703043619792
 30
0.0
  0
SPLINE
  5
71
330
6C
100
AcDbEntity
  8
LAYER_1
 62
     7
100
AcDbSpline
210
0.0
220
0.0
230
1.0
 70
     8
 71
     3
 72
    62
 73
    58
 74
     0
 42
0.0000000001
 43
0.0000000001
 40
0.0
 40
0.0
 40
0.0
 40
0.0
 40
1.0
 40
1.0
 40
1.0
 40
2.0
 40
2.0
 40
2.0
 40
3.0
 40
3.0
 40
3.0
 40
4.0
 40
4.0
 40
4.0
 40
5.0
 40
5.0
 40
5.0
 40
6.0
 40
6.0
 40
6.0
 40
7.0
 40
7.0
 40
7.0
 40
8.0
 40
8.0
 40
8.0
 40
9.0
 40
9.0
 40
9.0
 40
10.0
 40
10.0
 40
10.0
 40
11.0
 40
11.0
 40
11.0
 40
12.0
 40
12.0
 40
12.0
 40
13.0
 40
13.0
 40
13.0
 40
14.0
 40
14.0
 40
14.0
 40
15.0
 40
15.0
 40
15.0
 40
16.0
 40
16.0
 40
16.0
 40
17.0
 40
17.0
 40
17.0
 40
18.0
 40
18.0
 40
18.0
 40
19.0
 40
19.0
 40
19.0
 40
19.0
 10
15.88352661132812
 20
61.10324707031249
 30
0.0
 10
15.01915215386285
 20
60.97974039713541
 30
0.0
 10
13.90810885959201
 20
60.3623792860243
 30
0.0
 10
13.66109551323785
 20
59.49817708333333
 30
0.0
 10
13.41408216688368
 20
58.63397488064236
 30
0.0
 10
12.54987996419271
 20
57.64609374999999
 30
0.0
 10
12.05602552625868
 20
57.52258707682291
 30
0.0
 10
11.56199883355035
 20
57.39908040364583
 30
0.0
 10
10.45078328450521
 20
57.27557373046874
 30
0.0
 10
10.20394219292535
 20
56.65821261935763
 30
0.0
 10
9.956928846571179
 20
56.04102376302083
 30
0.0
 10
9.833594428168402
 20
54.8061292860243
 30
0.0
 10
9.956928846571179
 20
54.31210259331597
 30
0.0
 10
10.08060777452257
 20
53.81842041015624
 30
0.0
 10
9.216233317057291
 20
52.83071153428819
 30
0.0
 10
8.845713297526041
 20
52.7070326063368
 30
0.0
 10
8.475193277994791
 20
52.58369818793403
 30
0.0
 10
8.598699951171874
 20
52.46036376953125
 30
0.0
 10
8.351858859592014
 20
51.71932373046874
 30
0.0
 10
8.104845513237846
 20
50.97862820095486
 30
0.0
 10
7.240643310546874
 20
50.60828043619791
 30
0.0
 10
6.252762179904513
 20
50.48477376302083
 30
0.0
 10
5.265053304036458
 20
50.36126708984374
 30
0.0
 10
3.783317735460069
 20
50.11425374348958
 30
0.0
 10
3.042449951171875
 20
49.12654486762153
 30
0.0
 10
2.30158216688368
 20
48.13866373697916
 30
0.0
 10
0.8201911078559027
 20
46.78060709635416
 30
0.0
 10
0.8201911078559027
 20
46.03956705729166
 30
0.0
 10
0.8201911078559027
 20
45.29869927300347
 30
0.0
 10
0.9435255262586805
 20
43.57029486762153
 30
0.0
 10
0.4494988335503472
 20
42.70592041015625
 30
0.0
 10
-0.044183349609375
 20
41.84154595269097
 30
0.0
 10
-0.044183349609375
 20
40.2364759657118
 30
0.0
 10
0.2028299967447917
 20
39.24876708984375
 30
0.0
 10
0.4494988335503472
 20
38.26105821397569
 30
0.0
 10
0.2028299967447917
 20
36.0382826063368
 30
0.0
 10
0.5731777615017361
 20
35.17408040364583
 30
0.0
 10
0.9435255262586805
 20
34.30987820095486
 30
0.0
 10
1.437379964192708
 20
32.5811292860243
 30
0.0
 10
1.313873291015625
 20
31.84043375651041
 30
0.0
 10
1.190366617838542
 20
31.09973822699653
 30
0.0
 10
1.190366617838542
 20
29.74133707682292
 30
0.0
 10
2.054568820529514
 20
29.49466824001736
 30
0.0
 10
2.918943277994791
 20
29.24765489366319
 30
0.0
 10
3.906652153862847
 20
28.38328043619791
 30
0.0
 10
3.783317735460069
 20
27.39557156032986
 30
0.0
 10
3.659983317057292
 20
26.4076904296875
 30
0.0
 10
4.153665500217014
 20
24.92612711588541
 30
0.0
 10
4.647692192925347
 20
24.30859375
 30
0.0
 10
5.141546630859375
 20
23.69140489366319
 30
0.0
 10
6.005748833550347
 20
22.2096693250868
 30
0.0
 10
6.129427761501735
 20
21.34546712239583
 30
0.0
 10
6.252762179904513
 20
20.48126491970486
 30
0.0
 10
7.610818820529513
 20
17.394287109375
 30
0.0
 10
7.981511094835069
 20
17.02376708984375
 30
0.0
 10
8.351858859592014
 20
16.65341932508681
 30
0.0
 10
7.981511094835069
 20
15.17168375651042
 30
0.0
 10
8.722206624348958
 20
14.43098822699653
 30
0.0
  0
SPLINE
  5
70
330
6C
100
AcDbEntity
  8
LAYER_1
 62
     7
100
AcDbSpline
210
0.0
220
0.0
230
1.0
 70
     8
 71
     3
 72
    50
 73
    46
 74
     0
 42
0.0000000001
 43
0.0000000001
 40
0.0
 40
0.0
 40
0.0
 40
0.0
 40
1.0
 40
1.0
 40
1.0
 40
2.0
 40
2.0
 40
2.0
 40
3.0
 40
3.0
 40
3.0
 40
4.0
 40
4.0
 40
4.0
 40
5.0
 40
5.0
 40
5.0
 40
6.0
 40
6.0
 40
6.0
 40
7.0
 40
7.0
 40
7.0
 40
8.0
 40
8.0
 40
8.0
 40
9.0
 40
9.0
 40
9.0
 40
10.0
 40
10.0
 40
10.0
 40
11.0
 40
11.0
 40
11.0
 40
12.0
 40
12.0
 40
12.0
 40
13.0
 40
13.0
 40
13.0
 40
14.0
 40
14.0
 40
14.0
 40
15.0
 40
15.0
 40
15.0
 40
15.0
 10
20.57540215386285
 20
-0.0153306749131944
 30
0.0
 10
19.58769327799479
 20
1.589739312065972
 30
0.0
 10
19.21734551323785
 20
2.948140462239583
 30
0.0
 10
19.09401109483507
 20
3.812514919704861
 30
0.0
 10
18.97033216688368
 20
4.676717122395833
 30
0.0
 10
18.22963663736979
 20
6.281787109374999
 30
0.0
 10
17.85911661783854
 20
7.145989312065971
 30
0.0
 10
17.48859659830729
 20
8.010363769531249
 30
0.0
 10
16.50105997721354
 20
9.862447102864582
 30
0.0
 10
16.62422214084201
 20
10.85015597873264
 30
0.0
 10
16.7479010687934
 20
11.838037109375
 30
0.0
 10
16.62422214084201
 20
13.07293158637153
 30
0.0
 10
16.37755330403646
 20
13.44310709635417
 30
0.0
 10
16.13053995768229
 20
13.81362711588542
 30
0.0
 10
16.00703328450521
 20
15.78921712239583
 30
0.0
 10
16.62422214084201
 20
16.03605821397569
 30
0.0
 10
17.24192776150174
 20
16.28307156032986
 30
0.0
 10
17.24192776150174
 20
16.90026041666667
 30
0.0
 10
16.7479010687934
 20
18.0114759657118
 30
0.0
 10
16.25404663085937
 20
19.12286376953125
 30
0.0
 10
15.63685777452257
 20
21.59230821397569
 30
0.0
 10
16.13053995768229
 20
21.83932156032986
 30
0.0
 10
16.62422214084201
 20
22.08633490668403
 30
0.0
 10
16.50105997721354
 20
22.950537109375
 30
0.0
 10
16.99491441514757
 20
23.19755045572916
 30
0.0
 10
17.48859659830729
 20
23.44439154730902
 30
0.0
 10
18.8469977484809
 20
24.06175265842014
 30
0.0
 10
18.59998440212673
 20
25.0496337890625
 30
0.0
 10
18.35314331054687
 20
26.03717041015625
 30
0.0
 10
19.46418660481771
 20
26.28418375651042
 30
0.0
 10
19.46418660481771
 20
27.0248792860243
 30
0.0
 10
19.46418660481771
 20
27.7659193250868
 30
0.0
 10
19.95821329752604
 20
29.86484375
 30
0.0
 10
20.69908108181424
 20
30.48237711588541
 30
0.0
 10
21.43977661132812
 20
31.09973822699653
 30
0.0
 10
24.03255547417535
 20
31.9639404296875
 30
0.0
 10
24.27956882052951
 20
33.19883490668403
 30
0.0
 10
24.52658216688368
 20
34.43321261935763
 30
0.0
 10
26.37866550021701
 20
35.05091824001736
 30
0.0
 10
26.99602661132812
 20
35.29758707682291
 30
0.0
 10
27.61338772243924
 20
35.54460042317708
 30
0.0
 10
28.35442776150173
 20
35.79161376953125
 30
0.0
 10
28.84810994466146
 20
36.28529595269097
 30
0.0
 10
29.34179212782118
 20
36.7793226453993
 30
0.0
 10
31.56456773546007
 20
37.14967041015625
 30
0.0
 10
32.30526326497395
 20
36.90300157335069
 30
0.0
  0
SPLINE
  5
6F
330
6C
100
AcDbEntity
  8
LAYER_1
 62
     7
100
AcDbSpline
210
0.0
220
0.0
230
1.0
 70
     8
 71
     3
 72
    56
 73
    52
 74
     0
 42
0.0000000001
 43
0.0000000001
 40
0.0
 40
0.0
 40
0.0
 40
0.0
 40
1.0
 40
1.0
 40
1.0
 40
2.0
 40
2.0
 40
2.0
 40
3.0
 40
3.0
 40
3.0
 40
4.0
 40
4.0
 40
4.0
 40
5.0
 40
5.0
 40
5.0
 40
6.0
 40
6.0
 40
6.0
 40
7.0
 40
7.0
 40
7.0
 40
8.0
 40
8.0
 40
8.0
 40
9.0
 40
9.0
 40
9.0
 40
10.0
 40
10.0
 40
10.0
 40
11.0
 40
11.0
 40
11.0
 40
12.0
 40
12.0
 40
12.0
 40
13.0
 40
13.0
 40
13.0
 40
14.0
 40
14.0
 40
14.0
 40
15.0
 40
15.0
 40
15.0
 40
16.0
 40
16.0
 40
16.0
 40
17.0
 40
17.0
 40
17.0
 40
17.0
 10
27.49005330403645
 20
-8.534879557291665
 30
0.0
 10
26.13165215386285
 20
-7.052971733940971
 30
0.0
 10
25.26744995117187
 20
-4.707206217447916
 30
0.0
 10
25.02043660481771
 20
-3.842831759982639
 30
0.0
 10
24.77359551323784
 20
-2.978629557291666
 30
0.0
 10
24.77359551323784
 20
-1.743735080295139
 30
0.0
 10
24.27956882052951
 20
-1.126546223958333
 30
0.0
 10
23.78588663736979
 20
-0.5090128580729166
 30
0.0
 10
22.79817776150173
 20
0.6020304361979166
 30
0.0
 10
23.16835327148437
 20
1.343070475260417
 30
0.0
 10
23.53887329101562
 20
2.083766004774305
 30
0.0
 10
22.79817776150173
 20
3.318488226996528
 30
0.0
 10
22.42748548719618
 20
3.812514919704861
 30
0.0
 10
22.05730997721354
 20
4.306197102864583
 30
0.0
 10
21.81029663085937
 20
6.65230712890625
 30
0.0
 10
21.56328328450521
 20
7.393002658420138
 30
0.0
 10
21.31626993815104
 20
8.133870442708332
 30
0.0
 10
20.82241550021701
 20
9.738940429687499
 30
0.0
 10
20.45206773546007
 20
10.10946044921875
 30
0.0
 10
20.08171997070312
 20
10.47980821397569
 30
0.0
 10
19.83470662434896
 20
11.96154378255208
 30
0.0
 10
20.57540215386285
 20
12.33189154730903
 30
0.0
 10
21.31626993815104
 20
12.70223931206597
 30
0.0
 10
21.68678995768229
 20
14.06064046223958
 30
0.0
 10
21.43977661132812
 20
14.92501491970486
 30
0.0
 10
21.19276326497396
 20
15.78921712239583
 30
0.0
 10
20.45206773546007
 20
17.27078043619791
 30
0.0
 10
20.45206773546007
 20
18.13515489366319
 30
0.0
 10
20.45206773546007
 20
18.99935709635416
 30
0.0
 10
20.32838880750868
 20
20.8514404296875
 30
0.0
 10
20.82241550021701
 20
21.34546712239583
 30
0.0
 10
21.31626993815104
 20
21.83932156032986
 30
0.0
 10
22.18047214084201
 20
23.81473931206597
 30
0.0
 10
22.55116441514757
 20
23.93841824001736
 30
0.0
 10
22.92151217990451
 20
24.06175265842014
 30
0.0
 10
24.15623440212674
 20
24.80262044270833
 30
0.0
 10
23.78588663736979
 20
25.41980929904514
 30
0.0
 10
23.41536661783854
 20
26.03717041015625
 30
0.0
 10
23.53887329101562
 20
27.51890597873264
 30
0.0
 10
23.90939331054687
 20
28.01276041666667
 30
0.0
 10
24.27956882052951
 20
28.506787109375
 30
0.0
 10
25.26744995117187
 20
29.98835042317708
 30
0.0
 10
25.63796997070312
 20
30.72904595269097
 30
0.0
 10
26.00831773546007
 20
31.46991373697916
 30
0.0
 10
26.87251993815104
 20
32.70480821397569
 30
0.0
 10
27.73672214084201
 20
32.5811292860243
 30
0.0
 10
28.60109659830729
 20
32.45779486762152
 30
0.0
 10
29.46547105577257
 20
32.5811292860243
 30
0.0
 10
30.08283216688368
 20
32.5811292860243
 30
0.0
 10
30.70019327799479
 20
32.5811292860243
 30
0.0
 10
31.56456773546007
 20
32.33446044921875
 30
0.0
 10
32.42876993815104
 20
31.59342041015625
 30
0.0
  0
ENDBLK
  5
8E
330
6C
100
AcDbEntity
  8
LAYER_1
100
AcDbBlockEnd
  0
ENDSEC
  0
SECTION
  2
ENTITIES
  0
LWPOLYLINE
  5
95
330
A
100
AcDbEntity
  8
LAYER_1
 62
     7
100
AcDbPolyline
 90
        4
 70
     1
 43
0.0
 10
150.1403618706597
 20
81.02141113281249
 10
150.1403618706597
 20
203.6289143880208
 10
63.09313422309027
 20
203.6289143880208
 10
63.09313422309027
 20
81.02141113281249
  0
LWPOLYLINE
  5
8F
330
A
100
AcDbEntity
  8
LAYER_1
 62
     7
100
AcDbPolyline
 90
        4
 70
     1
 43
0.0
 10
150.1403618706597
 20
81.02141113281249
 10
150.1403618706597
 20
203.6289143880208
 10
63.09313422309027
 20
203.6289143880208
 10
63.09313422309027
 20
81.02141113281249
  0
INSERT
  5
6D
330
A
100
AcDbEntity
  8
LAYER_1
 62
     7
100
AcDbBlockReference
  2
AI9-BLK3
 10
117.7734313964844
 20
142.3404934353299
 30
0.0
  0
INSERT
  5
3F
330
A
100
AcDbEntity
  8
LAYER_1
 62
     7
100
AcDbBlockReference
  2
AI9-BLK2
 10
104.1627204047309
 20
149.4820041232639
 30
0.0
  0
INSERT
  5
29
330
A
100
AcDbEntity
  8
LAYER_1
 62
     7
100
AcDbBlockReference
  2
AI9-BLK1
 10
116.2120279947917
 20
118.5749328613281
 30
0.0
  0
LWPOLYLINE
  5
22
330
A
100
AcDbEntity
  8
LAYER_1
 62
     7
100
AcDbPolyline
 90
        4
 70
     1
 43
0.0
 10
150.1403618706597
 20
81.02141113281249
 10
150.1403618706597
 20
203.6289143880208
 10
63.09313422309027
 20
203.6289143880208
 10
63.09313422309027
 20
81.02141113281249
  0
ENDSEC
  0
SECTION
  2
OBJECTS
  0
DICTIONARY
  5
19
330
0
100
AcDbDictionary
281
     1
  3
ACAD_COLOR
350
D1
  3
ACAD_GROUP
350
1A
  3
ACAD_LAYOUT
350
9E
  3
ACAD_MATERIAL
350
D3
  3
ACAD_MLINESTYLE
350
1B
  3
ACAD_PLOTSETTINGS
350
9F
  3
ACAD_PLOTSTYLENAME
350
9C
  3
ACDBHEADERROUNDTRIPXREC
350
D0
  0
DICTIONARY
  5
D1
102
{ACAD_REACTORS
330
19
102
}
330
19
100
AcDbDictionary
281
     1
  0
DICTIONARY
  5
1A
102
{ACAD_REACTORS
330
19
102
}
330
19
100
AcDbDictionary
281
     1
  0
DICTIONARY
  5
9E
102
{ACAD_REACTORS
330
19
102
}
330
19
100
AcDbDictionary
281
     1
  3
Layout1
350
A1
  3
Model
350
A0
  0
DICTIONARY
  5
D3
102
{ACAD_REACTORS
330
19
102
}
330
19
100
AcDbDictionary
281
     1
  0
DICTIONARY
  5
1B
102
{ACAD_REACTORS
330
19
102
}
330
19
100
AcDbDictionary
281
     1
  3
STANDARD
350
1C
  0
DICTIONARY
  5
9F
102
{ACAD_REACTORS
330
19
102
}
330
19
100
AcDbDictionary
281
     1
  0
ACDBDICTIONARYWDFLT
  5
9C
102
{ACAD_REACTORS
330
19
102
}
330
19
100
AcDbDictionary
281
     1
  3
Normal
350
9D
100
AcDbDictionaryWithDefault
340
9D
  0
DICTIONARY
  5
D0
102
{ACAD_REACTORS
330
19
102
}
330
19
100
AcDbDictionary
281
     1
  3
COLORDICT
350
D2
  3
MATERIALDICT
350
D4
  0
LAYOUT
  5
A1
102
{ACAD_REACTORS
330
9E
102
}
102
{ACAD_XDICTIONARY
360
D5
102
}
330
9E
100
AcDbPlotSettings
  1

  2
Support Center HP LaserJet 4
  4

  6

 40
0.0
 41
0.0
 42
0.0
 43
0.0
 44
0.0
 45
0.0
 46
0.0
 47
0.0
 48
0.0
 49
0.0
140
0.0
141
0.0
142
1.0
143
1.0
 70
   688
 72
     0
 73
     0
 74
     5
  7

 75
    16
147
1.0
148
0.0
149
0.0
100
AcDbLayout
  1
Layout1
 70
     0
 71
     1
 10
0.0
 20
0.0
 11
12.0
 21
9.0
 12
0.0
 22
0.0
 32
0.0
 14
1.000000000000000E+20
 24
1.000000000000000E+20
 34
1.000000000000000E+20
 15
-1.000000000000000E+20
 25
-1.000000000000000E+20
 35
-1.000000000000000E+20
146
0.0
 13
0.0
 23
0.0
 33
0.0
 16
1.0
 26
0.0
 36
0.0
 17
0.0
 27
1.0
 37
0.0
 76
     0
330
B
  0
LAYOUT
  5
A0
102
{ACAD_REACTORS
330
9E
102
}
102
{ACAD_XDICTIONARY
360
D7
102
}
330
9E
100
AcDbPlotSettings
  1

  2
Support Center HP LaserJet 4
  4

  6

 40
0.0
 41
0.0
 42
0.0
 43
0.0
 44
0.0
 45
0.0
 46
0.0
 47
0.0
 48
0.0
 49
0.0
140
0.0
141
0.0
142
1.0
143
1.0
 70
  1712
 72
     0
 73
     0
 74
     0
  7

 75
     0
147
1.0
148
0.0
149
0.0
100
AcDbLayout
  1
Model
 70
     1
 71
     0
 10
0.0
 20
0.0
 11
12.0
 21
9.0
 12
0.0
 22
0.0
 32
0.0
 14
0.0
 24
0.0
 34
0.0
 15
0.0
 25
0.0
 35
0.0
146
0.0
 13
0.0
 23
0.0
 33
0.0
 16
1.0
 26
0.0
 36
0.0
 17
0.0
 27
1.0
 37
0.0
 76
     0
330
A
  0
MLINESTYLE
  5
1C
102
{ACAD_REACTORS
330
1B
102
}
330
1B
100
AcDbMlineStyle
  2
STANDARD
 70
     0
  3

 62
     0
 51
90.0000000000002
 52
90.0000000000002
 71
     2
 49
0.5
 62
   256
  6
BYLAYER
 49
-0.5
 62
   256
  6
BYLAYER
  0
ACDBPLACEHOLDER
  5
9D
102
{ACAD_REACTORS
330
9C
102
}
330
9C
  0
XRECORD
  5
D2
102
{ACAD_REACTORS
330
D0
102
}
330
D0
100
AcDbXrecord
340
D1
  0
XRECORD
  5
D4
102
{ACAD_REACTORS
330
D0
102
}
330
D0
100
AcDbXrecord
340
D3
  0
DICTIONARY
  5
D5
330
A1
100
AcDbDictionary
280
     1
281
     1
  3
ACAD_XREC_ROUNDTRIP
360
D6
  0
DICTIONARY
  5
D7
330
A0
100
AcDbDictionary
280
     1
281
     1
  3
ACAD_XREC_ROUNDTRIP
360
D8
  0
XRECORD
  5
D6
102
{ACAD_REACTORS
330
D5
102
}
330
D5
100
AcDbXrecord
102
SHADEPLOT
 70
 16392
102
SHADEPLOTRESLEVEL
 70
 16472
102
SHADEPLOTCUSTOMDPI
 70
-29840
  0
XRECORD
  5
D8
102
{ACAD_REACTORS
330
D7
102
}
330
D7
100
AcDbXrecord
102
SHADEPLOT
 70
-30344
102
SHADEPLOTRESLEVEL
 70
-30384
102
SHADEPLOTCUSTOMDPI
 70
-30424
  0
ENDSEC
  0
EOF
