  0
SECTION
  2
HEADER
  9
$ACADVER
  1
AC1015
  9
$ACADMAINTVER
 70
     6
  9
$DWGCODEPAGE
  3
ANSI_1252
  9
$INSBASE
 10
0.0
 20
0.0
 30
0.0
  9
$EXTMIN
 10
92.10392975820722
 20
121.1071768427041
 30
-0.0015258207003612
  9
$EXTMAX
 10
137.3420136494694
 20
173.0100990612716
 30
0.0000000349246008
  9
$LIMMIN
 10
92.06035834418402
 20
121.0651340060764
  9
$LIMMAX
 10
137.3855848524306
 20
173.0521416558159
  9
$ORTHOMODE
 70
     0
  9
$REGENMODE
 70
     1
  9
$FILLMODE
 70
     1
  9
$QTEXTMODE
 70
     0
  9
$MIRRTEXT
 70
     1
  9
$LTSCALE
 40
1.0
  9
$ATTMODE
 70
     1
  9
$TEXTSIZE
 40
0.2
  9
$TRACEWID
 40
0.05
  9
$TEXTSTYLE
  7
STANDARD
  9
$CLAYER
  8
0
  9
$CELTYPE
  6
CONTINUOUS
  9
$CECOLOR
 62
   256
  9
$CELTSCALE
 40
1.0
  9
$DISPSILH
 70
     0
  9
$DIMSCALE
 40
1.0
  9
$DIMASZ
 40
0.18
  9
$DIMEXO
 40
0.0625
  9
$DIMDLI
 40
0.38
  9
$DIMRND
 40
0.0
  9
$DIMDLE
 40
0.0
  9
$DIMEXE
 40
0.18
  9
$DIMTP
 40
0.0
  9
$DIMTM
 40
0.0
  9
$DIMTXT
 40
0.18
  9
$DIMCEN
 40
0.09
  9
$DIMTSZ
 40
0.0
  9
$DIMTOL
 70
     0
  9
$DIMLIM
 70
     0
  9
$DIMTIH
 70
     1
  9
$DIMTOH
 70
     1
  9
$DIMSE1
 70
     0
  9
$DIMSE2
 70
     0
  9
$DIMTAD
 70
     0
  9
$DIMZIN
 70
     0
  9
$DIMBLK
  1

  9
$DIMASO
 70
     1
  9
$DIMSHO
 70
     1
  9
$DIMPOST
  1

  9
$DIMAPOST
  1

  9
$DIMALT
 70
     0
  9
$DIMALTD
 70
     2
  9
$DIMALTF
 40
25.4
  9
$DIMLFAC
 40
1.0
  9
$DIMTOFL
 70
     0
  9
$DIMTVP
 40
0.0
  9
$DIMTIX
 70
     0
  9
$DIMSOXD
 70
     0
  9
$DIMSAH
 70
     0
  9
$DIMBLK1
  1

  9
$DIMBLK2
  1

  9
$DIMSTYLE
  2
STANDARD
  9
$DIMCLRD
 70
     0
  9
$DIMCLRE
 70
     0
  9
$DIMCLRT
 70
     0
  9
$DIMTFAC
 40
1.0
  9
$DIMGAP
 40
0.09
  9
$DIMJUST
 70
     0
  9
$DIMSD1
 70
     0
  9
$DIMSD2
 70
     0
  9
$DIMTOLJ
 70
     1
  9
$DIMTZIN
 70
     0
  9
$DIMALTZ
 70
     0
  9
$DIMALTTZ
 70
     0
  9
$DIMUPT
 70
     0
  9
$DIMDEC
 70
     4
  9
$DIMTDEC
 70
     4
  9
$DIMALTU
 70
     2
  9
$DIMALTTD
 70
     2
  9
$DIMTXSTY
  7
STANDARD
  9
$DIMAUNIT
 70
     0
  9
$DIMADEC
 70
     0
  9
$DIMALTRND
 40
0.0
  9
$DIMAZIN
 70
     0
  9
$DIMDSEP
 70
    46
  9
$DIMATFIT
 70
     3
  9
$DIMFRAC
 70
     0
  9
$DIMLDRBLK
  1

  9
$DIMLUNIT
 70
     2
  9
$DIMLWD
 70
    -2
  9
$DIMLWE
 70
    -2
  9
$DIMTMOVE
 70
     0
  9
$LUNITS
 70
     2
  9
$LUPREC
 70
     4
  9
$SKETCHINC
 40
0.1
  9
$FILLETRAD
 40
0.0
  9
$AUNITS
 70
     0
  9
$AUPREC
 70
     0
  9
$MENU
  1
acad
  9
$ELEVATION
 40
0.0
  9
$PELEVATION
 40
0.0
  9
$THICKNESS
 40
0.0
  9
$LIMCHECK
 70
     0
  9
$CHAMFERA
 40
0.0
  9
$CHAMFERB
 40
0.0
  9
$CHAMFERC
 40
0.0
  9
$CHAMFERD
 40
0.0
  9
$SKPOLY
 70
     0
  9
$TDCREATE
 40
2444971.666666667
  9
$TDUCREATE
 40
2444972.0
  9
$TDUPDATE
 40
2452675.344939005
  9
$TDUUPDATE
 40
2452675.678272338
  9
$TDINDWG
 40
0.0001181713
  9
$TDUSRTIMER
 40
0.0001181713
  9
$USRTIMER
 70
     1
  9
$ANGBASE
 50
0.0
  9
$ANGDIR
 70
     0
  9
$PDMODE
 70
     0
  9
$PDSIZE
 40
0.0
  9
$PLINEWID
 40
0.0
  9
$SPLFRAME
 70
     0
  9
$SPLINETYPE
 70
     6
  9
$SPLINESEGS
 70
     8
  9
$HANDSEED
  5
149
  9
$SURFTAB1
 70
     6
  9
$SURFTAB2
 70
     6
  9
$SURFTYPE
 70
     6
  9
$SURFU
 70
     6
  9
$SURFV
 70
     6
  9
$UCSBASE
  2

  9
$UCSNAME
  2

  9
$UCSORG
 10
0.0
 20
0.0
 30
0.0
  9
$UCSXDIR
 10
1.0
 20
0.0
 30
0.0
  9
$UCSYDIR
 10
0.0
 20
1.0
 30
0.0
  9
$UCSORTHOREF
  2

  9
$UCSORTHOVIEW
 70
     0
  9
$UCSORGTOP
 10
0.0
 20
0.0
 30
0.0
  9
$UCSORGBOTTOM
 10
0.0
 20
0.0
 30
0.0
  9
$UCSORGLEFT
 10
0.0
 20
0.0
 30
0.0
  9
$UCSORGRIGHT
 10
0.0
 20
0.0
 30
0.0
  9
$UCSORGFRONT
 10
0.0
 20
0.0
 30
0.0
  9
$UCSORGBACK
 10
0.0
 20
0.0
 30
0.0
  9
$PUCSBASE
  2

  9
$PUCSNAME
  2

  9
$PUCSORG
 10
0.0
 20
0.0
 30
0.0
  9
$PUCSXDIR
 10
1.0
 20
0.0
 30
0.0
  9
$PUCSYDIR
 10
0.0
 20
1.0
 30
0.0
  9
$PUCSORTHOREF
  2

  9
$PUCSORTHOVIEW
 70
     0
  9
$PUCSORGTOP
 10
0.0
 20
0.0
 30
0.0
  9
$PUCSORGBOTTOM
 10
0.0
 20
0.0
 30
0.0
  9
$PUCSORGLEFT
 10
0.0
 20
0.0
 30
0.0
  9
$PUCSORGRIGHT
 10
0.0
 20
0.0
 30
0.0
  9
$PUCSORGFRONT
 10
0.0
 20
0.0
 30
0.0
  9
$PUCSORGBACK
 10
0.0
 20
0.0
 30
0.0
  9
$USERI1
 70
     0
  9
$USERI2
 70
     0
  9
$USERI3
 70
     0
  9
$USERI4
 70
     0
  9
$USERI5
 70
     0
  9
$USERR1
 40
0.0
  9
$USERR2
 40
0.0
  9
$USERR3
 40
0.0
  9
$USERR4
 40
0.0
  9
$USERR5
 40
0.0
  9
$WORLDVIEW
 70
     1
  9
$SHADEDGE
 70
     3
  9
$SHADEDIF
 70
    70
  9
$TILEMODE
 70
     1
  9
$MAXACTVP
 70
    16
  9
$PINSBASE
 10
0.0
 20
0.0
 30
0.0
  9
$PLIMCHECK
 70
     0
  9
$PEXTMIN
 10
1.000000000000000E+20
 20
1.000000000000000E+20
 30
1.000000000000000E+20
  9
$PEXTMAX
 10
-1.000000000000000E+20
 20
-1.000000000000000E+20
 30
-1.000000000000000E+20
  9
$PLIMMIN
 10
0.0
 20
0.0
  9
$PLIMMAX
 10
12.0
 20
9.0
  9
$UNITMODE
 70
     0
  9
$VISRETAIN
 70
     0
  9
$PLINEGEN
 70
     1
  9
$PSLTSCALE
 70
     0
  9
$TREEDEPTH
 70
  3020
  9
$CMLSTYLE
  2
STANDARD
  9
$CMLJUST
 70
     0
  9
$CMLSCALE
 40
1.0
  9
$PROXYGRAPHICS
 70
     1
  9
$MEASUREMENT
 70
     0
  9
$CELWEIGHT
370
    -1
  9
$ENDCAPS
280
     0
  9
$JOINSTYLE
280
     0
  9
$LWDISPLAY
290
     0
  9
$INSUNITS
 70
     0
  9
$HYPERLINKBASE
  1

  9
$STYLESHEET
  1

  9
$XEDIT
290
     1
  9
$CEPSNTYPE
380
     0
  9
$PSTYLEMODE
290
     1
  9
$FINGERPRINTGUID
  2
{87C952DD-380C-11D7-BE3F-00508B5FCD51}
  9
$VERSIONGUID
  2
{87C952DF-380C-11D7-BE3F-00508B5FCD51}
  9
$EXTNAMES
290
     1
  9
$PSVPSCALE
 40
0.0
  9
$OLESTARTUP
290
     0
  0
ENDSEC
  0
SECTION
  2
CLASSES
  0
CLASS
  1
LWPOLYLINE
  2
AcDbPolyline
  3
AutoCAD 2000
 90
        0
280
     0
281
     1
  0
CLASS
  1
IMAGE
  2
AcDbRasterImage
  3
ISM
 90
      127
280
     0
281
     1
  0
CLASS
  1
OLE2FRAME
  2
AcDbOle2Frame
  3
AutoCAD 2000
 90
        0
280
     0
281
     1
  0
CLASS
  1
HATCH
  2
AcDbHatch
  3
AutoCAD 2000
 90
        0
280
     0
281
     1
  0
CLASS
  1
DICTIONARYVAR
  2
AcDbDictionaryVar
  3
AutoCAD 2000
 90
        0
280
     0
281
     0
  0
CLASS
  1
RASTERVARIABLES
  2
AcDbRasterVariables
  3
ISM
 90
        0
280
     0
281
     0
  0
CLASS
  1
IMAGEDEF
  2
AcDbRasterImageDef
  3
ISM
 90
        0
280
     0
281
     0
  0
CLASS
  1
IMAGEDEF_REACTOR
  2
AcDbRasterImageDefReactor
  3
ISM
 90
        1
280
     0
281
     0
  0
CLASS
  1
IDBUFFER
  2
AcDbIdBuffer
  3
AutoCAD 2000
 90
        0
280
     0
281
     0
  0
CLASS
  1
SPATIAL_FILTER
  2
AcDbSpatialFilter
  3
AutoCAD 2000
 90
        0
280
     0
281
     0
  0
CLASS
  1
XRECORD
  2
AcDbXrecord
  3
AutoCAD 2000
 90
        0
280
     0
281
     0
  0
CLASS
  1
SORTENTSTABLE
  2
AcDbSortentsTable
  3
AutoCAD 2000
 90
        0
280
     0
281
     0
  0
CLASS
  1
LAYER_INDEX
  2
AcDbLayerIndex
  3
AutoCAD 2000
 90
        0
280
     0
281
     0
  0
CLASS
  1
SPATIAL_INDEX
  2
AcDbSpatialIndex
  3
AutoCAD 2000
 90
        0
280
     0
281
     0
  0
CLASS
  1
OBJECT_PTR
  2
CAseDLPNTableRecord
  3
ASE-LPNTableRecord
 90
        1
280
     1
281
     0
  0
CLASS
  1
LAYOUT
  2
AcDbLayout
  3
ObjectDBX Classes
 90
        0
280
     0
281
     0
  0
CLASS
  1
PLOTSETTINGS
  2
AcDbPlotSettings
  3
AutoCAD 2000
 90
        0
280
     0
281
     0
  0
CLASS
  1
ACDBDICTIONARYWDFLT
  2
AcDbDictionaryWithDefault
  3
AutoCAD 2000
 90
        0
280
     0
281
     0
  0
CLASS
  1
ACDBPLACEHOLDER
  2
AcDbPlaceHolder
  3
ObjectDBX Classes
 90
        0
280
     0
281
     0
  0
CLASS
  1
VBAPROJECT
  2
AcDbVbaProject
  3
ObjectDBX Classes
 90
        0
280
     0
281
     0
  0
CLASS
  1
WIPEOUT
  2
AcDbWipeout
  3
WipeOut|AutoCAD Express Tool|expresstools@autodesk.com
 90
      127
280
     0
281
     1
  0
CLASS
  1
WIPEOUTVARIABLES
  2
AcDbWipeoutVariables
  3
WipeOut|AutoCAD Express Tool|expresstools@autodesk.com
 90
        0
280
     0
281
     0
  0
CLASS
  1
RTEXT
  2
RText
  3
RText|AutoCAD Express Tool|expresstools@autodesk.com
 90
        0
280
     0
281
     1
  0
CLASS
  1
ARCALIGNEDTEXT
  2
AcDbArcAlignedText
  3
ATEXT|AutoCAD Express Tool|expresstools@autodesk.com
 90
        0
280
     0
281
     1
  0
CLASS
  1
LONG_TRANSACTION
  2
AcDbLongTransaction
  3
AutoCAD 2000
 90
        0
280
     1
281
     0
  0
CLASS
  1
LWPOLYLINE
  2
AcDbPolyline
  3
AutoCAD 2000
 90
        0
280
     0
281
     1
  0
CLASS
  1
HATCH
  2
AcDbHatch
  3
AutoCAD 2000
 90
        0
280
     0
281
     1
  0
CLASS
  1
XRECORD
  2
AcDbXrecord
  3
AutoCAD 2000
 90
        0
280
     0
281
     0
  0
ENDSEC
  0
SECTION
  2
TABLES
  0
TABLE
  2
VPORT
  5
7
330
0
100
AcDbSymbolTable
 70
     2
  0
VPORT
  5
115
330
7
100
AcDbSymbolTableRecord
100
AcDbViewportTableRecord
  2
*Active
 70
     0
 10
0.0
 20
0.0
 11
1.0
 21
1.0
 12
114.7229715983073
 22
147.0586378309462
 13
0.0
 23
0.0
 14
1.0
 24
1.0
 15
0.0
 25
0.0
 16
0.0
 26
0.0
 36
1.0
 17
0.0
 27
0.0
 37
0.0
 40
52.57113133119732
 41
1.73921200750469
 42
50.0
 43
0.0
 44
0.0
 50
0.0
 51
0.0
 71
     0
 72
   100
 73
     1
 74
     1
 75
     0
 76
     0
 77
     0
 78
     0
281
     0
 65
     1
110
0.0
120
0.0
130
0.0
111
1.0
121
0.0
131
0.0
112
0.0
122
1.0
132
0.0
 79
     0
146
0.0
  0
ENDTAB
  0
TABLE
  2
LTYPE
  5
4
330
0
100
AcDbSymbolTable
 70
     1
  0
LTYPE
  5
11
330
4
100
AcDbSymbolTableRecord
100
AcDbLinetypeTableRecord
  2
BYBLOCK
 70
     0
  3

 72
    65
 73
     0
 40
0.0
  0
LTYPE
  5
12
330
4
100
AcDbSymbolTableRecord
100
AcDbLinetypeTableRecord
  2
BYLAYER
 70
     0
  3

 72
    65
 73
     0
 40
0.0
  0
LTYPE
  5
13
330
4
100
AcDbSymbolTableRecord
100
AcDbLinetypeTableRecord
  2
CONTINUOUS
 70
     0
  3
Solid line
 72
    65
 73
     0
 40
0.0
  0
ENDTAB
  0
TABLE
  2
LAYER
  5
2
330
0
100
AcDbSymbolTable
 70
     3
  0
LAYER
  5
14
330
2
100
AcDbSymbolTableRecord
100
AcDbLayerTableRecord
  2
0
 70
     0
 62
     7
  6
CONTINUOUS
370
    -3
390
0
  0
LAYER
  5
21
330
2
100
AcDbSymbolTableRecord
100
AcDbLayerTableRecord
  2
IUS
 70
     0
 62
     3
  6
CONTINUOUS
370
    -3
390
0
  0
LAYER
  5
DD
330
2
100
AcDbSymbolTableRecord
100
AcDbLayerTableRecord
  2
WOOD
 70
     0
 62
   160
  6
CONTINUOUS
370
    -3
390
0
  0
ENDTAB
  0
TABLE
  2
STYLE
  5
3
330
0
100
AcDbSymbolTable
 70
     5
  0
STYLE
  5
17
330
3
100
AcDbSymbolTableRecord
100
AcDbTextStyleTableRecord
  2
STANDARD
 70
     0
 40
0.0
 41
1.0
 50
0.0
 71
     0
 42
0.2
  3
txt
  4

  0
STYLE
  5
1D
330
3
100
AcDbSymbolTableRecord
100
AcDbTextStyleTableRecord
  2
STD
 70
     0
 40
0.0
 41
1.0
 50
0.0
 71
     0
 42
0.2
  3
txt
  4

  0
STYLE
  5
1E
330
3
100
AcDbSymbolTableRecord
100
AcDbTextStyleTableRecord
  2
TATESTD
 70
     4
 40
0.0
 41
1.0
 50
0.0
 71
     0
 42
0.2
  3
txt
  4

  0
STYLE
  5
1F
330
3
100
AcDbSymbolTableRecord
100
AcDbTextStyleTableRecord
  2
KANJISTD
 70
     0
 40
0.0
 41
1.0
 50
0.0
 71
     0
 42
0.2
  3
txt
  4
extfont
  0
STYLE
  5
20
330
3
100
AcDbSymbolTableRecord
100
AcDbTextStyleTableRecord
  2
KANJITATE
 70
     4
 40
0.0
 41
1.0
 50
0.0
 71
     0
 42
0.2
  3
txt
  4
extfont
  0
ENDTAB
  0
TABLE
  2
VIEW
  5
5
330
0
100
AcDbSymbolTable
 70
     0
  0
ENDTAB
  0
TABLE
  2
UCS
  5
6
330
0
100
AcDbSymbolTable
 70
     0
  0
ENDTAB
  0
TABLE
  2
APPID
  5
8
330
0
100
AcDbSymbolTable
 70
     1
  0
APPID
  5
16
330
8
100
AcDbSymbolTableRecord
100
AcDbRegAppTableRecord
  2
ACAD
 70
     0
  0
ENDTAB
  0
TABLE
  2
DIMSTYLE
  5
9
330
0
100
AcDbSymbolTable
 70
     1
100
AcDbDimStyleTable
  0
DIMSTYLE
105
18
330
9
100
AcDbSymbolTableRecord
100
AcDbDimStyleTableRecord
  2
STANDARD
 70
     0
  3

  4

289
     0
340
17
  0
ENDTAB
  0
TABLE
  2
BLOCK_RECORD
  5
1
330
0
100
AcDbSymbolTable
 70
    11
  0
BLOCK_RECORD
  5
A
330
1
100
AcDbSymbolTableRecord
100
AcDbBlockTableRecord
  2
*MODEL_SPACE
340
110
  0
BLOCK_RECORD
  5
B
330
1
100
AcDbSymbolTableRecord
100
AcDbBlockTableRecord
  2
*PAPER_SPACE
340
111
  0
BLOCK_RECORD
  5
27
330
1
100
AcDbSymbolTableRecord
100
AcDbBlockTableRecord
  2
AI9-BLK1
340
0
102
{BLKREFS
331
28
102
}
  0
BLOCK_RECORD
  5
5E
330
1
100
AcDbSymbolTableRecord
100
AcDbBlockTableRecord
  2
AI9-BLK2
340
0
102
{BLKREFS
331
5F
102
}
  0
BLOCK_RECORD
  5
68
330
1
100
AcDbSymbolTableRecord
100
AcDbBlockTableRecord
  2
AI9-BLK3
340
0
102
{BLKREFS
331
69
102
}
  0
BLOCK_RECORD
  5
8B
330
1
100
AcDbSymbolTableRecord
100
AcDbBlockTableRecord
  2
AI9-BLK4
340
0
102
{BLKREFS
331
8C
102
}
  0
BLOCK_RECORD
  5
B3
330
1
100
AcDbSymbolTableRecord
100
AcDbBlockTableRecord
  2
AI9-BLK5
340
0
102
{BLKREFS
331
B4
102
}
  0
BLOCK_RECORD
  5
B9
330
1
100
AcDbSymbolTableRecord
100
AcDbBlockTableRecord
  2
AI9-BLK6
340
0
102
{BLKREFS
331
BA
102
}
  0
BLOCK_RECORD
  5
BF
330
1
100
AcDbSymbolTableRecord
100
AcDbBlockTableRecord
  2
AI9-BLK7
340
0
102
{BLKREFS
331
C0
102
}
  0
BLOCK_RECORD
  5
C5
330
1
100
AcDbSymbolTableRecord
100
AcDbBlockTableRecord
  2
AI9-BLK8
340
0
102
{BLKREFS
331
C6
102
}
  0
BLOCK_RECORD
  5
CB
330
1
100
AcDbSymbolTableRecord
100
AcDbBlockTableRecord
  2
AI9-BLK9
340
0
102
{BLKREFS
331
CC
102
}
  0
BLOCK_RECORD
  5
D1
330
1
100
AcDbSymbolTableRecord
100
AcDbBlockTableRecord
  2
AI9-BLK10
340
0
102
{BLKREFS
331
D2
102
}
  0
BLOCK_RECORD
  5
D7
330
1
100
AcDbSymbolTableRecord
100
AcDbBlockTableRecord
  2
AI9-BLK11
340
0
102
{BLKREFS
331
D8
102
}
  0
ENDTAB
  0
ENDSEC
  0
SECTION
  2
BLOCKS
  0
BLOCK
  5
D
330
A
100
AcDbEntity
  8
0
100
AcDbBlockBegin
  2
*MODEL_SPACE
 70
     0
 10
0.0
 20
0.0
 30
0.0
  3
*MODEL_SPACE
  1

  4

  0
ENDBLK
  5
E
330
A
100
AcDbEntity
  8
0
100
AcDbBlockEnd
  0
BLOCK
  5
F
330
B
100
AcDbEntity
 67
     1
  8
0
100
AcDbBlockBegin
  2
*PAPER_SPACE
 70
     0
 10
0.0
 20
0.0
 30
0.0
  3
*PAPER_SPACE
  1

  4

  0
ENDBLK
  5
10
330
B
100
AcDbEntity
 67
     1
  8
0
100
AcDbBlockEnd
  0
BLOCK
  5
29
330
27
100
AcDbEntity
  8
0
 62
     7
100
AcDbBlockBegin
  2
AI9-BLK1
 70
     0
 10
0.0
 20
0.0
 30
0.0
  3
AI9-BLK1
  1

  4

  0
SPLINE
  5
2D
330
27
100
AcDbEntity
  8
IUS
 62
     7
100
AcDbSpline
210
0.0
220
0.0
230
1.0
 70
    11
 71
     3
 72
    17
 73
    13
 74
     0
 42
0.0000000001
 43
0.0000000001
 40
0.0
 40
0.0
 40
0.0
 40
0.0
 40
1.0
 40
1.0
 40
1.0
 40
2.0
 40
2.0
 40
2.0
 40
3.0
 40
3.0
 40
3.0
 40
4.0
 40
4.0
 40
4.0
 40
4.0
 10
1529.024671766493
 20
-1502.23268093533
 30
0.0
 10
1528.968172200521
 20
-1502.380647786458
 30
0.0
 10
1528.409377712673
 20
-1503.233136664496
 30
0.0
 10
1529.277197265625
 20
-1503.233136664496
 30
0.0
 10
1530.145705837673
 20
-1503.233136664496
 30
0.0
 10
1529.659602864583
 20
-1502.435252549913
 30
0.0
 10
1529.629630533854
 20
-1502.250939941406
 30
0.0
 10
1529.598969184028
 20
-1502.060770670573
 30
0.0
 10
1529.483558485243
 20
-1501.999103461371
 30
0.0
 10
1529.315093315972
 20
-1501.999103461371
 30
0.0
 10
1529.14456108941
 20
-1501.999103461371
 30
0.0
 10
1529.095640733507
 20
-1502.044578721788
 30
0.0
 10
1529.024671766493
 20
-1502.23268093533
 30
0.0
  0
SPLINE
  5
2C
330
27
100
AcDbEntity
  8
IUS
 62
     7
100
AcDbSpline
210
0.0
220
0.0
230
1.0
 70
    11
 71
     3
 72
    26
 73
    22
 74
     0
 42
0.0000000001
 43
0.0000000001
 40
0.0
 40
0.0
 40
0.0
 40
0.0
 40
1.0
 40
1.0
 40
1.0
 40
2.0
 40
2.0
 40
2.0
 40
3.0
 40
3.0
 40
3.0
 40
4.0
 40
4.0
 40
4.0
 40
5.0
 40
5.0
 40
5.0
 40
6.0
 40
6.0
 40
6.0
 40
7.0
 40
7.0
 40
7.0
 40
7.0
 10
1530.941867404514
 20
-1507.068733723958
 30
0.0
 10
1530.941867404514
 20
-1507.110247124566
 30
0.0
 10
1530.923952907986
 20
-1507.131089952257
 30
0.0
 10
1530.885367838542
 20
-1507.181043836805
 30
0.0
 10
1530.881233723958
 20
-1507.185694715712
 30
0.0
 10
1530.877444118923
 20
-1507.191551378038
 30
0.0
 10
1530.871587456597
 20
-1507.197752549913
 30
0.0
 10
1530.828868272569
 20
-1507.156928168403
 30
0.0
 10
1530.775469292535
 20
-1507.092504882812
 30
0.0
 10
1530.742051866319
 20
-1507.059431966146
 30
0.0
 10
1530.691408962673
 20
-1507.008616807726
 30
0.0
 10
1530.681073676215
 20
-1506.937475585937
 30
0.0
 10
1530.681073676215
 20
-1506.886143663194
 30
0.0
 10
1530.681073676215
 20
-1506.875636121962
 30
0.0
 10
1530.681073676215
 20
-1506.788130696614
 30
0.0
 10
1530.681073676215
 20
-1506.658939615885
 30
0.0
 10
1530.794417317708
 20
-1506.695113118489
 30
0.0
 10
1530.940489366319
 20
-1506.74076063368
 30
0.0
 10
1530.940489366319
 20
-1506.74076063368
 30
0.0
 10
1530.940489366319
 20
-1506.74076063368
 30
0.0
 10
1530.941867404514
 20
-1507.068733723958
 30
0.0
 10
1530.941867404514
 20
-1507.068733723958
 30
0.0
  0
SPLINE
  5
2B
330
27
100
AcDbEntity
  8
IUS
 62
     7
100
AcDbSpline
210
0.0
220
0.0
230
1.0
 70
    11
 71
     3
 72
    17
 73
    13
 74
     0
 42
0.0000000001
 43
0.0000000001
 40
0.0
 40
0.0
 40
0.0
 40
0.0
 40
1.0
 40
1.0
 40
1.0
 40
2.0
 40
2.0
 40
2.0
 40
3.0
 40
3.0
 40
3.0
 40
4.0
 40
4.0
 40
4.0
 40
4.0
 10
1526.921440972222
 20
-1531.386284722222
 30
0.0
 10
1526.921440972222
 20
-1531.386284722222
 30
0.0
 10
1527.347254774305
 20
-1531.779025607639
 30
0.0
 10
1527.347254774305
 20
-1531.779025607639
 30
0.0
 10
1527.347254774305
 20
-1531.779025607639
 30
0.0
 10
1527.001022677951
 20
-1532.066002061632
 30
0.0
 10
1526.910416666667
 20
-1532.124913194444
 30
0.0
 10
1526.910416666667
 20
-1532.113888888889
 30
0.0
 10
1526.920407443576
 20
-1531.380772569444
 30
0.0
 10
1526.921440972222
 20
-1531.386284722222
 30
0.0
 10
1526.921440972222
 20
-1531.386284722222
 30
0.0
 10
1526.921440972222
 20
-1531.386284722222
 30
0.0
 10
1526.921440972222
 20
-1531.386284722222
 30
0.0
  0
SPLINE
  5
2A
330
27
100
AcDbEntity
  8
IUS
 62
     7
100
AcDbSpline
210
0.0
220
0.0
230
1.0
 70
    11
 71
     3
 72
   242
 73
   238
 74
     0
 42
0.0000000001
 43
0.0000000001
 40
0.0
 40
0.0
 40
0.0
 40
0.0
 40
1.0
 40
1.0
 40
1.0
 40
2.0
 40
2.0
 40
2.0
 40
3.0
 40
3.0
 40
3.0
 40
4.0
 40
4.0
 40
4.0
 40
5.0
 40
5.0
 40
5.0
 40
6.0
 40
6.0
 40
6.0
 40
7.0
 40
7.0
 40
7.0
 40
8.0
 40
8.0
 40
8.0
 40
9.0
 40
9.0
 40
9.0
 40
10.0
 40
10.0
 40
10.0
 40
11.0
 40
11.0
 40
11.0
 40
12.0
 40
12.0
 40
12.0
 40
13.0
 40
13.0
 40
13.0
 40
14.0
 40
14.0
 40
14.0
 40
15.0
 40
15.0
 40
15.0
 40
16.0
 40
16.0
 40
16.0
 40
17.0
 40
17.0
 40
17.0
 40
18.0
 40
18.0
 40
18.0
 40
19.0
 40
19.0
 40
19.0
 40
20.0
 40
20.0
 40
20.0
 40
21.0
 40
21.0
 40
21.0
 40
22.0
 40
22.0
 40
22.0
 40
23.0
 40
23.0
 40
23.0
 40
24.0
 40
24.0
 40
24.0
 40
25.0
 40
25.0
 40
25.0
 40
26.0
 40
26.0
 40
26.0
 40
27.0
 40
27.0
 40
27.0
 40
28.0
 40
28.0
 40
28.0
 40
29.0
 40
29.0
 40
29.0
 40
30.0
 40
30.0
 40
30.0
 40
31.0
 40
31.0
 40
31.0
 40
32.0
 40
32.0
 40
32.0
 40
33.0
 40
33.0
 40
33.0
 40
34.0
 40
34.0
 40
34.0
 40
35.0
 40
35.0
 40
35.0
 40
36.0
 40
36.0
 40
36.0
 40
37.0
 40
37.0
 40
37.0
 40
38.0
 40
38.0
 40
38.0
 40
39.0
 40
39.0
 40
39.0
 40
40.0
 40
40.0
 40
40.0
 40
41.0
 40
41.0
 40
41.0
 40
42.0
 40
42.0
 40
42.0
 40
43.0
 40
43.0
 40
43.0
 40
44.0
 40
44.0
 40
44.0
 40
45.0
 40
45.0
 40
45.0
 40
46.0
 40
46.0
 40
46.0
 40
47.0
 40
47.0
 40
47.0
 40
48.0
 40
48.0
 40
48.0
 40
49.0
 40
49.0
 40
49.0
 40
50.0
 40
50.0
 40
50.0
 40
51.0
 40
51.0
 40
51.0
 40
52.0
 40
52.0
 40
52.0
 40
53.0
 40
53.0
 40
53.0
 40
54.0
 40
54.0
 40
54.0
 40
55.0
 40
55.0
 40
55.0
 40
56.0
 40
56.0
 40
56.0
 40
57.0
 40
57.0
 40
57.0
 40
58.0
 40
58.0
 40
58.0
 40
59.0
 40
59.0
 40
59.0
 40
60.0
 40
60.0
 40
60.0
 40
61.0
 40
61.0
 40
61.0
 40
62.0
 40
62.0
 40
62.0
 40
63.0
 40
63.0
 40
63.0
 40
64.0
 40
64.0
 40
64.0
 40
65.0
 40
65.0
 40
65.0
 40
66.0
 40
66.0
 40
66.0
 40
67.0
 40
67.0
 40
67.0
 40
68.0
 40
68.0
 40
68.0
 40
69.0
 40
69.0
 40
69.0
 40
70.0
 40
70.0
 40
70.0
 40
71.0
 40
71.0
 40
71.0
 40
72.0
 40
72.0
 40
72.0
 40
73.0
 40
73.0
 40
73.0
 40
74.0
 40
74.0
 40
74.0
 40
75.0
 40
75.0
 40
75.0
 40
76.0
 40
76.0
 40
76.0
 40
77.0
 40
77.0
 40
77.0
 40
78.0
 40
78.0
 40
78.0
 40
79.0
 40
79.0
 40
79.0
 40
79.0
 10
1520.543880208333
 20
-1517.136164008246
 30
0.0
 10
1520.543880208333
 20
-1517.136164008246
 30
0.0
 10
1520.295833333333
 20
-1516.826966688368
 30
0.0
 10
1520.295833333333
 20
-1516.826966688368
 30
0.0
 10
1520.060705566406
 20
-1516.591838921441
 30
0.0
 10
1520.001794433594
 20
-1516.0625
 30
0.0
 10
1520.001794433594
 20
-1516.0625
 30
0.0
 10
1520.001794433594
 20
-1516.0625
 30
0.0
 10
1520.04244656033
 20
-1500.179231770833
 30
0.0
 10
1520.04244656033
 20
-1500.179231770833
 30
0.0
 10
1520.04244656033
 20
-1500.179231770833
 30
0.0
 10
1519.652461751302
 20
-1499.567899576823
 30
0.0
 10
1519.652461751302
 20
-1499.567899576823
 30
0.0
 10
1519.652461751302
 20
-1499.567899576823
 30
0.0
 10
1519.630413140191
 20
-1498.395189073351
 30
0.0
 10
1519.630413140191
 20
-1498.395189073351
 30
0.0
 10
1519.630413140191
 20
-1498.395189073351
 30
0.0
 10
1521.388273111979
 20
-1497.521685112847
 30
0.0
 10
1521.388273111979
 20
-1497.521685112847
 30
0.0
 10
1521.388273111979
 20
-1497.521685112847
 30
0.0
 10
1521.41032172309
 20
-1497.07330593533
 30
0.0
 10
1521.41032172309
 20
-1496.808722601996
 30
0.0
 10
1521.41032172309
 20
-1496.544139268663
 30
0.0
 10
1521.341592068142
 20
-1496.349835883246
 30
0.0
 10
1521.620644802517
 20
-1496.256473795573
 30
0.0
 10
1521.899697536892
 20
-1496.162939453125
 30
0.0
 10
1524.514352756076
 20
-1495.339044867621
 30
0.0
 10
1524.514352756076
 20
-1495.339044867621
 30
0.0
 10
1524.514352756076
 20
-1495.339044867621
 30
0.0
 10
1525.111043294271
 20
-1495.48580593533
 30
0.0
 10
1525.111043294271
 20
-1495.48580593533
 30
0.0
 10
1525.111043294271
 20
-1495.48580593533
 30
0.0
 10
1525.111043294271
 20
-1495.857531738281
 30
0.0
 10
1525.111043294271
 20
-1495.857531738281
 30
0.0
 10
1525.111043294271
 20
-1495.857531738281
 30
0.0
 10
1523.345948621962
 20
-1496.80045437283
 30
0.0
 10
1523.173004828559
 20
-1496.893127441406
 30
0.0
 10
1523.001094563802
 20
-1496.98648952908
 30
0.0
 10
1522.92220187717
 20
-1496.960134548611
 30
0.0
 10
1522.92220187717
 20
-1497.146858723958
 30
0.0
 10
1522.92220187717
 20
-1497.332204861111
 30
0.0
 10
1522.92220187717
 20
-1497.884798177083
 30
0.0
 10
1522.92220187717
 20
-1497.884798177083
 30
0.0
 10
1522.92220187717
 20
-1497.884798177083
 30
0.0
 10
1523.908704969618
 20
-1498.159544542101
 30
0.0
 10
1523.908704969618
 20
-1498.159544542101
 30
0.0
 10
1523.908704969618
 20
-1498.159544542101
 30
0.0
 10
1523.908704969618
 20
-1499.741187879774
 30
0.0
 10
1523.908704969618
 20
-1499.741187879774
 30
0.0
 10
1523.908704969618
 20
-1499.741187879774
 30
0.0
 10
1523.558511013455
 20
-1499.776155598958
 30
0.0
 10
1523.558511013455
 20
-1500.091381835938
 30
0.0
 10
1523.558511013455
 20
-1500.091381835938
 30
0.0
 10
1523.558338758681
 20
-1500.336500379774
 30
0.0
 10
1523.908704969618
 20
-1500.406608072917
 30
0.0
 10
1523.908704969618
 20
-1500.406608072917
 30
0.0
 10
1523.908704969618
 20
-1527.552926974826
 30
0.0
 10
1523.908704969618
 20
-1527.552926974826
 30
0.0
 10
1523.908704969618
 20
-1527.552926974826
 30
0.0
 10
1523.103069390191
 20
-1527.763077799479
 30
0.0
 10
1523.068101671007
 20
-1528.883767361111
 30
0.0
 10
1523.068101671007
 20
-1528.883767361111
 30
0.0
 10
1523.068101671007
 20
-1533.367214626736
 30
0.0
 10
1523.068101671007
 20
-1533.367214626736
 30
0.0
 10
1523.068101671007
 20
-1533.367214626736
 30
0.0
 10
1523.032961697048
 20
-1533.646956380208
 30
0.0
 10
1523.27825249566
 20
-1533.717236328125
 30
0.0
 10
1523.27825249566
 20
-1533.717236328125
 30
0.0
 10
1524.679372829861
 20
-1534.207817925347
 30
0.0
 10
1524.679372829861
 20
-1534.207817925347
 30
0.0
 10
1524.679372829861
 20
-1534.207817925347
 30
0.0
 10
1524.686607530382
 20
-1534.207817925347
 30
0.0
 10
1524.686607530382
 20
-1534.207817925347
 30
0.0
 10
1524.686607530382
 20
-1533.198404947917
 30
0.0
 10
1524.686607530382
 20
-1532.398109266493
 30
0.0
 10
1524.686607530382
 20
-1532.398109266493
 30
0.0
 10
1524.686607530382
 20
-1532.398109266493
 30
0.0
 10
1524.674894205729
 20
-1531.868942599826
 30
0.0
 10
1524.846804470486
 20
-1531.268117947049
 30
0.0
 10
1524.86575249566
 20
-1531.201283094618
 30
0.0
 10
1525.694642469618
 20
-1527.508140733507
 30
0.0
 10
1525.758032226562
 20
-1527.216341145833
 30
0.0
 10
1525.874131944444
 20
-1526.683040364583
 30
0.0
 10
1525.867586263021
 20
-1526.259982638889
 30
0.0
 10
1525.867586263021
 20
-1526.259982638889
 30
0.0
 10
1525.867586263021
 20
-1526.259982638889
 30
0.0
 10
1525.867586263021
 20
-1522.273318142361
 30
0.0
 10
1525.867586263021
 20
-1522.273318142361
 30
0.0
 10
1525.867586263021
 20
-1522.273318142361
 30
0.0
 10
1525.838647460937
 20
-1521.850088161892
 30
0.0
 10
1526.060856119791
 20
-1521.326089138455
 30
0.0
 10
1526.256193033854
 20
-1520.86461859809
 30
0.0
 10
1526.577964952257
 20
-1520.178527832031
 30
0.0
 10
1526.648589409722
 20
-1519.961314561632
 30
0.0
 10
1526.791560872396
 20
-1519.521720377604
 30
0.0
 10
1526.806719292535
 20
-1519.239394802517
 30
0.0
 10
1526.806719292535
 20
-1519.239394802517
 30
0.0
 10
1526.806719292535
 20
-1519.239394802517
 30
0.0
 10
1526.806719292535
 20
-1503.209193250868
 30
0.0
 10
1526.806719292535
 20
-1503.093093532986
 30
0.0
 10
1526.806719292535
 20
-1502.975960286458
 30
0.0
 10
1526.803618706597
 20
-1502.852970377604
 30
0.0
 10
1526.883889431424
 20
-1502.722573513455
 30
0.0
 10
1527.004467773438
 20
-1502.526892089844
 30
0.0
 10
1527.360001627604
 20
-1502.070589192708
 30
0.0
 10
1527.360001627604
 20
-1502.070589192708
 30
0.0
 10
1527.360001627604
 20
-1502.070589192708
 30
0.0
 10
1528.996421983507
 20
-1500.837072753906
 30
0.0
 10
1528.996421983507
 20
-1500.837072753906
 30
0.0
 10
1528.996421983507
 20
-1500.837072753906
 30
0.0
 10
1529.464954969618
 20
-1500.590231662326
 30
0.0
 10
1529.464954969618
 20
-1500.590231662326
 30
0.0
 10
1529.464954969618
 20
-1500.590231662326
 30
0.0
 10
1529.464954969618
 20
-1499.964774576823
 30
0.0
 10
1529.464954969618
 20
-1499.964774576823
 30
0.0
 10
1529.464954969618
 20
-1499.964774576823
 30
0.0
 10
1529.877677408854
 20
-1499.768748643663
 30
0.0
 10
1529.877677408854
 20
-1499.768748643663
 30
0.0
 10
1529.877677408854
 20
-1499.768748643663
 30
0.0
 10
1529.877677408854
 20
-1498.944509548611
 30
0.0
 10
1529.877677408854
 20
-1498.769498697917
 30
0.0
 10
1529.877677408854
 20
-1498.595176866319
 30
0.0
 10
1529.817732747396
 20
-1498.43756374783
 30
0.0
 10
1530.033051215278
 20
-1498.281328667535
 30
0.0
 10
1530.249058702257
 20
-1498.12629937066
 30
0.0
 10
1532.165220811632
 20
-1497.28414577908
 30
0.0
 10
1532.165220811632
 20
-1497.28414577908
 30
0.0
 10
1532.165220811632
 20
-1497.28414577908
 30
0.0
 10
1532.810831705729
 20
-1497.460706922743
 30
0.0
 10
1532.810831705729
 20
-1497.460706922743
 30
0.0
 10
1532.810831705729
 20
-1497.460706922743
 30
0.0
 10
1532.810831705729
 20
-1497.851725260417
 30
0.0
 10
1532.810831705729
 20
-1497.851725260417
 30
0.0
 10
1532.810831705729
 20
-1497.851725260417
 30
0.0
 10
1531.933365885417
 20
-1498.471497938368
 30
0.0
 10
1531.792461480035
 20
-1498.58518608941
 30
0.0
 10
1531.662925889757
 20
-1498.689400227865
 30
0.0
 10
1531.539591471354
 20
-1498.78241780599
 30
0.0
 10
1531.539591471354
 20
-1499.095749240451
 30
0.0
 10
1531.539591471354
 20
-1499.408219401042
 30
0.0
 10
1531.539591471354
 20
-1500.120148383247
 30
0.0
 10
1531.539591471354
 20
-1500.120148383247
 30
0.0
 10
1531.539591471354
 20
-1500.120148383247
 30
0.0
 10
1532.146617296007
 20
-1500.315313042535
 30
0.0
 10
1532.146617296007
 20
-1500.315313042535
 30
0.0
 10
1532.146617296007
 20
-1500.315313042535
 30
0.0
 10
1532.986531575521
 20
-1501.547279188368
 30
0.0
 10
1532.986531575521
 20
-1501.547279188368
 30
0.0
 10
1532.986531575521
 20
-1501.547279188368
 30
0.0
 10
1532.986531575521
 20
-1519.027693684896
 30
0.0
 10
1532.986531575521
 20
-1519.027693684896
 30
0.0
 10
1532.986531575521
 20
-1519.027693684896
 30
0.0
 10
1533.000311957465
 20
-1519.486408148871
 30
0.0
 10
1532.680607096354
 20
-1519.801634385851
 30
0.0
 10
1532.657180447048
 20
-1519.824888780382
 30
0.0
 10
1532.317494032118
 20
-1520.156306966146
 30
0.0
 10
1532.306469726563
 20
-1520.169053819444
 30
0.0
 10
1531.97711859809
 20
-1520.544741482205
 30
0.0
 10
1531.969539388021
 20
-1521.003283691406
 30
0.0
 10
1531.969539388021
 20
-1521.003283691406
 30
0.0
 10
1531.969539388021
 20
-1521.003283691406
 30
0.0
 10
1531.969539388021
 20
-1524.460264756944
 30
0.0
 10
1531.969539388021
 20
-1524.460264756944
 30
0.0
 10
1531.969539388021
 20
-1524.460264756944
 30
0.0
 10
1531.972984483507
 20
-1524.97220594618
 30
0.0
 10
1531.60745985243
 20
-1525.489659288194
 30
0.0
 10
1531.596435546875
 20
-1525.50550672743
 30
0.0
 10
1529.16936577691
 20
-1528.184757486979
 30
0.0
 10
1529.0353515625
 20
-1528.361835394965
 30
0.0
 10
1528.837603081597
 20
-1528.623318142361
 30
0.0
 10
1528.696354166666
 20
-1528.940611436632
 30
0.0
 10
1528.66569281684
 20
-1529.437394205729
 30
0.0
 10
1528.641577148437
 20
-1529.828068033854
 30
0.0
 10
1528.66569281684
 20
-1535.207240125868
 30
0.0
 10
1528.66569281684
 20
-1535.207240125868
 30
0.0
 10
1528.66569281684
 20
-1535.250303819444
 30
0.0
 10
1528.677406141493
 20
-1535.295779079861
 30
0.0
 10
1528.587833658854
 20
-1535.360546875
 30
0.0
 10
1528.499294704861
 20
-1535.423936631944
 30
0.0
 10
1528.396975368923
 20
-1535.604459635417
 30
0.0
 10
1528.396975368923
 20
-1535.722281901042
 30
0.0
 10
1528.396975368923
 20
-1535.839759657118
 30
0.0
 10
1528.365625
 20
-1535.950347222222
 30
0.0
 10
1528.309469943576
 20
-1536.080227322048
 30
0.0
 10
1528.298101128472
 20
-1536.106754557291
 30
0.0
 10
1528.398697916667
 20
-1535.90625
 30
0.0
 10
1528.287765842014
 20
-1536.11467827691
 30
0.0
 10
1528.287765842014
 20
-1536.369615342882
 30
0.0
 10
1528.066246202257
 20
-1536.663137478299
 30
0.0
 10
1527.680740017361
 20
-1536.583900282118
 30
0.0
 10
1527.459220377604
 20
-1536.755810546875
 30
0.0
 10
1526.523187934028
 20
-1537.451030815972
 30
0.0
 10
1526.485291883681
 20
-1537.481692165798
 30
0.0
 10
1526.485291883681
 20
-1537.612950303819
 30
0.0
 10
1526.379527452257
 20
-1537.919219292535
 30
0.0
 10
1525.882400173611
 20
-1537.954359266493
 30
0.0
 10
1525.830379231771
 20
-1537.995700412326
 30
0.0
 10
1525.144805230035
 20
-1538.492138671875
 30
0.0
 10
1525.064534505208
 20
-1538.551049804687
 30
0.0
 10
1525.052132161458
 20
-1538.559662543403
 30
0.0
 10
1524.43408203125
 20
-1539.076426866319
 30
0.0
 10
1524.048920355903
 20
-1538.866276041666
 30
0.0
 10
1524.048920355903
 20
-1538.866276041666
 30
0.0
 10
1518.760009765625
 20
-1536.694832356771
 30
0.0
 10
1518.794977484809
 20
-1536.72962782118
 30
0.0
 10
1518.794977484809
 20
-1536.72962782118
 30
0.0
 10
1518.409815809462
 20
-1536.624896918403
 30
0.0
 10
1518.409815809462
 20
-1536.274530707465
 30
0.0
 10
1518.409815809462
 20
-1536.274530707465
 30
0.0
 10
1518.409815809462
 20
-1530.882611762153
 30
0.0
 10
1518.409815809462
 20
-1530.882611762153
 30
0.0
 10
1518.409815809462
 20
-1530.882611762153
 30
0.0
 10
1518.409643554687
 20
-1530.427514648437
 30
0.0
 10
1518.689902072483
 20
-1529.621706814236
 30
0.0
 10
1518.689902072483
 20
-1529.621706814236
 30
0.0
 10
1519.810763888889
 20
-1525.628152126736
 30
0.0
 10
1519.810763888889
 20
-1525.628152126736
 30
0.0
 10
1519.810763888889
 20
-1525.628152126736
 30
0.0
 10
1519.915839301215
 20
-1524.997699652778
 30
0.0
 10
1519.880699327257
 20
-1524.540879991319
 30
0.0
 10
1519.880699327257
 20
-1524.540879991319
 30
0.0
 10
1519.880699327257
 20
-1520.304273817274
 30
0.0
 10
1519.880699327257
 20
-1520.304273817274
 30
0.0
 10
1519.880699327257
 20
-1520.304273817274
 30
0.0
 10
1519.845731608073
 20
-1519.779069010417
 30
0.0
 10
1520.125990125868
 20
-1519.1134765625
 30
0.0
 10
1520.125990125868
 20
-1519.1134765625
 30
0.0
 10
1520.371108669705
 20
-1518.345564778646
 30
0.0
 10
1520.371108669705
 20
-1518.345564778646
 30
0.0
 10
1520.371108669705
 20
-1518.345564778646
 30
0.0
 10
1520.511151801215
 20
-1517.78521999783
 30
0.0
 10
1520.546291775174
 20
-1517.325816514757
 30
0.0
 10
1520.546291775174
 20
-1517.325816514757
 30
0.0
 10
1520.546291775174
 20
-1517.136164008246
 30
0.0
 10
1520.546291775174
 20
-1517.136164008246
 30
0.0
 10
1520.546291775174
 20
-1517.136164008246
 30
0.0
 10
1520.543880208333
 20
-1517.136164008246
 30
0.0
 10
1520.543880208333
 20
-1517.136164008246
 30
0.0
  0
ENDBLK
  5
2E
330
27
100
AcDbEntity
  8
0
100
AcDbBlockEnd
  0
BLOCK
  5
60
330
5E
100
AcDbEntity
  8
0
 62
     7
100
AcDbBlockBegin
  2
AI9-BLK2
 70
     0
 10
0.0
 20
0.0
 30
0.0
  3
AI9-BLK2
  1

  4

  0
LWPOLYLINE
  5
62
330
5E
100
AcDbEntity
  8
IUS
 62
     7
100
AcDbPolyline
 90
        3
 70
     0
 43
0.0
 10
-0.3259921603732638
 20
-0.3941189236111111
 10
0.3849032931857638
 20
-0.1353922526041667
 10
-0.2030022515190972
 20
0.3941189236111111
  0
LINE
  5
61
330
5E
100
AcDbEntity
  8
IUS
 62
     7
100
AcDbLine
 10
-0.2619133843315972
 20
0.3941189236111111
 30
0.0
 11
-0.3849032931857638
 21
-0.3941189236111111
 31
0.0
  0
ENDBLK
  5
67
330
5E
100
AcDbEntity
  8
0
100
AcDbBlockEnd
  0
BLOCK
  5
6A
330
68
100
AcDbEntity
  8
0
 62
     7
100
AcDbBlockBegin
  2
AI9-BLK3
 70
     0
 10
0.0
 20
0.0
 30
0.0
  3
AI9-BLK3
  1

  4

  0
LWPOLYLINE
  5
6C
330
68
100
AcDbEntity
  8
IUS
 62
     7
100
AcDbPolyline
 90
        3
 70
     0
 43
0.0
 10
-0.3259921603732638
 20
-0.3941189236111111
 10
0.3849032931857638
 20
-0.1353922526041667
 10
-0.2030022515190972
 20
0.3941189236111111
  0
LINE
  5
6B
330
68
100
AcDbEntity
  8
IUS
 62
     7
100
AcDbLine
 10
-0.2619133843315972
 20
0.3941189236111111
 30
0.0
 11
-0.3849032931857638
 21
-0.3941189236111111
 31
0.0
  0
ENDBLK
  5
71
330
68
100
AcDbEntity
  8
0
100
AcDbBlockEnd
  0
BLOCK
  5
8D
330
8B
100
AcDbEntity
  8
0
 62
     7
100
AcDbBlockBegin
  2
AI9-BLK4
 70
     0
 10
0.0
 20
0.0
 30
0.0
  3
AI9-BLK4
  1

  4

  0
LINE
  5
91
330
8B
100
AcDbEntity
  8
IUS
 62
     7
100
AcDbLine
 10
0.0606336805555555
 20
-1.164097764756944
 30
0.0
 11
0.0606336805555555
 21
-2.332674153645833
 31
0.0
  0
LINE
  5
90
330
8B
100
AcDbEntity
  8
IUS
 62
     7
100
AcDbLine
 10
0.0606336805555555
 20
0.9260416666666665
 30
0.0
 11
0.0606336805555555
 21
-0.5291666666666666
 31
0.0
  0
LINE
  5
8F
330
8B
100
AcDbEntity
  8
IUS
 62
     7
100
AcDbLine
 10
0.0606336805555555
 20
3.175
 30
0.0
 11
0.0606336805555555
 21
1.5347900390625
 31
0.0
  0
SPLINE
  5
8E
330
8B
100
AcDbEntity
  8
IUS
 62
     7
100
AcDbSpline
210
0.0
220
0.0
230
1.0
 70
     8
 71
     3
 72
     8
 73
     4
 74
     0
 42
0.0000000001
 43
0.0000000001
 40
0.0
 40
0.0
 40
0.0
 40
0.0
 40
1.0
 40
1.0
 40
1.0
 40
1.0
 10
0.0606336805555555
 20
-2.636876085069444
 30
0.0
 10
0.0606336805555555
 20
-2.636876085069444
 30
0.0
 10
0.0871609157986111
 20
-3.014114040798611
 30
0.0
 10
-0.0606336805555555
 20
-3.175
 30
0.0
  0
ENDBLK
  5
92
330
8B
100
AcDbEntity
  8
0
100
AcDbBlockEnd
  0
BLOCK
  5
B5
330
B3
100
AcDbEntity
  8
0
 62
     7
100
AcDbBlockBegin
  2
AI9-BLK5
 70
     0
 10
0.0
 20
0.0
 30
0.0
  3
AI9-BLK5
  1

  4

  0
ELLIPSE
  5
B7
330
B3
100
AcDbEntity
  8
IUS
 62
     7
100
AcDbEllipse
 10
1531.72304280599
 20
-1503.927754041884
 30
0.0
 11
0.08767768012152777
 21
-0.4088467068142361
 31
0.0
210
0.0
220
0.0
230
1.0
 40
0.796539016466104
 41
0.0
 42
6.283185307179586
  0
SPLINE
  5
B6
330
B3
100
AcDbEntity
  8
IUS
 62
     7
100
AcDbSpline
210
0.0
220
0.0
230
1.0
 70
    11
 71
     3
 72
    23
 73
    19
 74
     0
 42
0.0000000001
 43
0.0000000001
 40
0.0
 40
0.0
 40
0.0
 40
0.0
 40
1.0
 40
1.0
 40
1.0
 40
2.0
 40
2.0
 40
2.0
 40
3.0
 40
3.0
 40
3.0
 40
4.0
 40
4.0
 40
4.0
 40
5.0
 40
5.0
 40
5.0
 40
6.0
 40
6.0
 40
6.0
 40
6.0
 10
1531.784537760417
 20
-1503.430885145399
 30
0.0
 10
1531.750431315104
 20
-1503.438292100694
 30
0.0
 10
1531.648456488715
 20
-1503.468781195747
 30
0.0
 10
1531.626063368055
 20
-1503.473604329427
 30
0.0
 10
1531.426247829861
 20
-1503.516323513455
 30
0.0
 10
1531.30739203559
 20
-1503.754207356771
 30
0.0
 10
1531.360791015625
 20
-1504.005182562934
 30
0.0
 10
1531.414879014757
 20
-1504.256157769097
 30
0.0
 10
1531.619862196181
 20
-1504.424622938368
 30
0.0
 10
1531.820366753472
 20
-1504.382076009114
 30
0.0
 10
1531.854473198785
 20
-1504.374669053819
 30
0.0
 10
1531.956448025173
 20
-1504.344179958767
 30
0.0
 10
1531.978841145833
 20
-1504.339356825087
 30
0.0
 10
1532.178656684028
 20
-1504.296637641059
 30
0.0
 10
1532.29716796875
 20
-1504.058753797743
 30
0.0
 10
1532.243424479167
 20
-1503.80777859158
 30
0.0
 10
1532.190025499132
 20
-1503.556803385417
 30
0.0
 10
1531.98469780816
 20
-1503.388165961371
 30
0.0
 10
1531.784537760417
 20
-1503.430885145399
 30
0.0
  0
ENDBLK
  5
B8
330
B3
100
AcDbEntity
  8
0
100
AcDbBlockEnd
  0
BLOCK
  5
BB
330
B9
100
AcDbEntity
  8
0
 62
     7
100
AcDbBlockBegin
  2
AI9-BLK6
 70
     0
 10
0.0
 20
0.0
 30
0.0
  3
AI9-BLK6
  1

  4

  0
ELLIPSE
  5
BD
330
B9
100
AcDbEntity
  8
IUS
 62
     7
100
AcDbEllipse
 10
1531.723559570312
 20
-1508.317064073351
 30
0.0
 11
0.09577365451388888
 21
-0.4068657769097222
 31
0.0
210
0.0
220
0.0
230
1.0
 40
0.7966870251610545
 41
0.0
 42
6.283185307179586
  0
SPLINE
  5
BC
330
B9
100
AcDbEntity
  8
IUS
 62
     7
100
AcDbSpline
210
0.0
220
0.0
230
1.0
 70
    11
 71
     3
 72
    23
 73
    19
 74
     0
 42
0.0000000001
 43
0.0000000001
 40
0.0
 40
0.0
 40
0.0
 40
0.0
 40
1.0
 40
1.0
 40
1.0
 40
2.0
 40
2.0
 40
2.0
 40
3.0
 40
3.0
 40
3.0
 40
4.0
 40
4.0
 40
4.0
 40
5.0
 40
5.0
 40
5.0
 40
6.0
 40
6.0
 40
6.0
 40
6.0
 10
1531.774891493056
 20
-1507.819075520833
 30
0.0
 10
1531.740785047743
 20
-1507.826999240451
 30
0.0
 10
1531.639499240451
 20
-1507.859727647569
 30
0.0
 10
1531.617106119792
 20
-1507.864895290799
 30
0.0
 10
1531.418324110243
 20
-1507.91174858941
 30
0.0
 10
1531.304291449653
 20
-1508.151871744792
 30
0.0
 10
1531.363202582465
 20
-1508.401813422309
 30
0.0
 10
1531.422113715278
 20
-1508.651582845052
 30
0.0
 10
1531.630541992187
 20
-1508.815913899739
 30
0.0
 10
1531.830013020833
 20
-1508.769232855903
 30
0.0
 10
1531.864119466146
 20
-1508.76113688151
 30
0.0
 10
1531.965405273438
 20
-1508.728580729166
 30
0.0
 10
1531.987798394097
 20
-1508.723240831163
 30
0.0
 10
1532.186580403646
 20
-1508.676559787326
 30
0.0
 10
1532.300268554687
 20
-1508.43626437717
 30
0.0
 10
1532.241357421875
 20
-1508.186494954427
 30
0.0
 10
1532.182790798611
 20
-1507.936725531684
 30
0.0
 10
1531.974018012153
 20
-1507.772222222222
 30
0.0
 10
1531.774891493056
 20
-1507.819075520833
 30
0.0
  0
ENDBLK
  5
BE
330
B9
100
AcDbEntity
  8
0
100
AcDbBlockEnd
  0
BLOCK
  5
C1
330
BF
100
AcDbEntity
  8
0
 62
     7
100
AcDbBlockBegin
  2
AI9-BLK7
 70
     0
 10
0.0
 20
0.0
 30
0.0
  3
AI9-BLK7
  1

  4

  0
ELLIPSE
  5
C3
330
BF
100
AcDbEntity
  8
IUS
 62
     7
100
AcDbEllipse
 10
1531.72424858941
 20
-1514.013615587023
 30
0.0
 11
0.1092095269097222
 21
-0.4035068088107638
 31
0.0
210
0.0
220
0.0
230
1.0
 40
0.7964198534246066
 41
0.0
 42
6.283185307179586
  0
SPLINE
  5
C2
330
BF
100
AcDbEntity
  8
IUS
 62
     7
100
AcDbSpline
210
0.0
220
0.0
230
1.0
 70
    11
 71
     3
 72
    23
 73
    19
 74
     0
 42
0.0000000001
 43
0.0000000001
 40
0.0
 40
0.0
 40
0.0
 40
0.0
 40
1.0
 40
1.0
 40
1.0
 40
2.0
 40
2.0
 40
2.0
 40
3.0
 40
3.0
 40
3.0
 40
4.0
 40
4.0
 40
4.0
 40
5.0
 40
5.0
 40
5.0
 40
6.0
 40
6.0
 40
6.0
 40
6.0
 10
1531.759388563368
 20
-1513.514162868923
 30
0.0
 10
1531.725282118056
 20
-1513.523464626736
 30
0.0
 10
1531.625374348958
 20
-1513.559293619792
 30
0.0
 10
1531.603325737847
 20
-1513.565322536892
 30
0.0
 10
1531.406266276042
 20
-1513.618549262153
 30
0.0
 10
1531.299812825521
 20
-1513.862462022569
 30
0.0
 10
1531.3669921875
 20
-1514.110164388021
 30
0.0
 10
1531.434171549479
 20
-1514.357866753472
 30
0.0
 10
1531.647767469618
 20
-1514.515307617187
 30
0.0
 10
1531.845515950521
 20
-1514.462080891927
 30
0.0
 10
1531.879622395833
 20
-1514.452951388889
 30
0.0
 10
1531.97953016493
 20
-1514.417122395833
 30
0.0
 10
1532.001578776042
 20
-1514.411093478733
 30
0.0
 10
1532.198638237847
 20
-1514.357694498698
 30
0.0
 10
1532.304747178819
 20
-1514.113953993056
 30
0.0
 10
1532.23756781684
 20
-1513.866251627604
 30
0.0
 10
1532.17073296441
 20
-1513.618377007378
 30
0.0
 10
1531.956792534722
 20
-1513.460763888889
 30
0.0
 10
1531.759388563368
 20
-1513.514162868923
 30
0.0
  0
ENDBLK
  5
C4
330
BF
100
AcDbEntity
  8
0
100
AcDbBlockEnd
  0
BLOCK
  5
C7
330
C5
100
AcDbEntity
  8
0
 62
     7
100
AcDbBlockBegin
  2
AI9-BLK8
 70
     0
 10
0.0
 20
0.0
 30
0.0
  3
AI9-BLK8
  1

  4

  0
SPLINE
  5
C9
330
C5
100
AcDbEntity
  8
IUS
 62
     7
100
AcDbSpline
210
0.0
220
0.0
230
1.0
 70
     8
 71
     3
 72
    11
 73
     7
 74
     0
 42
0.0000000001
 43
0.0000000001
 40
0.0
 40
0.0
 40
0.0
 40
0.0
 40
1.0
 40
1.0
 40
1.0
 40
2.0
 40
2.0
 40
2.0
 40
2.0
 10
-0.2075670030381944
 20
0.4125501844618055
 30
0.0
 10
-0.0130913628472222
 20
0.4571641710069444
 30
0.0
 10
0.1899970160590278
 20
0.2959337022569444
 30
0.0
 10
0.2454630533854167
 20
0.0520209418402778
 30
0.0
 10
0.3016181098090278
 20
-0.1915473090277778
 30
0.0
 10
0.1899970160590278
 20
-0.4251247829861111
 30
0.0
 10
-0.0041341145833333
 20
-0.4699110243055555
 30
0.0
  0
SPLINE
  5
C8
330
C5
100
AcDbEntity
  8
IUS
 62
     7
100
AcDbSpline
210
0.0
220
0.0
230
1.0
 70
    11
 71
     3
 72
    23
 73
    19
 74
     0
 42
0.0000000001
 43
0.0000000001
 40
0.0
 40
0.0
 40
0.0
 40
0.0
 40
1.0
 40
1.0
 40
1.0
 40
2.0
 40
2.0
 40
2.0
 40
3.0
 40
3.0
 40
3.0
 40
4.0
 40
4.0
 40
4.0
 40
5.0
 40
5.0
 40
5.0
 40
6.0
 40
6.0
 40
6.0
 40
6.0
 10
-0.0253214518229167
 20
0.4752509223090277
 30
0.0
 10
-0.0594278971354167
 20
0.4673272026909722
 30
0.0
 10
-0.1607137044270833
 20
0.4352878146701388
 30
0.0
 10
-0.1831068250868055
 20
0.4301201714409722
 30
0.0
 10
-0.3822333441840278
 20
0.3841281467013888
 30
0.0
 10
-0.4972995334201388
 20
0.1445217556423611
 30
0.0
 10
-0.4397664388020833
 20
-0.1055921766493056
 30
0.0
 10
-0.3818888346354166
 20
-0.3557061089409722
 30
0.0
 10
-0.1741495768229167
 20
-0.5210706922743055
 30
0.0
 10
0.0256659613715278
 20
-0.4752509223090277
 30
0.0
 10
0.0597724066840278
 20
-0.4673272026909722
 30
0.0
 10
0.1610582139756944
 20
-0.4351155598958333
 30
0.0
 10
0.1834513346354167
 20
-0.4299479166666667
 30
0.0
 10
0.3825778537326389
 20
-0.3841281467013888
 30
0.0
 10
0.4972995334201388
 20
-0.1445217556423611
 30
0.0
 10
0.4397664388020833
 20
0.1055921766493056
 30
0.0
 10
0.3822333441840278
 20
0.3557061089409722
 30
0.0
 10
0.1741495768229167
 20
0.5212429470486111
 30
0.0
 10
-0.0253214518229167
 20
0.4752509223090277
 30
0.0
  0
ENDBLK
  5
CA
330
C5
100
AcDbEntity
  8
0
100
AcDbBlockEnd
  0
BLOCK
  5
CD
330
CB
100
AcDbEntity
  8
0
 62
     7
100
AcDbBlockBegin
  2
AI9-BLK9
 70
     0
 10
0.0
 20
0.0
 30
0.0
  3
AI9-BLK9
  1

  4

  0
SPLINE
  5
CF
330
CB
100
AcDbEntity
  8
IUS
 62
     7
100
AcDbSpline
210
0.0
220
0.0
230
1.0
 70
     8
 71
     3
 72
    11
 73
     7
 74
     0
 42
0.0000000001
 43
0.0000000001
 40
0.0
 40
0.0
 40
0.0
 40
0.0
 40
1.0
 40
1.0
 40
1.0
 40
2.0
 40
2.0
 40
2.0
 40
2.0
 10
-0.2075670030381944
 20
0.4125501844618055
 30
0.0
 10
-0.0130913628472222
 20
0.4571641710069444
 30
0.0
 10
0.1899970160590278
 20
0.2959337022569444
 30
0.0
 10
0.2454630533854167
 20
0.0520209418402778
 30
0.0
 10
0.3016181098090278
 20
-0.1915473090277778
 30
0.0
 10
0.1899970160590278
 20
-0.4251247829861111
 30
0.0
 10
-0.0041341145833333
 20
-0.4699110243055555
 30
0.0
  0
SPLINE
  5
CE
330
CB
100
AcDbEntity
  8
IUS
 62
     7
100
AcDbSpline
210
0.0
220
0.0
230
1.0
 70
    11
 71
     3
 72
    23
 73
    19
 74
     0
 42
0.0000000001
 43
0.0000000001
 40
0.0
 40
0.0
 40
0.0
 40
0.0
 40
1.0
 40
1.0
 40
1.0
 40
2.0
 40
2.0
 40
2.0
 40
3.0
 40
3.0
 40
3.0
 40
4.0
 40
4.0
 40
4.0
 40
5.0
 40
5.0
 40
5.0
 40
6.0
 40
6.0
 40
6.0
 40
6.0
 10
-0.0253214518229167
 20
0.4752509223090277
 30
0.0
 10
-0.0594278971354167
 20
0.4673272026909722
 30
0.0
 10
-0.1607137044270833
 20
0.4352878146701388
 30
0.0
 10
-0.1831068250868055
 20
0.4301201714409722
 30
0.0
 10
-0.3822333441840278
 20
0.3841281467013888
 30
0.0
 10
-0.4972995334201388
 20
0.1445217556423611
 30
0.0
 10
-0.4397664388020833
 20
-0.1055921766493056
 30
0.0
 10
-0.3818888346354166
 20
-0.3557061089409722
 30
0.0
 10
-0.1741495768229167
 20
-0.5210706922743055
 30
0.0
 10
0.0256659613715278
 20
-0.4752509223090277
 30
0.0
 10
0.0597724066840278
 20
-0.4673272026909722
 30
0.0
 10
0.1610582139756944
 20
-0.4351155598958333
 30
0.0
 10
0.1834513346354167
 20
-0.4299479166666667
 30
0.0
 10
0.3825778537326389
 20
-0.3841281467013888
 30
0.0
 10
0.4972995334201388
 20
-0.1445217556423611
 30
0.0
 10
0.4397664388020833
 20
0.1055921766493056
 30
0.0
 10
0.3822333441840278
 20
0.3557061089409722
 30
0.0
 10
0.1741495768229167
 20
0.5212429470486111
 30
0.0
 10
-0.0253214518229167
 20
0.4752509223090277
 30
0.0
  0
ENDBLK
  5
D0
330
CB
100
AcDbEntity
  8
0
100
AcDbBlockEnd
  0
BLOCK
  5
D3
330
D1
100
AcDbEntity
  8
0
 62
     7
100
AcDbBlockBegin
  2
AI9-BLK10
 70
     0
 10
0.0
 20
0.0
 30
0.0
  3
AI9-BLK10
  1

  4

  0
SPLINE
  5
D5
330
D1
100
AcDbEntity
  8
IUS
 62
     7
100
AcDbSpline
210
0.0
220
0.0
230
1.0
 70
     8
 71
     3
 72
    11
 73
     7
 74
     0
 42
0.0000000001
 43
0.0000000001
 40
0.0
 40
0.0
 40
0.0
 40
0.0
 40
1.0
 40
1.0
 40
1.0
 40
2.0
 40
2.0
 40
2.0
 40
2.0
 10
-0.2075670030381944
 20
0.4125501844618055
 30
0.0
 10
-0.0130913628472222
 20
0.4571641710069444
 30
0.0
 10
0.1899970160590278
 20
0.2959337022569444
 30
0.0
 10
0.2454630533854167
 20
0.0520209418402778
 30
0.0
 10
0.3016181098090278
 20
-0.1915473090277778
 30
0.0
 10
0.1899970160590278
 20
-0.4251247829861111
 30
0.0
 10
-0.0041341145833333
 20
-0.4699110243055555
 30
0.0
  0
SPLINE
  5
D4
330
D1
100
AcDbEntity
  8
IUS
 62
     7
100
AcDbSpline
210
0.0
220
0.0
230
1.0
 70
    11
 71
     3
 72
    23
 73
    19
 74
     0
 42
0.0000000001
 43
0.0000000001
 40
0.0
 40
0.0
 40
0.0
 40
0.0
 40
1.0
 40
1.0
 40
1.0
 40
2.0
 40
2.0
 40
2.0
 40
3.0
 40
3.0
 40
3.0
 40
4.0
 40
4.0
 40
4.0
 40
5.0
 40
5.0
 40
5.0
 40
6.0
 40
6.0
 40
6.0
 40
6.0
 10
-0.0253214518229167
 20
0.4752509223090277
 30
0.0
 10
-0.0594278971354167
 20
0.4673272026909722
 30
0.0
 10
-0.1607137044270833
 20
0.4352878146701388
 30
0.0
 10
-0.1831068250868055
 20
0.4301201714409722
 30
0.0
 10
-0.3822333441840278
 20
0.3841281467013888
 30
0.0
 10
-0.4972995334201388
 20
0.1445217556423611
 30
0.0
 10
-0.4397664388020833
 20
-0.1055921766493056
 30
0.0
 10
-0.3818888346354166
 20
-0.3557061089409722
 30
0.0
 10
-0.1741495768229167
 20
-0.5210706922743055
 30
0.0
 10
0.0256659613715278
 20
-0.4752509223090277
 30
0.0
 10
0.0597724066840278
 20
-0.4673272026909722
 30
0.0
 10
0.1610582139756944
 20
-0.4351155598958333
 30
0.0
 10
0.1834513346354167
 20
-0.4299479166666667
 30
0.0
 10
0.3825778537326389
 20
-0.3841281467013888
 30
0.0
 10
0.4972995334201388
 20
-0.1445217556423611
 30
0.0
 10
0.4397664388020833
 20
0.1055921766493056
 30
0.0
 10
0.3822333441840278
 20
0.3557061089409722
 30
0.0
 10
0.1741495768229167
 20
0.5212429470486111
 30
0.0
 10
-0.0253214518229167
 20
0.4752509223090277
 30
0.0
  0
ENDBLK
  5
D6
330
D1
100
AcDbEntity
  8
0
100
AcDbBlockEnd
  0
BLOCK
  5
D9
330
D7
100
AcDbEntity
  8
0
 62
     7
100
AcDbBlockBegin
  2
AI9-BLK11
 70
     0
 10
0.0
 20
0.0
 30
0.0
  3
AI9-BLK11
  1

  4

  0
SPLINE
  5
DB
330
D7
100
AcDbEntity
  8
IUS
 62
     7
100
AcDbSpline
210
0.0
220
0.0
230
1.0
 70
     8
 71
     3
 72
    11
 73
     7
 74
     0
 42
0.0000000001
 43
0.0000000001
 40
0.0
 40
0.0
 40
0.0
 40
0.0
 40
1.0
 40
1.0
 40
1.0
 40
2.0
 40
2.0
 40
2.0
 40
2.0
 10
-0.2075670030381944
 20
0.4125501844618055
 30
0.0
 10
-0.0130913628472222
 20
0.4571641710069444
 30
0.0
 10
0.1899970160590278
 20
0.2959337022569444
 30
0.0
 10
0.2454630533854167
 20
0.0520209418402778
 30
0.0
 10
0.3016181098090278
 20
-0.1915473090277778
 30
0.0
 10
0.1899970160590278
 20
-0.4251247829861111
 30
0.0
 10
-0.0041341145833333
 20
-0.4699110243055555
 30
0.0
  0
SPLINE
  5
DA
330
D7
100
AcDbEntity
  8
IUS
 62
     7
100
AcDbSpline
210
0.0
220
0.0
230
1.0
 70
    11
 71
     3
 72
    23
 73
    19
 74
     0
 42
0.0000000001
 43
0.0000000001
 40
0.0
 40
0.0
 40
0.0
 40
0.0
 40
1.0
 40
1.0
 40
1.0
 40
2.0
 40
2.0
 40
2.0
 40
3.0
 40
3.0
 40
3.0
 40
4.0
 40
4.0
 40
4.0
 40
5.0
 40
5.0
 40
5.0
 40
6.0
 40
6.0
 40
6.0
 40
6.0
 10
-0.0253214518229167
 20
0.4752509223090277
 30
0.0
 10
-0.0594278971354167
 20
0.4673272026909722
 30
0.0
 10
-0.1607137044270833
 20
0.4352878146701388
 30
0.0
 10
-0.1831068250868055
 20
0.4301201714409722
 30
0.0
 10
-0.3822333441840278
 20
0.3841281467013888
 30
0.0
 10
-0.4972995334201388
 20
0.1445217556423611
 30
0.0
 10
-0.4397664388020833
 20
-0.1055921766493056
 30
0.0
 10
-0.3818888346354166
 20
-0.3557061089409722
 30
0.0
 10
-0.1741495768229167
 20
-0.5210706922743055
 30
0.0
 10
0.0256659613715278
 20
-0.4752509223090277
 30
0.0
 10
0.0597724066840278
 20
-0.4673272026909722
 30
0.0
 10
0.1610582139756944
 20
-0.4351155598958333
 30
0.0
 10
0.1834513346354167
 20
-0.4299479166666667
 30
0.0
 10
0.3825778537326389
 20
-0.3841281467013888
 30
0.0
 10
0.4972995334201388
 20
-0.1445217556423611
 30
0.0
 10
0.4397664388020833
 20
0.1055921766493056
 30
0.0
 10
0.3822333441840278
 20
0.3557061089409722
 30
0.0
 10
0.1741495768229167
 20
0.5212429470486111
 30
0.0
 10
-0.0253214518229167
 20
0.4752509223090277
 30
0.0
  0
ENDBLK
  5
DC
330
D7
100
AcDbEntity
  8
0
100
AcDbBlockEnd
  0
ENDSEC
  0
SECTION
  2
ENTITIES
  0
LWPOLYLINE
  5
F7
330
A
100
AcDbEntity
  8
WOOD
 62
     7
100
AcDbPolyline
 90
       16
 70
     0
 43
0.0
 10
102.5398220486111
 20
131.7933336046007
 10
93.18793809678819
 20
135.4372111002604
 10
93.18793809678819
 20
151.0476277669271
 10
94.2211222330729
 20
151.4885999891493
 10
92.10445556640624
 20
153.6934611002604
 10
93.18793809678819
 20
154.2226277669271
 10
93.18793809678819
 20
170.269538031684
 10
100.4829277886285
 20
173.0080444335937
 10
135.9665500217014
 20
164.382903374566
 10
135.9665500217014
 20
147.292473687066
 10
134.8985704210069
 20
146.4797756618924
 10
137.3414876302083
 20
144.2168646918403
 10
135.9665500217014
 20
143.1351047092014
 10
135.9665500217014
 20
126.1631863064236
 10
129.9596815321181
 20
121.1092312282986
 10
112.5419677734375
 20
127.8958970811632
  0
LWPOLYLINE
  5
EF
330
A
100
AcDbEntity
  8
WOOD
 62
     7
100
AcDbPolyline
 90
        6
 70
     0
 43
0.0
 10
129.957958984375
 20
121.1164659288194
 10
129.957958984375
 20
139.0275173611111
 10
131.2856987847222
 20
139.4543646918403
 10
128.630908203125
 20
142.1098442925347
 10
129.8308349609375
 20
142.568903266059
 10
129.8308349609375
 20
160.8232584635417
  0
LWPOLYLINE
  5
EA
330
A
100
AcDbEntity
  8
WOOD
 62
     7
100
AcDbPolyline
 90
        3
 70
     0
 43
0.0
 10
115.6683919270833
 20
164.4450873480903
 10
129.8446153428819
 20
160.8024156358507
 10
135.9648274739583
 20
164.3803195529514
  0
LINE
  5
E9
330
A
100
AcDbEntity
  8
WOOD
 62
     7
100
AcDbLine
 10
107.2563300238715
 20
166.606884765625
 30
0.0
 11
114.0009657118056
 21
164.8736572265625
 31
0.0
  0
LINE
  5
E8
330
A
100
AcDbEntity
  8
WOOD
 62
     7
100
AcDbLine
 10
93.43167860243055
 20
170.1594672309028
 30
0.0
 11
105.5368828667535
 21
167.0487182617187
 31
0.0
  0
LWPOLYLINE
  5
E3
330
A
100
AcDbEntity
  8
WOOD
 62
     7
100
AcDbPolyline
 90
        3
 70
     0
 43
0.0
 10
134.8985704210069
 20
146.4797756618924
 10
129.8446153428819
 20
142.5685587565104
 10
128.630908203125
 20
142.1098442925347
  0
LWPOLYLINE
  5
DE
330
A
100
AcDbEntity
  8
WOOD
 62
     7
100
AcDbPolyline
 90
        3
 70
     0
 43
0.0
 10
135.9510470920139
 20
143.1209798177083
 10
131.2874213324653
 20
139.4615993923611
 10
129.957958984375
 20
139.0275173611111
  0
INSERT
  5
D8
330
A
100
AcDbEntity
  8
IUS
 62
     7
100
AcDbBlockReference
  2
AI9-BLK11
 10
115.928668891059
 20
144.4366617838542
 30
0.0
  0
INSERT
  5
D2
330
A
100
AcDbEntity
  8
IUS
 62
     7
100
AcDbBlockReference
  2
AI9-BLK10
 10
115.9414157443576
 20
149.5409152560764
 30
0.0
  0
INSERT
  5
CC
330
A
100
AcDbEntity
  8
IUS
 62
     7
100
AcDbBlockReference
  2
AI9-BLK9
 10
115.9471001519097
 20
155.2342800564236
 30
0.0
  0
INSERT
  5
C6
330
A
100
AcDbEntity
  8
IUS
 62
     7
100
AcDbBlockReference
  2
AI9-BLK8
 10
115.9543348524306
 20
159.6247097439236
 30
0.0
  0
INSERT
  5
C0
330
A
100
AcDbEntity
  8
IUS
 62
     7
100
AcDbBlockReference
  2
AI9-BLK7
 10
-1415.873611111111
 20
1663.523611111111
 30
0.0
  0
INSERT
  5
BA
330
A
100
AcDbEntity
  8
IUS
 62
     7
100
AcDbBlockReference
  2
AI9-BLK6
 10
-1415.873611111111
 20
1663.523611111111
 30
0.0
  0
INSERT
  5
B4
330
A
100
AcDbEntity
  8
IUS
 62
     7
100
AcDbBlockReference
  2
AI9-BLK5
 10
-1415.873611111111
 20
1663.523611111111
 30
0.0
  0
SPLINE
  5
B2
330
A
100
AcDbEntity
  8
IUS
 62
     7
100
AcDbSpline
210
0.0
220
0.0
230
1.0
 70
     8
 71
     3
 72
    20
 73
    16
 74
     0
 42
0.0000000001
 43
0.0000000001
 40
0.0
 40
0.0
 40
0.0
 40
0.0
 40
1.0
 40
1.0
 40
1.0
 40
2.0
 40
2.0
 40
2.0
 40
3.0
 40
3.0
 40
3.0
 40
4.0
 40
4.0
 40
4.0
 40
5.0
 40
5.0
 40
5.0
 40
5.0
 10
109.2326090494792
 20
168.0192016601562
 30
0.0
 10
109.2326090494792
 20
168.0192016601562
 30
0.0
 10
107.042389594184
 20
166.8942057291667
 30
0.0
 10
106.9517835828993
 20
166.8528645833333
 30
0.0
 10
106.8596272786458
 20
166.8115234375
 30
0.0
 10
106.7273356119792
 20
166.7297024197048
 30
0.0
 10
106.7273356119792
 20
166.5359157986111
 30
0.0
 10
106.7273356119792
 20
166.341956922743
 30
0.0
 10
106.7152777777778
 20
165.5409722222222
 30
0.0
 10
106.7152777777778
 20
165.5409722222222
 30
0.0
 10
106.7152777777778
 20
165.5409722222222
 30
0.0
 10
107.685588921441
 20
165.2469333224826
 30
0.0
 10
107.685588921441
 20
165.2469333224826
 30
0.0
 10
107.685588921441
 20
165.2469333224826
 30
0.0
 10
107.685588921441
 20
163.7478000217014
 30
0.0
 10
107.685588921441
 20
163.7478000217014
 30
0.0
  0
LINE
  5
B1
330
A
100
AcDbEntity
  8
IUS
 62
     7
100
AcDbLine
 10
105.810595703125
 20
167.0254638671875
 30
0.0
 11
106.5430230034722
 21
166.8259928385417
 31
0.0
  0
SPLINE
  5
B0
330
A
100
AcDbEntity
  8
IUS
 62
     7
100
AcDbSpline
210
0.0
220
0.0
230
1.0
 70
     8
 71
     3
 72
    44
 73
    40
 74
     0
 42
0.0000000001
 43
0.0000000001
 40
0.0
 40
0.0
 40
0.0
 40
0.0
 40
1.0
 40
1.0
 40
1.0
 40
2.0
 40
2.0
 40
2.0
 40
3.0
 40
3.0
 40
3.0
 40
4.0
 40
4.0
 40
4.0
 40
5.0
 40
5.0
 40
5.0
 40
6.0
 40
6.0
 40
6.0
 40
7.0
 40
7.0
 40
7.0
 40
8.0
 40
8.0
 40
8.0
 40
9.0
 40
9.0
 40
9.0
 40
10.0
 40
10.0
 40
10.0
 40
11.0
 40
11.0
 40
11.0
 40
12.0
 40
12.0
 40
12.0
 40
13.0
 40
13.0
 40
13.0
 40
13.0
 10
108.8908555772569
 20
124.7658555772569
 30
0.0
 10
109.1554389105903
 20
124.8833333333333
 30
0.0
 10
109.2222737630208
 20
125.2454128689236
 30
0.0
 10
109.2222737630208
 20
125.3535888671875
 30
0.0
 10
109.2222737630208
 20
125.4610758463542
 30
0.0
 10
109.2222737630208
 20
130.8433485243056
 30
0.0
 10
109.2222737630208
 20
130.8433485243056
 30
0.0
 10
109.2222737630208
 20
130.8433485243056
 30
0.0
 10
109.1892008463542
 20
131.4431396484375
 30
0.0
 10
109.3779920789931
 20
132.1452501085069
 30
0.0
 10
109.3986626519097
 20
132.2217312282986
 30
0.0
 10
110.2874972873264
 20
136.2156304253472
 30
0.0
 10
110.2971435546875
 20
136.2469807942708
 30
0.0
 10
110.4590630425347
 20
136.7699462890625
 30
0.0
 10
110.4046305338542
 20
137.1933485243056
 30
0.0
 10
110.4046305338542
 20
137.1933485243056
 30
0.0
 10
110.4046305338542
 20
137.1933485243056
 30
0.0
 10
110.4046305338542
 20
141.179840766059
 30
0.0
 10
110.4046305338542
 20
141.179840766059
 30
0.0
 10
110.4046305338542
 20
141.179840766059
 30
0.0
 10
110.3887830946181
 20
141.7090074327257
 30
0.0
 10
110.5892876519097
 20
142.120696343316
 30
0.0
 10
110.8097737630208
 20
142.573381890191
 30
0.0
 10
111.0619547526042
 20
143.2734252929687
 30
0.0
 10
111.1277560763889
 20
143.4585991753472
 30
0.0
 10
111.2707275390625
 20
143.8608140733507
 30
0.0
 10
111.2896755642361
 20
144.2842163085937
 30
0.0
 10
111.2896755642361
 20
144.2842163085937
 30
0.0
 10
111.2896755642361
 20
144.2842163085937
 30
0.0
 10
111.2896755642361
 20
160.4525661892361
 30
0.0
 10
111.2896755642361
 20
160.4525661892361
 30
0.0
 10
111.2896755642361
 20
160.4525661892361
 30
0.0
 10
111.7595865885417
 20
161.19326171875
 30
0.0
 10
111.7595865885417
 20
161.19326171875
 30
0.0
 10
111.7595865885417
 20
161.19326171875
 30
0.0
 10
113.2675048828125
 20
162.35908203125
 30
0.0
 10
113.2675048828125
 20
162.35908203125
 30
0.0
 10
113.2675048828125
 20
162.35908203125
 30
0.0
 10
114.301722547743
 20
162.9056464301215
 30
0.0
 10
114.301722547743
 20
162.9056464301215
 30
0.0
  0
LINE
  5
AF
330
A
100
AcDbEntity
  8
IUS
 62
     7
100
AcDbLine
 10
113.1300455729167
 20
162.6856770833333
 30
0.0
 11
113.3184922960069
 21
162.3931884765625
 31
0.0
  0
LINE
  5
AE
330
A
100
AcDbEntity
  8
IUS
 62
     7
100
AcDbLine
 10
111.4974148220486
 20
161.4380357530382
 30
0.0
 11
111.7571750217014
 21
161.1843044704861
 31
0.0
  0
LINE
  5
AD
330
A
100
AcDbEntity
  8
IUS
 62
     7
100
AcDbLine
 10
111.6793158637153
 20
160.5991550021701
 30
0.0
 11
112.7786458333333
 21
161.1433078342014
 31
0.0
  0
LINE
  5
AC
330
A
100
AcDbEntity
  8
IUS
 62
     7
100
AcDbLine
 10
105.3293158637153
 20
163.0096883138021
 30
0.0
 11
107.0680555555556
 21
163.9829277886284
 31
0.0
  0
LINE
  5
AB
330
A
100
AcDbEntity
  8
IUS
 62
     7
100
AcDbLine
 10
114.3189480251736
 20
164.8915717230903
 30
0.0
 11
115.075146484375
 21
164.6931342230903
 31
0.0
  0
LWPOLYLINE
  5
A6
330
A
100
AcDbEntity
  8
IUS
 62
     7
100
AcDbPolyline
 90
        3
 70
     0
 43
0.0
 10
114.0054443359375
 20
163.7529676649305
 10
114.0054443359375
 20
163.4454928927951
 10
113.6044352213542
 20
163.5564249674479
  0
SPLINE
  5
A5
330
A
100
AcDbEntity
  8
IUS
 62
     7
100
AcDbSpline
210
0.0
220
0.0
230
1.0
 70
     8
 71
     3
 72
    38
 73
    34
 74
     0
 42
0.0000000001
 43
0.0000000001
 40
0.0
 40
0.0
 40
0.0
 40
0.0
 40
1.0
 40
1.0
 40
1.0
 40
2.0
 40
2.0
 40
2.0
 40
3.0
 40
3.0
 40
3.0
 40
4.0
 40
4.0
 40
4.0
 40
5.0
 40
5.0
 40
5.0
 40
6.0
 40
6.0
 40
6.0
 40
7.0
 40
7.0
 40
7.0
 40
8.0
 40
8.0
 40
8.0
 40
9.0
 40
9.0
 40
9.0
 40
10.0
 40
10.0
 40
10.0
 40
11.0
 40
11.0
 40
11.0
 40
11.0
 10
116.9310194227431
 20
166.05498046875
 30
0.0
 10
116.9310194227431
 20
166.05498046875
 30
0.0
 10
115.7338487413194
 20
165.2104153103298
 30
0.0
 10
115.6287733289931
 20
165.1430636935764
 30
0.0
 10
115.5236979166667
 20
165.0760565863715
 30
0.0
 10
115.3200927734375
 20
164.932568359375
 30
0.0
 10
115.3200927734375
 20
164.6776312934028
 30
0.0
 10
115.3200927734375
 20
164.4213161892361
 30
0.0
 10
115.3200927734375
 20
163.1859049479166
 30
0.0
 10
115.3200927734375
 20
163.1859049479166
 30
0.0
 10
115.3200927734375
 20
163.1859049479166
 30
0.0
 10
115.9960205078125
 20
162.9936686197917
 30
0.0
 10
115.9960205078125
 20
162.9936686197917
 30
0.0
 10
115.9960205078125
 20
162.9936686197917
 30
0.0
 10
116.7277587890625
 20
161.839906141493
 30
0.0
 10
116.7277587890625
 20
161.839906141493
 30
0.0
 10
116.7277587890625
 20
161.839906141493
 30
0.0
 10
116.7277587890625
 20
144.3901529947917
 30
0.0
 10
116.7277587890625
 20
144.3901529947917
 30
0.0
 10
116.7277587890625
 20
144.3901529947917
 30
0.0
 10
116.738783094618
 20
143.931438530816
 30
0.0
 10
116.5269097222222
 20
143.7197374131944
 30
0.0
 10
116.5058946397569
 20
143.6987223307291
 30
0.0
 10
115.9670817057292
 20
143.1611151801215
 30
0.0
 10
115.9622585720486
 20
143.1554307725694
 30
0.0
 10
115.6962972005208
 20
142.8309027777778
 30
0.0
 10
115.7338487413194
 20
142.4145629882812
 30
0.0
 10
115.7338487413194
 20
142.4145629882812
 30
0.0
 10
115.7338487413194
 20
142.4145629882812
 30
0.0
 10
115.7338487413194
 20
138.7457085503472
 30
0.0
 10
115.7338487413194
 20
138.7457085503472
 30
0.0
 10
115.7338487413194
 20
138.7457085503472
 30
0.0
 10
115.7452175564236
 20
138.155908203125
 30
0.0
 10
115.5743408203125
 20
137.8637641059028
 30
0.0
  0
LINE
  5
A4
330
A
100
AcDbEntity
  8
IUS
 62
     7
100
AcDbLine
 10
113.2516574435764
 20
159.8951497395833
 30
0.0
 11
113.2516574435764
 21
159.5823350694444
 31
0.0
  0
LINE
  5
A3
330
A
100
AcDbEntity
  8
IUS
 62
     7
100
AcDbLine
 10
113.2516574435764
 20
159.2900187174479
 30
0.0
 11
113.2516574435764
 21
136.7727023654514
 31
0.0
  0
LINE
  5
A2
330
A
100
AcDbEntity
  8
IUS
 62
     7
100
AcDbLine
 10
113.2516574435764
 20
136.3961534288195
 30
0.0
 11
113.2516574435764
 21
136.0082356770833
 31
0.0
  0
SPLINE
  5
A1
330
A
100
AcDbEntity
  8
IUS
 62
     7
100
AcDbSpline
210
0.0
220
0.0
230
1.0
 70
     8
 71
     3
 72
    35
 73
    31
 74
     0
 42
0.0000000001
 43
0.0000000001
 40
0.0
 40
0.0
 40
0.0
 40
0.0
 40
1.0
 40
1.0
 40
1.0
 40
2.0
 40
2.0
 40
2.0
 40
3.0
 40
3.0
 40
3.0
 40
4.0
 40
4.0
 40
4.0
 40
5.0
 40
5.0
 40
5.0
 40
6.0
 40
6.0
 40
6.0
 40
7.0
 40
7.0
 40
7.0
 40
8.0
 40
8.0
 40
8.0
 40
9.0
 40
9.0
 40
9.0
 40
10.0
 40
10.0
 40
10.0
 40
10.0
 10
115.1188991970486
 20
159.1763305664062
 30
0.0
 10
115.1188991970486
 20
159.1763305664062
 30
0.0
 10
115.1188991970486
 20
156.4357571072048
 30
0.0
 10
115.1188991970486
 20
156.36875
 30
0.0
 10
115.1188991970486
 20
156.3019151475694
 30
0.0
 10
115.0892713758681
 20
156.2679809570312
 30
0.0
 10
115.0272596571181
 20
156.1873657226562
 30
0.0
 10
114.98212890625
 20
156.1282823350694
 30
0.0
 10
114.847425672743
 20
155.9711859809028
 30
0.0
 10
114.7881700303819
 20
155.9711859809028
 30
0.0
 10
114.7292588975694
 20
155.9711859809028
 30
0.0
 10
114.5725070529514
 20
156.1703125
 30
0.0
 10
114.4898247612847
 20
156.2529947916667
 30
0.0
 10
114.4078314887153
 20
156.3349880642361
 30
0.0
 10
114.4174777560764
 20
156.4474704318576
 30
0.0
 10
114.4174777560764
 20
156.5298082139757
 30
0.0
 10
114.4174777560764
 20
156.6260986328125
 30
0.0
 10
114.4243679470486
 20
156.6131795247396
 30
0.0
 10
114.4243679470486
 20
159.3037990993923
 30
0.0
 10
114.4243679470486
 20
159.3037990993923
 30
0.0
 10
114.4229899088542
 20
159.2986314561632
 30
0.0
 10
114.4229899088542
 20
159.2986314561632
 30
0.0
 10
114.4229899088542
 20
157.3585259331597
 30
0.0
 10
114.4229899088542
 20
157.3628323025174
 30
0.0
 10
114.4229899088542
 20
157.2865234375
 30
0.0
 10
114.4229899088542
 20
157.2203776041667
 30
0.0
 10
114.4326361762153
 20
157.1237426757812
 30
0.0
 10
114.4970594618056
 20
157.0968709309896
 30
0.0
 10
114.5614827473958
 20
157.0715494791667
 30
0.0
 10
115.1171766493056
 20
156.8979166666667
 30
0.0
 10
115.1171766493056
 20
156.8979166666667
 30
0.0
  0
SPLINE
  5
A0
330
A
100
AcDbEntity
  8
IUS
 62
     7
100
AcDbSpline
210
0.0
220
0.0
230
1.0
 70
    11
 71
     3
 72
    23
 73
    19
 74
     0
 42
0.0000000001
 43
0.0000000001
 40
0.0
 40
0.0
 40
0.0
 40
0.0
 40
1.0
 40
1.0
 40
1.0
 40
2.0
 40
2.0
 40
2.0
 40
3.0
 40
3.0
 40
3.0
 40
4.0
 40
4.0
 40
4.0
 40
5.0
 40
5.0
 40
5.0
 40
6.0
 40
6.0
 40
6.0
 40
6.0
 10
111.3186143663194
 20
142.0573065863715
 30
0.0
 10
111.2352430555555
 20
141.9406901041667
 30
0.0
 10
111.0281928168403
 20
141.6299424913194
 30
0.0
 10
110.9772054036458
 20
141.54794921875
 30
0.0
 10
110.9275960286458
 20
141.4652669270833
 30
0.0
 10
110.8042616102431
 20
141.3157497829861
 30
0.0
 10
111.0102783203125
 20
141.2404744466146
 30
0.0
 10
111.0888264973958
 20
141.2115356445312
 30
0.0
 10
111.2975992838542
 20
141.1462510850694
 30
0.0
 10
111.4154215494792
 20
141.1123168945312
 30
0.0
 10
111.498792860243
 20
141.0883734809028
 30
0.0
 10
111.5542588975694
 20
141.1040486653646
 30
0.0
 10
111.5542588975694
 20
141.2346177842882
 30
0.0
 10
111.5542588975694
 20
141.3657036675347
 30
0.0
 10
111.5542588975694
 20
141.9427571614583
 30
0.0
 10
111.5542588975694
 20
142.0407701280382
 30
0.0
 10
111.5542588975694
 20
142.1396443684896
 30
0.0
 10
111.4006076388889
 20
142.1739230685764
 30
0.0
 10
111.3186143663194
 20
142.0573065863715
 30
0.0
  0
SPLINE
  5
9F
330
A
100
AcDbEntity
  8
IUS
 62
     7
100
AcDbSpline
210
0.0
220
0.0
230
1.0
 70
    11
 71
     3
 72
    20
 73
    16
 74
     0
 42
0.0000000001
 43
0.0000000001
 40
0.0
 40
0.0
 40
0.0
 40
0.0
 40
1.0
 40
1.0
 40
1.0
 40
2.0
 40
2.0
 40
2.0
 40
3.0
 40
3.0
 40
3.0
 40
4.0
 40
4.0
 40
4.0
 40
5.0
 40
5.0
 40
5.0
 40
5.0
 10
111.2283528645833
 20
141.289222547743
 30
0.0
 10
111.2283528645833
 20
141.3712158203125
 30
0.0
 10
111.2283528645833
 20
141.7053900824653
 30
0.0
 10
111.2283528645833
 20
141.8170111762153
 30
0.0
 10
111.1611735026042
 20
141.7189982096354
 30
0.0
 10
111.069189453125
 20
141.5787828233507
 30
0.0
 10
111.0412841796875
 20
141.5352023654514
 30
0.0
 10
111.0068332248264
 20
141.4783582899306
 30
0.0
 10
110.9224283854167
 20
141.3751776801215
 30
0.0
 10
111.0636773003472
 20
141.3235012478299
 30
0.0
 10
111.0967502170139
 20
141.3114434136285
 30
0.0
 10
111.16220703125
 20
141.2902560763889
 30
0.0
 10
111.2269748263889
 20
141.2697577582465
 30
0.0
 10
111.2276638454861
 20
141.2763034396701
 30
0.0
 10
111.2283528645833
 20
141.2818155924479
 30
0.0
 10
111.2283528645833
 20
141.289222547743
 30
0.0
  0
SPLINE
  5
9E
330
A
100
AcDbEntity
  8
IUS
 62
     7
100
AcDbSpline
210
0.0
220
0.0
230
1.0
 70
    11
 71
     3
 72
    23
 73
    19
 74
     0
 42
0.0000000001
 43
0.0000000001
 40
0.0
 40
0.0
 40
0.0
 40
0.0
 40
1.0
 40
1.0
 40
1.0
 40
2.0
 40
2.0
 40
2.0
 40
3.0
 40
3.0
 40
3.0
 40
4.0
 40
4.0
 40
4.0
 40
5.0
 40
5.0
 40
5.0
 40
6.0
 40
6.0
 40
6.0
 40
6.0
 10
105.2893527560764
 20
144.476624891493
 30
0.0
 10
105.2101155598958
 20
144.3658650716146
 30
0.0
 10
105.0137451171875
 20
144.0706203884548
 30
0.0
 10
104.9651692708333
 20
143.9927612304687
 30
0.0
 10
104.9179714626736
 20
143.9142130533854
 30
0.0
 10
104.8008382161458
 20
143.7721028645833
 30
0.0
 10
104.9965196397569
 20
143.7006171332465
 30
0.0
 10
105.0709337022569
 20
143.6732286241319
 30
0.0
 10
105.2693712022569
 20
143.6112169053819
 30
0.0
 10
105.3813368055556
 20
143.5788330078125
 30
0.0
 10
105.4605740017361
 20
143.5560953776042
 30
0.0
 10
105.5132839626736
 20
143.5710815429687
 30
0.0
 10
105.5132839626736
 20
143.6951049804687
 30
0.0
 10
105.5132839626736
 20
143.8196451822917
 30
0.0
 10
105.5132839626736
 20
144.3677598741319
 30
0.0
 10
105.5132839626736
 20
144.4609497070312
 30
0.0
 10
105.5132839626736
 20
144.5548285590278
 30
0.0
 10
105.3672119140625
 20
144.5873847113715
 30
0.0
 10
105.2893527560764
 20
144.476624891493
 30
0.0
  0
SPLINE
  5
9D
330
A
100
AcDbEntity
  8
IUS
 62
     7
100
AcDbSpline
210
0.0
220
0.0
230
1.0
 70
     8
 71
     3
 72
    11
 73
     7
 74
     0
 42
0.0000000001
 43
0.0000000001
 40
0.0
 40
0.0
 40
0.0
 40
0.0
 40
1.0
 40
1.0
 40
1.0
 40
2.0
 40
2.0
 40
2.0
 40
2.0
 10
105.2025363498264
 20
143.6423950195313
 30
0.0
 10
105.2032253689236
 20
143.6485961914062
 30
0.0
 10
105.2039143880208
 20
143.6537638346354
 30
0.0
 10
105.2039143880208
 20
143.6608262803819
 30
0.0
 10
105.2039143880208
 20
143.738685438368
 30
0.0
 10
105.2039143880208
 20
144.2284057617187
 30
0.0
 10
105.2039143880208
 20
144.334514702691
 30
0.0
  0
SPLINE
  5
9C
330
A
100
AcDbEntity
  8
IUS
 62
     7
100
AcDbSpline
210
0.0
220
0.0
230
1.0
 70
     8
 71
     3
 72
    14
 73
    10
 74
     0
 42
0.0000000001
 43
0.0000000001
 40
0.0
 40
0.0
 40
0.0
 40
0.0
 40
1.0
 40
1.0
 40
1.0
 40
2.0
 40
2.0
 40
2.0
 40
3.0
 40
3.0
 40
3.0
 40
3.0
 10
114.797816297743
 20
163.8928385416667
 30
0.0
 10
114.7974717881944
 20
163.8881876627604
 30
0.0
 10
114.79609375
 20
163.74814453125
 30
0.0
 10
114.79609375
 20
163.7431491427951
 30
0.0
 10
114.79609375
 20
163.5572862413194
 30
0.0
 10
114.8071180555556
 20
163.5416110568576
 30
0.0
 10
114.8071180555556
 20
163.2951144748264
 30
0.0
 10
114.8071180555556
 20
163.1833211263021
 30
0.0
 10
114.8960015190972
 20
163.0889255099826
 30
0.0
 10
114.9614583333333
 20
163.0549913194444
 30
0.0
  0
LINE
  5
9B
330
A
100
AcDbEntity
  8
IUS
 62
     7
100
AcDbLine
 10
115.9980875651042
 20
162.997802734375
 30
0.0
 11
116.2716281467014
 21
163.2053697374132
 31
0.0
  0
LINE
  5
9A
330
A
100
AcDbEntity
  8
IUS
 62
     7
100
AcDbLine
 10
116.7301703559028
 20
161.8357720269097
 30
0.0
 11
117.1105088975694
 21
161.9721978081597
 31
0.0
  0
SPLINE
  5
99
330
A
100
AcDbEntity
  8
IUS
 62
     7
100
AcDbSpline
210
0.0
220
0.0
230
1.0
 70
     8
 71
     3
 72
    11
 73
     7
 74
     0
 42
0.0000000001
 43
0.0000000001
 40
0.0
 40
0.0
 40
0.0
 40
0.0
 40
1.0
 40
1.0
 40
1.0
 40
2.0
 40
2.0
 40
2.0
 40
2.0
 10
112.4124321831597
 20
127.4089328342014
 30
0.0
 10
112.4124321831597
 20
127.4089328342014
 30
0.0
 10
112.428968641493
 20
135.32197265625
 30
0.0
 10
112.4124321831597
 20
135.5262668185764
 30
0.0
 10
112.3731580946181
 20
136.0292507595486
 30
0.0
 10
111.976283094618
 20
135.8969590928819
 30
0.0
 10
111.8760308159722
 20
135.675439453125
 30
0.0
  0
SPLINE
  5
98
330
A
100
AcDbEntity
  8
IUS
 62
     7
100
AcDbSpline
210
0.0
220
0.0
230
1.0
 70
     8
 71
     3
 72
     8
 73
     4
 74
     0
 42
0.0000000001
 43
0.0000000001
 40
0.0
 40
0.0
 40
0.0
 40
0.0
 40
1.0
 40
1.0
 40
1.0
 40
1.0
 10
111.8898111979167
 20
129.0973741319444
 30
0.0
 10
111.8894666883681
 20
128.3649468315972
 30
0.0
 10
111.8887776692708
 20
127.8691975911458
 30
0.0
 10
111.8887776692708
 20
127.8691975911458
 30
0.0
  0
SPLINE
  5
97
330
A
100
AcDbEntity
  8
IUS
 62
     7
100
AcDbSpline
210
0.0
220
0.0
230
1.0
 70
     8
 71
     3
 72
     8
 73
     4
 74
     0
 42
0.0000000001
 43
0.0000000001
 40
0.0
 40
0.0
 40
0.0
 40
0.0
 40
1.0
 40
1.0
 40
1.0
 40
1.0
 10
111.8915337456597
 20
130.7906385633681
 30
0.0
 10
111.8911892361111
 20
130.3627577039931
 30
0.0
 10
111.8908447265625
 20
129.9486572265625
 30
0.0
 10
111.8901557074653
 20
129.5731418185764
 30
0.0
  0
SPLINE
  5
96
330
A
100
AcDbEntity
  8
IUS
 62
     7
100
AcDbSpline
210
0.0
220
0.0
230
1.0
 70
     8
 71
     3
 72
     8
 73
     4
 74
     0
 42
0.0000000001
 43
0.0000000001
 40
0.0
 40
0.0
 40
0.0
 40
0.0
 40
1.0
 40
1.0
 40
1.0
 40
1.0
 10
111.8925672743056
 20
132.9334879557292
 30
0.0
 10
111.8922227647569
 20
132.4236138237847
 30
0.0
 10
111.8918782552083
 20
131.8682644314236
 30
0.0
 10
111.8915337456597
 20
131.3184271918403
 30
0.0
  0
SPLINE
  5
95
330
A
100
AcDbEntity
  8
IUS
 62
     7
100
AcDbSpline
210
0.0
220
0.0
230
1.0
 70
     8
 71
     3
 72
     8
 73
     4
 74
     0
 42
0.0000000001
 43
0.0000000001
 40
0.0
 40
0.0
 40
0.0
 40
0.0
 40
1.0
 40
1.0
 40
1.0
 40
1.0
 10
111.8887776692708
 20
135.1276692708333
 30
0.0
 10
111.8915337456597
 20
135.1276692708333
 30
0.0
 10
111.8922227647569
 20
134.4279703776042
 30
0.0
 10
111.8925672743056
 20
133.4626546223958
 30
0.0
  0
SPLINE
  5
94
330
A
100
AcDbEntity
  8
IUS
 62
     7
100
AcDbSpline
210
0.0
220
0.0
230
1.0
 70
     8
 71
     3
 72
     8
 73
     4
 74
     0
 42
0.0000000001
 43
0.0000000001
 40
0.0
 40
0.0
 40
0.0
 40
0.0
 40
1.0
 40
1.0
 40
1.0
 40
1.0
 10
111.8887776692708
 20
127.3855061848958
 30
0.0
 10
111.8887776692708
 20
127.3855061848958
 30
0.0
 10
111.8967013888889
 20
127.1126546223958
 30
0.0
 10
111.7644097222222
 20
126.9541802300347
 30
0.0
  0
SPLINE
  5
93
330
A
100
AcDbEntity
  8
IUS
 62
     7
100
AcDbSpline
210
0.0
220
0.0
230
1.0
 70
     8
 71
     3
 72
    11
 73
     7
 74
     0
 42
0.0000000001
 43
0.0000000001
 40
0.0
 40
0.0
 40
0.0
 40
0.0
 40
1.0
 40
1.0
 40
1.0
 40
2.0
 40
2.0
 40
2.0
 40
2.0
 10
110.5582817925347
 20
125.9306423611111
 30
0.0
 10
110.5355441623264
 20
125.9309868706597
 30
0.0
 10
110.5596598307292
 20
132.0949517144097
 30
0.0
 10
110.5582817925347
 20
132.1004638671875
 30
0.0
 10
110.4824896918403
 20
132.51904296875
 30
0.0
 10
110.0993950737847
 20
132.2703070746528
 30
0.0
 10
110.1117974175347
 20
132.2544596354167
 30
0.0
  0
INSERT
  5
8C
330
A
100
AcDbEntity
  8
IUS
 62
     7
100
AcDbBlockReference
  2
AI9-BLK4
 10
109.9316189236111
 20
128.6384874131944
 30
0.0
  0
SPLINE
  5
8A
330
A
100
AcDbEntity
  8
IUS
 62
     7
100
AcDbSpline
210
0.0
220
0.0
230
1.0
 70
     8
 71
     3
 72
    14
 73
    10
 74
     0
 42
0.0000000001
 43
0.0000000001
 40
0.0
 40
0.0
 40
0.0
 40
0.0
 40
1.0
 40
1.0
 40
1.0
 40
2.0
 40
2.0
 40
2.0
 40
3.0
 40
3.0
 40
3.0
 40
3.0
 10
111.3410074869792
 20
134.7593885633681
 30
0.0
 10
111.2955322265625
 20
134.8782443576389
 30
0.0
 10
111.2355875651042
 20
134.9450792100694
 30
0.0
 10
111.2094048394097
 20
134.9030490451389
 30
0.0
 10
111.1680636935764
 20
134.8372477213542
 30
0.0
 10
111.0199245876736
 20
134.5819661458333
 30
0.0
 10
110.9951199001736
 20
133.8326578776042
 30
0.0
 10
111.002699110243
 20
133.8402370876736
 30
0.0
 10
111.0047661675347
 20
131.4955050998264
 30
0.0
 10
110.9951199001736
 20
131.485169813368
 30
0.0
  0
SPLINE
  5
89
330
A
100
AcDbEntity
  8
IUS
 62
     7
100
AcDbSpline
210
0.0
220
0.0
230
1.0
 70
     8
 71
     3
 72
     8
 73
     4
 74
     0
 42
0.0000000001
 43
0.0000000001
 40
0.0
 40
0.0
 40
0.0
 40
0.0
 40
1.0
 40
1.0
 40
1.0
 40
1.0
 10
111.4471164279514
 20
134.0448757595486
 30
0.0
 10
111.4037082248264
 20
134.381117078993
 30
0.0
 10
111.4192111545139
 20
134.3173828125
 30
0.0
 10
111.38544921875
 20
134.4992838541667
 30
0.0
  0
SPLINE
  5
88
330
A
100
AcDbEntity
  8
IUS
 62
     7
100
AcDbSpline
210
0.0
220
0.0
230
1.0
 70
    11
 71
     3
 72
    17
 73
    13
 74
     0
 42
0.0000000001
 43
0.0000000001
 40
0.0
 40
0.0
 40
0.0
 40
0.0
 40
1.0
 40
1.0
 40
1.0
 40
2.0
 40
2.0
 40
2.0
 40
3.0
 40
3.0
 40
3.0
 40
4.0
 40
4.0
 40
4.0
 40
4.0
 10
114.5029161241319
 20
163.7159328884549
 30
0.0
 10
114.5029161241319
 20
164.04580078125
 30
0.0
 10
114.9642144097222
 20
163.9913682725694
 30
0.0
 10
114.9642144097222
 20
163.5679660373264
 30
0.0
 10
114.9642144097222
 20
163.1438747829861
 30
0.0
 10
114.9642144097222
 20
163.0653266059028
 30
0.0
 10
114.9642144097222
 20
162.8705064561632
 30
0.0
 10
114.9642144097222
 20
162.5961046006944
 30
0.0
 10
114.5191080729167
 20
162.6973904079861
 30
0.0
 10
114.5191080729167
 20
163.0653266059028
 30
0.0
 10
114.5191080729167
 20
163.4348130967882
 30
0.0
 10
114.5029161241319
 20
163.458412000868
 30
0.0
 10
114.5029161241319
 20
163.7159328884549
 30
0.0
  0
SPLINE
  5
87
330
A
100
AcDbEntity
  8
IUS
 62
     7
100
AcDbSpline
210
0.0
220
0.0
230
1.0
 70
     8
 71
     3
 72
    14
 73
    10
 74
     0
 42
0.0000000001
 43
0.0000000001
 40
0.0
 40
0.0
 40
0.0
 40
0.0
 40
1.0
 40
1.0
 40
1.0
 40
2.0
 40
2.0
 40
2.0
 40
3.0
 40
3.0
 40
3.0
 40
3.0
 10
106.3054836697049
 20
165.6291666666667
 30
0.0
 10
106.3054836697049
 20
165.6701633029514
 30
0.0
 10
106.3054836697049
 20
165.651904296875
 30
0.0
 10
106.3054836697049
 20
165.711676703559
 30
0.0
 10
106.3054836697049
 20
165.829498969184
 30
0.0
 10
106.2477783203125
 20
165.9013292100694
 30
0.0
 10
106.1833550347222
 20
165.9256171332465
 30
0.0
 10
106.1830105251736
 20
165.9211385091146
 30
0.0
 10
106.1821492513021
 20
165.9166598849826
 30
0.0
 10
106.1821492513021
 20
165.9120090060764
 30
0.0
  0
SPLINE
  5
86
330
A
100
AcDbEntity
  8
IUS
 62
     7
100
AcDbSpline
210
0.0
220
0.0
230
1.0
 70
     8
 71
     3
 72
    11
 73
     7
 74
     0
 42
0.0000000001
 43
0.0000000001
 40
0.0
 40
0.0
 40
0.0
 40
0.0
 40
1.0
 40
1.0
 40
1.0
 40
2.0
 40
2.0
 40
2.0
 40
2.0
 10
105.9713094075521
 20
166.0120890299479
 30
0.0
 10
106.0836195203993
 20
166.1223320855034
 30
0.0
 10
106.3333889431424
 20
166.0265584309896
 30
0.0
 10
106.3333889431424
 20
165.7309692382812
 30
0.0
 10
106.3333889431424
 20
165.6787760416667
 30
0.0
 10
106.3333889431424
 20
165.6324395073785
 30
0.0
 10
106.3333889431424
 20
165.5905815972222
 30
0.0
  0
LWPOLYLINE
  5
80
330
A
100
AcDbEntity
  8
IUS
 62
     7
100
AcDbPolyline
 90
        4
 70
     0
 43
0.0
 10
113.5913438585069
 20
162.9333794487847
 10
114.1384250217014
 20
163.2224229600694
 10
114.3168809678819
 20
162.9115030924479
 10
113.4352810329861
 20
161.529847547743
  0
LINE
  5
7F
330
A
100
AcDbEntity
  8
IUS
 62
     7
100
AcDbLine
 10
111.4732991536458
 20
133.8333468967014
 30
0.0
 11
111.4732991536458
 21
132.0339735243055
 31
0.0
  0
LWPOLYLINE
  5
7A
330
A
100
AcDbEntity
  8
IUS
 62
     7
100
AcDbPolyline
 90
        3
 70
     1
 43
0.0
 10
110.7326036241319
 20
128.3563340928819
 10
111.3410074869792
 20
128.7793918185764
 10
111.0502414279514
 20
129.2293212890625
  0
LINE
  5
79
330
A
100
AcDbEntity
  8
IUS
 62
     7
100
AcDbLine
 10
110.9706597222222
 20
128.9647379557292
 30
0.0
 11
111.3410074869792
 21
128.7793918185764
 31
0.0
  0
LWPOLYLINE
  5
74
330
A
100
AcDbEntity
  8
IUS
 62
     7
100
AcDbPolyline
 90
        3
 70
     0
 43
0.0
 10
111.1735758463542
 20
130.1791341145833
 10
111.7819797092014
 20
130.6021918402778
 10
111.4912136501736
 20
131.0521213107639
  0
LINE
  5
73
330
A
100
AcDbEntity
  8
IUS
 62
     7
100
AcDbLine
 10
111.4777777777778
 20
130.9983778211806
 30
0.0
 11
111.2131944444444
 21
130.2631944444444
 31
0.0
  0
LINE
  5
72
330
A
100
AcDbEntity
  8
IUS
 62
     7
100
AcDbLine
 10
111.4116319444444
 20
130.7875379774305
 30
0.0
 11
111.7289252387153
 21
130.6021918402778
 31
0.0
  0
INSERT
  5
69
330
A
100
AcDbEntity
  8
IUS
 62
     7
100
AcDbBlockReference
  2
AI9-BLK3
 10
104.8898078070747
 20
130.516064453125
 30
0.0
  0
INSERT
  5
5F
330
A
100
AcDbEntity
  8
IUS
 62
     7
100
AcDbBlockReference
  2
AI9-BLK2
 10
105.7130133734809
 20
131.5451144748264
 30
0.0
  0
SPLINE
  5
5D
330
A
100
AcDbEntity
  8
IUS
 62
     7
100
AcDbSpline
210
0.0
220
0.0
230
1.0
 70
     8
 71
     3
 72
    53
 73
    49
 74
     0
 42
0.0000000001
 43
0.0000000001
 40
0.0
 40
0.0
 40
0.0
 40
0.0
 40
1.0
 40
1.0
 40
1.0
 40
2.0
 40
2.0
 40
2.0
 40
3.0
 40
3.0
 40
3.0
 40
4.0
 40
4.0
 40
4.0
 40
5.0
 40
5.0
 40
5.0
 40
6.0
 40
6.0
 40
6.0
 40
7.0
 40
7.0
 40
7.0
 40
8.0
 40
8.0
 40
8.0
 40
9.0
 40
9.0
 40
9.0
 40
10.0
 40
10.0
 40
10.0
 40
11.0
 40
11.0
 40
11.0
 40
12.0
 40
12.0
 40
12.0
 40
13.0
 40
13.0
 40
13.0
 40
14.0
 40
14.0
 40
14.0
 40
15.0
 40
15.0
 40
15.0
 40
16.0
 40
16.0
 40
16.0
 40
16.0
 10
103.7969373914931
 20
164.5839246961805
 30
0.0
 10
103.7969373914931
 20
164.5839246961805
 30
0.0
 10
104.8828314887153
 20
163.0408664279514
 30
0.0
 10
104.8828314887153
 20
163.0408664279514
 30
0.0
 10
104.8828314887153
 20
163.0408664279514
 30
0.0
 10
105.092982313368
 20
162.7607801649305
 30
0.0
 10
105.092982313368
 20
162.410413953993
 30
0.0
 10
105.092982313368
 20
162.410413953993
 30
0.0
 10
105.092982313368
 20
145.9848876953125
 30
0.0
 10
105.092982313368
 20
145.9848876953125
 30
0.0
 10
105.092982313368
 20
145.9848876953125
 30
0.0
 10
105.0578423394097
 20
145.6333157009549
 30
0.0
 10
104.9177992078993
 20
145.1079386393229
 30
0.0
 10
104.9177992078993
 20
145.1079386393229
 30
0.0
 10
104.6025729709201
 20
144.1622599283854
 30
0.0
 10
104.6025729709201
 20
144.1622599283854
 30
0.0
 10
104.6025729709201
 20
144.1622599283854
 30
0.0
 10
104.4273898654514
 20
143.7419582790799
 30
0.0
 10
104.3924221462674
 20
143.1478515625
 30
0.0
 10
104.3924221462674
 20
143.1478515625
 30
0.0
 10
104.3924221462674
 20
138.8032416449653
 30
0.0
 10
104.3924221462674
 20
138.8032416449653
 30
0.0
 10
104.3924221462674
 20
138.8032416449653
 30
0.0
 10
104.4273898654514
 20
138.4177354600694
 30
0.0
 10
104.287346733941
 20
137.7524875217014
 30
0.0
 10
104.287346733941
 20
137.7524875217014
 30
0.0
 10
103.1315171983507
 20
133.4795355902778
 30
0.0
 10
103.1315171983507
 20
133.4795355902778
 30
0.0
 10
103.1315171983507
 20
133.4795355902778
 30
0.0
 10
102.9563340928819
 20
132.9541585286458
 30
0.0
 10
102.9563340928819
 20
132.3943305121528
 30
0.0
 10
102.9563340928819
 20
132.3943305121528
 30
0.0
 10
102.9563340928819
 20
127.4199571397569
 30
0.0
 10
102.9563340928819
 20
127.4199571397569
 30
0.0
 10
102.9563340928819
 20
127.4199571397569
 30
0.0
 10
102.991301812066
 20
127.2101508246528
 30
0.0
 10
103.1664849175347
 20
127.1050754123264
 30
0.0
 10
103.1664849175347
 20
127.1050754123264
 30
0.0
 10
108.3503200954861
 20
125.0035671657986
 30
0.0
 10
108.3503200954861
 20
125.0035671657986
 30
0.0
 10
108.3503200954861
 20
125.0035671657986
 30
0.0
 10
108.5952663845486
 20
124.9332872178819
 30
0.0
 10
108.7461615668403
 20
125.091761610243
 30
0.0
 10
108.7773396809896
 20
125.1244900173611
 30
0.0
 10
108.8129964192708
 20
125.2161295572917
 30
0.0
 10
108.8129964192708
 20
125.2629828559028
 30
0.0
 10
108.8129964192708
 20
125.2919216579861
 30
0.0
 10
108.8129964192708
 20
127.6042697482639
 30
0.0
 10
108.8129964192708
 20
129.3157931857639
 30
0.0
  0
SPLINE
  5
5C
330
A
100
AcDbEntity
  8
IUS
 62
     7
100
AcDbSpline
210
0.0
220
0.0
230
1.0
 70
     8
 71
     3
 72
    20
 73
    16
 74
     0
 42
0.0000000001
 43
0.0000000001
 40
0.0
 40
0.0
 40
0.0
 40
0.0
 40
1.0
 40
1.0
 40
1.0
 40
2.0
 40
2.0
 40
2.0
 40
3.0
 40
3.0
 40
3.0
 40
4.0
 40
4.0
 40
4.0
 40
5.0
 40
5.0
 40
5.0
 40
5.0
 10
105.2049479166667
 20
165.844140625
 30
0.0
 10
105.2049479166667
 20
165.844140625
 30
0.0
 10
105.8285101996528
 20
166.158161078559
 30
0.0
 10
105.8285101996528
 20
166.158161078559
 30
0.0
 10
105.8285101996528
 20
166.158161078559
 30
0.0
 10
107.4745768229167
 20
164.301771375868
 30
0.0
 10
107.4745768229167
 20
164.301771375868
 30
0.0
 10
107.4745768229167
 20
164.301771375868
 30
0.0
 10
107.6147922092014
 20
164.2318359375
 30
0.0
 10
107.6147922092014
 20
164.0566528320312
 30
0.0
 10
107.6147922092014
 20
164.0566528320312
 30
0.0
 10
107.6146199544271
 20
163.9867173936632
 30
0.0
 10
107.4745768229167
 20
163.8115342881944
 30
0.0
 10
107.4745768229167
 20
163.8115342881944
 30
0.0
 10
107.3698459201389
 20
163.2630750868055
 30
0.0
 10
108.0350938585069
 20
163.1170030381944
 30
0.0
  0
SPLINE
  5
5B
330
A
100
AcDbEntity
  8
IUS
 62
     7
100
AcDbSpline
210
0.0
220
0.0
230
1.0
 70
     8
 71
     3
 72
    17
 73
    13
 74
     0
 42
0.0000000001
 43
0.0000000001
 40
0.0
 40
0.0
 40
0.0
 40
0.0
 40
1.0
 40
1.0
 40
1.0
 40
2.0
 40
2.0
 40
2.0
 40
3.0
 40
3.0
 40
3.0
 40
4.0
 40
4.0
 40
4.0
 40
4.0
 10
108.7144666883681
 20
125.7945610894097
 30
0.0
 10
108.7144666883681
 20
125.7945610894097
 30
0.0
 10
103.9517944335938
 20
127.7055555555556
 30
0.0
 10
103.9517944335938
 20
127.7055555555556
 30
0.0
 10
103.9517944335938
 20
127.7055555555556
 30
0.0
 10
103.8048611111111
 20
127.8233778211805
 30
0.0
 10
103.8048611111111
 20
128.1172444661458
 30
0.0
 10
103.8048611111111
 20
128.1172444661458
 30
0.0
 10
103.8048611111111
 20
131.9681722005208
 30
0.0
 10
103.8048611111111
 20
131.9681722005208
 30
0.0
 10
103.8048611111111
 20
131.9681722005208
 30
0.0
 10
103.8343166775174
 20
132.4680555555555
 30
0.0
 10
104.2458333333333
 20
132.2916666666667
 30
0.0
  0
SPLINE
  5
5A
330
A
100
AcDbEntity
  8
IUS
 62
     7
100
AcDbSpline
210
0.0
220
0.0
230
1.0
 70
     8
 71
     3
 72
    11
 73
     7
 74
     0
 42
0.0000000001
 43
0.0000000001
 40
0.0
 40
0.0
 40
0.0
 40
0.0
 40
1.0
 40
1.0
 40
1.0
 40
2.0
 40
2.0
 40
2.0
 40
2.0
 10
105.9215277777778
 20
133.616650390625
 30
0.0
 10
105.9215277777778
 20
133.616650390625
 30
0.0
 10
105.9215277777778
 20
135.466322157118
 30
0.0
 10
105.9215277777778
 20
135.466322157118
 30
0.0
 10
105.9215277777778
 20
135.466322157118
 30
0.0
 10
106.0097222222222
 20
135.9076388888889
 30
0.0
 10
106.3917833116319
 20
135.7016221788194
 30
0.0
  0
LINE
  5
59
330
A
100
AcDbEntity
  8
IUS
 62
     7
100
AcDbLine
 10
105.9215277777778
 20
131.615394422743
 30
0.0
 11
105.9215277777778
 21
132.5727864583333
 31
0.0
  0
SPLINE
  5
58
330
A
100
AcDbEntity
  8
IUS
 62
     7
100
AcDbSpline
210
0.0
220
0.0
230
1.0
 70
     8
 71
     3
 72
    14
 73
    10
 74
     0
 42
0.0000000001
 43
0.0000000001
 40
0.0
 40
0.0
 40
0.0
 40
0.0
 40
1.0
 40
1.0
 40
1.0
 40
2.0
 40
2.0
 40
2.0
 40
3.0
 40
3.0
 40
3.0
 40
3.0
 10
108.8026611328125
 20
128.1758110894097
 30
0.0
 10
108.8026611328125
 20
128.1758110894097
 30
0.0
 10
106.1566555447049
 20
129.1755777994792
 30
0.0
 10
106.1566555447049
 20
129.1755777994792
 30
0.0
 10
106.1566555447049
 20
129.1755777994792
 30
0.0
 10
105.9215277777778
 20
129.2930555555556
 30
0.0
 10
105.9215277777778
 20
129.4987277560764
 30
0.0
 10
105.9215277777778
 20
129.4987277560764
 30
0.0
 10
105.9215277777778
 20
131.2922444661458
 30
0.0
 10
105.9215277777778
 20
131.2922444661458
 30
0.0
  0
LINE
  5
57
330
A
100
AcDbEntity
  8
IUS
 62
     7
100
AcDbLine
 10
106.4212388780382
 20
133.7027777777778
 30
0.0
 11
106.4212388780382
 21
135.3491889105903
 31
0.0
  0
LINE
  5
56
330
A
100
AcDbEntity
  8
IUS
 62
     7
100
AcDbLine
 10
106.4212388780382
 20
131.733216688368
 30
0.0
 11
106.4212388780382
 21
133.3496554904514
 31
0.0
  0
LINE
  5
55
330
A
100
AcDbEntity
  8
IUS
 62
     7
100
AcDbLine
 10
106.4212388780382
 20
130.2042833116319
 30
0.0
 11
106.4212388780382
 21
131.4390055338542
 31
0.0
  0
SPLINE
  5
54
330
A
100
AcDbEntity
  8
IUS
 62
     7
100
AcDbSpline
210
0.0
220
0.0
230
1.0
 70
     8
 71
     3
 72
     8
 73
     4
 74
     0
 42
0.0000000001
 43
0.0000000001
 40
0.0
 40
0.0
 40
0.0
 40
0.0
 40
1.0
 40
1.0
 40
1.0
 40
1.0
 10
106.5388888888889
 20
129.4987277560764
 30
0.0
 10
106.5388888888889
 20
129.4987277560764
 30
0.0
 10
106.4212388780382
 20
129.528355577257
 30
0.0
 10
106.4212388780382
 20
129.8222222222222
 30
0.0
  0
LINE
  5
53
330
A
100
AcDbEntity
  8
IUS
 62
     7
100
AcDbLine
 10
108.1532606336806
 20
128.9330430772569
 30
0.0
 11
106.8108791775174
 21
129.4032986111111
 31
0.0
  0
LINE
  5
52
330
A
100
AcDbEntity
  8
IUS
 62
     7
100
AcDbLine
 10
108.8026611328125
 20
128.7049777560764
 30
0.0
 11
108.4436821831597
 21
128.8307237413195
 31
0.0
  0
LINE
  5
51
330
A
100
AcDbEntity
  8
IUS
 62
     7
100
AcDbLine
 10
104.3340277777778
 20
130.2924777560764
 30
0.0
 11
104.3340277777778
 21
131.9388888888889
 31
0.0
  0
LINE
  5
50
330
A
100
AcDbEntity
  8
IUS
 62
     7
100
AcDbLine
 10
104.3340277777778
 20
128.5875
 30
0.0
 11
104.3340277777778
 21
129.9986111111111
 31
0.0
  0
SPLINE
  5
4F
330
A
100
AcDbEntity
  8
IUS
 62
     7
100
AcDbSpline
210
0.0
220
0.0
230
1.0
 70
     8
 71
     3
 72
     8
 73
     4
 74
     0
 42
0.0000000001
 43
0.0000000001
 40
0.0
 40
0.0
 40
0.0
 40
0.0
 40
1.0
 40
1.0
 40
1.0
 40
1.0
 10
104.5398722330729
 20
128.0583333333333
 30
0.0
 10
104.5398722330729
 20
128.0583333333333
 30
0.0
 10
104.3340277777778
 20
128.1172444661458
 30
0.0
 10
104.3340277777778
 20
128.3521999782986
 30
0.0
  0
LINE
  5
4E
330
A
100
AcDbEntity
  8
IUS
 62
     7
100
AcDbLine
 10
105.9206665039063
 20
127.5057400173611
 30
0.0
 11
104.8797309027778
 21
127.9222520616319
 31
0.0
  0
LINE
  5
4D
330
A
100
AcDbEntity
  8
IUS
 62
     7
100
AcDbLine
 10
107.5396891276042
 20
126.8580620659722
 30
0.0
 11
106.3273600260417
 21
127.3431315104167
 31
0.0
  0
LINE
  5
4C
330
A
100
AcDbEntity
  8
IUS
 62
     7
100
AcDbLine
 10
108.8026611328125
 20
126.3530110677083
 30
0.0
 11
107.9324300130208
 21
126.7009657118055
 31
0.0
  0
LINE
  5
4B
330
A
100
AcDbEntity
  8
IUS
 62
     7
100
AcDbLine
 10
106.6310451931424
 20
129.4932156032986
 30
0.0
 11
106.9798611111111
 21
129.7047444661458
 31
0.0
  0
LINE
  5
4A
330
A
100
AcDbEntity
  8
IUS
 62
     7
100
AcDbLine
 10
104.5307427300347
 20
128.2195638020833
 30
0.0
 11
105.8715738932292
 21
129.0326063368055
 31
0.0
  0
LINE
  5
49
330
A
100
AcDbEntity
  8
IUS
 62
     7
100
AcDbLine
 10
103.2462388780382
 20
127.4409722222222
 30
0.0
 11
103.6298502604167
 21
127.6738606770833
 31
0.0
  0
SPLINE
  5
48
330
A
100
AcDbEntity
  8
IUS
 62
     7
100
AcDbSpline
210
0.0
220
0.0
230
1.0
 70
     8
 71
     3
 72
    14
 73
    10
 74
     0
 42
0.0000000001
 43
0.0000000001
 40
0.0
 40
0.0
 40
0.0
 40
0.0
 40
1.0
 40
1.0
 40
1.0
 40
2.0
 40
2.0
 40
2.0
 40
3.0
 40
3.0
 40
3.0
 40
3.0
 10
105.9215277777778
 20
132.5855333116319
 30
0.0
 10
106.1566555447049
 20
133.1146999782986
 30
0.0
 10
105.7156833224826
 20
133.1146999782986
 30
0.0
 10
105.7156833224826
 20
133.1146999782986
 30
0.0
 10
104.8924777560764
 20
132.8793999565972
 30
0.0
 10
104.775
 20
132.2034722222222
 30
0.0
 10
104.775
 20
132.2034722222222
 30
0.0
 10
104.775
 20
132.2034722222222
 30
0.0
 10
104.775
 20
134.5554389105903
 30
0.0
 10
104.775
 20
134.5554389105903
 30
0.0
  0
SPLINE
  5
47
330
A
100
AcDbEntity
  8
IUS
 62
     7
100
AcDbSpline
210
0.0
220
0.0
230
1.0
 70
     8
 71
     3
 72
    14
 73
    10
 74
     0
 42
0.0000000001
 43
0.0000000001
 40
0.0
 40
0.0
 40
0.0
 40
0.0
 40
1.0
 40
1.0
 40
1.0
 40
2.0
 40
2.0
 40
2.0
 40
3.0
 40
3.0
 40
3.0
 40
3.0
 10
104.775
 20
134.9375
 30
0.0
 10
104.775
 20
134.9375
 30
0.0
 10
104.8630221896701
 20
135.9076388888889
 30
0.0
 10
105.0101277669271
 20
136.3486111111111
 30
0.0
 10
105.0101277669271
 20
136.3486111111111
 30
0.0
 10
105.0395833333333
 20
136.4953721788194
 30
0.0
 10
105.1277777777778
 20
136.4953721788194
 30
0.0
 10
105.1277777777778
 20
136.4953721788194
 30
0.0
 10
105.2454277886285
 20
136.3482666015625
 30
0.0
 10
105.2454277886285
 20
136.2307888454861
 30
0.0
  0
SPLINE
  5
46
330
A
100
AcDbEntity
  8
IUS
 62
     7
100
AcDbSpline
210
0.0
220
0.0
230
1.0
 70
     8
 71
     3
 72
     8
 73
     4
 74
     0
 42
0.0000000001
 43
0.0000000001
 40
0.0
 40
0.0
 40
0.0
 40
0.0
 40
1.0
 40
1.0
 40
1.0
 40
1.0
 10
105.2159722222222
 20
136.407177734375
 30
0.0
 10
105.2159722222222
 20
136.407177734375
 30
0.0
 10
105.8409125434028
 20
134.9941718207465
 30
0.0
 10
105.9937025282118
 20
132.8997260199653
 30
0.0
  0
SPLINE
  5
45
330
A
100
AcDbEntity
  8
IUS
 62
     7
100
AcDbSpline
210
0.0
220
0.0
230
1.0
 70
    11
 71
     3
 72
    14
 73
    10
 74
     0
 42
0.0000000001
 43
0.0000000001
 40
0.0
 40
0.0
 40
0.0
 40
0.0
 40
1.0
 40
1.0
 40
1.0
 40
2.0
 40
2.0
 40
2.0
 40
3.0
 40
3.0
 40
3.0
 40
3.0
 10
104.9808444552951
 20
132.2034722222222
 30
0.0
 10
104.9808444552951
 20
132.2034722222222
 30
0.0
 10
105.8333333333333
 20
132.55625
 30
0.0
 10
105.8333333333333
 20
132.55625
 30
0.0
 10
105.8333333333333
 20
132.55625
 30
0.0
 10
105.9215277777778
 20
132.9675944010417
 30
0.0
 10
105.5982055664062
 20
132.8793999565972
 30
0.0
 10
105.5982055664062
 20
132.8793999565972
 30
0.0
 10
105.3629055447049
 20
132.8208333333333
 30
0.0
 10
104.9808444552951
 20
132.2034722222222
 30
0.0
  0
LWPOLYLINE
  5
3C
330
A
100
AcDbEntity
  8
IUS
 62
     7
100
AcDbPolyline
 90
        7
 70
     0
 43
0.0
 10
108.4498833550347
 20
127.79375
 10
106.8622111002604
 20
127.6762722439236
 10
107.0385999891493
 20
128.1758110894097
 10
108.0087388780382
 20
128.0583333333333
 10
108.1558444552951
 20
128.2936333550347
 10
108.4202555338542
 20
128.2640055338542
 10
108.4202555338542
 20
127.1471055772569
  0
LINE
  5
3B
330
A
100
AcDbEntity
  8
IUS
 62
     7
100
AcDbLine
 10
107.1857055664062
 20
127.4998833550347
 30
0.0
 11
108.1558444552951
 21
127.2056722005208
 31
0.0
  0
LINE
  5
3A
330
A
100
AcDbEntity
  8
IUS
 62
     7
100
AcDbLine
 10
107.15625
 20
127.7644666883681
 30
0.0
 11
107.2739000108507
 21
128.1465277777778
 31
0.0
  0
LINE
  5
39
330
A
100
AcDbEntity
  8
IUS
 62
     7
100
AcDbLine
 10
107.2806179470486
 20
127.709172905816
 30
0.0
 11
108.1263888888889
 21
127.9112277560764
 31
0.0
  0
LINE
  5
38
330
A
100
AcDbEntity
  8
IUS
 62
     7
100
AcDbLine
 10
108.1263888888889
 20
128.2643500434028
 30
0.0
 11
108.1263888888889
 21
127.7644666883681
 31
0.0
  0
LWPOLYLINE
  5
33
330
A
100
AcDbEntity
  8
IUS
 62
     7
100
AcDbPolyline
 90
        3
 70
     0
 43
0.0
 10
104.6726806640625
 20
146.3874471028646
 10
104.6726806640625
 20
162.5547634548611
 10
104.1688354492188
 20
163.3443793402778
  0
SPLINE
  5
32
330
A
100
AcDbEntity
  8
IUS
 62
     7
100
AcDbSpline
210
0.0
220
0.0
230
1.0
 70
    11
 71
     3
 72
    17
 73
    13
 74
     0
 42
0.0000000001
 43
0.0000000001
 40
0.0
 40
0.0
 40
0.0
 40
0.0
 40
1.0
 40
1.0
 40
1.0
 40
2.0
 40
2.0
 40
2.0
 40
3.0
 40
3.0
 40
3.0
 40
4.0
 40
4.0
 40
4.0
 40
4.0
 10
113.1510606553819
 20
161.2909301757812
 30
0.0
 10
113.0945610894097
 20
161.1429633246528
 30
0.0
 10
112.5357666015625
 20
160.2904744466146
 30
0.0
 10
113.4035861545139
 20
160.2904744466146
 30
0.0
 10
114.2720947265625
 20
160.2904744466146
 30
0.0
 10
113.7859917534722
 20
161.0883585611979
 30
0.0
 10
113.7560194227431
 20
161.2726711697048
 30
0.0
 10
113.7253580729167
 20
161.4628404405382
 30
0.0
 10
113.6099473741319
 20
161.5245076497396
 30
0.0
 10
113.4414822048611
 20
161.5245076497396
 30
0.0
 10
113.2709499782986
 20
161.5245076497396
 30
0.0
 10
113.2220296223958
 20
161.4790323893229
 30
0.0
 10
113.1510606553819
 20
161.2909301757812
 30
0.0
  0
SPLINE
  5
31
330
A
100
AcDbEntity
  8
IUS
 62
     7
100
AcDbSpline
210
0.0
220
0.0
230
1.0
 70
     8
 71
     3
 72
    14
 73
    10
 74
     0
 42
0.0000000001
 43
0.0000000001
 40
0.0
 40
0.0
 40
0.0
 40
0.0
 40
1.0
 40
1.0
 40
1.0
 40
2.0
 40
2.0
 40
2.0
 40
3.0
 40
3.0
 40
3.0
 40
3.0
 10
115.0717013888889
 20
156.2419704861111
 30
0.0
 10
115.0289822048611
 20
156.2827948676215
 30
0.0
 10
114.9018581814236
 20
156.4311062282986
 30
0.0
 10
114.8684407552083
 20
156.4641791449653
 30
0.0
 10
114.8177978515625
 20
156.5149943033854
 30
0.0
 10
114.8074625651042
 20
156.5861355251736
 30
0.0
 10
114.8074625651042
 20
156.6374674479167
 30
0.0
 10
114.8074625651042
 20
156.6479749891493
 30
0.0
 10
114.8074625651042
 20
156.8663940429687
 30
0.0
 10
114.8074625651042
 20
156.9955851236979
 30
0.0
  0
SPLINE
  5
30
330
A
100
AcDbEntity
  8
IUS
 62
     7
100
AcDbSpline
210
0.0
220
0.0
230
1.0
 70
    11
 71
     3
 72
    17
 73
    13
 74
     0
 42
0.0000000001
 43
0.0000000001
 40
0.0
 40
0.0
 40
0.0
 40
0.0
 40
1.0
 40
1.0
 40
1.0
 40
2.0
 40
2.0
 40
2.0
 40
3.0
 40
3.0
 40
3.0
 40
4.0
 40
4.0
 40
4.0
 40
4.0
 10
111.0478298611111
 20
132.1373263888889
 30
0.0
 10
111.0478298611111
 20
132.1373263888889
 30
0.0
 10
111.4736436631944
 20
131.7445855034722
 30
0.0
 10
111.4736436631944
 20
131.7445855034722
 30
0.0
 10
111.4736436631944
 20
131.7445855034722
 30
0.0
 10
111.1274115668403
 20
131.4576090494792
 30
0.0
 10
111.0368055555556
 20
131.3986979166667
 30
0.0
 10
111.0368055555556
 20
131.4097222222222
 30
0.0
 10
111.0467963324653
 20
132.1428385416667
 30
0.0
 10
111.0478298611111
 20
132.1373263888889
 30
0.0
 10
111.0478298611111
 20
132.1373263888889
 30
0.0
 10
111.0478298611111
 20
132.1373263888889
 30
0.0
 10
111.0478298611111
 20
132.1373263888889
 30
0.0
  0
SPLINE
  5
2F
330
A
100
AcDbEntity
  8
IUS
 62
     7
100
AcDbSpline
210
0.0
220
0.0
230
1.0
 70
    11
 71
     3
 72
   242
 73
   238
 74
     0
 42
0.0000000001
 43
0.0000000001
 40
0.0
 40
0.0
 40
0.0
 40
0.0
 40
1.0
 40
1.0
 40
1.0
 40
2.0
 40
2.0
 40
2.0
 40
3.0
 40
3.0
 40
3.0
 40
4.0
 40
4.0
 40
4.0
 40
5.0
 40
5.0
 40
5.0
 40
6.0
 40
6.0
 40
6.0
 40
7.0
 40
7.0
 40
7.0
 40
8.0
 40
8.0
 40
8.0
 40
9.0
 40
9.0
 40
9.0
 40
10.0
 40
10.0
 40
10.0
 40
11.0
 40
11.0
 40
11.0
 40
12.0
 40
12.0
 40
12.0
 40
13.0
 40
13.0
 40
13.0
 40
14.0
 40
14.0
 40
14.0
 40
15.0
 40
15.0
 40
15.0
 40
16.0
 40
16.0
 40
16.0
 40
17.0
 40
17.0
 40
17.0
 40
18.0
 40
18.0
 40
18.0
 40
19.0
 40
19.0
 40
19.0
 40
20.0
 40
20.0
 40
20.0
 40
21.0
 40
21.0
 40
21.0
 40
22.0
 40
22.0
 40
22.0
 40
23.0
 40
23.0
 40
23.0
 40
24.0
 40
24.0
 40
24.0
 40
25.0
 40
25.0
 40
25.0
 40
26.0
 40
26.0
 40
26.0
 40
27.0
 40
27.0
 40
27.0
 40
28.0
 40
28.0
 40
28.0
 40
29.0
 40
29.0
 40
29.0
 40
30.0
 40
30.0
 40
30.0
 40
31.0
 40
31.0
 40
31.0
 40
32.0
 40
32.0
 40
32.0
 40
33.0
 40
33.0
 40
33.0
 40
34.0
 40
34.0
 40
34.0
 40
35.0
 40
35.0
 40
35.0
 40
36.0
 40
36.0
 40
36.0
 40
37.0
 40
37.0
 40
37.0
 40
38.0
 40
38.0
 40
38.0
 40
39.0
 40
39.0
 40
39.0
 40
40.0
 40
40.0
 40
40.0
 40
41.0
 40
41.0
 40
41.0
 40
42.0
 40
42.0
 40
42.0
 40
43.0
 40
43.0
 40
43.0
 40
44.0
 40
44.0
 40
44.0
 40
45.0
 40
45.0
 40
45.0
 40
46.0
 40
46.0
 40
46.0
 40
47.0
 40
47.0
 40
47.0
 40
48.0
 40
48.0
 40
48.0
 40
49.0
 40
49.0
 40
49.0
 40
50.0
 40
50.0
 40
50.0
 40
51.0
 40
51.0
 40
51.0
 40
52.0
 40
52.0
 40
52.0
 40
53.0
 40
53.0
 40
53.0
 40
54.0
 40
54.0
 40
54.0
 40
55.0
 40
55.0
 40
55.0
 40
56.0
 40
56.0
 40
56.0
 40
57.0
 40
57.0
 40
57.0
 40
58.0
 40
58.0
 40
58.0
 40
59.0
 40
59.0
 40
59.0
 40
60.0
 40
60.0
 40
60.0
 40
61.0
 40
61.0
 40
61.0
 40
62.0
 40
62.0
 40
62.0
 40
63.0
 40
63.0
 40
63.0
 40
64.0
 40
64.0
 40
64.0
 40
65.0
 40
65.0
 40
65.0
 40
66.0
 40
66.0
 40
66.0
 40
67.0
 40
67.0
 40
67.0
 40
68.0
 40
68.0
 40
68.0
 40
69.0
 40
69.0
 40
69.0
 40
70.0
 40
70.0
 40
70.0
 40
71.0
 40
71.0
 40
71.0
 40
72.0
 40
72.0
 40
72.0
 40
73.0
 40
73.0
 40
73.0
 40
74.0
 40
74.0
 40
74.0
 40
75.0
 40
75.0
 40
75.0
 40
76.0
 40
76.0
 40
76.0
 40
77.0
 40
77.0
 40
77.0
 40
78.0
 40
78.0
 40
78.0
 40
79.0
 40
79.0
 40
79.0
 40
79.0
 10
104.6702690972222
 20
146.3874471028646
 30
0.0
 10
104.6702690972222
 20
146.3874471028646
 30
0.0
 10
104.4222222222222
 20
146.6966444227431
 30
0.0
 10
104.4222222222222
 20
146.6966444227431
 30
0.0
 10
104.1870944552951
 20
146.9317721896701
 30
0.0
 10
104.1281833224826
 20
147.4611111111111
 30
0.0
 10
104.1281833224826
 20
147.4611111111111
 30
0.0
 10
104.1281833224826
 20
147.4611111111111
 30
0.0
 10
104.1688354492188
 20
163.3443793402778
 30
0.0
 10
104.1688354492188
 20
163.3443793402778
 30
0.0
 10
104.1688354492188
 20
163.3443793402778
 30
0.0
 10
103.778850640191
 20
163.9557115342882
 30
0.0
 10
103.778850640191
 20
163.9557115342882
 30
0.0
 10
103.778850640191
 20
163.9557115342882
 30
0.0
 10
103.7568020290799
 20
165.1284220377604
 30
0.0
 10
103.7568020290799
 20
165.1284220377604
 30
0.0
 10
103.7568020290799
 20
165.1284220377604
 30
0.0
 10
105.514662000868
 20
166.0019259982639
 30
0.0
 10
105.514662000868
 20
166.0019259982639
 30
0.0
 10
105.514662000868
 20
166.0019259982639
 30
0.0
 10
105.5367106119792
 20
166.4503051757812
 30
0.0
 10
105.5367106119792
 20
166.7148885091146
 30
0.0
 10
105.5367106119792
 20
166.9794718424479
 30
0.0
 10
105.4679809570312
 20
167.1737752278646
 30
0.0
 10
105.7470336914062
 20
167.2671373155382
 30
0.0
 10
106.0260864257812
 20
167.3606716579861
 30
0.0
 10
108.6407416449653
 20
168.1845662434896
 30
0.0
 10
108.6407416449653
 20
168.1845662434896
 30
0.0
 10
108.6407416449653
 20
168.1845662434896
 30
0.0
 10
109.2374321831597
 20
168.0378051757812
 30
0.0
 10
109.2374321831597
 20
168.0378051757812
 30
0.0
 10
109.2374321831597
 20
168.0378051757812
 30
0.0
 10
109.2374321831597
 20
167.6660793728298
 30
0.0
 10
109.2374321831597
 20
167.6660793728298
 30
0.0
 10
109.2374321831597
 20
167.6660793728298
 30
0.0
 10
107.4723375108507
 20
166.7231567382812
 30
0.0
 10
107.2993937174479
 20
166.6304836697049
 30
0.0
 10
107.127483452691
 20
166.5371215820312
 30
0.0
 10
107.048590766059
 20
166.5634765625
 30
0.0
 10
107.048590766059
 20
166.3767523871528
 30
0.0
 10
107.048590766059
 20
166.19140625
 30
0.0
 10
107.048590766059
 20
165.6388129340278
 30
0.0
 10
107.048590766059
 20
165.6388129340278
 30
0.0
 10
107.048590766059
 20
165.6388129340278
 30
0.0
 10
108.0350938585069
 20
165.3640665690104
 30
0.0
 10
108.0350938585069
 20
165.3640665690104
 30
0.0
 10
108.0350938585069
 20
165.3640665690104
 30
0.0
 10
108.0350938585069
 20
163.7824232313368
 30
0.0
 10
108.0350938585069
 20
163.7824232313368
 30
0.0
 10
108.0350938585069
 20
163.7824232313368
 30
0.0
 10
107.6848999023437
 20
163.7474555121528
 30
0.0
 10
107.6848999023437
 20
163.4322292751736
 30
0.0
 10
107.6848999023437
 20
163.4322292751736
 30
0.0
 10
107.6847276475694
 20
163.1871107313368
 30
0.0
 10
108.0350938585069
 20
163.1170030381944
 30
0.0
 10
108.0350938585069
 20
163.1170030381944
 30
0.0
 10
108.0350938585069
 20
135.9706841362847
 30
0.0
 10
108.0350938585069
 20
135.9706841362847
 30
0.0
 10
108.0350938585069
 20
135.9706841362847
 30
0.0
 10
107.2294582790799
 20
135.760533311632
 30
0.0
 10
107.1944905598958
 20
134.63984375
 30
0.0
 10
107.1944905598958
 20
134.63984375
 30
0.0
 10
107.1944905598958
 20
130.156396484375
 30
0.0
 10
107.1944905598958
 20
130.156396484375
 30
0.0
 10
107.1944905598958
 20
130.156396484375
 30
0.0
 10
107.1593505859375
 20
129.8766547309028
 30
0.0
 10
107.4046413845486
 20
129.8063747829861
 30
0.0
 10
107.4046413845486
 20
129.8063747829861
 30
0.0
 10
108.80576171875
 20
129.3157931857639
 30
0.0
 10
108.80576171875
 20
129.3157931857639
 30
0.0
 10
108.80576171875
 20
129.3157931857639
 30
0.0
 10
108.8129964192708
 20
129.3157931857639
 30
0.0
 10
108.8129964192708
 20
129.3157931857639
 30
0.0
 10
108.8129964192708
 20
130.3252061631944
 30
0.0
 10
108.8129964192708
 20
131.125501844618
 30
0.0
 10
108.8129964192708
 20
131.125501844618
 30
0.0
 10
108.8129964192708
 20
131.125501844618
 30
0.0
 10
108.801283094618
 20
131.6546685112847
 30
0.0
 10
108.973193359375
 20
132.2554931640625
 30
0.0
 10
108.9921413845486
 20
132.322328016493
 30
0.0
 10
109.8210313585069
 20
136.0154703776042
 30
0.0
 10
109.8844211154514
 20
136.3072699652778
 30
0.0
 10
110.0005208333333
 20
136.8405707465278
 30
0.0
 10
109.9939751519097
 20
137.2636284722222
 30
0.0
 10
109.9939751519097
 20
137.2636284722222
 30
0.0
 10
109.9939751519097
 20
137.2636284722222
 30
0.0
 10
109.9939751519097
 20
141.25029296875
 30
0.0
 10
109.9939751519097
 20
141.25029296875
 30
0.0
 10
109.9939751519097
 20
141.25029296875
 30
0.0
 10
109.9650363498264
 20
141.6735229492188
 30
0.0
 10
110.1872450086806
 20
142.1975219726562
 30
0.0
 10
110.382581922743
 20
142.6589925130208
 30
0.0
 10
110.7043538411458
 20
143.3450832790799
 30
0.0
 10
110.7749782986111
 20
143.5622965494792
 30
0.0
 10
110.9179497612847
 20
144.0018907335069
 30
0.0
 10
110.9331081814236
 20
144.2842163085937
 30
0.0
 10
110.9331081814236
 20
144.2842163085937
 30
0.0
 10
110.9331081814236
 20
144.2842163085937
 30
0.0
 10
110.9331081814236
 20
160.3144178602431
 30
0.0
 10
110.9331081814236
 20
160.430517578125
 30
0.0
 10
110.9331081814236
 20
160.5476508246528
 30
0.0
 10
110.9300075954861
 20
160.6706407335069
 30
0.0
 10
111.0102783203125
 20
160.8010375976562
 30
0.0
 10
111.1308566623264
 20
160.9967190212674
 30
0.0
 10
111.4863905164931
 20
161.4530219184028
 30
0.0
 10
111.4863905164931
 20
161.4530219184028
 30
0.0
 10
111.4863905164931
 20
161.4530219184028
 30
0.0
 10
113.1228108723958
 20
162.6865383572049
 30
0.0
 10
113.1228108723958
 20
162.6865383572049
 30
0.0
 10
113.1228108723958
 20
162.6865383572049
 30
0.0
 10
113.5913438585069
 20
162.9333794487847
 30
0.0
 10
113.5913438585069
 20
162.9333794487847
 30
0.0
 10
113.5913438585069
 20
162.9333794487847
 30
0.0
 10
113.5913438585069
 20
163.5588365342882
 30
0.0
 10
113.5913438585069
 20
163.5588365342882
 30
0.0
 10
113.5913438585069
 20
163.5588365342882
 30
0.0
 10
114.0040662977431
 20
163.7548624674479
 30
0.0
 10
114.0040662977431
 20
163.7548624674479
 30
0.0
 10
114.0040662977431
 20
163.7548624674479
 30
0.0
 10
114.0040662977431
 20
164.5791015625
 30
0.0
 10
114.0040662977431
 20
164.7541124131944
 30
0.0
 10
114.0040662977431
 20
164.9284342447917
 30
0.0
 10
113.9441216362847
 20
165.0860473632812
 30
0.0
 10
114.1594401041667
 20
165.2422824435764
 30
0.0
 10
114.3754475911458
 20
165.3973117404514
 30
0.0
 10
116.2916097005208
 20
166.2394653320312
 30
0.0
 10
116.2916097005208
 20
166.2394653320312
 30
0.0
 10
116.2916097005208
 20
166.2394653320312
 30
0.0
 10
116.937220594618
 20
166.062904188368
 30
0.0
 10
116.937220594618
 20
166.062904188368
 30
0.0
 10
116.937220594618
 20
166.062904188368
 30
0.0
 10
116.937220594618
 20
165.6718858506944
 30
0.0
 10
116.937220594618
 20
165.6718858506944
 30
0.0
 10
116.937220594618
 20
165.6718858506944
 30
0.0
 10
116.0597547743056
 20
165.0521131727431
 30
0.0
 10
115.9188503689236
 20
164.9384250217014
 30
0.0
 10
115.7893147786458
 20
164.8342108832465
 30
0.0
 10
115.665980360243
 20
164.7411933051215
 30
0.0
 10
115.665980360243
 20
164.4278618706597
 30
0.0
 10
115.665980360243
 20
164.1153917100694
 30
0.0
 10
115.665980360243
 20
163.4034627278646
 30
0.0
 10
115.665980360243
 20
163.4034627278646
 30
0.0
 10
115.665980360243
 20
163.4034627278646
 30
0.0
 10
116.2730061848958
 20
163.2082980685764
 30
0.0
 10
116.2730061848958
 20
163.2082980685764
 30
0.0
 10
116.2730061848958
 20
163.2082980685764
 30
0.0
 10
117.1129204644097
 20
161.976331922743
 30
0.0
 10
117.1129204644097
 20
161.976331922743
 30
0.0
 10
117.1129204644097
 20
161.976331922743
 30
0.0
 10
117.1129204644097
 20
144.4959174262153
 30
0.0
 10
117.1129204644097
 20
144.4959174262153
 30
0.0
 10
117.1129204644097
 20
144.4959174262153
 30
0.0
 10
117.1267008463542
 20
144.0372029622396
 30
0.0
 10
116.8069959852431
 20
143.7219767252604
 30
0.0
 10
116.7835693359375
 20
143.6987223307291
 30
0.0
 10
116.4438829210069
 20
143.3673041449653
 30
0.0
 10
116.4328586154514
 20
143.3545572916667
 30
0.0
 10
116.1035074869792
 20
142.9788696289062
 30
0.0
 10
116.0959282769097
 20
142.5203274197048
 30
0.0
 10
116.0959282769097
 20
142.5203274197048
 30
0.0
 10
116.0959282769097
 20
142.5203274197048
 30
0.0
 10
116.0959282769097
 20
139.0633463541666
 30
0.0
 10
116.0959282769097
 20
139.0633463541666
 30
0.0
 10
116.0959282769097
 20
139.0633463541666
 30
0.0
 10
116.0993733723958
 20
138.5514051649305
 30
0.0
 10
115.7338487413194
 20
138.0339518229167
 30
0.0
 10
115.7228244357639
 20
138.0181043836805
 30
0.0
 10
113.2957546657986
 20
135.3388536241319
 30
0.0
 10
113.1617404513889
 20
135.1617757161458
 30
0.0
 10
112.9639919704861
 20
134.90029296875
 30
0.0
 10
112.8227430555556
 20
134.5829996744792
 30
0.0
 10
112.7920817057292
 20
134.086216905382
 30
0.0
 10
112.7679660373264
 20
133.6955430772569
 30
0.0
 10
112.7920817057292
 20
128.3163709852431
 30
0.0
 10
112.7920817057292
 20
128.3163709852431
 30
0.0
 10
112.7920817057292
 20
128.2733072916667
 30
0.0
 10
112.7841579861111
 20
128.2071614583333
 30
0.0
 10
112.7142225477431
 20
128.1630642361111
 30
0.0
 10
112.6220662434896
 20
128.1050143771701
 30
0.0
 10
112.5233642578125
 20
127.9191514756944
 30
0.0
 10
112.5233642578125
 20
127.8013292100694
 30
0.0
 10
112.5233642578125
 20
127.683851453993
 30
0.0
 10
112.4920138888889
 20
127.5732638888889
 30
0.0
 10
112.4358588324653
 20
127.4433837890625
 30
0.0
 10
112.4244900173611
 20
127.4168565538194
 30
0.0
 10
112.4141547309028
 20
127.4089328342014
 30
0.0
 10
112.4141547309028
 20
127.4089328342014
 30
0.0
 10
112.4141547309028
 20
127.1539957682292
 30
0.0
 10
112.1926350911458
 20
126.8604736328125
 30
0.0
 10
111.80712890625
 20
126.939710828993
 30
0.0
 10
111.5856092664931
 20
126.7678005642361
 30
0.0
 10
110.6495768229167
 20
126.0725802951389
 30
0.0
 10
110.6116807725694
 20
126.0419189453125
 30
0.0
 10
110.6116807725694
 20
125.9106608072917
 30
0.0
 10
110.5059163411458
 20
125.6043918185764
 30
0.0
 10
110.0087890625
 20
125.569251844618
 30
0.0
 10
109.9567681206597
 20
125.5279106987847
 30
0.0
 10
109.2711941189236
 20
125.0314724392361
 30
0.0
 10
109.1909233940972
 20
124.9725613064236
 30
0.0
 10
109.1785210503472
 20
124.9639485677083
 30
0.0
 10
108.5604709201389
 20
124.4471842447917
 30
0.0
 10
108.1753092447917
 20
124.6573350694444
 30
0.0
 10
108.1753092447917
 20
124.6573350694444
 30
0.0
 10
102.8863986545139
 20
126.8287787543403
 30
0.0
 10
102.9213663736979
 20
126.7939832899305
 30
0.0
 10
102.9213663736979
 20
126.7939832899305
 30
0.0
 10
102.5362046983507
 20
126.8987141927083
 30
0.0
 10
102.5362046983507
 20
127.2490804036458
 30
0.0
 10
102.5362046983507
 20
127.2490804036458
 30
0.0
 10
102.5362046983507
 20
132.6409993489583
 30
0.0
 10
102.5362046983507
 20
132.6409993489583
 30
0.0
 10
102.5362046983507
 20
132.6409993489583
 30
0.0
 10
102.5360324435764
 20
133.0960964626736
 30
0.0
 10
102.8162909613715
 20
133.901904296875
 30
0.0
 10
102.8162909613715
 20
133.901904296875
 30
0.0
 10
103.9371527777778
 20
137.895458984375
 30
0.0
 10
103.9371527777778
 20
137.895458984375
 30
0.0
 10
103.9371527777778
 20
137.895458984375
 30
0.0
 10
104.0422281901042
 20
138.5259114583333
 30
0.0
 10
104.0070882161458
 20
138.9827311197917
 30
0.0
 10
104.0070882161458
 20
138.9827311197917
 30
0.0
 10
104.0070882161458
 20
143.2193372938368
 30
0.0
 10
104.0070882161458
 20
143.2193372938368
 30
0.0
 10
104.0070882161458
 20
143.2193372938368
 30
0.0
 10
103.9721204969618
 20
143.7445421006944
 30
0.0
 10
104.2523790147569
 20
144.4101345486111
 30
0.0
 10
104.2523790147569
 20
144.4101345486111
 30
0.0
 10
104.4974975585937
 20
145.1780463324653
 30
0.0
 10
104.4974975585937
 20
145.1780463324653
 30
0.0
 10
104.4974975585937
 20
145.1780463324653
 30
0.0
 10
104.6375406901042
 20
145.7383911132812
 30
0.0
 10
104.6726806640625
 20
146.1977945963542
 30
0.0
 10
104.6726806640625
 20
146.1977945963542
 30
0.0
 10
104.6726806640625
 20
146.3874471028646
 30
0.0
 10
104.6726806640625
 20
146.3874471028646
 30
0.0
 10
104.6726806640625
 20
146.3874471028646
 30
0.0
 10
104.6702690972222
 20
146.3874471028646
 30
0.0
 10
104.6702690972222
 20
146.3874471028646
 30
0.0
  0
INSERT
  5
28
330
A
100
AcDbEntity
  8
IUS
 62
     7
100
AcDbBlockReference
  2
AI9-BLK1
 10
-1415.873611111111
 20
1663.523611111111
 30
0.0
  0
LINE
  5
26
330
A
100
AcDbEntity
  8
IUS
 62
     7
100
AcDbLine
 10
107.685588921441
 20
165.2469333224826
 30
0.0
 11
108.0350938585069
 21
165.3640665690104
 31
0.0
  0
LINE
  5
25
330
A
100
AcDbEntity
  8
IUS
 62
     7
100
AcDbLine
 10
106.7152777777778
 20
165.5409722222222
 30
0.0
 11
107.048590766059
 21
165.6388129340278
 31
0.0
  0
LINE
  5
24
330
A
100
AcDbEntity
  8
IUS
 62
     7
100
AcDbLine
 10
115.3200927734375
 20
163.1859049479166
 30
0.0
 11
115.665980360243
 21
163.4034627278646
 31
0.0
  0
SPLINE
  5
23
330
A
100
AcDbEntity
  8
IUS
 62
     7
100
AcDbSpline
210
0.0
220
0.0
230
1.0
 70
    11
 71
     3
 72
    23
 73
    19
 74
     0
 42
0.0000000001
 43
0.0000000001
 40
0.0
 40
0.0
 40
0.0
 40
0.0
 40
1.0
 40
1.0
 40
1.0
 40
2.0
 40
2.0
 40
2.0
 40
3.0
 40
3.0
 40
3.0
 40
4.0
 40
4.0
 40
4.0
 40
5.0
 40
5.0
 40
5.0
 40
6.0
 40
6.0
 40
6.0
 40
6.0
 10
111.3139634874132
 20
142.0507609049479
 30
0.0
 10
111.2316257052951
 20
141.9351779513889
 30
0.0
 10
111.0271592881944
 20
141.6278754340278
 30
0.0
 10
110.9766886393229
 20
141.5469156901042
 30
0.0
 10
110.9274237738715
 20
141.4652669270833
 30
0.0
 10
110.8054673936632
 20
141.3173000759549
 30
0.0
 10
111.0092447916667
 20
141.2428860134548
 30
0.0
 10
111.0865871853299
 20
141.2142917209201
 30
0.0
 10
111.2931206597222
 20
141.1498684353298
 30
0.0
 10
111.4097371419271
 20
141.116106499566
 30
0.0
 10
111.4924194335937
 20
141.0925075954861
 30
0.0
 10
111.5471964518229
 20
141.1080105251736
 30
0.0
 10
111.5471964518229
 20
141.2372016059028
 30
0.0
 10
111.5471964518229
 20
141.3667371961805
 30
0.0
 10
111.5471964518229
 20
141.9370727539063
 30
0.0
 10
111.5471964518229
 20
142.0343967013889
 30
0.0
 10
111.5471964518229
 20
142.1317206488715
 30
0.0
 10
111.3949232313368
 20
142.1656548394097
 30
0.0
 10
111.3139634874132
 20
142.0507609049479
 30
0.0
  0
SPLINE
  5
22
330
A
100
AcDbEntity
  8
IUS
 62
     7
100
AcDbSpline
210
0.0
220
0.0
230
1.0
 70
     8
 71
     3
 72
    11
 73
     7
 74
     0
 42
0.0000000001
 43
0.0000000001
 40
0.0
 40
0.0
 40
0.0
 40
0.0
 40
1.0
 40
1.0
 40
1.0
 40
2.0
 40
2.0
 40
2.0
 40
2.0
 10
111.2235297309028
 20
141.1824245876736
 30
0.0
 10
111.2243910047743
 20
141.1886257595486
 30
0.0
 10
111.2250800238715
 20
141.1941379123264
 30
0.0
 10
111.2250800238715
 20
141.2015448676215
 30
0.0
 10
111.2250800238715
 20
141.2825046115451
 30
0.0
 10
111.2250800238715
 20
141.7922064887153
 30
0.0
 10
111.2250800238715
 20
141.9024495442708
 30
0.0
  0
ENDSEC
  0
SECTION
  2
OBJECTS
  0
DICTIONARY
  5
19
330
0
100
AcDbDictionary
281
     1
  3
ACAD_COLOR
350
141
  3
ACAD_GROUP
350
1A
  3
ACAD_LAYOUT
350
10E
  3
ACAD_MATERIAL
350
143
  3
ACAD_MLINESTYLE
350
1B
  3
ACAD_PLOTSETTINGS
350
10F
  3
ACAD_PLOTSTYLENAME
350
10C
  3
ACDBHEADERROUNDTRIPXREC
350
140
  0
DICTIONARY
  5
141
102
{ACAD_REACTORS
330
19
102
}
330
19
100
AcDbDictionary
281
     1
  0
DICTIONARY
  5
1A
102
{ACAD_REACTORS
330
19
102
}
330
19
100
AcDbDictionary
281
     1
  0
DICTIONARY
  5
10E
102
{ACAD_REACTORS
330
19
102
}
330
19
100
AcDbDictionary
281
     1
  3
Layout1
350
111
  3
Model
350
110
  0
DICTIONARY
  5
143
102
{ACAD_REACTORS
330
19
102
}
330
19
100
AcDbDictionary
281
     1
  0
DICTIONARY
  5
1B
102
{ACAD_REACTORS
330
19
102
}
330
19
100
AcDbDictionary
281
     1
  3
STANDARD
350
1C
  0
DICTIONARY
  5
10F
102
{ACAD_REACTORS
330
19
102
}
330
19
100
AcDbDictionary
281
     1
  0
ACDBDICTIONARYWDFLT
  5
10C
102
{ACAD_REACTORS
330
19
102
}
330
19
100
AcDbDictionary
281
     1
  3
Normal
350
10D
100
AcDbDictionaryWithDefault
340
10D
  0
DICTIONARY
  5
140
102
{ACAD_REACTORS
330
19
102
}
330
19
100
AcDbDictionary
281
     1
  3
COLORDICT
350
142
  3
MATERIALDICT
350
144
  0
LAYOUT
  5
111
102
{ACAD_REACTORS
330
10E
102
}
102
{ACAD_XDICTIONARY
360
145
102
}
330
10E
100
AcDbPlotSettings
  1

  2
HP LaserJet 2100 Series PS
  4

  6

 40
0.0
 41
0.0
 42
0.0
 43
0.0
 44
0.0
 45
0.0
 46
0.0
 47
0.0
 48
0.0
 49
0.0
140
0.0
141
0.0
142
1.0
143
1.0
 70
   688
 72
     0
 73
     0
 74
     5
  7

 75
    16
147
1.0
148
0.0
149
0.0
100
AcDbLayout
  1
Layout1
 70
     0
 71
     1
 10
0.0
 20
0.0
 11
12.0
 21
9.0
 12
0.0
 22
0.0
 32
0.0
 14
1.000000000000000E+20
 24
1.000000000000000E+20
 34
1.000000000000000E+20
 15
-1.000000000000000E+20
 25
-1.000000000000000E+20
 35
-1.000000000000000E+20
146
0.0
 13
0.0
 23
0.0
 33
0.0
 16
1.0
 26
0.0
 36
0.0
 17
0.0
 27
1.0
 37
0.0
 76
     0
330
B
  0
LAYOUT
  5
110
102
{ACAD_REACTORS
330
10E
102
}
102
{ACAD_XDICTIONARY
360
147
102
}
330
10E
100
AcDbPlotSettings
  1

  2
HP LaserJet 2100 Series PS
  4

  6

 40
0.0
 41
0.0
 42
0.0
 43
0.0
 44
0.0
 45
0.0
 46
0.0
 47
0.0
 48
0.0
 49
0.0
140
0.0
141
0.0
142
1.0
143
1.0
 70
  1712
 72
     0
 73
     0
 74
     0
  7

 75
     0
147
1.0
148
0.0
149
0.0
100
AcDbLayout
  1
Model
 70
     1
 71
     0
 10
0.0
 20
0.0
 11
12.0
 21
9.0
 12
0.0
 22
0.0
 32
0.0
 14
0.0
 24
0.0
 34
0.0
 15
0.0
 25
0.0
 35
0.0
146
0.0
 13
0.0
 23
0.0
 33
0.0
 16
1.0
 26
0.0
 36
0.0
 17
0.0
 27
1.0
 37
0.0
 76
     0
330
A
  0
MLINESTYLE
  5
1C
102
{ACAD_REACTORS
330
1B
102
}
330
1B
100
AcDbMlineStyle
  2
STANDARD
 70
     0
  3

 62
     0
 51
90.0000000000002
 52
90.0000000000002
 71
     2
 49
0.5
 62
   256
  6
BYLAYER
 49
-0.5
 62
   256
  6
BYLAYER
  0
ACDBPLACEHOLDER
  5
10D
102
{ACAD_REACTORS
330
10C
102
}
330
10C
  0
XRECORD
  5
142
102
{ACAD_REACTORS
330
140
102
}
330
140
100
AcDbXrecord
340
141
  0
XRECORD
  5
144
102
{ACAD_REACTORS
330
140
102
}
330
140
100
AcDbXrecord
340
143
  0
DICTIONARY
  5
145
330
111
100
AcDbDictionary
280
     1
281
     1
  3
ACAD_XREC_ROUNDTRIP
360
146
  0
DICTIONARY
  5
147
330
110
100
AcDbDictionary
280
     1
281
     1
  3
ACAD_XREC_ROUNDTRIP
360
148
  0
XRECORD
  5
146
102
{ACAD_REACTORS
330
145
102
}
330
145
100
AcDbXrecord
102
SHADEPLOT
 70
 16392
102
SHADEPLOTRESLEVEL
 70
 16472
102
SHADEPLOTCUSTOMDPI
 70
-29840
  0
XRECORD
  5
148
102
{ACAD_REACTORS
330
147
102
}
330
147
100
AcDbXrecord
102
SHADEPLOT
 70
-30344
102
SHADEPLOTRESLEVEL
 70
-30384
102
SHADEPLOTCUSTOMDPI
 70
-30424
  0
ENDSEC
  0
EOF
