  0
SECTION
  2
HEADER
  9
$ACADVER
  1
AC1015
  9
$ACADMAINTVER
 70
     6
  9
$DWGCODEPAGE
  3
ANSI_1252
  9
$INSBASE
 10
0.0
 20
0.0
 30
0.0
  9
$EXTMIN
 10
77.69652450105011
 20
119.5944778202335
 30
-0.0015258207003612
  9
$EXTMAX
 10
137.1665710937666
 20
176.6577777152917
 30
0.0000000349246008
  9
$LIMMIN
 10
77.62558051215277
 20
119.5482584635417
  9
$LIMMAX
 10
137.2329671223958
 20
176.6996365017361
  9
$ORTHOMODE
 70
     0
  9
$REGENMODE
 70
     1
  9
$FILLMODE
 70
     1
  9
$QTEXTMODE
 70
     0
  9
$MIRRTEXT
 70
     1
  9
$LTSCALE
 40
1.0
  9
$ATTMODE
 70
     1
  9
$TEXTSIZE
 40
0.2
  9
$TRACEWID
 40
0.05
  9
$TEXTSTYLE
  7
STANDARD
  9
$CLAYER
  8
0
  9
$CELTYPE
  6
CONTINUOUS
  9
$CECOLOR
 62
   256
  9
$CELTSCALE
 40
1.0
  9
$DISPSILH
 70
     0
  9
$DIMSCALE
 40
1.0
  9
$DIMASZ
 40
0.18
  9
$DIMEXO
 40
0.0625
  9
$DIMDLI
 40
0.38
  9
$DIMRND
 40
0.0
  9
$DIMDLE
 40
0.0
  9
$DIMEXE
 40
0.18
  9
$DIMTP
 40
0.0
  9
$DIMTM
 40
0.0
  9
$DIMTXT
 40
0.18
  9
$DIMCEN
 40
0.09
  9
$DIMTSZ
 40
0.0
  9
$DIMTOL
 70
     0
  9
$DIMLIM
 70
     0
  9
$DIMTIH
 70
     1
  9
$DIMTOH
 70
     1
  9
$DIMSE1
 70
     0
  9
$DIMSE2
 70
     0
  9
$DIMTAD
 70
     0
  9
$DIMZIN
 70
     0
  9
$DIMBLK
  1

  9
$DIMASO
 70
     1
  9
$DIMSHO
 70
     1
  9
$DIMPOST
  1

  9
$DIMAPOST
  1

  9
$DIMALT
 70
     0
  9
$DIMALTD
 70
     2
  9
$DIMALTF
 40
25.4
  9
$DIMLFAC
 40
1.0
  9
$DIMTOFL
 70
     0
  9
$DIMTVP
 40
0.0
  9
$DIMTIX
 70
     0
  9
$DIMSOXD
 70
     0
  9
$DIMSAH
 70
     0
  9
$DIMBLK1
  1

  9
$DIMBLK2
  1

  9
$DIMSTYLE
  2
STANDARD
  9
$DIMCLRD
 70
     0
  9
$DIMCLRE
 70
     0
  9
$DIMCLRT
 70
     0
  9
$DIMTFAC
 40
1.0
  9
$DIMGAP
 40
0.09
  9
$DIMJUST
 70
     0
  9
$DIMSD1
 70
     0
  9
$DIMSD2
 70
     0
  9
$DIMTOLJ
 70
     1
  9
$DIMTZIN
 70
     0
  9
$DIMALTZ
 70
     0
  9
$DIMALTTZ
 70
     0
  9
$DIMUPT
 70
     0
  9
$DIMDEC
 70
     4
  9
$DIMTDEC
 70
     4
  9
$DIMALTU
 70
     2
  9
$DIMALTTD
 70
     2
  9
$DIMTXSTY
  7
STANDARD
  9
$DIMAUNIT
 70
     0
  9
$DIMADEC
 70
     0
  9
$DIMALTRND
 40
0.0
  9
$DIMAZIN
 70
     0
  9
$DIMDSEP
 70
    46
  9
$DIMATFIT
 70
     3
  9
$DIMFRAC
 70
     0
  9
$DIMLDRBLK
  1

  9
$DIMLUNIT
 70
     2
  9
$DIMLWD
 70
    -2
  9
$DIMLWE
 70
    -2
  9
$DIMTMOVE
 70
     0
  9
$LUNITS
 70
     2
  9
$LUPREC
 70
     4
  9
$SKETCHINC
 40
0.1
  9
$FILLETRAD
 40
0.0
  9
$AUNITS
 70
     0
  9
$AUPREC
 70
     0
  9
$MENU
  1
acad
  9
$ELEVATION
 40
0.0
  9
$PELEVATION
 40
0.0
  9
$THICKNESS
 40
0.0
  9
$LIMCHECK
 70
     0
  9
$CHAMFERA
 40
0.0
  9
$CHAMFERB
 40
0.0
  9
$CHAMFERC
 40
0.0
  9
$CHAMFERD
 40
0.0
  9
$SKPOLY
 70
     0
  9
$TDCREATE
 40
2444971.666666667
  9
$TDUCREATE
 40
2444972.0
  9
$TDUPDATE
 40
2452675.34544757
  9
$TDUUPDATE
 40
2452675.678780903
  9
$TDINDWG
 40
0.0000966435
  9
$TDUSRTIMER
 40
0.0000966435
  9
$USRTIMER
 70
     1
  9
$ANGBASE
 50
0.0
  9
$ANGDIR
 70
     0
  9
$PDMODE
 70
     0
  9
$PDSIZE
 40
0.0
  9
$PLINEWID
 40
0.0
  9
$SPLFRAME
 70
     0
  9
$SPLINETYPE
 70
     6
  9
$SPLINESEGS
 70
     8
  9
$HANDSEED
  5
166
  9
$SURFTAB1
 70
     6
  9
$SURFTAB2
 70
     6
  9
$SURFTYPE
 70
     6
  9
$SURFU
 70
     6
  9
$SURFV
 70
     6
  9
$UCSBASE
  2

  9
$UCSNAME
  2

  9
$UCSORG
 10
0.0
 20
0.0
 30
0.0
  9
$UCSXDIR
 10
1.0
 20
0.0
 30
0.0
  9
$UCSYDIR
 10
0.0
 20
1.0
 30
0.0
  9
$UCSORTHOREF
  2

  9
$UCSORTHOVIEW
 70
     0
  9
$UCSORGTOP
 10
0.0
 20
0.0
 30
0.0
  9
$UCSORGBOTTOM
 10
0.0
 20
0.0
 30
0.0
  9
$UCSORGLEFT
 10
0.0
 20
0.0
 30
0.0
  9
$UCSORGRIGHT
 10
0.0
 20
0.0
 30
0.0
  9
$UCSORGFRONT
 10
0.0
 20
0.0
 30
0.0
  9
$UCSORGBACK
 10
0.0
 20
0.0
 30
0.0
  9
$PUCSBASE
  2

  9
$PUCSNAME
  2

  9
$PUCSORG
 10
0.0
 20
0.0
 30
0.0
  9
$PUCSXDIR
 10
1.0
 20
0.0
 30
0.0
  9
$PUCSYDIR
 10
0.0
 20
1.0
 30
0.0
  9
$PUCSORTHOREF
  2

  9
$PUCSORTHOVIEW
 70
     0
  9
$PUCSORGTOP
 10
0.0
 20
0.0
 30
0.0
  9
$PUCSORGBOTTOM
 10
0.0
 20
0.0
 30
0.0
  9
$PUCSORGLEFT
 10
0.0
 20
0.0
 30
0.0
  9
$PUCSORGRIGHT
 10
0.0
 20
0.0
 30
0.0
  9
$PUCSORGFRONT
 10
0.0
 20
0.0
 30
0.0
  9
$PUCSORGBACK
 10
0.0
 20
0.0
 30
0.0
  9
$USERI1
 70
     0
  9
$USERI2
 70
     0
  9
$USERI3
 70
     0
  9
$USERI4
 70
     0
  9
$USERI5
 70
     0
  9
$USERR1
 40
0.0
  9
$USERR2
 40
0.0
  9
$USERR3
 40
0.0
  9
$USERR4
 40
0.0
  9
$USERR5
 40
0.0
  9
$WORLDVIEW
 70
     1
  9
$SHADEDGE
 70
     3
  9
$SHADEDIF
 70
    70
  9
$TILEMODE
 70
     1
  9
$MAXACTVP
 70
    16
  9
$PINSBASE
 10
0.0
 20
0.0
 30
0.0
  9
$PLIMCHECK
 70
     0
  9
$PEXTMIN
 10
1.000000000000000E+20
 20
1.000000000000000E+20
 30
1.000000000000000E+20
  9
$PEXTMAX
 10
-1.000000000000000E+20
 20
-1.000000000000000E+20
 30
-1.000000000000000E+20
  9
$PLIMMIN
 10
0.0
 20
0.0
  9
$PLIMMAX
 10
12.0
 20
9.0
  9
$UNITMODE
 70
     0
  9
$VISRETAIN
 70
     0
  9
$PLINEGEN
 70
     1
  9
$PSLTSCALE
 70
     0
  9
$TREEDEPTH
 70
  3020
  9
$CMLSTYLE
  2
STANDARD
  9
$CMLJUST
 70
     0
  9
$CMLSCALE
 40
1.0
  9
$PROXYGRAPHICS
 70
     1
  9
$MEASUREMENT
 70
     0
  9
$CELWEIGHT
370
    -1
  9
$ENDCAPS
280
     0
  9
$JOINSTYLE
280
     0
  9
$LWDISPLAY
290
     0
  9
$INSUNITS
 70
     0
  9
$HYPERLINKBASE
  1

  9
$STYLESHEET
  1

  9
$XEDIT
290
     1
  9
$CEPSNTYPE
380
     0
  9
$PSTYLEMODE
290
     1
  9
$FINGERPRINTGUID
  2
{87C952E2-380C-11D7-BE3F-00508B5FCD51}
  9
$VERSIONGUID
  2
{87C952E4-380C-11D7-BE3F-00508B5FCD51}
  9
$EXTNAMES
290
     1
  9
$PSVPSCALE
 40
0.0
  9
$OLESTARTUP
290
     0
  0
ENDSEC
  0
SECTION
  2
CLASSES
  0
CLASS
  1
LWPOLYLINE
  2
AcDbPolyline
  3
AutoCAD 2000
 90
        0
280
     0
281
     1
  0
CLASS
  1
IMAGE
  2
AcDbRasterImage
  3
ISM
 90
      127
280
     0
281
     1
  0
CLASS
  1
OLE2FRAME
  2
AcDbOle2Frame
  3
AutoCAD 2000
 90
        0
280
     0
281
     1
  0
CLASS
  1
HATCH
  2
AcDbHatch
  3
AutoCAD 2000
 90
        0
280
     0
281
     1
  0
CLASS
  1
DICTIONARYVAR
  2
AcDbDictionaryVar
  3
AutoCAD 2000
 90
        0
280
     0
281
     0
  0
CLASS
  1
RASTERVARIABLES
  2
AcDbRasterVariables
  3
ISM
 90
        0
280
     0
281
     0
  0
CLASS
  1
IMAGEDEF
  2
AcDbRasterImageDef
  3
ISM
 90
        0
280
     0
281
     0
  0
CLASS
  1
IMAGEDEF_REACTOR
  2
AcDbRasterImageDefReactor
  3
ISM
 90
        1
280
     0
281
     0
  0
CLASS
  1
IDBUFFER
  2
AcDbIdBuffer
  3
AutoCAD 2000
 90
        0
280
     0
281
     0
  0
CLASS
  1
SPATIAL_FILTER
  2
AcDbSpatialFilter
  3
AutoCAD 2000
 90
        0
280
     0
281
     0
  0
CLASS
  1
XRECORD
  2
AcDbXrecord
  3
AutoCAD 2000
 90
        0
280
     0
281
     0
  0
CLASS
  1
SORTENTSTABLE
  2
AcDbSortentsTable
  3
AutoCAD 2000
 90
        0
280
     0
281
     0
  0
CLASS
  1
LAYER_INDEX
  2
AcDbLayerIndex
  3
AutoCAD 2000
 90
        0
280
     0
281
     0
  0
CLASS
  1
SPATIAL_INDEX
  2
AcDbSpatialIndex
  3
AutoCAD 2000
 90
        0
280
     0
281
     0
  0
CLASS
  1
OBJECT_PTR
  2
CAseDLPNTableRecord
  3
ASE-LPNTableRecord
 90
        1
280
     1
281
     0
  0
CLASS
  1
LAYOUT
  2
AcDbLayout
  3
ObjectDBX Classes
 90
        0
280
     0
281
     0
  0
CLASS
  1
PLOTSETTINGS
  2
AcDbPlotSettings
  3
AutoCAD 2000
 90
        0
280
     0
281
     0
  0
CLASS
  1
ACDBDICTIONARYWDFLT
  2
AcDbDictionaryWithDefault
  3
AutoCAD 2000
 90
        0
280
     0
281
     0
  0
CLASS
  1
ACDBPLACEHOLDER
  2
AcDbPlaceHolder
  3
ObjectDBX Classes
 90
        0
280
     0
281
     0
  0
CLASS
  1
VBAPROJECT
  2
AcDbVbaProject
  3
ObjectDBX Classes
 90
        0
280
     0
281
     0
  0
CLASS
  1
WIPEOUT
  2
AcDbWipeout
  3
WipeOut|AutoCAD Express Tool|expresstools@autodesk.com
 90
      127
280
     0
281
     1
  0
CLASS
  1
WIPEOUTVARIABLES
  2
AcDbWipeoutVariables
  3
WipeOut|AutoCAD Express Tool|expresstools@autodesk.com
 90
        0
280
     0
281
     0
  0
CLASS
  1
RTEXT
  2
RText
  3
RText|AutoCAD Express Tool|expresstools@autodesk.com
 90
        0
280
     0
281
     1
  0
CLASS
  1
ARCALIGNEDTEXT
  2
AcDbArcAlignedText
  3
ATEXT|AutoCAD Express Tool|expresstools@autodesk.com
 90
        0
280
     0
281
     1
  0
CLASS
  1
LONG_TRANSACTION
  2
AcDbLongTransaction
  3
AutoCAD 2000
 90
        0
280
     1
281
     0
  0
CLASS
  1
LWPOLYLINE
  2
AcDbPolyline
  3
AutoCAD 2000
 90
        0
280
     0
281
     1
  0
CLASS
  1
HATCH
  2
AcDbHatch
  3
AutoCAD 2000
 90
        0
280
     0
281
     1
  0
CLASS
  1
XRECORD
  2
AcDbXrecord
  3
AutoCAD 2000
 90
        0
280
     0
281
     0
  0
ENDSEC
  0
SECTION
  2
TABLES
  0
TABLE
  2
VPORT
  5
7
330
0
100
AcDbSymbolTable
 70
     2
  0
VPORT
  5
132
330
7
100
AcDbSymbolTableRecord
100
AcDbViewportTableRecord
  2
*Active
 70
     0
 10
0.0
 20
0.0
 11
1.0
 21
1.0
 12
107.4292738172743
 22
148.1239474826389
 13
0.0
 23
0.0
 14
1.0
 24
1.0
 15
0.0
 25
0.0
 16
0.0
 26
0.0
 36
1.0
 17
0.0
 27
0.0
 37
0.0
 40
57.79352835323035
 41
1.73921200750469
 42
50.0
 43
0.0
 44
0.0
 50
0.0
 51
0.0
 71
     0
 72
   100
 73
     1
 74
     1
 75
     0
 76
     0
 77
     0
 78
     0
281
     0
 65
     1
110
0.0
120
0.0
130
0.0
111
1.0
121
0.0
131
0.0
112
0.0
122
1.0
132
0.0
 79
     0
146
0.0
  0
ENDTAB
  0
TABLE
  2
LTYPE
  5
4
330
0
100
AcDbSymbolTable
 70
     1
  0
LTYPE
  5
11
330
4
100
AcDbSymbolTableRecord
100
AcDbLinetypeTableRecord
  2
BYBLOCK
 70
     0
  3

 72
    65
 73
     0
 40
0.0
  0
LTYPE
  5
12
330
4
100
AcDbSymbolTableRecord
100
AcDbLinetypeTableRecord
  2
BYLAYER
 70
     0
  3

 72
    65
 73
     0
 40
0.0
  0
LTYPE
  5
13
330
4
100
AcDbSymbolTableRecord
100
AcDbLinetypeTableRecord
  2
CONTINUOUS
 70
     0
  3
Solid line
 72
    65
 73
     0
 40
0.0
  0
ENDTAB
  0
TABLE
  2
LAYER
  5
2
330
0
100
AcDbSymbolTable
 70
     2
  0
LAYER
  5
14
330
2
100
AcDbSymbolTableRecord
100
AcDbLayerTableRecord
  2
0
 70
     0
 62
     7
  6
CONTINUOUS
370
    -3
390
0
  0
LAYER
  5
21
330
2
100
AcDbSymbolTableRecord
100
AcDbLayerTableRecord
  2
WOOD
 70
     0
 62
   160
  6
CONTINUOUS
370
    -3
390
0
  0
ENDTAB
  0
TABLE
  2
STYLE
  5
3
330
0
100
AcDbSymbolTable
 70
     5
  0
STYLE
  5
17
330
3
100
AcDbSymbolTableRecord
100
AcDbTextStyleTableRecord
  2
STANDARD
 70
     0
 40
0.0
 41
1.0
 50
0.0
 71
     0
 42
0.2
  3
txt
  4

  0
STYLE
  5
1D
330
3
100
AcDbSymbolTableRecord
100
AcDbTextStyleTableRecord
  2
STD
 70
     0
 40
0.0
 41
1.0
 50
0.0
 71
     0
 42
0.2
  3
txt
  4

  0
STYLE
  5
1E
330
3
100
AcDbSymbolTableRecord
100
AcDbTextStyleTableRecord
  2
TATESTD
 70
     4
 40
0.0
 41
1.0
 50
0.0
 71
     0
 42
0.2
  3
txt
  4

  0
STYLE
  5
1F
330
3
100
AcDbSymbolTableRecord
100
AcDbTextStyleTableRecord
  2
KANJISTD
 70
     0
 40
0.0
 41
1.0
 50
0.0
 71
     0
 42
0.2
  3
txt
  4
extfont
  0
STYLE
  5
20
330
3
100
AcDbSymbolTableRecord
100
AcDbTextStyleTableRecord
  2
KANJITATE
 70
     4
 40
0.0
 41
1.0
 50
0.0
 71
     0
 42
0.2
  3
txt
  4
extfont
  0
ENDTAB
  0
TABLE
  2
VIEW
  5
5
330
0
100
AcDbSymbolTable
 70
     0
  0
ENDTAB
  0
TABLE
  2
UCS
  5
6
330
0
100
AcDbSymbolTable
 70
     0
  0
ENDTAB
  0
TABLE
  2
APPID
  5
8
330
0
100
AcDbSymbolTable
 70
     1
  0
APPID
  5
16
330
8
100
AcDbSymbolTableRecord
100
AcDbRegAppTableRecord
  2
ACAD
 70
     0
  0
ENDTAB
  0
TABLE
  2
DIMSTYLE
  5
9
330
0
100
AcDbSymbolTable
 70
     1
100
AcDbDimStyleTable
  0
DIMSTYLE
105
18
330
9
100
AcDbSymbolTableRecord
100
AcDbDimStyleTableRecord
  2
STANDARD
 70
     0
  3

  4

289
     0
340
17
  0
ENDTAB
  0
TABLE
  2
BLOCK_RECORD
  5
1
330
0
100
AcDbSymbolTable
 70
     6
  0
BLOCK_RECORD
  5
A
330
1
100
AcDbSymbolTableRecord
100
AcDbBlockTableRecord
  2
*MODEL_SPACE
340
12D
  0
BLOCK_RECORD
  5
B
330
1
100
AcDbSymbolTableRecord
100
AcDbBlockTableRecord
  2
*PAPER_SPACE
340
12E
  0
BLOCK_RECORD
  5
22
330
1
100
AcDbSymbolTableRecord
100
AcDbBlockTableRecord
  2
AI9-BLK1
340
0
102
{BLKREFS
331
23
102
}
  0
BLOCK_RECORD
  5
28
330
1
100
AcDbSymbolTableRecord
100
AcDbBlockTableRecord
  2
AI9-BLK2
340
0
102
{BLKREFS
331
29
102
}
  0
BLOCK_RECORD
  5
2E
330
1
100
AcDbSymbolTableRecord
100
AcDbBlockTableRecord
  2
AI9-BLK3
340
0
102
{BLKREFS
331
2F
102
}
  0
BLOCK_RECORD
  5
5E
330
1
100
AcDbSymbolTableRecord
100
AcDbBlockTableRecord
  2
AI9-BLK4
340
0
102
{BLKREFS
331
5F
102
}
  0
BLOCK_RECORD
  5
7E
330
1
100
AcDbSymbolTableRecord
100
AcDbBlockTableRecord
  2
AI9-BLK5
340
0
102
{BLKREFS
331
7F
102
}
  0
BLOCK_RECORD
  5
A2
330
1
100
AcDbSymbolTableRecord
100
AcDbBlockTableRecord
  2
AI9-BLK6
340
0
102
{BLKREFS
331
A3
102
}
  0
ENDTAB
  0
ENDSEC
  0
SECTION
  2
BLOCKS
  0
BLOCK
  5
D
330
A
100
AcDbEntity
  8
0
100
AcDbBlockBegin
  2
*MODEL_SPACE
 70
     0
 10
0.0
 20
0.0
 30
0.0
  3
*MODEL_SPACE
  1

  4

  0
ENDBLK
  5
E
330
A
100
AcDbEntity
  8
0
100
AcDbBlockEnd
  0
BLOCK
  5
F
330
B
100
AcDbEntity
 67
     1
  8
0
100
AcDbBlockBegin
  2
*PAPER_SPACE
 70
     0
 10
0.0
 20
0.0
 30
0.0
  3
*PAPER_SPACE
  1

  4

  0
ENDBLK
  5
10
330
B
100
AcDbEntity
 67
     1
  8
0
100
AcDbBlockEnd
  0
BLOCK
  5
24
330
22
100
AcDbEntity
  8
0
 62
     7
100
AcDbBlockBegin
  2
AI9-BLK1
 70
     0
 10
0.0
 20
0.0
 30
0.0
  3
AI9-BLK1
  1

  4

  0
SPLINE
  5
26
330
22
100
AcDbEntity
  8
WOOD
 62
     7
100
AcDbSpline
210
0.0
220
0.0
230
1.0
 70
     8
 71
     3
 72
    11
 73
     7
 74
     0
 42
0.0000000001
 43
0.0000000001
 40
0.0
 40
0.0
 40
0.0
 40
0.0
 40
1.0
 40
1.0
 40
1.0
 40
2.0
 40
2.0
 40
2.0
 40
2.0
 10
-0.2373670789930555
 20
0.4030761718749999
 30
0.0
 10
-0.0447862413194444
 20
0.4440728081597222
 30
0.0
 10
0.1546847873263889
 20
0.2814643012152778
 30
0.0
 10
0.2053276909722222
 20
0.0392740885416667
 30
0.0
 10
0.2559705946180556
 20
-0.2029161241319444
 30
0.0
 10
0.1419379340277778
 20
-0.4327039930555555
 30
0.0
 10
-0.049609375
 20
-0.4737006293402777
 30
0.0
  0
SPLINE
  5
25
330
22
100
AcDbEntity
  8
WOOD
 62
     7
100
AcDbSpline
210
0.0
220
0.0
230
1.0
 70
    11
 71
     3
 72
    23
 73
    19
 74
     0
 42
0.0000000001
 43
0.0000000001
 40
0.0
 40
0.0
 40
0.0
 40
0.0
 40
1.0
 40
1.0
 40
1.0
 40
2.0
 40
2.0
 40
2.0
 40
3.0
 40
3.0
 40
3.0
 40
4.0
 40
4.0
 40
4.0
 40
5.0
 40
5.0
 40
5.0
 40
6.0
 40
6.0
 40
6.0
 40
6.0
 10
-0.0175699869791667
 20
0.4768012152777778
 30
0.0
 10
-0.0516764322916667
 20
0.4695665147569444
 30
0.0
 10
-0.1536512586805555
 20
0.4389051649305555
 30
0.0
 10
-0.1760443793402778
 20
0.4340820312499999
 30
0.0
 10
-0.3758599175347222
 20
0.3913628472222222
 30
0.0
 10
-0.4947157118055555
 20
0.1536512586805555
 30
0.0
 10
-0.4413167317708333
 20
-0.0974962022569444
 30
0.0
 10
-0.3872287326388889
 20
-0.3482991536458333
 30
0.0
 10
-0.1822455512152778
 20
-0.5167643229166666
 30
0.0
 10
0.0182590060763889
 20
-0.4743896484375
 30
0.0
 10
0.0523654513888889
 20
-0.4668104383680555
 30
0.0
 10
0.1543402777777778
 20
-0.4364935980902777
 30
0.0
 10
0.1767333984375
 20
-0.4316704644097222
 30
0.0
 10
0.3765489366319444
 20
-0.3889512803819444
 30
0.0
 10
0.4950602213541666
 20
-0.1508951822916667
 30
0.0
 10
0.4413167317708333
 20
0.0999077690972222
 30
0.0
 10
0.3879177517361111
 20
0.3510552300347222
 30
0.0
 10
0.1825900607638889
 20
0.5195203993055555
 30
0.0
 10
-0.0175699869791667
 20
0.4768012152777778
 30
0.0
  0
ENDBLK
  5
27
330
22
100
AcDbEntity
  8
0
100
AcDbBlockEnd
  0
BLOCK
  5
2A
330
28
100
AcDbEntity
  8
0
 62
     7
100
AcDbBlockBegin
  2
AI9-BLK2
 70
     0
 10
0.0
 20
0.0
 30
0.0
  3
AI9-BLK2
  1

  4

  0
SPLINE
  5
2C
330
28
100
AcDbEntity
  8
WOOD
 62
     7
100
AcDbSpline
210
0.0
220
0.0
230
1.0
 70
     8
 71
     3
 72
    11
 73
     7
 74
     0
 42
0.0000000001
 43
0.0000000001
 40
0.0
 40
0.0
 40
0.0
 40
0.0
 40
1.0
 40
1.0
 40
1.0
 40
2.0
 40
2.0
 40
2.0
 40
2.0
 10
-0.2373670789930555
 20
0.4030761718749999
 30
0.0
 10
-0.0447862413194444
 20
0.4440728081597222
 30
0.0
 10
0.1546847873263889
 20
0.2814643012152778
 30
0.0
 10
0.2053276909722222
 20
0.0391018337673611
 30
0.0
 10
0.2559705946180556
 20
-0.2029161241319444
 30
0.0
 10
0.1419379340277778
 20
-0.4327039930555555
 30
0.0
 10
-0.049609375
 20
-0.4737006293402777
 30
0.0
  0
SPLINE
  5
2B
330
28
100
AcDbEntity
  8
WOOD
 62
     7
100
AcDbSpline
210
0.0
220
0.0
230
1.0
 70
    11
 71
     3
 72
    23
 73
    19
 74
     0
 42
0.0000000001
 43
0.0000000001
 40
0.0
 40
0.0
 40
0.0
 40
0.0
 40
1.0
 40
1.0
 40
1.0
 40
2.0
 40
2.0
 40
2.0
 40
3.0
 40
3.0
 40
3.0
 40
4.0
 40
4.0
 40
4.0
 40
5.0
 40
5.0
 40
5.0
 40
6.0
 40
6.0
 40
6.0
 40
6.0
 10
-0.0175699869791667
 20
0.4768012152777778
 30
0.0
 10
-0.0516764322916667
 20
0.4693942599826388
 30
0.0
 10
-0.1536512586805555
 20
0.4389051649305555
 30
0.0
 10
-0.1760443793402778
 20
0.4340820312499999
 30
0.0
 10
-0.3758599175347222
 20
0.3913628472222222
 30
0.0
 10
-0.4947157118055555
 20
0.15347900390625
 30
0.0
 10
-0.4413167317708333
 20
-0.0974962022569444
 30
0.0
 10
-0.3872287326388889
 20
-0.3484714084201389
 30
0.0
 10
-0.1822455512152778
 20
-0.5169365776909721
 30
0.0
 10
0.0182590060763889
 20
-0.4743896484375
 30
0.0
 10
0.0523654513888889
 20
-0.4669826931423611
 30
0.0
 10
0.1543402777777778
 20
-0.4364935980902777
 30
0.0
 10
0.1767333984375
 20
-0.4316704644097222
 30
0.0
 10
0.3765489366319444
 20
-0.3889512803819444
 30
0.0
 10
0.4950602213541666
 20
-0.1510674370659722
 30
0.0
 10
0.4413167317708333
 20
0.0999077690972222
 30
0.0
 10
0.3879177517361111
 20
0.3508829752604166
 30
0.0
 10
0.1825900607638889
 20
0.5195203993055555
 30
0.0
 10
-0.0175699869791667
 20
0.4768012152777778
 30
0.0
  0
ENDBLK
  5
2D
330
28
100
AcDbEntity
  8
0
100
AcDbBlockEnd
  0
BLOCK
  5
30
330
2E
100
AcDbEntity
  8
0
 62
     7
100
AcDbBlockBegin
  2
AI9-BLK3
 70
     0
 10
0.0
 20
0.0
 30
0.0
  3
AI9-BLK3
  1

  4

  0
SPLINE
  5
32
330
2E
100
AcDbEntity
  8
WOOD
 62
     7
100
AcDbSpline
210
0.0
220
0.0
230
1.0
 70
     8
 71
     3
 72
    11
 73
     7
 74
     0
 42
0.0000000001
 43
0.0000000001
 40
0.0
 40
0.0
 40
0.0
 40
0.0
 40
1.0
 40
1.0
 40
1.0
 40
2.0
 40
2.0
 40
2.0
 40
2.0
 10
-0.2373670789930555
 20
0.4030761718749999
 30
0.0
 10
-0.0447862413194444
 20
0.4440728081597222
 30
0.0
 10
0.1546847873263889
 20
0.2814643012152778
 30
0.0
 10
0.2053276909722222
 20
0.0392740885416667
 30
0.0
 10
0.2559705946180556
 20
-0.2029161241319444
 30
0.0
 10
0.1419379340277778
 20
-0.4327039930555555
 30
0.0
 10
-0.049609375
 20
-0.4737006293402777
 30
0.0
  0
SPLINE
  5
31
330
2E
100
AcDbEntity
  8
WOOD
 62
     7
100
AcDbSpline
210
0.0
220
0.0
230
1.0
 70
    11
 71
     3
 72
    23
 73
    19
 74
     0
 42
0.0000000001
 43
0.0000000001
 40
0.0
 40
0.0
 40
0.0
 40
0.0
 40
1.0
 40
1.0
 40
1.0
 40
2.0
 40
2.0
 40
2.0
 40
3.0
 40
3.0
 40
3.0
 40
4.0
 40
4.0
 40
4.0
 40
5.0
 40
5.0
 40
5.0
 40
6.0
 40
6.0
 40
6.0
 40
6.0
 10
-0.0175699869791667
 20
0.4768012152777778
 30
0.0
 10
-0.0516764322916667
 20
0.4695665147569444
 30
0.0
 10
-0.1536512586805555
 20
0.4389051649305555
 30
0.0
 10
-0.1760443793402778
 20
0.4340820312499999
 30
0.0
 10
-0.3758599175347222
 20
0.3913628472222222
 30
0.0
 10
-0.4947157118055555
 20
0.1536512586805555
 30
0.0
 10
-0.4413167317708333
 20
-0.0974962022569444
 30
0.0
 10
-0.3872287326388889
 20
-0.3482991536458333
 30
0.0
 10
-0.1822455512152778
 20
-0.5167643229166666
 30
0.0
 10
0.0182590060763889
 20
-0.4743896484375
 30
0.0
 10
0.0523654513888889
 20
-0.4668104383680555
 30
0.0
 10
0.1543402777777778
 20
-0.4364935980902777
 30
0.0
 10
0.1767333984375
 20
-0.4316704644097222
 30
0.0
 10
0.3765489366319444
 20
-0.3889512803819444
 30
0.0
 10
0.4950602213541666
 20
-0.1508951822916667
 30
0.0
 10
0.4413167317708333
 20
0.0999077690972222
 30
0.0
 10
0.3879177517361111
 20
0.3510552300347222
 30
0.0
 10
0.1825900607638889
 20
0.5195203993055555
 30
0.0
 10
-0.0175699869791667
 20
0.4768012152777778
 30
0.0
  0
ENDBLK
  5
33
330
2E
100
AcDbEntity
  8
0
100
AcDbBlockEnd
  0
BLOCK
  5
60
330
5E
100
AcDbEntity
  8
0
 62
     7
100
AcDbBlockBegin
  2
AI9-BLK4
 70
     0
 10
0.0
 20
0.0
 30
0.0
  3
AI9-BLK4
  1

  4

  0
LWPOLYLINE
  5
62
330
5E
100
AcDbEntity
  8
WOOD
 62
     7
100
AcDbPolyline
 90
        3
 70
     0
 43
0.0
 10
-0.3259921603732638
 20
-0.2855984157986111
 10
0.3849032931857638
 20
-0.0268717447916667
 10
0.0376376681857639
 20
0.2855984157986111
  0
LINE
  5
61
330
5E
100
AcDbEntity
  8
WOOD
 62
     7
100
AcDbLine
 10
-0.3392557779947916
 20
0.0068901909722222
 30
0.0
 11
-0.3849032931857638
 21
-0.2855984157986111
 31
0.0
  0
ENDBLK
  5
67
330
5E
100
AcDbEntity
  8
0
100
AcDbBlockEnd
  0
BLOCK
  5
80
330
7E
100
AcDbEntity
  8
0
 62
     7
100
AcDbBlockBegin
  2
AI9-BLK5
 70
     0
 10
0.0
 20
0.0
 30
0.0
  3
AI9-BLK5
  1

  4

  0
LINE
  5
84
330
7E
100
AcDbEntity
  8
WOOD
 62
     7
100
AcDbLine
 10
0.0606336805555555
 20
-1.164097764756944
 30
0.0
 11
0.0606336805555555
 21
-2.332674153645833
 31
0.0
  0
LINE
  5
83
330
7E
100
AcDbEntity
  8
WOOD
 62
     7
100
AcDbLine
 10
0.0606336805555555
 20
0.9260416666666665
 30
0.0
 11
0.0606336805555555
 21
-0.5291666666666666
 31
0.0
  0
LINE
  5
82
330
7E
100
AcDbEntity
  8
WOOD
 62
     7
100
AcDbLine
 10
0.0606336805555555
 20
3.175
 30
0.0
 11
0.0606336805555555
 21
1.5347900390625
 31
0.0
  0
SPLINE
  5
81
330
7E
100
AcDbEntity
  8
WOOD
 62
     7
100
AcDbSpline
210
0.0
220
0.0
230
1.0
 70
     8
 71
     3
 72
     8
 73
     4
 74
     0
 42
0.0000000001
 43
0.0000000001
 40
0.0
 40
0.0
 40
0.0
 40
0.0
 40
1.0
 40
1.0
 40
1.0
 40
1.0
 10
0.0606336805555555
 20
-2.636876085069444
 30
0.0
 10
0.0606336805555555
 20
-2.636876085069444
 30
0.0
 10
0.0871609157986111
 20
-3.014114040798611
 30
0.0
 10
-0.0606336805555555
 20
-3.175
 30
0.0
  0
ENDBLK
  5
85
330
7E
100
AcDbEntity
  8
0
100
AcDbBlockEnd
  0
BLOCK
  5
A4
330
A2
100
AcDbEntity
  8
0
 62
     7
100
AcDbBlockBegin
  2
AI9-BLK6
 70
     0
 10
0.0
 20
0.0
 30
0.0
  3
AI9-BLK6
  1

  4

  0
SPLINE
  5
A6
330
A2
100
AcDbEntity
  8
WOOD
 62
     7
100
AcDbSpline
210
0.0
220
0.0
230
1.0
 70
     8
 71
     3
 72
    11
 73
     7
 74
     0
 42
0.0000000001
 43
0.0000000001
 40
0.0
 40
0.0
 40
0.0
 40
0.0
 40
1.0
 40
1.0
 40
1.0
 40
2.0
 40
2.0
 40
2.0
 40
2.0
 10
-0.2373670789930555
 20
0.4030761718749999
 30
0.0
 10
-0.0447862413194444
 20
0.4440728081597222
 30
0.0
 10
0.1546847873263889
 20
0.2814643012152778
 30
0.0
 10
0.2053276909722222
 20
0.0391018337673611
 30
0.0
 10
0.2559705946180556
 20
-0.2029161241319444
 30
0.0
 10
0.1419379340277778
 20
-0.4327039930555555
 30
0.0
 10
-0.049609375
 20
-0.4737006293402777
 30
0.0
  0
SPLINE
  5
A5
330
A2
100
AcDbEntity
  8
WOOD
 62
     7
100
AcDbSpline
210
0.0
220
0.0
230
1.0
 70
    11
 71
     3
 72
    23
 73
    19
 74
     0
 42
0.0000000001
 43
0.0000000001
 40
0.0
 40
0.0
 40
0.0
 40
0.0
 40
1.0
 40
1.0
 40
1.0
 40
2.0
 40
2.0
 40
2.0
 40
3.0
 40
3.0
 40
3.0
 40
4.0
 40
4.0
 40
4.0
 40
5.0
 40
5.0
 40
5.0
 40
6.0
 40
6.0
 40
6.0
 40
6.0
 10
-0.0175699869791667
 20
0.4768012152777778
 30
0.0
 10
-0.0516764322916667
 20
0.4693942599826388
 30
0.0
 10
-0.1536512586805555
 20
0.4389051649305555
 30
0.0
 10
-0.1760443793402778
 20
0.4340820312499999
 30
0.0
 10
-0.3758599175347222
 20
0.3913628472222222
 30
0.0
 10
-0.4947157118055555
 20
0.15347900390625
 30
0.0
 10
-0.4413167317708333
 20
-0.0974962022569444
 30
0.0
 10
-0.3872287326388889
 20
-0.3484714084201389
 30
0.0
 10
-0.1822455512152778
 20
-0.5169365776909721
 30
0.0
 10
0.0182590060763889
 20
-0.4743896484375
 30
0.0
 10
0.0523654513888889
 20
-0.4669826931423611
 30
0.0
 10
0.1543402777777778
 20
-0.4364935980902777
 30
0.0
 10
0.1767333984375
 20
-0.4316704644097222
 30
0.0
 10
0.3765489366319444
 20
-0.3889512803819444
 30
0.0
 10
0.4950602213541666
 20
-0.1510674370659722
 30
0.0
 10
0.4413167317708333
 20
0.0999077690972222
 30
0.0
 10
0.3879177517361111
 20
0.3508829752604166
 30
0.0
 10
0.1825900607638889
 20
0.5195203993055555
 30
0.0
 10
-0.0175699869791667
 20
0.4768012152777778
 30
0.0
  0
ENDBLK
  5
A7
330
A2
100
AcDbEntity
  8
0
100
AcDbBlockEnd
  0
ENDSEC
  0
SECTION
  2
ENTITIES
  0
LWPOLYLINE
  5
11B
330
A
100
AcDbEntity
  8
WOOD
 62
     7
100
AcDbPolyline
 90
        9
 70
     0
 43
0.0
 10
113.1658745659722
 20
169.9672309027778
 10
135.7901611328125
 20
164.382903374566
 10
135.7901611328125
 20
147.292473687066
 10
134.722181532118
 20
146.4797756618924
 10
137.1650987413194
 20
144.2168646918403
 10
135.7901611328125
 20
143.1351047092014
 10
135.7901611328125
 20
126.1631863064236
 10
129.7832926432292
 20
121.1092312282986
 10
112.4820231119792
 20
127.5653401692708
  0
LWPOLYLINE
  5
110
330
A
100
AcDbEntity
  8
WOOD
 62
     7
100
AcDbPolyline
 90
        9
 70
     0
 43
0.0
 10
84.66425509982638
 20
137.9461018880208
 10
78.7827880859375
 20
140.1409722222222
 10
78.7827880859375
 20
155.7513888888889
 10
79.81597222222221
 20
156.1923611111111
 10
77.69930555555555
 20
158.3972222222222
 10
78.7827880859375
 20
158.9263888888889
 10
78.7827880859375
 20
173.9149658203125
 10
86.07777777777777
 20
176.6534722222222
 10
106.0973999023437
 20
171.7119995117187
  0
LWPOLYLINE
  5
108
330
A
100
AcDbEntity
  8
WOOD
 62
     7
100
AcDbPolyline
 90
        6
 70
     0
 43
0.0
 10
129.7815700954861
 20
121.1164659288194
 10
129.7815700954861
 20
139.0275173611111
 10
131.1093098958333
 20
139.4543646918403
 10
128.4545193142361
 20
142.1098442925347
 10
129.6544460720486
 20
142.568903266059
 10
129.6544460720486
 20
160.8232584635417
  0
LWPOLYLINE
  5
103
330
A
100
AcDbEntity
  8
WOOD
 62
     7
100
AcDbPolyline
 90
        3
 70
     0
 43
0.0
 10
115.6701144748264
 20
164.3963392469618
 10
129.668226453993
 20
160.8024156358507
 10
135.7884385850694
 20
164.3803195529514
  0
LINE
  5
102
330
A
100
AcDbEntity
  8
WOOD
 62
     7
100
AcDbLine
 10
111.3227484809028
 20
165.5125501844618
 30
0.0
 11
114.0050998263889
 21
164.8238755967882
 31
0.0
  0
LINE
  5
101
330
A
100
AcDbEntity
  8
WOOD
 62
     7
100
AcDbLine
 10
79.02652859157985
 20
173.8048950195312
 30
0.0
 11
99.06113688151041
 21
168.6608506944444
 31
0.0
  0
LWPOLYLINE
  5
FC
330
A
100
AcDbEntity
  8
WOOD
 62
     7
100
AcDbPolyline
 90
        3
 70
     0
 43
0.0
 10
134.722181532118
 20
146.4797756618924
 10
129.668226453993
 20
142.5685587565104
 10
128.4545193142361
 20
142.1098442925347
  0
LWPOLYLINE
  5
F7
330
A
100
AcDbEntity
  8
WOOD
 62
     7
100
AcDbPolyline
 90
        3
 70
     0
 43
0.0
 10
135.774658203125
 20
143.1209798177083
 10
131.1110324435764
 20
139.4615993923611
 10
129.7815700954861
 20
139.0275173611111
  0
LINE
  5
F6
330
A
100
AcDbEntity
  8
WOOD
 62
     7
100
AcDbLine
 10
89.07638888888889
 20
154.8694444444444
 30
0.0
 11
86.60694444444444
 21
155.575
 31
0.0
  0
LWPOLYLINE
  5
E3
330
A
100
AcDbEntity
  8
WOOD
 62
     7
100
AcDbPolyline
 90
       17
 70
     0
 43
0.0
 10
109.3125352647569
 20
133.7506646050347
 10
88.92273763020833
 20
119.5985568576389
 10
82.6371609157986
 20
122.3256944444444
 10
82.6371609157986
 20
127.0881944444444
 10
84.66563313802082
 20
128.3229166666667
 10
84.66563313802082
 20
138.509375
 10
83.43194444444444
 20
139.7
 10
86.65104166666666
 20
142.7868055555555
 10
84.66563313802082
 20
144.5067694769965
 10
84.66563313802082
 20
156.1925333658854
 10
82.6371609157986
 20
156.8098944769965
 10
82.6371609157986
 20
161.4840277777778
 10
107.3326388888889
 20
172.24375
 10
113.1682861328125
 20
170.8794921875
 10
113.1682861328125
 20
166.8275431315104
 10
111.3162027994792
 20
165.8717013888889
 10
111.3162027994792
 20
161.2352918836805
  0
LWPOLYLINE
  5
DE
330
A
100
AcDbEntity
  8
WOOD
 62
     7
100
AcDbPolyline
 90
        3
 70
     0
 43
0.0
 10
82.6371609157986
 20
161.4840277777778
 10
89.07638888888889
 20
159.6319444444444
 10
113.1682861328125
 20
170.8794921875
  0
LWPOLYLINE
  5
D9
330
A
100
AcDbEntity
  8
WOOD
 62
     7
100
AcDbPolyline
 90
        3
 70
     0
 43
0.0
 10
86.57077094184027
 20
125.5372124565972
 10
88.91378038194443
 20
124.61875
 10
109.9688259548611
 20
138.4091227213542
  0
LINE
  5
D8
330
A
100
AcDbEntity
  8
WOOD
 62
     7
100
AcDbLine
 10
82.6371609157986
 20
127.0881944444444
 30
0.0
 11
84.65495334201388
 21
126.282386610243
 31
0.0
  0
LINE
  5
D7
330
A
100
AcDbEntity
  8
WOOD
 62
     7
100
AcDbLine
 10
83.43194444444444
 20
139.7
 30
0.0
 11
85.15173611111111
 21
139.0826388888889
 31
0.0
  0
LINE
  5
D6
330
A
100
AcDbEntity
  8
WOOD
 62
     7
100
AcDbLine
 10
84.66666666666666
 20
138.509375
 30
0.0
 11
86.60694444444444
 21
137.8038194444444
 31
0.0
  0
LWPOLYLINE
  5
CE
330
A
100
AcDbEntity
  8
WOOD
 62
     7
100
AcDbPolyline
 90
        6
 70
     0
 43
0.0
 10
85.17722981770832
 20
157.7102701822917
 10
85.15242513020833
 20
144.3412326388889
 10
87.09201388888889
 20
142.6545138888889
 10
83.80677083333333
 20
139.5677083333333
 10
85.14088406032985
 20
138.3384982638889
 10
85.1143568250868
 20
124.190869140625
  0
LINE
  5
CD
330
A
100
AcDbEntity
  8
WOOD
 62
     7
100
AcDbLine
 10
89.07638888888889
 20
154.8694444444444
 30
0.0
 11
111.4136990017361
 21
165.9149373372396
 31
0.0
  0
LINE
  5
CC
330
A
100
AcDbEntity
  8
WOOD
 62
     7
100
AcDbLine
 10
89.03229166666665
 20
154.8696166992187
 30
0.0
 11
89.03229166666665
 21
159.6319444444444
 31
0.0
  0
LINE
  5
CB
330
A
100
AcDbEntity
  8
WOOD
 62
     7
100
AcDbLine
 10
88.91705322265624
 20
119.6164713541667
 30
0.0
 11
88.91705322265624
 21
124.6132378472222
 31
0.0
  0
LINE
  5
CA
330
A
100
AcDbEntity
  8
WOOD
 62
     7
100
AcDbLine
 10
84.66666666666666
 20
144.5065972222222
 30
0.0
 11
86.60694444444444
 21
143.8451388888889
 31
0.0
  0
LINE
  5
C9
330
A
100
AcDbEntity
  8
WOOD
 62
     7
100
AcDbLine
 10
86.65104166666666
 20
142.7868055555555
 30
0.0
 11
88.503125
 21
142.1253472222222
 31
0.0
  0
LWPOLYLINE
  5
C1
330
A
100
AcDbEntity
  8
WOOD
 62
     7
100
AcDbPolyline
 90
        6
 70
     0
 43
0.0
 10
86.14736870659722
 20
157.4456868489583
 10
86.1220472547743
 20
144.016015625
 10
88.05664062499999
 20
142.2851996527778
 10
84.74383680555555
 20
139.2369791666667
 10
86.11102294921874
 20
137.9808973524305
 10
86.08449571397568
 20
123.7612657335069
  0
LWPOLYLINE
  5
B9
330
A
100
AcDbEntity
  8
WOOD
 62
     7
100
AcDbPolyline
 90
        6
 70
     0
 43
0.0
 10
85.66229926215277
 20
157.577978515625
 10
85.63732231987846
 20
144.1758680555556
 10
87.54952256944443
 20
142.478125
 10
84.29184027777777
 20
139.3968315972222
 10
85.62578124999999
 20
138.1565972222222
 10
85.59942626953124
 20
123.9817518446181
  0
LINE
  5
B8
330
A
100
AcDbEntity
  8
WOOD
 62
     7
100
AcDbLine
 10
86.56284722222222
 20
125.5447916666667
 30
0.0
 11
109.990185546875
 21
140.4996066623264
 31
0.0
  0
LINE
  5
B7
330
A
100
AcDbEntity
  8
WOOD
 62
     7
100
AcDbLine
 10
82.63819444444444
 20
160.8446180555555
 30
0.0
 11
89.03229166666665
 21
158.9704861111111
 31
0.0
  0
LINE
  5
B6
330
A
100
AcDbEntity
  8
WOOD
 62
     7
100
AcDbLine
 10
82.63819444444444
 20
160.1390625
 30
0.0
 11
89.03229166666665
 21
158.2649305555555
 31
0.0
  0
LINE
  5
B5
330
A
100
AcDbEntity
  8
WOOD
 62
     7
100
AcDbLine
 10
82.63819444444444
 20
159.4335069444444
 30
0.0
 11
89.03229166666665
 21
157.559375
 31
0.0
  0
LINE
  5
B4
330
A
100
AcDbEntity
  8
WOOD
 62
     7
100
AcDbLine
 10
82.63819444444444
 20
158.7279513888889
 30
0.0
 11
89.03229166666665
 21
156.8538194444444
 31
0.0
  0
LINE
  5
B3
330
A
100
AcDbEntity
  8
WOOD
 62
     7
100
AcDbLine
 10
86.6491468641493
 20
156.8469292534722
 30
0.0
 11
89.03229166666665
 21
156.1482638888889
 31
0.0
  0
LINE
  5
B2
330
A
100
AcDbEntity
  8
WOOD
 62
     7
100
AcDbLine
 10
82.63819444444444
 20
158.0223958333333
 30
0.0
 11
84.68750949435763
 21
157.4219156901042
 31
0.0
  0
LINE
  5
B1
330
A
100
AcDbEntity
  8
WOOD
 62
     7
100
AcDbLine
 10
86.6491468641493
 20
156.1412014431423
 30
0.0
 11
89.03229166666665
 21
155.4427083333333
 31
0.0
  0
LINE
  5
B0
330
A
100
AcDbEntity
  8
WOOD
 62
     7
100
AcDbLine
 10
82.63819444444444
 20
157.3168402777778
 30
0.0
 11
84.71300320095486
 21
156.7086086697049
 31
0.0
  0
LINE
  5
AF
330
A
100
AcDbEntity
  8
WOOD
 62
     7
100
AcDbLine
 10
82.65283610026042
 20
122.9578694661458
 30
0.0
 11
88.91998155381944
 21
120.3144476996528
 31
0.0
  0
LINE
  5
AE
330
A
100
AcDbEntity
  8
WOOD
 62
     7
100
AcDbLine
 10
82.65283610026042
 20
123.6634250217014
 30
0.0
 11
88.91653645833333
 21
121.0234483506944
 31
0.0
  0
LINE
  5
AD
330
A
100
AcDbEntity
  8
WOOD
 62
     7
100
AcDbLine
 10
82.65283610026042
 20
124.3689805772569
 30
0.0
 11
88.91653645833333
 21
121.72900390625
 31
0.0
  0
LINE
  5
AC
330
A
100
AcDbEntity
  8
WOOD
 62
     7
100
AcDbLine
 10
82.65283610026042
 20
125.0745361328125
 30
0.0
 11
88.91653645833333
 21
122.4345594618056
 31
0.0
  0
LINE
  5
AB
330
A
100
AcDbEntity
  8
WOOD
 62
     7
100
AcDbLine
 10
86.57800564236111
 20
124.1199001736111
 30
0.0
 11
88.91998155381944
 21
123.1228895399305
 31
0.0
  0
LINE
  5
AA
330
A
100
AcDbEntity
  8
WOOD
 62
     7
100
AcDbLine
 10
82.65283610026042
 20
125.7800916883681
 30
0.0
 11
84.69732801649305
 21
124.9153727213542
 31
0.0
  0
LINE
  5
A9
330
A
100
AcDbEntity
  8
WOOD
 62
     7
100
AcDbLine
 10
86.5654310438368
 20
124.8309678819444
 30
0.0
 11
88.91998155381944
 21
123.8387803819444
 31
0.0
  0
LINE
  5
A8
330
A
100
AcDbEntity
  8
WOOD
 62
     7
100
AcDbLine
 10
82.65283610026042
 20
126.4856472439236
 30
0.0
 11
84.65495334201388
 21
125.6305745442708
 31
0.0
  0
INSERT
  5
A3
330
A
100
AcDbEntity
  8
WOOD
 62
     7
100
AcDbBlockReference
  2
AI9-BLK6
 10
115.9284966362847
 20
159.615924750434
 30
0.0
  0
SPLINE
  5
A1
330
A
100
AcDbEntity
  8
WOOD
 62
     7
100
AcDbSpline
210
0.0
220
0.0
230
1.0
 70
     8
 71
     3
 72
    14
 73
    10
 74
     0
 42
0.0000000001
 43
0.0000000001
 40
0.0
 40
0.0
 40
0.0
 40
0.0
 40
1.0
 40
1.0
 40
1.0
 40
2.0
 40
2.0
 40
2.0
 40
3.0
 40
3.0
 40
3.0
 40
3.0
 10
108.6007785373264
 20
124.9901312934028
 30
0.0
 10
108.6707139756944
 20
125.0393961588542
 30
0.0
 10
108.7117106119792
 20
125.0642008463542
 30
0.0
 10
108.7461615668403
 20
125.091761610243
 30
0.0
 10
108.7802680121528
 20
125.1213894314236
 30
0.0
 10
108.8129964192708
 20
125.2161295572917
 30
0.0
 10
108.8129964192708
 20
125.2629828559028
 30
0.0
 10
108.8129964192708
 20
125.2919216579861
 30
0.0
 10
108.8129964192708
 20
127.6042697482639
 30
0.0
 10
108.8129964192708
 20
129.3157931857639
 30
0.0
  0
SPLINE
  5
A0
330
A
100
AcDbEntity
  8
WOOD
 62
     7
100
AcDbSpline
210
0.0
220
0.0
230
1.0
 70
     8
 71
     3
 72
    44
 73
    40
 74
     0
 42
0.0000000001
 43
0.0000000001
 40
0.0
 40
0.0
 40
0.0
 40
0.0
 40
1.0
 40
1.0
 40
1.0
 40
2.0
 40
2.0
 40
2.0
 40
3.0
 40
3.0
 40
3.0
 40
4.0
 40
4.0
 40
4.0
 40
5.0
 40
5.0
 40
5.0
 40
6.0
 40
6.0
 40
6.0
 40
7.0
 40
7.0
 40
7.0
 40
8.0
 40
8.0
 40
8.0
 40
9.0
 40
9.0
 40
9.0
 40
10.0
 40
10.0
 40
10.0
 40
11.0
 40
11.0
 40
11.0
 40
12.0
 40
12.0
 40
12.0
 40
13.0
 40
13.0
 40
13.0
 40
13.0
 10
108.8908555772569
 20
124.7658555772569
 30
0.0
 10
109.1554389105903
 20
124.8833333333333
 30
0.0
 10
109.2222737630208
 20
125.2454128689236
 30
0.0
 10
109.2222737630208
 20
125.3535888671875
 30
0.0
 10
109.2222737630208
 20
125.4610758463542
 30
0.0
 10
109.2222737630208
 20
130.8433485243056
 30
0.0
 10
109.2222737630208
 20
130.8433485243056
 30
0.0
 10
109.2222737630208
 20
130.8433485243056
 30
0.0
 10
109.1892008463542
 20
131.4431396484375
 30
0.0
 10
109.3779920789931
 20
132.1452501085069
 30
0.0
 10
109.3986626519097
 20
132.2217312282986
 30
0.0
 10
110.2874972873264
 20
136.2156304253472
 30
0.0
 10
110.2971435546875
 20
136.2469807942708
 30
0.0
 10
110.4590630425347
 20
136.7699462890625
 30
0.0
 10
110.4046305338542
 20
137.1933485243056
 30
0.0
 10
110.4046305338542
 20
137.1933485243056
 30
0.0
 10
110.4046305338542
 20
137.1933485243056
 30
0.0
 10
110.4046305338542
 20
141.179840766059
 30
0.0
 10
110.4046305338542
 20
141.179840766059
 30
0.0
 10
110.4046305338542
 20
141.179840766059
 30
0.0
 10
110.3887830946181
 20
141.7090074327257
 30
0.0
 10
110.5892876519097
 20
142.120696343316
 30
0.0
 10
110.8097737630208
 20
142.573381890191
 30
0.0
 10
111.0619547526042
 20
143.2734252929687
 30
0.0
 10
111.1277560763889
 20
143.4585991753472
 30
0.0
 10
111.2707275390625
 20
143.8608140733507
 30
0.0
 10
111.2896755642361
 20
144.2842163085937
 30
0.0
 10
111.2896755642361
 20
144.2842163085937
 30
0.0
 10
111.2896755642361
 20
144.2842163085937
 30
0.0
 10
111.2896755642361
 20
160.4525661892361
 30
0.0
 10
111.2896755642361
 20
160.4525661892361
 30
0.0
 10
111.2896755642361
 20
160.4525661892361
 30
0.0
 10
111.7595865885417
 20
161.19326171875
 30
0.0
 10
111.7595865885417
 20
161.19326171875
 30
0.0
 10
111.7595865885417
 20
161.19326171875
 30
0.0
 10
113.2675048828125
 20
162.35908203125
 30
0.0
 10
113.2675048828125
 20
162.35908203125
 30
0.0
 10
113.2675048828125
 20
162.35908203125
 30
0.0
 10
114.301722547743
 20
162.9056464301215
 30
0.0
 10
114.301722547743
 20
162.9056464301215
 30
0.0
  0
LINE
  5
9F
330
A
100
AcDbEntity
  8
WOOD
 62
     7
100
AcDbLine
 10
113.1300455729167
 20
162.6856770833333
 30
0.0
 11
113.3184922960069
 21
162.3931884765625
 31
0.0
  0
LINE
  5
9E
330
A
100
AcDbEntity
  8
WOOD
 62
     7
100
AcDbLine
 10
111.4974148220486
 20
161.4380357530382
 30
0.0
 11
111.7571750217014
 21
161.1843044704861
 31
0.0
  0
LINE
  5
9D
330
A
100
AcDbEntity
  8
WOOD
 62
     7
100
AcDbLine
 10
111.6793158637153
 20
160.5991550021701
 30
0.0
 11
112.7786458333333
 21
161.1433078342014
 31
0.0
  0
LINE
  5
9C
330
A
100
AcDbEntity
  8
WOOD
 62
     7
100
AcDbLine
 10
114.3189480251736
 20
164.8915717230903
 30
0.0
 11
115.075146484375
 21
164.6931342230903
 31
0.0
  0
LWPOLYLINE
  5
97
330
A
100
AcDbEntity
  8
WOOD
 62
     7
100
AcDbPolyline
 90
        3
 70
     0
 43
0.0
 10
114.0054443359375
 20
163.7639919704861
 10
114.0054443359375
 20
163.4565171983507
 10
113.6044352213542
 20
163.5564249674479
  0
SPLINE
  5
96
330
A
100
AcDbEntity
  8
WOOD
 62
     7
100
AcDbSpline
210
0.0
220
0.0
230
1.0
 70
     8
 71
     3
 72
    38
 73
    34
 74
     0
 42
0.0000000001
 43
0.0000000001
 40
0.0
 40
0.0
 40
0.0
 40
0.0
 40
1.0
 40
1.0
 40
1.0
 40
2.0
 40
2.0
 40
2.0
 40
3.0
 40
3.0
 40
3.0
 40
4.0
 40
4.0
 40
4.0
 40
5.0
 40
5.0
 40
5.0
 40
6.0
 40
6.0
 40
6.0
 40
7.0
 40
7.0
 40
7.0
 40
8.0
 40
8.0
 40
8.0
 40
9.0
 40
9.0
 40
9.0
 40
10.0
 40
10.0
 40
10.0
 40
11.0
 40
11.0
 40
11.0
 40
11.0
 10
116.9310194227431
 20
166.05498046875
 30
0.0
 10
116.9310194227431
 20
166.05498046875
 30
0.0
 10
115.7338487413194
 20
165.2104153103298
 30
0.0
 10
115.6287733289931
 20
165.1430636935764
 30
0.0
 10
115.5236979166667
 20
165.0760565863715
 30
0.0
 10
115.3200927734375
 20
164.932568359375
 30
0.0
 10
115.3200927734375
 20
164.6776312934028
 30
0.0
 10
115.3200927734375
 20
164.4213161892361
 30
0.0
 10
115.3200927734375
 20
163.1859049479166
 30
0.0
 10
115.3200927734375
 20
163.1859049479166
 30
0.0
 10
115.3200927734375
 20
163.1859049479166
 30
0.0
 10
115.9960205078125
 20
162.9936686197917
 30
0.0
 10
115.9960205078125
 20
162.9936686197917
 30
0.0
 10
115.9960205078125
 20
162.9936686197917
 30
0.0
 10
116.7277587890625
 20
161.839906141493
 30
0.0
 10
116.7277587890625
 20
161.839906141493
 30
0.0
 10
116.7277587890625
 20
161.839906141493
 30
0.0
 10
116.7277587890625
 20
144.3901529947917
 30
0.0
 10
116.7277587890625
 20
144.3901529947917
 30
0.0
 10
116.7277587890625
 20
144.3901529947917
 30
0.0
 10
116.738783094618
 20
143.931438530816
 30
0.0
 10
116.5269097222222
 20
143.7197374131944
 30
0.0
 10
116.5058946397569
 20
143.6987223307291
 30
0.0
 10
115.9670817057292
 20
143.1611151801215
 30
0.0
 10
115.9622585720486
 20
143.1554307725694
 30
0.0
 10
115.6962972005208
 20
142.8309027777778
 30
0.0
 10
115.7338487413194
 20
142.4145629882812
 30
0.0
 10
115.7338487413194
 20
142.4145629882812
 30
0.0
 10
115.7338487413194
 20
142.4145629882812
 30
0.0
 10
115.7338487413194
 20
138.7457085503472
 30
0.0
 10
115.7338487413194
 20
138.7457085503472
 30
0.0
 10
115.7338487413194
 20
138.7457085503472
 30
0.0
 10
115.7452175564236
 20
138.155908203125
 30
0.0
 10
115.5743408203125
 20
137.8637641059028
 30
0.0
  0
LINE
  5
95
330
A
100
AcDbEntity
  8
WOOD
 62
     7
100
AcDbLine
 10
113.2516574435764
 20
159.8951497395833
 30
0.0
 11
113.2516574435764
 21
159.5823350694444
 31
0.0
  0
LINE
  5
94
330
A
100
AcDbEntity
  8
WOOD
 62
     7
100
AcDbLine
 10
113.2516574435764
 20
159.2900187174479
 30
0.0
 11
113.2516574435764
 21
136.7727023654514
 31
0.0
  0
LINE
  5
93
330
A
100
AcDbEntity
  8
WOOD
 62
     7
100
AcDbLine
 10
113.2516574435764
 20
136.3961534288195
 30
0.0
 11
113.2516574435764
 21
136.0082356770833
 31
0.0
  0
SPLINE
  5
92
330
A
100
AcDbEntity
  8
WOOD
 62
     7
100
AcDbSpline
210
0.0
220
0.0
230
1.0
 70
     8
 71
     3
 72
    35
 73
    31
 74
     0
 42
0.0000000001
 43
0.0000000001
 40
0.0
 40
0.0
 40
0.0
 40
0.0
 40
1.0
 40
1.0
 40
1.0
 40
2.0
 40
2.0
 40
2.0
 40
3.0
 40
3.0
 40
3.0
 40
4.0
 40
4.0
 40
4.0
 40
5.0
 40
5.0
 40
5.0
 40
6.0
 40
6.0
 40
6.0
 40
7.0
 40
7.0
 40
7.0
 40
8.0
 40
8.0
 40
8.0
 40
9.0
 40
9.0
 40
9.0
 40
10.0
 40
10.0
 40
10.0
 40
10.0
 10
115.1188991970486
 20
159.1763305664062
 30
0.0
 10
115.1188991970486
 20
159.1763305664062
 30
0.0
 10
115.1188991970486
 20
156.4357571072048
 30
0.0
 10
115.1188991970486
 20
156.36875
 30
0.0
 10
115.1188991970486
 20
156.3019151475694
 30
0.0
 10
115.0892713758681
 20
156.2679809570312
 30
0.0
 10
115.0272596571181
 20
156.1873657226562
 30
0.0
 10
114.98212890625
 20
156.1282823350694
 30
0.0
 10
114.847425672743
 20
155.9711859809028
 30
0.0
 10
114.7881700303819
 20
155.9711859809028
 30
0.0
 10
114.7292588975694
 20
155.9711859809028
 30
0.0
 10
114.5725070529514
 20
156.1703125
 30
0.0
 10
114.4898247612847
 20
156.2529947916667
 30
0.0
 10
114.4078314887153
 20
156.3349880642361
 30
0.0
 10
114.4174777560764
 20
156.4474704318576
 30
0.0
 10
114.4174777560764
 20
156.5298082139757
 30
0.0
 10
114.4174777560764
 20
156.6260986328125
 30
0.0
 10
114.4243679470486
 20
156.6131795247396
 30
0.0
 10
114.4243679470486
 20
159.3037990993923
 30
0.0
 10
114.4243679470486
 20
159.3037990993923
 30
0.0
 10
114.4229899088542
 20
159.2986314561632
 30
0.0
 10
114.4229899088542
 20
159.2986314561632
 30
0.0
 10
114.4229899088542
 20
157.3585259331597
 30
0.0
 10
114.4229899088542
 20
157.3628323025174
 30
0.0
 10
114.4229899088542
 20
157.2865234375
 30
0.0
 10
114.4229899088542
 20
157.2203776041667
 30
0.0
 10
114.4326361762153
 20
157.1237426757812
 30
0.0
 10
114.4970594618056
 20
157.0968709309896
 30
0.0
 10
114.5614827473958
 20
157.0715494791667
 30
0.0
 10
115.1171766493056
 20
156.8979166666667
 30
0.0
 10
115.1171766493056
 20
156.8979166666667
 30
0.0
  0
SPLINE
  5
91
330
A
100
AcDbEntity
  8
WOOD
 62
     7
100
AcDbSpline
210
0.0
220
0.0
230
1.0
 70
    11
 71
     3
 72
    23
 73
    19
 74
     0
 42
0.0000000001
 43
0.0000000001
 40
0.0
 40
0.0
 40
0.0
 40
0.0
 40
1.0
 40
1.0
 40
1.0
 40
2.0
 40
2.0
 40
2.0
 40
3.0
 40
3.0
 40
3.0
 40
4.0
 40
4.0
 40
4.0
 40
5.0
 40
5.0
 40
5.0
 40
6.0
 40
6.0
 40
6.0
 40
6.0
 10
111.3186143663194
 20
142.0573065863715
 30
0.0
 10
111.2352430555555
 20
141.9406901041667
 30
0.0
 10
111.0281928168403
 20
141.6299424913194
 30
0.0
 10
110.9772054036458
 20
141.54794921875
 30
0.0
 10
110.9275960286458
 20
141.4652669270833
 30
0.0
 10
110.8042616102431
 20
141.3157497829861
 30
0.0
 10
111.0102783203125
 20
141.2404744466146
 30
0.0
 10
111.0888264973958
 20
141.2115356445312
 30
0.0
 10
111.2975992838542
 20
141.1462510850694
 30
0.0
 10
111.4154215494792
 20
141.1123168945312
 30
0.0
 10
111.498792860243
 20
141.0883734809028
 30
0.0
 10
111.5542588975694
 20
141.1040486653646
 30
0.0
 10
111.5542588975694
 20
141.2346177842882
 30
0.0
 10
111.5542588975694
 20
141.3657036675347
 30
0.0
 10
111.5542588975694
 20
141.9427571614583
 30
0.0
 10
111.5542588975694
 20
142.0407701280382
 30
0.0
 10
111.5542588975694
 20
142.1396443684896
 30
0.0
 10
111.4006076388889
 20
142.1739230685764
 30
0.0
 10
111.3186143663194
 20
142.0573065863715
 30
0.0
  0
SPLINE
  5
90
330
A
100
AcDbEntity
  8
WOOD
 62
     7
100
AcDbSpline
210
0.0
220
0.0
230
1.0
 70
     8
 71
     3
 72
    11
 73
     7
 74
     0
 42
0.0000000001
 43
0.0000000001
 40
0.0
 40
0.0
 40
0.0
 40
0.0
 40
1.0
 40
1.0
 40
1.0
 40
2.0
 40
2.0
 40
2.0
 40
2.0
 10
111.2269748263889
 20
141.1717447916666
 30
0.0
 10
111.2276638454861
 20
141.1782904730903
 30
0.0
 10
111.2283528645833
 20
141.2818155924479
 30
0.0
 10
111.2283528645833
 20
141.289222547743
 30
0.0
 10
111.2283528645833
 20
141.3712158203125
 30
0.0
 10
111.2283528645833
 20
141.7987521701389
 30
0.0
 10
111.2283528645833
 20
141.9103732638889
 30
0.0
  0
SPLINE
  5
8F
330
A
100
AcDbEntity
  8
WOOD
 62
     7
100
AcDbSpline
210
0.0
220
0.0
230
1.0
 70
     8
 71
     3
 72
    14
 73
    10
 74
     0
 42
0.0000000001
 43
0.0000000001
 40
0.0
 40
0.0
 40
0.0
 40
0.0
 40
1.0
 40
1.0
 40
1.0
 40
2.0
 40
2.0
 40
2.0
 40
3.0
 40
3.0
 40
3.0
 40
3.0
 10
114.797816297743
 20
163.8983506944444
 30
0.0
 10
114.7974717881944
 20
163.8936998155382
 30
0.0
 10
114.79609375
 20
163.74814453125
 30
0.0
 10
114.79609375
 20
163.7431491427951
 30
0.0
 10
114.79609375
 20
163.5572862413194
 30
0.0
 10
114.8071180555556
 20
163.5416110568576
 30
0.0
 10
114.8071180555556
 20
163.2951144748264
 30
0.0
 10
114.8071180555556
 20
163.1833211263021
 30
0.0
 10
114.8960015190972
 20
163.0834133572049
 30
0.0
 10
114.9614583333333
 20
163.0494791666667
 30
0.0
  0
LINE
  5
8E
330
A
100
AcDbEntity
  8
WOOD
 62
     7
100
AcDbLine
 10
115.9980875651042
 20
162.997802734375
 30
0.0
 11
116.2716281467014
 21
163.2053697374132
 31
0.0
  0
LINE
  5
8D
330
A
100
AcDbEntity
  8
WOOD
 62
     7
100
AcDbLine
 10
116.7301703559028
 20
161.8357720269097
 30
0.0
 11
117.1105088975694
 21
161.9721978081597
 31
0.0
  0
SPLINE
  5
8C
330
A
100
AcDbEntity
  8
WOOD
 62
     7
100
AcDbSpline
210
0.0
220
0.0
230
1.0
 70
     8
 71
     3
 72
    11
 73
     7
 74
     0
 42
0.0000000001
 43
0.0000000001
 40
0.0
 40
0.0
 40
0.0
 40
0.0
 40
1.0
 40
1.0
 40
1.0
 40
2.0
 40
2.0
 40
2.0
 40
2.0
 10
112.4124321831597
 20
127.4089328342014
 30
0.0
 10
112.4124321831597
 20
127.4089328342014
 30
0.0
 10
112.428968641493
 20
135.32197265625
 30
0.0
 10
112.4124321831597
 20
135.5262668185764
 30
0.0
 10
112.3731580946181
 20
136.0292507595486
 30
0.0
 10
111.976283094618
 20
135.8969590928819
 30
0.0
 10
111.8760308159722
 20
135.675439453125
 30
0.0
  0
SPLINE
  5
8B
330
A
100
AcDbEntity
  8
WOOD
 62
     7
100
AcDbSpline
210
0.0
220
0.0
230
1.0
 70
     8
 71
     3
 72
     8
 73
     4
 74
     0
 42
0.0000000001
 43
0.0000000001
 40
0.0
 40
0.0
 40
0.0
 40
0.0
 40
1.0
 40
1.0
 40
1.0
 40
1.0
 10
111.8898111979167
 20
129.0973741319444
 30
0.0
 10
111.8894666883681
 20
128.3649468315972
 30
0.0
 10
111.8887776692708
 20
127.8691975911458
 30
0.0
 10
111.8887776692708
 20
127.8691975911458
 30
0.0
  0
SPLINE
  5
8A
330
A
100
AcDbEntity
  8
WOOD
 62
     7
100
AcDbSpline
210
0.0
220
0.0
230
1.0
 70
     8
 71
     3
 72
     8
 73
     4
 74
     0
 42
0.0000000001
 43
0.0000000001
 40
0.0
 40
0.0
 40
0.0
 40
0.0
 40
1.0
 40
1.0
 40
1.0
 40
1.0
 10
111.8915337456597
 20
130.7906385633681
 30
0.0
 10
111.8911892361111
 20
130.3627577039931
 30
0.0
 10
111.8908447265625
 20
129.9486572265625
 30
0.0
 10
111.8901557074653
 20
129.5731418185764
 30
0.0
  0
SPLINE
  5
89
330
A
100
AcDbEntity
  8
WOOD
 62
     7
100
AcDbSpline
210
0.0
220
0.0
230
1.0
 70
     8
 71
     3
 72
     8
 73
     4
 74
     0
 42
0.0000000001
 43
0.0000000001
 40
0.0
 40
0.0
 40
0.0
 40
0.0
 40
1.0
 40
1.0
 40
1.0
 40
1.0
 10
111.8925672743056
 20
132.9334879557292
 30
0.0
 10
111.8922227647569
 20
132.4236138237847
 30
0.0
 10
111.8918782552083
 20
131.8682644314236
 30
0.0
 10
111.8915337456597
 20
131.3184271918403
 30
0.0
  0
SPLINE
  5
88
330
A
100
AcDbEntity
  8
WOOD
 62
     7
100
AcDbSpline
210
0.0
220
0.0
230
1.0
 70
     8
 71
     3
 72
     8
 73
     4
 74
     0
 42
0.0000000001
 43
0.0000000001
 40
0.0
 40
0.0
 40
0.0
 40
0.0
 40
1.0
 40
1.0
 40
1.0
 40
1.0
 10
111.8887776692708
 20
135.1276692708333
 30
0.0
 10
111.8915337456597
 20
135.1276692708333
 30
0.0
 10
111.8922227647569
 20
134.4279703776042
 30
0.0
 10
111.8925672743056
 20
133.4626546223958
 30
0.0
  0
SPLINE
  5
87
330
A
100
AcDbEntity
  8
WOOD
 62
     7
100
AcDbSpline
210
0.0
220
0.0
230
1.0
 70
     8
 71
     3
 72
     8
 73
     4
 74
     0
 42
0.0000000001
 43
0.0000000001
 40
0.0
 40
0.0
 40
0.0
 40
0.0
 40
1.0
 40
1.0
 40
1.0
 40
1.0
 10
111.8887776692708
 20
127.3855061848958
 30
0.0
 10
111.8887776692708
 20
127.3855061848958
 30
0.0
 10
111.8967013888889
 20
127.1126546223958
 30
0.0
 10
111.7644097222222
 20
126.9541802300347
 30
0.0
  0
SPLINE
  5
86
330
A
100
AcDbEntity
  8
WOOD
 62
     7
100
AcDbSpline
210
0.0
220
0.0
230
1.0
 70
     8
 71
     3
 72
    11
 73
     7
 74
     0
 42
0.0000000001
 43
0.0000000001
 40
0.0
 40
0.0
 40
0.0
 40
0.0
 40
1.0
 40
1.0
 40
1.0
 40
2.0
 40
2.0
 40
2.0
 40
2.0
 10
110.5582817925347
 20
125.9306423611111
 30
0.0
 10
110.5355441623264
 20
125.9309868706597
 30
0.0
 10
110.5596598307292
 20
132.0949517144097
 30
0.0
 10
110.5582817925347
 20
132.1004638671875
 30
0.0
 10
110.4824896918403
 20
132.51904296875
 30
0.0
 10
110.0993950737847
 20
132.2703070746528
 30
0.0
 10
110.1117974175347
 20
132.2544596354167
 30
0.0
  0
INSERT
  5
7F
330
A
100
AcDbEntity
  8
WOOD
 62
     7
100
AcDbBlockReference
  2
AI9-BLK5
 10
109.9316189236111
 20
128.6384874131944
 30
0.0
  0
SPLINE
  5
7D
330
A
100
AcDbEntity
  8
WOOD
 62
     7
100
AcDbSpline
210
0.0
220
0.0
230
1.0
 70
     8
 71
     3
 72
    14
 73
    10
 74
     0
 42
0.0000000001
 43
0.0000000001
 40
0.0
 40
0.0
 40
0.0
 40
0.0
 40
1.0
 40
1.0
 40
1.0
 40
2.0
 40
2.0
 40
2.0
 40
3.0
 40
3.0
 40
3.0
 40
3.0
 10
111.3410074869792
 20
134.7593885633681
 30
0.0
 10
111.2955322265625
 20
134.8782443576389
 30
0.0
 10
111.2355875651042
 20
134.9450792100694
 30
0.0
 10
111.2094048394097
 20
134.9030490451389
 30
0.0
 10
111.1680636935764
 20
134.8372477213542
 30
0.0
 10
111.0199245876736
 20
134.5819661458333
 30
0.0
 10
110.9951199001736
 20
133.8326578776042
 30
0.0
 10
111.002699110243
 20
133.8402370876736
 30
0.0
 10
111.0047661675347
 20
131.4955050998264
 30
0.0
 10
110.9951199001736
 20
131.485169813368
 30
0.0
  0
SPLINE
  5
7C
330
A
100
AcDbEntity
  8
WOOD
 62
     7
100
AcDbSpline
210
0.0
220
0.0
230
1.0
 70
     8
 71
     3
 72
     8
 73
     4
 74
     0
 42
0.0000000001
 43
0.0000000001
 40
0.0
 40
0.0
 40
0.0
 40
0.0
 40
1.0
 40
1.0
 40
1.0
 40
1.0
 10
111.4471164279514
 20
134.0448757595486
 30
0.0
 10
111.4037082248264
 20
134.381117078993
 30
0.0
 10
111.4192111545139
 20
134.3173828125
 30
0.0
 10
111.38544921875
 20
134.4992838541667
 30
0.0
  0
SPLINE
  5
7B
330
A
100
AcDbEntity
  8
WOOD
 62
     7
100
AcDbSpline
210
0.0
220
0.0
230
1.0
 70
    11
 71
     3
 72
    17
 73
    13
 74
     0
 42
0.0000000001
 43
0.0000000001
 40
0.0
 40
0.0
 40
0.0
 40
0.0
 40
1.0
 40
1.0
 40
1.0
 40
2.0
 40
2.0
 40
2.0
 40
3.0
 40
3.0
 40
3.0
 40
4.0
 40
4.0
 40
4.0
 40
4.0
 10
114.5029161241319
 20
163.7159328884549
 30
0.0
 10
114.5029161241319
 20
164.04580078125
 30
0.0
 10
114.9642144097222
 20
163.9913682725694
 30
0.0
 10
114.9642144097222
 20
163.5679660373264
 30
0.0
 10
114.9642144097222
 20
163.1438747829861
 30
0.0
 10
114.9642144097222
 20
163.0653266059028
 30
0.0
 10
114.9642144097222
 20
162.8705064561632
 30
0.0
 10
114.9642144097222
 20
162.5961046006944
 30
0.0
 10
114.5191080729167
 20
162.6973904079861
 30
0.0
 10
114.5191080729167
 20
163.0653266059028
 30
0.0
 10
114.5191080729167
 20
163.4348130967882
 30
0.0
 10
114.5029161241319
 20
163.458412000868
 30
0.0
 10
114.5029161241319
 20
163.7159328884549
 30
0.0
  0
LWPOLYLINE
  5
75
330
A
100
AcDbEntity
  8
WOOD
 62
     7
100
AcDbPolyline
 90
        4
 70
     0
 43
0.0
 10
113.5913438585069
 20
162.9333794487847
 10
114.1384250217014
 20
163.2224229600694
 10
114.3168809678819
 20
162.9115030924479
 10
113.4352810329861
 20
161.529847547743
  0
LINE
  5
74
330
A
100
AcDbEntity
  8
WOOD
 62
     7
100
AcDbLine
 10
111.4732991536458
 20
133.8333468967014
 30
0.0
 11
111.4732991536458
 21
132.0339735243055
 31
0.0
  0
LWPOLYLINE
  5
6F
330
A
100
AcDbEntity
  8
WOOD
 62
     7
100
AcDbPolyline
 90
        3
 70
     1
 43
0.0
 10
110.7326036241319
 20
128.3563340928819
 10
111.3410074869792
 20
128.7793918185764
 10
111.0502414279514
 20
129.2293212890625
  0
LINE
  5
6E
330
A
100
AcDbEntity
  8
WOOD
 62
     7
100
AcDbLine
 10
110.9706597222222
 20
128.9647379557292
 30
0.0
 11
111.3410074869792
 21
128.7793918185764
 31
0.0
  0
LWPOLYLINE
  5
69
330
A
100
AcDbEntity
  8
WOOD
 62
     7
100
AcDbPolyline
 90
        3
 70
     1
 43
0.0
 10
111.1735758463542
 20
130.1791341145833
 10
111.7819797092014
 20
130.6021918402778
 10
111.4912136501736
 20
131.0521213107639
  0
LINE
  5
68
330
A
100
AcDbEntity
  8
WOOD
 62
     7
100
AcDbLine
 10
111.4116319444444
 20
130.7875379774305
 30
0.0
 11
111.7819797092014
 21
130.6021918402778
 31
0.0
  0
INSERT
  5
5F
330
A
100
AcDbEntity
  8
WOOD
 62
     7
100
AcDbBlockReference
  2
AI9-BLK4
 10
104.8898078070747
 20
130.4075439453125
 30
0.0
  0
SPLINE
  5
5D
330
A
100
AcDbEntity
  8
WOOD
 62
     7
100
AcDbSpline
210
0.0
220
0.0
230
1.0
 70
     8
 71
     3
 72
    17
 73
    13
 74
     0
 42
0.0000000001
 43
0.0000000001
 40
0.0
 40
0.0
 40
0.0
 40
0.0
 40
1.0
 40
1.0
 40
1.0
 40
2.0
 40
2.0
 40
2.0
 40
3.0
 40
3.0
 40
3.0
 40
4.0
 40
4.0
 40
4.0
 40
4.0
 10
102.9563340928819
 20
129.2892659505208
 30
0.0
 10
102.9563340928819
 20
129.2892659505208
 30
0.0
 10
102.9563340928819
 20
127.4199571397569
 30
0.0
 10
102.9563340928819
 20
127.4199571397569
 30
0.0
 10
102.9563340928819
 20
127.4199571397569
 30
0.0
 10
102.991301812066
 20
127.2101508246528
 30
0.0
 10
103.1664849175347
 20
127.1050754123264
 30
0.0
 10
103.1664849175347
 20
127.1050754123264
 30
0.0
 10
108.3503200954861
 20
125.0035671657986
 30
0.0
 10
108.3503200954861
 20
125.0035671657986
 30
0.0
 10
108.3503200954861
 20
125.0035671657986
 30
0.0
 10
108.5952663845486
 20
124.9332872178819
 30
0.0
 10
108.7461615668403
 20
125.091761610243
 30
0.0
  0
SPLINE
  5
5C
330
A
100
AcDbEntity
  8
WOOD
 62
     7
100
AcDbSpline
210
0.0
220
0.0
230
1.0
 70
     8
 71
     3
 72
    14
 73
    10
 74
     0
 42
0.0000000001
 43
0.0000000001
 40
0.0
 40
0.0
 40
0.0
 40
0.0
 40
1.0
 40
1.0
 40
1.0
 40
2.0
 40
2.0
 40
2.0
 40
3.0
 40
3.0
 40
3.0
 40
3.0
 10
108.7144666883681
 20
125.7945610894097
 30
0.0
 10
108.7144666883681
 20
125.7945610894097
 30
0.0
 10
103.9517944335938
 20
127.7055555555556
 30
0.0
 10
103.9517944335938
 20
127.7055555555556
 30
0.0
 10
103.9517944335938
 20
127.7055555555556
 30
0.0
 10
103.8048611111111
 20
127.8233778211805
 30
0.0
 10
103.8048611111111
 20
128.1172444661458
 30
0.0
 10
103.8048611111111
 20
128.1172444661458
 30
0.0
 10
103.8048611111111
 20
129.8825113932292
 30
0.0
 10
103.8048611111111
 20
129.8825113932292
 30
0.0
  0
SPLINE
  5
5B
330
A
100
AcDbEntity
  8
WOOD
 62
     7
100
AcDbSpline
210
0.0
220
0.0
230
1.0
 70
     8
 71
     3
 72
    14
 73
    10
 74
     0
 42
0.0000000001
 43
0.0000000001
 40
0.0
 40
0.0
 40
0.0
 40
0.0
 40
1.0
 40
1.0
 40
1.0
 40
2.0
 40
2.0
 40
2.0
 40
3.0
 40
3.0
 40
3.0
 40
3.0
 10
108.8026611328125
 20
128.1758110894097
 30
0.0
 10
108.8026611328125
 20
128.1758110894097
 30
0.0
 10
106.1566555447049
 20
129.1755777994792
 30
0.0
 10
106.1566555447049
 20
129.1755777994792
 30
0.0
 10
106.1566555447049
 20
129.1755777994792
 30
0.0
 10
105.9215277777778
 20
129.2930555555556
 30
0.0
 10
105.9215277777778
 20
129.4987277560764
 30
0.0
 10
105.9215277777778
 20
129.4987277560764
 30
0.0
 10
105.9215277777778
 20
131.2922444661458
 30
0.0
 10
105.9215277777778
 20
131.2922444661458
 30
0.0
  0
LINE
  5
5A
330
A
100
AcDbEntity
  8
WOOD
 62
     7
100
AcDbLine
 10
106.4212388780382
 20
130.2042833116319
 30
0.0
 11
106.4212388780382
 21
131.4390055338542
 31
0.0
  0
SPLINE
  5
59
330
A
100
AcDbEntity
  8
WOOD
 62
     7
100
AcDbSpline
210
0.0
220
0.0
230
1.0
 70
     8
 71
     3
 72
     8
 73
     4
 74
     0
 42
0.0000000001
 43
0.0000000001
 40
0.0
 40
0.0
 40
0.0
 40
0.0
 40
1.0
 40
1.0
 40
1.0
 40
1.0
 10
106.5388888888889
 20
129.4987277560764
 30
0.0
 10
106.5388888888889
 20
129.4987277560764
 30
0.0
 10
106.4212388780382
 20
129.528355577257
 30
0.0
 10
106.4212388780382
 20
129.8222222222222
 30
0.0
  0
LINE
  5
58
330
A
100
AcDbEntity
  8
WOOD
 62
     7
100
AcDbLine
 10
108.1532606336806
 20
128.9330430772569
 30
0.0
 11
106.8108791775174
 21
129.4032986111111
 31
0.0
  0
LINE
  5
57
330
A
100
AcDbEntity
  8
WOOD
 62
     7
100
AcDbLine
 10
108.8026611328125
 20
128.7049777560764
 30
0.0
 11
108.4436821831597
 21
128.8307237413195
 31
0.0
  0
LINE
  5
56
330
A
100
AcDbEntity
  8
WOOD
 62
     7
100
AcDbLine
 10
104.3340277777778
 20
128.5875
 30
0.0
 11
104.3340277777778
 21
129.9986111111111
 31
0.0
  0
SPLINE
  5
55
330
A
100
AcDbEntity
  8
WOOD
 62
     7
100
AcDbSpline
210
0.0
220
0.0
230
1.0
 70
     8
 71
     3
 72
     8
 73
     4
 74
     0
 42
0.0000000001
 43
0.0000000001
 40
0.0
 40
0.0
 40
0.0
 40
0.0
 40
1.0
 40
1.0
 40
1.0
 40
1.0
 10
104.5398722330729
 20
128.0583333333333
 30
0.0
 10
104.5398722330729
 20
128.0583333333333
 30
0.0
 10
104.3340277777778
 20
128.1172444661458
 30
0.0
 10
104.3340277777778
 20
128.3521999782986
 30
0.0
  0
LINE
  5
54
330
A
100
AcDbEntity
  8
WOOD
 62
     7
100
AcDbLine
 10
105.9206665039063
 20
127.5057400173611
 30
0.0
 11
104.8797309027778
 21
127.9222520616319
 31
0.0
  0
LINE
  5
53
330
A
100
AcDbEntity
  8
WOOD
 62
     7
100
AcDbLine
 10
107.5396891276042
 20
126.8580620659722
 30
0.0
 11
106.3273600260417
 21
127.3431315104167
 31
0.0
  0
LINE
  5
52
330
A
100
AcDbEntity
  8
WOOD
 62
     7
100
AcDbLine
 10
108.8026611328125
 20
126.3530110677083
 30
0.0
 11
107.9324300130208
 21
126.7009657118055
 31
0.0
  0
LINE
  5
51
330
A
100
AcDbEntity
  8
WOOD
 62
     7
100
AcDbLine
 10
106.6310451931424
 20
129.4932156032986
 30
0.0
 11
106.9798611111111
 21
129.7047444661458
 31
0.0
  0
LINE
  5
50
330
A
100
AcDbEntity
  8
WOOD
 62
     7
100
AcDbLine
 10
104.5307427300347
 20
128.2195638020833
 30
0.0
 11
105.8715738932292
 21
129.0326063368055
 31
0.0
  0
LINE
  5
4F
330
A
100
AcDbEntity
  8
WOOD
 62
     7
100
AcDbLine
 10
103.2462388780382
 20
127.4409722222222
 30
0.0
 11
103.6298502604167
 21
127.6738606770833
 31
0.0
  0
LWPOLYLINE
  5
46
330
A
100
AcDbEntity
  8
WOOD
 62
     7
100
AcDbPolyline
 90
        7
 70
     0
 43
0.0
 10
108.4185329861111
 20
127.79375
 10
106.8622111002604
 20
127.6762722439236
 10
107.0385999891493
 20
128.1758110894097
 10
108.0087388780382
 20
128.0583333333333
 10
108.1558444552951
 20
128.2936333550347
 10
108.4202555338542
 20
128.2640055338542
 10
108.4202555338542
 20
127.1471055772569
  0
LINE
  5
45
330
A
100
AcDbEntity
  8
WOOD
 62
     7
100
AcDbLine
 10
107.1857055664062
 20
127.4998833550347
 30
0.0
 11
108.1558444552951
 21
127.2056722005208
 31
0.0
  0
LINE
  5
44
330
A
100
AcDbEntity
  8
WOOD
 62
     7
100
AcDbLine
 10
107.15625
 20
127.7644666883681
 30
0.0
 11
107.2739000108507
 21
128.1465277777778
 31
0.0
  0
LINE
  5
43
330
A
100
AcDbEntity
  8
WOOD
 62
     7
100
AcDbLine
 10
107.3105902777778
 20
127.7165798611111
 30
0.0
 11
108.1594618055556
 21
127.9095052083333
 31
0.0
  0
LINE
  5
42
330
A
100
AcDbEntity
  8
WOOD
 62
     7
100
AcDbLine
 10
108.1594618055556
 20
128.2863986545139
 30
0.0
 11
108.1594618055556
 21
127.7717013888889
 31
0.0
  0
SPLINE
  5
41
330
A
100
AcDbEntity
  8
WOOD
 62
     7
100
AcDbSpline
210
0.0
220
0.0
230
1.0
 70
    11
 71
     3
 72
   158
 73
   154
 74
     0
 42
0.0000000001
 43
0.0000000001
 40
0.0
 40
0.0
 40
0.0
 40
0.0
 40
1.0
 40
1.0
 40
1.0
 40
2.0
 40
2.0
 40
2.0
 40
3.0
 40
3.0
 40
3.0
 40
4.0
 40
4.0
 40
4.0
 40
5.0
 40
5.0
 40
5.0
 40
6.0
 40
6.0
 40
6.0
 40
7.0
 40
7.0
 40
7.0
 40
8.0
 40
8.0
 40
8.0
 40
9.0
 40
9.0
 40
9.0
 40
10.0
 40
10.0
 40
10.0
 40
11.0
 40
11.0
 40
11.0
 40
12.0
 40
12.0
 40
12.0
 40
13.0
 40
13.0
 40
13.0
 40
14.0
 40
14.0
 40
14.0
 40
15.0
 40
15.0
 40
15.0
 40
16.0
 40
16.0
 40
16.0
 40
17.0
 40
17.0
 40
17.0
 40
18.0
 40
18.0
 40
18.0
 40
19.0
 40
19.0
 40
19.0
 40
20.0
 40
20.0
 40
20.0
 40
21.0
 40
21.0
 40
21.0
 40
22.0
 40
22.0
 40
22.0
 40
23.0
 40
23.0
 40
23.0
 40
24.0
 40
24.0
 40
24.0
 40
25.0
 40
25.0
 40
25.0
 40
26.0
 40
26.0
 40
26.0
 40
27.0
 40
27.0
 40
27.0
 40
28.0
 40
28.0
 40
28.0
 40
29.0
 40
29.0
 40
29.0
 40
30.0
 40
30.0
 40
30.0
 40
31.0
 40
31.0
 40
31.0
 40
32.0
 40
32.0
 40
32.0
 40
33.0
 40
33.0
 40
33.0
 40
34.0
 40
34.0
 40
34.0
 40
35.0
 40
35.0
 40
35.0
 40
36.0
 40
36.0
 40
36.0
 40
37.0
 40
37.0
 40
37.0
 40
38.0
 40
38.0
 40
38.0
 40
39.0
 40
39.0
 40
39.0
 40
40.0
 40
40.0
 40
40.0
 40
41.0
 40
41.0
 40
41.0
 40
42.0
 40
42.0
 40
42.0
 40
43.0
 40
43.0
 40
43.0
 40
44.0
 40
44.0
 40
44.0
 40
45.0
 40
45.0
 40
45.0
 40
46.0
 40
46.0
 40
46.0
 40
47.0
 40
47.0
 40
47.0
 40
48.0
 40
48.0
 40
48.0
 40
49.0
 40
49.0
 40
49.0
 40
50.0
 40
50.0
 40
50.0
 40
51.0
 40
51.0
 40
51.0
 40
51.0
 10
107.1944905598958
 20
132.2558376736111
 30
0.0
 10
107.1944905598958
 20
132.2558376736111
 30
0.0
 10
107.1944905598958
 20
130.156396484375
 30
0.0
 10
107.1944905598958
 20
130.156396484375
 30
0.0
 10
107.1944905598958
 20
130.156396484375
 30
0.0
 10
107.1593505859375
 20
129.8766547309028
 30
0.0
 10
107.4046413845486
 20
129.8063747829861
 30
0.0
 10
107.4046413845486
 20
129.8063747829861
 30
0.0
 10
108.80576171875
 20
129.3157931857639
 30
0.0
 10
108.80576171875
 20
129.3157931857639
 30
0.0
 10
108.80576171875
 20
129.3157931857639
 30
0.0
 10
108.8129964192708
 20
129.3157931857639
 30
0.0
 10
108.8129964192708
 20
129.3157931857639
 30
0.0
 10
108.8129964192708
 20
130.3252061631944
 30
0.0
 10
108.8129964192708
 20
131.125501844618
 30
0.0
 10
108.8129964192708
 20
131.125501844618
 30
0.0
 10
108.8129964192708
 20
131.125501844618
 30
0.0
 10
108.801283094618
 20
131.6546685112847
 30
0.0
 10
108.973193359375
 20
132.2554931640625
 30
0.0
 10
108.9921413845486
 20
132.322328016493
 30
0.0
 10
109.8210313585069
 20
136.0154703776042
 30
0.0
 10
109.8844211154514
 20
136.3072699652778
 30
0.0
 10
110.0005208333333
 20
136.8405707465278
 30
0.0
 10
109.9939751519097
 20
137.2636284722222
 30
0.0
 10
109.9939751519097
 20
137.2636284722222
 30
0.0
 10
109.9939751519097
 20
137.2636284722222
 30
0.0
 10
109.9939751519097
 20
141.25029296875
 30
0.0
 10
109.9939751519097
 20
141.25029296875
 30
0.0
 10
109.9939751519097
 20
141.25029296875
 30
0.0
 10
109.9650363498264
 20
141.6735229492188
 30
0.0
 10
110.1872450086806
 20
142.1975219726562
 30
0.0
 10
110.382581922743
 20
142.6589925130208
 30
0.0
 10
110.7043538411458
 20
143.3450832790799
 30
0.0
 10
110.7749782986111
 20
143.5622965494792
 30
0.0
 10
110.9179497612847
 20
144.0018907335069
 30
0.0
 10
110.9331081814236
 20
144.2842163085937
 30
0.0
 10
110.9331081814236
 20
144.2842163085937
 30
0.0
 10
110.9331081814236
 20
144.2842163085937
 30
0.0
 10
110.9331081814236
 20
160.3144178602431
 30
0.0
 10
110.9331081814236
 20
160.430517578125
 30
0.0
 10
110.9331081814236
 20
160.5476508246528
 30
0.0
 10
110.9300075954861
 20
160.6706407335069
 30
0.0
 10
111.0102783203125
 20
160.8010375976562
 30
0.0
 10
111.1308566623264
 20
160.9967190212674
 30
0.0
 10
111.4863905164931
 20
161.4530219184028
 30
0.0
 10
111.4863905164931
 20
161.4530219184028
 30
0.0
 10
111.4863905164931
 20
161.4530219184028
 30
0.0
 10
113.1228108723958
 20
162.6865383572049
 30
0.0
 10
113.1228108723958
 20
162.6865383572049
 30
0.0
 10
113.1228108723958
 20
162.6865383572049
 30
0.0
 10
113.5913438585069
 20
162.9333794487847
 30
0.0
 10
113.5913438585069
 20
162.9333794487847
 30
0.0
 10
113.5913438585069
 20
162.9333794487847
 30
0.0
 10
113.5913438585069
 20
163.5588365342882
 30
0.0
 10
113.5913438585069
 20
163.5588365342882
 30
0.0
 10
113.5913438585069
 20
163.5588365342882
 30
0.0
 10
114.0040662977431
 20
163.7548624674479
 30
0.0
 10
114.0040662977431
 20
163.7548624674479
 30
0.0
 10
114.0040662977431
 20
163.7548624674479
 30
0.0
 10
114.0040662977431
 20
164.5791015625
 30
0.0
 10
114.0040662977431
 20
164.7541124131944
 30
0.0
 10
114.0040662977431
 20
164.9284342447917
 30
0.0
 10
113.9441216362847
 20
165.0860473632812
 30
0.0
 10
114.1594401041667
 20
165.2422824435764
 30
0.0
 10
114.3754475911458
 20
165.3973117404514
 30
0.0
 10
116.2916097005208
 20
166.2394653320312
 30
0.0
 10
116.2916097005208
 20
166.2394653320312
 30
0.0
 10
116.2916097005208
 20
166.2394653320312
 30
0.0
 10
116.937220594618
 20
166.062904188368
 30
0.0
 10
116.937220594618
 20
166.062904188368
 30
0.0
 10
116.937220594618
 20
166.062904188368
 30
0.0
 10
116.937220594618
 20
165.6718858506944
 30
0.0
 10
116.937220594618
 20
165.6718858506944
 30
0.0
 10
116.937220594618
 20
165.6718858506944
 30
0.0
 10
116.0597547743056
 20
165.0521131727431
 30
0.0
 10
115.9188503689236
 20
164.9384250217014
 30
0.0
 10
115.7893147786458
 20
164.8342108832465
 30
0.0
 10
115.665980360243
 20
164.7411933051215
 30
0.0
 10
115.665980360243
 20
164.4278618706597
 30
0.0
 10
115.665980360243
 20
164.1153917100694
 30
0.0
 10
115.665980360243
 20
163.4034627278646
 30
0.0
 10
115.665980360243
 20
163.4034627278646
 30
0.0
 10
115.665980360243
 20
163.4034627278646
 30
0.0
 10
116.2730061848958
 20
163.2082980685764
 30
0.0
 10
116.2730061848958
 20
163.2082980685764
 30
0.0
 10
116.2730061848958
 20
163.2082980685764
 30
0.0
 10
117.1129204644097
 20
161.976331922743
 30
0.0
 10
117.1129204644097
 20
161.976331922743
 30
0.0
 10
117.1129204644097
 20
161.976331922743
 30
0.0
 10
117.1129204644097
 20
144.4959174262153
 30
0.0
 10
117.1129204644097
 20
144.4959174262153
 30
0.0
 10
117.1129204644097
 20
144.4959174262153
 30
0.0
 10
117.1267008463542
 20
144.0372029622396
 30
0.0
 10
116.8069959852431
 20
143.7219767252604
 30
0.0
 10
116.7835693359375
 20
143.6987223307291
 30
0.0
 10
116.4438829210069
 20
143.3673041449653
 30
0.0
 10
116.4328586154514
 20
143.3545572916667
 30
0.0
 10
116.1035074869792
 20
142.9788696289062
 30
0.0
 10
116.0959282769097
 20
142.5203274197048
 30
0.0
 10
116.0959282769097
 20
142.5203274197048
 30
0.0
 10
116.0959282769097
 20
142.5203274197048
 30
0.0
 10
116.0959282769097
 20
139.0633463541666
 30
0.0
 10
116.0959282769097
 20
139.0633463541666
 30
0.0
 10
116.0959282769097
 20
139.0633463541666
 30
0.0
 10
116.0993733723958
 20
138.5514051649305
 30
0.0
 10
115.7338487413194
 20
138.0339518229167
 30
0.0
 10
115.7228244357639
 20
138.0181043836805
 30
0.0
 10
113.2957546657986
 20
135.3388536241319
 30
0.0
 10
113.1617404513889
 20
135.1617757161458
 30
0.0
 10
112.9639919704861
 20
134.90029296875
 30
0.0
 10
112.8227430555556
 20
134.5829996744792
 30
0.0
 10
112.7920817057292
 20
134.086216905382
 30
0.0
 10
112.7679660373264
 20
133.6955430772569
 30
0.0
 10
112.7920817057292
 20
128.3163709852431
 30
0.0
 10
112.7920817057292
 20
128.3163709852431
 30
0.0
 10
112.7920817057292
 20
128.2733072916667
 30
0.0
 10
112.8037950303819
 20
128.22783203125
 30
0.0
 10
112.7142225477431
 20
128.1630642361111
 30
0.0
 10
112.62568359375
 20
128.0996744791667
 30
0.0
 10
112.5233642578125
 20
127.9191514756944
 30
0.0
 10
112.5233642578125
 20
127.8013292100694
 30
0.0
 10
112.5233642578125
 20
127.683851453993
 30
0.0
 10
112.4920138888889
 20
127.5732638888889
 30
0.0
 10
112.4358588324653
 20
127.4433837890625
 30
0.0
 10
112.4244900173611
 20
127.4168565538194
 30
0.0
 10
112.5250868055556
 20
127.6173611111111
 30
0.0
 10
112.4141547309028
 20
127.4089328342014
 30
0.0
 10
112.4141547309028
 20
127.1539957682292
 30
0.0
 10
112.1926350911458
 20
126.8604736328125
 30
0.0
 10
111.80712890625
 20
126.939710828993
 30
0.0
 10
111.5856092664931
 20
126.7678005642361
 30
0.0
 10
110.6495768229167
 20
126.0725802951389
 30
0.0
 10
110.6116807725694
 20
126.0419189453125
 30
0.0
 10
110.6116807725694
 20
125.9106608072917
 30
0.0
 10
110.5059163411458
 20
125.6043918185764
 30
0.0
 10
110.0087890625
 20
125.569251844618
 30
0.0
 10
109.9567681206597
 20
125.5279106987847
 30
0.0
 10
109.2711941189236
 20
125.0314724392361
 30
0.0
 10
109.1909233940972
 20
124.9725613064236
 30
0.0
 10
109.1785210503472
 20
124.9639485677083
 30
0.0
 10
108.5604709201389
 20
124.4471842447917
 30
0.0
 10
108.1753092447917
 20
124.6573350694444
 30
0.0
 10
108.1753092447917
 20
124.6573350694444
 30
0.0
 10
102.8863986545139
 20
126.8287787543403
 30
0.0
 10
102.9213663736979
 20
126.7939832899305
 30
0.0
 10
102.9213663736979
 20
126.7939832899305
 30
0.0
 10
102.5362046983507
 20
126.8987141927083
 30
0.0
 10
102.5362046983507
 20
127.2490804036458
 30
0.0
 10
102.5362046983507
 20
127.2490804036458
 30
0.0
 10
102.5362046983507
 20
129.0081461588542
 30
0.0
 10
102.5362046983507
 20
129.0081461588542
 30
0.0
 10
102.5362046983507
 20
129.0081461588542
 30
0.0
 10
107.1944905598958
 20
132.2558376736111
 30
0.0
 10
107.1944905598958
 20
132.2558376736111
 30
0.0
  0
LINE
  5
40
330
A
100
AcDbEntity
  8
WOOD
 62
     7
100
AcDbLine
 10
115.3200927734375
 20
163.1859049479166
 30
0.0
 11
115.665980360243
 21
163.4034627278646
 31
0.0
  0
LWPOLYLINE
  5
34
330
A
100
AcDbEntity
  8
WOOD
 62
     7
100
AcDbPolyline
 90
       10
 70
     0
 43
0.0
 10
84.66563313802082
 20
128.3229166666667
 10
84.66236029730902
 20
124.3713921440972
 10
86.56956515842013
 20
123.5604166666667
 10
86.59609239366318
 20
137.8038194444444
 10
85.15173611111111
 20
139.0826388888889
 10
88.503125
 20
142.1253472222222
 10
86.60694444444444
 20
143.8451388888889
 10
86.63243815104165
 20
157.3133951822917
 10
84.66580539279514
 20
157.8851087782118
 10
84.66580539279514
 20
156.1921888563368
  0
INSERT
  5
2F
330
A
100
AcDbEntity
  8
WOOD
 62
     7
100
AcDbBlockReference
  2
AI9-BLK3
 10
115.9319417317708
 20
155.2142985026042
 30
0.0
  0
INSERT
  5
29
330
A
100
AcDbEntity
  8
WOOD
 62
     7
100
AcDbBlockReference
  2
AI9-BLK2
 10
115.9119601779514
 20
144.4376953125
 30
0.0
  0
INSERT
  5
23
330
A
100
AcDbEntity
  8
WOOD
 62
     7
100
AcDbBlockReference
  2
AI9-BLK1
 10
115.9322862413194
 20
149.5292019314236
 30
0.0
  0
ENDSEC
  0
SECTION
  2
OBJECTS
  0
DICTIONARY
  5
19
330
0
100
AcDbDictionary
281
     1
  3
ACAD_COLOR
350
15E
  3
ACAD_GROUP
350
1A
  3
ACAD_LAYOUT
350
12B
  3
ACAD_MATERIAL
350
160
  3
ACAD_MLINESTYLE
350
1B
  3
ACAD_PLOTSETTINGS
350
12C
  3
ACAD_PLOTSTYLENAME
350
129
  3
ACDBHEADERROUNDTRIPXREC
350
15D
  0
DICTIONARY
  5
15E
102
{ACAD_REACTORS
330
19
102
}
330
19
100
AcDbDictionary
281
     1
  0
DICTIONARY
  5
1A
102
{ACAD_REACTORS
330
19
102
}
330
19
100
AcDbDictionary
281
     1
  0
DICTIONARY
  5
12B
102
{ACAD_REACTORS
330
19
102
}
330
19
100
AcDbDictionary
281
     1
  3
Layout1
350
12E
  3
Model
350
12D
  0
DICTIONARY
  5
160
102
{ACAD_REACTORS
330
19
102
}
330
19
100
AcDbDictionary
281
     1
  0
DICTIONARY
  5
1B
102
{ACAD_REACTORS
330
19
102
}
330
19
100
AcDbDictionary
281
     1
  3
STANDARD
350
1C
  0
DICTIONARY
  5
12C
102
{ACAD_REACTORS
330
19
102
}
330
19
100
AcDbDictionary
281
     1
  0
ACDBDICTIONARYWDFLT
  5
129
102
{ACAD_REACTORS
330
19
102
}
330
19
100
AcDbDictionary
281
     1
  3
Normal
350
12A
100
AcDbDictionaryWithDefault
340
12A
  0
DICTIONARY
  5
15D
102
{ACAD_REACTORS
330
19
102
}
330
19
100
AcDbDictionary
281
     1
  3
COLORDICT
350
15F
  3
MATERIALDICT
350
161
  0
LAYOUT
  5
12E
102
{ACAD_REACTORS
330
12B
102
}
102
{ACAD_XDICTIONARY
360
162
102
}
330
12B
100
AcDbPlotSettings
  1

  2
HP LaserJet 2100 Series PS
  4

  6

 40
0.0
 41
0.0
 42
0.0
 43
0.0
 44
0.0
 45
0.0
 46
0.0
 47
0.0
 48
0.0
 49
0.0
140
0.0
141
0.0
142
1.0
143
1.0
 70
   688
 72
     0
 73
     0
 74
     5
  7

 75
    16
147
1.0
148
0.0
149
0.0
100
AcDbLayout
  1
Layout1
 70
     0
 71
     1
 10
0.0
 20
0.0
 11
12.0
 21
9.0
 12
0.0
 22
0.0
 32
0.0
 14
1.000000000000000E+20
 24
1.000000000000000E+20
 34
1.000000000000000E+20
 15
-1.000000000000000E+20
 25
-1.000000000000000E+20
 35
-1.000000000000000E+20
146
0.0
 13
0.0
 23
0.0
 33
0.0
 16
1.0
 26
0.0
 36
0.0
 17
0.0
 27
1.0
 37
0.0
 76
     0
330
B
  0
LAYOUT
  5
12D
102
{ACAD_REACTORS
330
12B
102
}
102
{ACAD_XDICTIONARY
360
164
102
}
330
12B
100
AcDbPlotSettings
  1

  2
HP LaserJet 2100 Series PS
  4

  6

 40
0.0
 41
0.0
 42
0.0
 43
0.0
 44
0.0
 45
0.0
 46
0.0
 47
0.0
 48
0.0
 49
0.0
140
0.0
141
0.0
142
1.0
143
1.0
 70
  1712
 72
     0
 73
     0
 74
     0
  7

 75
     0
147
1.0
148
0.0
149
0.0
100
AcDbLayout
  1
Model
 70
     1
 71
     0
 10
0.0
 20
0.0
 11
12.0
 21
9.0
 12
0.0
 22
0.0
 32
0.0
 14
0.0
 24
0.0
 34
0.0
 15
0.0
 25
0.0
 35
0.0
146
0.0
 13
0.0
 23
0.0
 33
0.0
 16
1.0
 26
0.0
 36
0.0
 17
0.0
 27
1.0
 37
0.0
 76
     0
330
A
  0
MLINESTYLE
  5
1C
102
{ACAD_REACTORS
330
1B
102
}
330
1B
100
AcDbMlineStyle
  2
STANDARD
 70
     0
  3

 62
     0
 51
90.0000000000002
 52
90.0000000000002
 71
     2
 49
0.5
 62
   256
  6
BYLAYER
 49
-0.5
 62
   256
  6
BYLAYER
  0
ACDBPLACEHOLDER
  5
12A
102
{ACAD_REACTORS
330
129
102
}
330
129
  0
XRECORD
  5
15F
102
{ACAD_REACTORS
330
15D
102
}
330
15D
100
AcDbXrecord
340
15E
  0
XRECORD
  5
161
102
{ACAD_REACTORS
330
15D
102
}
330
15D
100
AcDbXrecord
340
160
  0
DICTIONARY
  5
162
330
12E
100
AcDbDictionary
280
     1
281
     1
  3
ACAD_XREC_ROUNDTRIP
360
163
  0
DICTIONARY
  5
164
330
12D
100
AcDbDictionary
280
     1
281
     1
  3
ACAD_XREC_ROUNDTRIP
360
165
  0
XRECORD
  5
163
102
{ACAD_REACTORS
330
162
102
}
330
162
100
AcDbXrecord
102
SHADEPLOT
 70
 16392
102
SHADEPLOTRESLEVEL
 70
 16472
102
SHADEPLOTCUSTOMDPI
 70
-29840
  0
XRECORD
  5
165
102
{ACAD_REACTORS
330
164
102
}
330
164
100
AcDbXrecord
102
SHADEPLOT
 70
-30344
102
SHADEPLOTRESLEVEL
 70
-30384
102
SHADEPLOTCUSTOMDPI
 70
-30424
  0
ENDSEC
  0
EOF
