  0
SECTION
  2
HEADER
  9
$ACADVER
  1
AC1015
  9
$ACADMAINTVER
 70
     6
  9
$DWGCODEPAGE
  3
ANSI_1252
  9
$INSBASE
 10
0.0
 20
0.0
 30
0.0
  9
$EXTMIN
 10
79.63911602831371
 20
110.8018891819909
 30
-0.0015258207003612
  9
$EXTMAX
 10
137.3449247595703
 20
184.7811972666497
 30
0.0000000349246008
  9
$LIMMIN
 10
79.56585828993055
 20
110.7532741970486
  9
$LIMMAX
 10
137.4093560112847
 20
184.846770562066
  9
$ORTHOMODE
 70
     0
  9
$REGENMODE
 70
     1
  9
$FILLMODE
 70
     1
  9
$QTEXTMODE
 70
     0
  9
$MIRRTEXT
 70
     1
  9
$LTSCALE
 40
1.0
  9
$ATTMODE
 70
     1
  9
$TEXTSIZE
 40
0.2
  9
$TRACEWID
 40
0.05
  9
$TEXTSTYLE
  7
STANDARD
  9
$CLAYER
  8
0
  9
$CELTYPE
  6
CONTINUOUS
  9
$CECOLOR
 62
   256
  9
$CELTSCALE
 40
1.0
  9
$DISPSILH
 70
     0
  9
$DIMSCALE
 40
1.0
  9
$DIMASZ
 40
0.18
  9
$DIMEXO
 40
0.0625
  9
$DIMDLI
 40
0.38
  9
$DIMRND
 40
0.0
  9
$DIMDLE
 40
0.0
  9
$DIMEXE
 40
0.18
  9
$DIMTP
 40
0.0
  9
$DIMTM
 40
0.0
  9
$DIMTXT
 40
0.18
  9
$DIMCEN
 40
0.09
  9
$DIMTSZ
 40
0.0
  9
$DIMTOL
 70
     0
  9
$DIMLIM
 70
     0
  9
$DIMTIH
 70
     1
  9
$DIMTOH
 70
     1
  9
$DIMSE1
 70
     0
  9
$DIMSE2
 70
     0
  9
$DIMTAD
 70
     0
  9
$DIMZIN
 70
     0
  9
$DIMBLK
  1

  9
$DIMASO
 70
     1
  9
$DIMSHO
 70
     1
  9
$DIMPOST
  1

  9
$DIMAPOST
  1

  9
$DIMALT
 70
     0
  9
$DIMALTD
 70
     2
  9
$DIMALTF
 40
25.4
  9
$DIMLFAC
 40
1.0
  9
$DIMTOFL
 70
     0
  9
$DIMTVP
 40
0.0
  9
$DIMTIX
 70
     0
  9
$DIMSOXD
 70
     0
  9
$DIMSAH
 70
     0
  9
$DIMBLK1
  1

  9
$DIMBLK2
  1

  9
$DIMSTYLE
  2
STANDARD
  9
$DIMCLRD
 70
     0
  9
$DIMCLRE
 70
     0
  9
$DIMCLRT
 70
     0
  9
$DIMTFAC
 40
1.0
  9
$DIMGAP
 40
0.09
  9
$DIMJUST
 70
     0
  9
$DIMSD1
 70
     0
  9
$DIMSD2
 70
     0
  9
$DIMTOLJ
 70
     1
  9
$DIMTZIN
 70
     0
  9
$DIMALTZ
 70
     0
  9
$DIMALTTZ
 70
     0
  9
$DIMUPT
 70
     0
  9
$DIMDEC
 70
     4
  9
$DIMTDEC
 70
     4
  9
$DIMALTU
 70
     2
  9
$DIMALTTD
 70
     2
  9
$DIMTXSTY
  7
STANDARD
  9
$DIMAUNIT
 70
     0
  9
$DIMADEC
 70
     0
  9
$DIMALTRND
 40
0.0
  9
$DIMAZIN
 70
     0
  9
$DIMDSEP
 70
    46
  9
$DIMATFIT
 70
     3
  9
$DIMFRAC
 70
     0
  9
$DIMLDRBLK
  1

  9
$DIMLUNIT
 70
     2
  9
$DIMLWD
 70
    -2
  9
$DIMLWE
 70
    -2
  9
$DIMTMOVE
 70
     0
  9
$LUNITS
 70
     2
  9
$LUPREC
 70
     4
  9
$SKETCHINC
 40
0.1
  9
$FILLETRAD
 40
0.0
  9
$AUNITS
 70
     0
  9
$AUPREC
 70
     0
  9
$MENU
  1
acad
  9
$ELEVATION
 40
0.0
  9
$PELEVATION
 40
0.0
  9
$THICKNESS
 40
0.0
  9
$LIMCHECK
 70
     0
  9
$CHAMFERA
 40
0.0
  9
$CHAMFERB
 40
0.0
  9
$CHAMFERC
 40
0.0
  9
$CHAMFERD
 40
0.0
  9
$SKPOLY
 70
     0
  9
$TDCREATE
 40
2444971.666666667
  9
$TDUCREATE
 40
2444972.0
  9
$TDUPDATE
 40
2452675.345712732
  9
$TDUUPDATE
 40
2452675.679046065
  9
$TDINDWG
 40
0.0000947917
  9
$TDUSRTIMER
 40
0.0000947917
  9
$USRTIMER
 70
     1
  9
$ANGBASE
 50
0.0
  9
$ANGDIR
 70
     0
  9
$PDMODE
 70
     0
  9
$PDSIZE
 40
0.0
  9
$PLINEWID
 40
0.0
  9
$SPLFRAME
 70
     0
  9
$SPLINETYPE
 70
     6
  9
$SPLINESEGS
 70
     8
  9
$HANDSEED
  5
148
  9
$SURFTAB1
 70
     6
  9
$SURFTAB2
 70
     6
  9
$SURFTYPE
 70
     6
  9
$SURFU
 70
     6
  9
$SURFV
 70
     6
  9
$UCSBASE
  2

  9
$UCSNAME
  2

  9
$UCSORG
 10
0.0
 20
0.0
 30
0.0
  9
$UCSXDIR
 10
1.0
 20
0.0
 30
0.0
  9
$UCSYDIR
 10
0.0
 20
1.0
 30
0.0
  9
$UCSORTHOREF
  2

  9
$UCSORTHOVIEW
 70
     0
  9
$UCSORGTOP
 10
0.0
 20
0.0
 30
0.0
  9
$UCSORGBOTTOM
 10
0.0
 20
0.0
 30
0.0
  9
$UCSORGLEFT
 10
0.0
 20
0.0
 30
0.0
  9
$UCSORGRIGHT
 10
0.0
 20
0.0
 30
0.0
  9
$UCSORGFRONT
 10
0.0
 20
0.0
 30
0.0
  9
$UCSORGBACK
 10
0.0
 20
0.0
 30
0.0
  9
$PUCSBASE
  2

  9
$PUCSNAME
  2

  9
$PUCSORG
 10
0.0
 20
0.0
 30
0.0
  9
$PUCSXDIR
 10
1.0
 20
0.0
 30
0.0
  9
$PUCSYDIR
 10
0.0
 20
1.0
 30
0.0
  9
$PUCSORTHOREF
  2

  9
$PUCSORTHOVIEW
 70
     0
  9
$PUCSORGTOP
 10
0.0
 20
0.0
 30
0.0
  9
$PUCSORGBOTTOM
 10
0.0
 20
0.0
 30
0.0
  9
$PUCSORGLEFT
 10
0.0
 20
0.0
 30
0.0
  9
$PUCSORGRIGHT
 10
0.0
 20
0.0
 30
0.0
  9
$PUCSORGFRONT
 10
0.0
 20
0.0
 30
0.0
  9
$PUCSORGBACK
 10
0.0
 20
0.0
 30
0.0
  9
$USERI1
 70
     0
  9
$USERI2
 70
     0
  9
$USERI3
 70
     0
  9
$USERI4
 70
     0
  9
$USERI5
 70
     0
  9
$USERR1
 40
0.0
  9
$USERR2
 40
0.0
  9
$USERR3
 40
0.0
  9
$USERR4
 40
0.0
  9
$USERR5
 40
0.0
  9
$WORLDVIEW
 70
     1
  9
$SHADEDGE
 70
     3
  9
$SHADEDIF
 70
    70
  9
$TILEMODE
 70
     1
  9
$MAXACTVP
 70
    16
  9
$PINSBASE
 10
0.0
 20
0.0
 30
0.0
  9
$PLIMCHECK
 70
     0
  9
$PEXTMIN
 10
1.000000000000000E+20
 20
1.000000000000000E+20
 30
1.000000000000000E+20
  9
$PEXTMAX
 10
-1.000000000000000E+20
 20
-1.000000000000000E+20
 30
-1.000000000000000E+20
  9
$PLIMMIN
 10
0.0
 20
0.0
  9
$PLIMMAX
 10
12.0
 20
9.0
  9
$UNITMODE
 70
     0
  9
$VISRETAIN
 70
     0
  9
$PLINEGEN
 70
     1
  9
$PSLTSCALE
 70
     0
  9
$TREEDEPTH
 70
  3020
  9
$CMLSTYLE
  2
STANDARD
  9
$CMLJUST
 70
     0
  9
$CMLSCALE
 40
1.0
  9
$PROXYGRAPHICS
 70
     1
  9
$MEASUREMENT
 70
     0
  9
$CELWEIGHT
370
    -1
  9
$ENDCAPS
280
     0
  9
$JOINSTYLE
280
     0
  9
$LWDISPLAY
290
     0
  9
$INSUNITS
 70
     0
  9
$HYPERLINKBASE
  1

  9
$STYLESHEET
  1

  9
$XEDIT
290
     1
  9
$CEPSNTYPE
380
     0
  9
$PSTYLEMODE
290
     1
  9
$FINGERPRINTGUID
  2
{87C952E5-380C-11D7-BE3F-00508B5FCD51}
  9
$VERSIONGUID
  2
{87C952E7-380C-11D7-BE3F-00508B5FCD51}
  9
$EXTNAMES
290
     1
  9
$PSVPSCALE
 40
0.0
  9
$OLESTARTUP
290
     0
  0
ENDSEC
  0
SECTION
  2
CLASSES
  0
CLASS
  1
LWPOLYLINE
  2
AcDbPolyline
  3
AutoCAD 2000
 90
        0
280
     0
281
     1
  0
CLASS
  1
IMAGE
  2
AcDbRasterImage
  3
ISM
 90
      127
280
     0
281
     1
  0
CLASS
  1
OLE2FRAME
  2
AcDbOle2Frame
  3
AutoCAD 2000
 90
        0
280
     0
281
     1
  0
CLASS
  1
HATCH
  2
AcDbHatch
  3
AutoCAD 2000
 90
        0
280
     0
281
     1
  0
CLASS
  1
DICTIONARYVAR
  2
AcDbDictionaryVar
  3
AutoCAD 2000
 90
        0
280
     0
281
     0
  0
CLASS
  1
RASTERVARIABLES
  2
AcDbRasterVariables
  3
ISM
 90
        0
280
     0
281
     0
  0
CLASS
  1
IMAGEDEF
  2
AcDbRasterImageDef
  3
ISM
 90
        0
280
     0
281
     0
  0
CLASS
  1
IMAGEDEF_REACTOR
  2
AcDbRasterImageDefReactor
  3
ISM
 90
        1
280
     0
281
     0
  0
CLASS
  1
IDBUFFER
  2
AcDbIdBuffer
  3
AutoCAD 2000
 90
        0
280
     0
281
     0
  0
CLASS
  1
SPATIAL_FILTER
  2
AcDbSpatialFilter
  3
AutoCAD 2000
 90
        0
280
     0
281
     0
  0
CLASS
  1
XRECORD
  2
AcDbXrecord
  3
AutoCAD 2000
 90
        0
280
     0
281
     0
  0
CLASS
  1
SORTENTSTABLE
  2
AcDbSortentsTable
  3
AutoCAD 2000
 90
        0
280
     0
281
     0
  0
CLASS
  1
LAYER_INDEX
  2
AcDbLayerIndex
  3
AutoCAD 2000
 90
        0
280
     0
281
     0
  0
CLASS
  1
SPATIAL_INDEX
  2
AcDbSpatialIndex
  3
AutoCAD 2000
 90
        0
280
     0
281
     0
  0
CLASS
  1
OBJECT_PTR
  2
CAseDLPNTableRecord
  3
ASE-LPNTableRecord
 90
        1
280
     1
281
     0
  0
CLASS
  1
LAYOUT
  2
AcDbLayout
  3
ObjectDBX Classes
 90
        0
280
     0
281
     0
  0
CLASS
  1
PLOTSETTINGS
  2
AcDbPlotSettings
  3
AutoCAD 2000
 90
        0
280
     0
281
     0
  0
CLASS
  1
ACDBDICTIONARYWDFLT
  2
AcDbDictionaryWithDefault
  3
AutoCAD 2000
 90
        0
280
     0
281
     0
  0
CLASS
  1
ACDBPLACEHOLDER
  2
AcDbPlaceHolder
  3
ObjectDBX Classes
 90
        0
280
     0
281
     0
  0
CLASS
  1
VBAPROJECT
  2
AcDbVbaProject
  3
ObjectDBX Classes
 90
        0
280
     0
281
     0
  0
CLASS
  1
WIPEOUT
  2
AcDbWipeout
  3
WipeOut|AutoCAD Express Tool|expresstools@autodesk.com
 90
      127
280
     0
281
     1
  0
CLASS
  1
WIPEOUTVARIABLES
  2
AcDbWipeoutVariables
  3
WipeOut|AutoCAD Express Tool|expresstools@autodesk.com
 90
        0
280
     0
281
     0
  0
CLASS
  1
RTEXT
  2
RText
  3
RText|AutoCAD Express Tool|expresstools@autodesk.com
 90
        0
280
     0
281
     1
  0
CLASS
  1
ARCALIGNEDTEXT
  2
AcDbArcAlignedText
  3
ATEXT|AutoCAD Express Tool|expresstools@autodesk.com
 90
        0
280
     0
281
     1
  0
CLASS
  1
LONG_TRANSACTION
  2
AcDbLongTransaction
  3
AutoCAD 2000
 90
        0
280
     1
281
     0
  0
CLASS
  1
LWPOLYLINE
  2
AcDbPolyline
  3
AutoCAD 2000
 90
        0
280
     0
281
     1
  0
CLASS
  1
HATCH
  2
AcDbHatch
  3
AutoCAD 2000
 90
        0
280
     0
281
     1
  0
CLASS
  1
XRECORD
  2
AcDbXrecord
  3
AutoCAD 2000
 90
        0
280
     0
281
     0
  0
ENDSEC
  0
SECTION
  2
TABLES
  0
TABLE
  2
VPORT
  5
7
330
0
100
AcDbSymbolTable
 70
     2
  0
VPORT
  5
114
330
7
100
AcDbSymbolTableRecord
100
AcDbViewportTableRecord
  2
*Active
 70
     0
 10
0.0
 20
0.0
 11
1.0
 21
1.0
 12
108.4876071506076
 22
147.8000223795573
 13
0.0
 23
0.0
 14
1.0
 24
1.0
 15
0.0
 25
0.0
 16
0.0
 26
0.0
 36
1.0
 17
0.0
 27
0.0
 37
0.0
 40
74.9260075601299
 41
1.73921200750469
 42
50.0
 43
0.0
 44
0.0
 50
0.0
 51
0.0
 71
     0
 72
   100
 73
     1
 74
     1
 75
     0
 76
     0
 77
     0
 78
     0
281
     0
 65
     1
110
0.0
120
0.0
130
0.0
111
1.0
121
0.0
131
0.0
112
0.0
122
1.0
132
0.0
 79
     0
146
0.0
  0
ENDTAB
  0
TABLE
  2
LTYPE
  5
4
330
0
100
AcDbSymbolTable
 70
     1
  0
LTYPE
  5
11
330
4
100
AcDbSymbolTableRecord
100
AcDbLinetypeTableRecord
  2
BYBLOCK
 70
     0
  3

 72
    65
 73
     0
 40
0.0
  0
LTYPE
  5
12
330
4
100
AcDbSymbolTableRecord
100
AcDbLinetypeTableRecord
  2
BYLAYER
 70
     0
  3

 72
    65
 73
     0
 40
0.0
  0
LTYPE
  5
13
330
4
100
AcDbSymbolTableRecord
100
AcDbLinetypeTableRecord
  2
CONTINUOUS
 70
     0
  3
Solid line
 72
    65
 73
     0
 40
0.0
  0
ENDTAB
  0
TABLE
  2
LAYER
  5
2
330
0
100
AcDbSymbolTable
 70
     4
  0
LAYER
  5
14
330
2
100
AcDbSymbolTableRecord
100
AcDbLayerTableRecord
  2
0
 70
     0
 62
     7
  6
CONTINUOUS
370
    -3
390
0
  0
LAYER
  5
21
330
2
100
AcDbSymbolTableRecord
100
AcDbLayerTableRecord
  2
BOOT
 70
     0
 62
     5
  6
CONTINUOUS
370
    -3
390
0
  0
LAYER
  5
2B
330
2
100
AcDbSymbolTableRecord
100
AcDbLayerTableRecord
  2
IUS
 70
     0
 62
     3
  6
CONTINUOUS
370
    -3
390
0
  0
LAYER
  5
74
330
2
100
AcDbSymbolTableRecord
100
AcDbLayerTableRecord
  2
WOOD
 70
     0
 62
   160
  6
CONTINUOUS
370
    -3
390
0
  0
ENDTAB
  0
TABLE
  2
STYLE
  5
3
330
0
100
AcDbSymbolTable
 70
     5
  0
STYLE
  5
17
330
3
100
AcDbSymbolTableRecord
100
AcDbTextStyleTableRecord
  2
STANDARD
 70
     0
 40
0.0
 41
1.0
 50
0.0
 71
     0
 42
0.2
  3
txt
  4

  0
STYLE
  5
1D
330
3
100
AcDbSymbolTableRecord
100
AcDbTextStyleTableRecord
  2
STD
 70
     0
 40
0.0
 41
1.0
 50
0.0
 71
     0
 42
0.2
  3
txt
  4

  0
STYLE
  5
1E
330
3
100
AcDbSymbolTableRecord
100
AcDbTextStyleTableRecord
  2
TATESTD
 70
     4
 40
0.0
 41
1.0
 50
0.0
 71
     0
 42
0.2
  3
txt
  4

  0
STYLE
  5
1F
330
3
100
AcDbSymbolTableRecord
100
AcDbTextStyleTableRecord
  2
KANJISTD
 70
     0
 40
0.0
 41
1.0
 50
0.0
 71
     0
 42
0.2
  3
txt
  4
extfont
  0
STYLE
  5
20
330
3
100
AcDbSymbolTableRecord
100
AcDbTextStyleTableRecord
  2
KANJITATE
 70
     4
 40
0.0
 41
1.0
 50
0.0
 71
     0
 42
0.2
  3
txt
  4
extfont
  0
ENDTAB
  0
TABLE
  2
VIEW
  5
5
330
0
100
AcDbSymbolTable
 70
     0
  0
ENDTAB
  0
TABLE
  2
UCS
  5
6
330
0
100
AcDbSymbolTable
 70
     0
  0
ENDTAB
  0
TABLE
  2
APPID
  5
8
330
0
100
AcDbSymbolTable
 70
     1
  0
APPID
  5
16
330
8
100
AcDbSymbolTableRecord
100
AcDbRegAppTableRecord
  2
ACAD
 70
     0
  0
ENDTAB
  0
TABLE
  2
DIMSTYLE
  5
9
330
0
100
AcDbSymbolTable
 70
     1
100
AcDbDimStyleTable
  0
DIMSTYLE
105
18
330
9
100
AcDbSymbolTableRecord
100
AcDbDimStyleTableRecord
  2
STANDARD
 70
     0
  3

  4

289
     0
340
17
  0
ENDTAB
  0
TABLE
  2
BLOCK_RECORD
  5
1
330
0
100
AcDbSymbolTable
 70
     0
  0
BLOCK_RECORD
  5
A
330
1
100
AcDbSymbolTableRecord
100
AcDbBlockTableRecord
  2
*MODEL_SPACE
340
10F
  0
BLOCK_RECORD
  5
B
330
1
100
AcDbSymbolTableRecord
100
AcDbBlockTableRecord
  2
*PAPER_SPACE
340
110
  0
ENDTAB
  0
ENDSEC
  0
SECTION
  2
BLOCKS
  0
BLOCK
  5
D
330
A
100
AcDbEntity
  8
0
100
AcDbBlockBegin
  2
*MODEL_SPACE
 70
     0
 10
0.0
 20
0.0
 30
0.0
  3
*MODEL_SPACE
  1

  4

  0
ENDBLK
  5
E
330
A
100
AcDbEntity
  8
0
100
AcDbBlockEnd
  0
BLOCK
  5
F
330
B
100
AcDbEntity
 67
     1
  8
0
100
AcDbBlockBegin
  2
*PAPER_SPACE
 70
     0
 10
0.0
 20
0.0
 30
0.0
  3
*PAPER_SPACE
  1

  4

  0
ENDBLK
  5
10
330
B
100
AcDbEntity
 67
     1
  8
0
100
AcDbBlockEnd
  0
ENDSEC
  0
SECTION
  2
ENTITIES
  0
LWPOLYLINE
  5
FD
330
A
100
AcDbEntity
  8
WOOD
 62
     7
100
AcDbPolyline
 90
        9
 70
     0
 43
0.0
 10
85.69089355468749
 20
139.0226942274306
 10
80.72306586371528
 20
140.8656480577257
 10
80.72306586371528
 20
155.3986111111111
 10
81.75624999999999
 20
155.8395833333333
 10
79.63958333333332
 20
158.0444444444444
 10
80.72306586371528
 20
158.5736111111111
 10
80.72306586371528
 20
173.5621880425347
 10
88.01805555555555
 20
176.3006944444444
 10
102.540338812934
 20
172.6910956488715
  0
LWPOLYLINE
  5
F2
330
A
100
AcDbEntity
  8
WOOD
 62
     7
100
AcDbPolyline
 90
        9
 70
     0
 43
0.0
 10
112.0451850043403
 20
170.3286214192708
 10
135.9665500217014
 20
164.382903374566
 10
135.9665500217014
 20
147.292473687066
 10
134.8985704210069
 20
146.4797756618924
 10
137.3414876302083
 20
144.2168646918403
 10
135.9665500217014
 20
143.1351047092014
 10
135.9665500217014
 20
127.4041097005208
 10
129.9596815321181
 20
122.5999240451389
 10
113.9058810763889
 20
128.5554606119792
  0
LWPOLYLINE
  5
EA
330
A
100
AcDbEntity
  8
WOOD
 62
     7
100
AcDbPolyline
 90
        6
 70
     0
 43
0.0
 10
129.957958984375
 20
122.6071587456597
 10
129.957958984375
 20
139.0275173611111
 10
131.2856987847222
 20
139.4543646918403
 10
128.630908203125
 20
142.1098442925347
 10
129.8308349609375
 20
142.568903266059
 10
129.8308349609375
 20
160.8232584635417
  0
LWPOLYLINE
  5
E5
330
A
100
AcDbEntity
  8
WOOD
 62
     7
100
AcDbPolyline
 90
        3
 70
     0
 43
0.0
 10
116.0948947482639
 20
164.3634385850694
 10
129.8446153428819
 20
160.8024156358507
 10
135.9648274739583
 20
164.3803195529514
  0
LINE
  5
E4
330
A
100
AcDbEntity
  8
WOOD
 62
     7
100
AcDbLine
 10
109.6222493489583
 20
166.0394775390625
 30
0.0
 11
114.4164442274306
 21
164.7980373806423
 31
0.0
  0
LINE
  5
E3
330
A
100
AcDbEntity
  8
WOOD
 62
     7
100
AcDbLine
 10
80.75923936631943
 20
173.5143012152778
 30
0.0
 11
105.0537082248264
 21
167.2226955837674
 31
0.0
  0
LWPOLYLINE
  5
DE
330
A
100
AcDbEntity
  8
WOOD
 62
     7
100
AcDbPolyline
 90
        3
 70
     0
 43
0.0
 10
134.8985704210069
 20
146.4797756618924
 10
129.8446153428819
 20
142.5685587565104
 10
128.630908203125
 20
142.1098442925347
  0
LWPOLYLINE
  5
D9
330
A
100
AcDbEntity
  8
WOOD
 62
     7
100
AcDbPolyline
 90
        3
 70
     0
 43
0.0
 10
135.9510470920139
 20
143.1209798177083
 10
131.2874213324653
 20
139.4615993923611
 10
129.957958984375
 20
139.0275173611111
  0
LINE
  5
D8
330
A
100
AcDbEntity
  8
WOOD
 62
     7
100
AcDbLine
 10
90.05445149739583
 20
147.0893853081597
 30
0.0
 11
87.60963948567708
 21
147.7896009657118
 31
0.0
  0
LWPOLYLINE
  5
C9
330
A
100
AcDbEntity
  8
WOOD
 62
     7
100
AcDbPolyline
 90
       13
 70
     0
 43
0.0
 10
109.1695638020833
 20
124.9529242621528
 10
89.96711832682291
 20
110.8039171006944
 10
83.67964680989583
 20
113.5913438585069
 10
83.67964680989583
 20
118.6986979166667
 10
85.68779296874999
 20
120.0691569010417
 10
85.68779296874999
 20
129.444984266493
 10
84.4663343641493
 20
130.6938313802083
 10
87.65321994357637
 20
134.0772596571181
 10
85.68779296874999
 20
135.8759440104167
 10
85.68779296874999
 20
148.4074788411458
 10
83.67964680989583
 20
149.0231174045139
 10
83.67964680989583
 20
154.0355590820312
 10
107.0987169053819
 20
165.6221042209201
  0
LWPOLYLINE
  5
C3
330
A
100
AcDbEntity
  8
WOOD
 62
     7
100
AcDbPolyline
 90
        4
 70
     0
 43
0.0
 10
113.1390028211805
 20
132.85390625
 10
113.9055365668403
 20
132.5593505859375
 10
113.9055365668403
 20
128.4421169704861
 10
113.1365912543403
 20
127.8757432725694
  0
LWPOLYLINE
  5
BE
330
A
100
AcDbEntity
  8
WOOD
 62
     7
100
AcDbPolyline
 90
        3
 70
     0
 43
0.0
 10
109.557826063368
 20
165.932679578993
 10
113.9055365668403
 20
164.8083726671007
 10
113.9055365668403
 20
162.5559692382812
  0
LWPOLYLINE
  5
B9
330
A
100
AcDbEntity
  8
WOOD
 62
     7
100
AcDbPolyline
 90
        3
 70
     0
 43
0.0
 10
83.67964680989583
 20
154.0355590820312
 10
90.05445149739583
 20
152.1963948567708
 10
113.9055365668403
 20
164.8083726671007
  0
LINE
  5
B8
330
A
100
AcDbEntity
  8
WOOD
 62
     7
100
AcDbLine
 10
113.1390028211805
 20
132.0370741102431
 30
0.0
 11
113.9055365668403
 21
132.5593505859375
 31
0.0
  0
LWPOLYLINE
  5
B3
330
A
100
AcDbEntity
  8
WOOD
 62
     7
100
AcDbPolyline
 90
        3
 70
     0
 43
0.0
 10
87.57381049262152
 20
117.1249782986111
 10
89.87978515624999
 20
116.193079969618
 10
109.1702528211805
 20
129.3337076822917
  0
LINE
  5
B2
330
A
100
AcDbEntity
  8
WOOD
 62
     7
100
AcDbLine
 10
83.67964680989583
 20
118.6986979166667
 30
0.0
 11
85.71828206380208
 21
117.8746310763889
 31
0.0
  0
LWPOLYLINE
  5
A6
330
A
100
AcDbEntity
  8
WOOD
 62
     7
100
AcDbPolyline
 90
       10
 70
     0
 43
0.0
 10
85.69778374565972
 20
148.4076510959201
 10
85.69778374565972
 20
150.2237331814236
 10
87.6349609375
 20
149.6439236111111
 10
87.60963948567708
 20
135.2113850911458
 10
89.48687201605902
 20
133.4102891710069
 10
86.16907280815971
 20
130.071302625868
 10
87.59895968967012
 20
128.7325385199653
 10
87.57260470920139
 20
115.0789360894097
 10
85.69433865017361
 20
115.8323784722222
 10
85.69433865017361
 20
120.0691569010417
  0
LINE
  5
A5
330
A
100
AcDbEntity
  8
WOOD
 62
     7
100
AcDbLine
 10
84.5376478407118
 20
130.7155354817708
 30
0.0
 11
86.21265326605902
 21
130.024449327257
 31
0.0
  0
LINE
  5
A4
330
A
100
AcDbEntity
  8
WOOD
 62
     7
100
AcDbLine
 10
85.68882649739582
 20
129.444984266493
 30
0.0
 11
87.60963948567708
 21
128.7325385199653
 31
0.0
  0
LWPOLYLINE
  5
9C
330
A
100
AcDbEntity
  8
WOOD
 62
     7
100
AcDbPolyline
 90
        6
 70
     0
 43
0.0
 10
86.19422200520833
 20
150.0466552734375
 10
86.16958957248264
 20
135.7929172092014
 10
88.08988579644097
 20
133.9456570095486
 10
84.85924750434027
 20
130.5608506944444
 10
86.15822075737846
 20
129.3140706380208
 10
86.13203803168402
 20
115.6480658637153
  0
LINE
  5
9B
330
A
100
AcDbEntity
  8
WOOD
 62
     7
100
AcDbLine
 10
90.05445149739583
 20
147.0893853081597
 30
0.0
 11
111.2896755642361
 21
159.0373209635417
 31
0.0
  0
LINE
  5
9A
330
A
100
AcDbEntity
  8
WOOD
 62
     7
100
AcDbLine
 10
90.01069878472221
 20
147.0885240342882
 30
0.0
 11
90.01069878472221
 21
152.195361328125
 31
0.0
  0
LINE
  5
99
330
A
100
AcDbEntity
  8
WOOD
 62
     7
100
AcDbLine
 10
90.01069878472221
 20
110.8528374565972
 30
0.0
 11
90.01069878472221
 21
116.1965250651042
 31
0.0
  0
LINE
  5
98
330
A
100
AcDbEntity
  8
WOOD
 62
     7
100
AcDbLine
 10
85.69675021701389
 20
136.0581895616319
 30
0.0
 11
87.60963948567708
 21
135.2113850911458
 31
0.0
  0
LINE
  5
97
330
A
100
AcDbEntity
  8
WOOD
 62
     7
100
AcDbLine
 10
87.56605902777777
 20
134.1227349175347
 30
0.0
 11
89.39953884548611
 21
133.4557644314236
 31
0.0
  0
LWPOLYLINE
  5
8F
330
A
100
AcDbEntity
  8
WOOD
 62
     7
100
AcDbPolyline
 90
        6
 70
     0
 43
0.0
 10
87.15471462673611
 20
149.7851725260417
 10
87.12956542968749
 20
135.4339382595486
 10
89.05037841796874
 20
133.5894341362847
 10
85.73240695529513
 20
130.2029052734375
 10
87.11871337890624
 20
128.911683485243
 10
87.0923583984375
 20
115.2095052083333
  0
LWPOLYLINE
  5
87
330
A
100
AcDbEntity
  8
WOOD
 62
     7
100
AcDbPolyline
 90
        6
 70
     0
 43
0.0
 10
86.67446831597222
 20
149.9159138997396
 10
86.64966362847221
 20
135.5676079644097
 10
88.52637939453125
 20
133.8140543619792
 10
85.33949381510416
 20
130.3827392578125
 10
86.63829481336805
 20
129.0412190755208
 10
86.61228434244791
 20
115.4344699435764
  0
LINE
  5
86
330
A
100
AcDbEntity
  8
WOOD
 62
     7
100
AcDbLine
 10
87.56605902777777
 20
117.1332465277778
 30
0.0
 11
109.3366509331597
 21
131.9013373480903
 31
0.0
  0
LINE
  5
85
330
A
100
AcDbEntity
  8
WOOD
 62
     7
100
AcDbLine
 10
83.71857638888888
 20
153.2819444444444
 30
0.0
 11
90.00243055555555
 21
151.4078125
 31
0.0
  0
LINE
  5
84
330
A
100
AcDbEntity
  8
WOOD
 62
     7
100
AcDbLine
 10
83.71857638888888
 20
152.5763888888889
 30
0.0
 11
90.00243055555555
 21
150.7022569444444
 31
0.0
  0
LINE
  5
83
330
A
100
AcDbEntity
  8
WOOD
 62
     7
100
AcDbLine
 10
83.71857638888888
 20
151.8708333333333
 30
0.0
 11
90.00243055555555
 21
149.9967013888889
 31
0.0
  0
LINE
  5
82
330
A
100
AcDbEntity
  8
WOOD
 62
     7
100
AcDbLine
 10
83.71857638888888
 20
151.1652777777778
 30
0.0
 11
90.00243055555555
 21
149.2911458333333
 31
0.0
  0
LINE
  5
81
330
A
100
AcDbEntity
  8
WOOD
 62
     7
100
AcDbLine
 10
87.64753553602429
 20
149.2878729926215
 30
0.0
 11
90.00243055555555
 21
148.5855902777778
 31
0.0
  0
LINE
  5
80
330
A
100
AcDbEntity
  8
WOOD
 62
     7
100
AcDbLine
 10
83.71857638888888
 20
150.4597222222222
 30
0.0
 11
85.74412027994791
 21
149.8556247287326
 31
0.0
  0
LINE
  5
7F
330
A
100
AcDbEntity
  8
WOOD
 62
     7
100
AcDbLine
 10
87.62221408420137
 20
148.5898966471354
 30
0.0
 11
90.00243055555555
 21
147.8800347222222
 31
0.0
  0
LINE
  5
7E
330
A
100
AcDbEntity
  8
WOOD
 62
     7
100
AcDbLine
 10
83.71857638888888
 20
149.7541666666667
 30
0.0
 11
85.73688557942708
 21
149.1523084852431
 31
0.0
  0
LINE
  5
7D
330
A
100
AcDbEntity
  8
WOOD
 62
     7
100
AcDbLine
 10
87.5886244032118
 20
116.2461344401042
 30
0.0
 11
90.02447916666665
 21
115.2480902777778
 31
0.0
  0
LINE
  5
7C
330
A
100
AcDbEntity
  8
WOOD
 62
     7
100
AcDbLine
 10
83.67447916666666
 20
117.8498263888889
 30
0.0
 11
85.70898030598957
 21
117.01611328125
 31
0.0
  0
LINE
  5
7B
330
A
100
AcDbEntity
  8
WOOD
 62
     7
100
AcDbLine
 10
87.57570529513887
 20
115.5457465277778
 30
0.0
 11
90.02447916666665
 21
114.5425347222222
 31
0.0
  0
LINE
  5
7A
330
A
100
AcDbEntity
  8
WOOD
 62
     7
100
AcDbLine
 10
83.67447916666666
 20
117.1442708333333
 30
0.0
 11
85.72706705729166
 21
116.3033230251736
 31
0.0
  0
LINE
  5
79
330
A
100
AcDbEntity
  8
WOOD
 62
     7
100
AcDbLine
 10
83.67447916666666
 20
116.4387152777778
 30
0.0
 11
90.02447916666665
 21
113.7635986328125
 31
0.0
  0
LINE
  5
78
330
A
100
AcDbEntity
  8
WOOD
 62
     7
100
AcDbLine
 10
83.67447916666666
 20
115.7331597222222
 30
0.0
 11
90.02447916666665
 21
113.0580430772569
 31
0.0
  0
LINE
  5
77
330
A
100
AcDbEntity
  8
WOOD
 62
     7
100
AcDbLine
 10
83.67447916666666
 20
115.0276041666667
 30
0.0
 11
90.02447916666665
 21
112.3524875217014
 31
0.0
  0
LINE
  5
76
330
A
100
AcDbEntity
  8
WOOD
 62
     7
100
AcDbLine
 10
83.67447916666666
 20
114.3220486111111
 30
0.0
 11
90.02447916666665
 21
111.6469319661458
 31
0.0
  0
LINE
  5
75
330
A
100
AcDbEntity
  8
WOOD
 62
     7
100
AcDbLine
 10
115.6756266276042
 20
162.83037109375
 30
0.0
 11
116.0215142144097
 21
163.0479288736979
 31
0.0
  0
SPLINE
  5
73
330
A
100
AcDbEntity
  8
IUS
 62
     7
100
AcDbSpline
210
0.0
220
0.0
230
1.0
 70
     8
 71
     3
 72
    11
 73
     7
 74
     0
 42
0.0000000001
 43
0.0000000001
 40
0.0
 40
0.0
 40
0.0
 40
0.0
 40
1.0
 40
1.0
 40
1.0
 40
2.0
 40
2.0
 40
2.0
 40
2.0
 10
116.0745686848958
 20
159.6846544053819
 30
0.0
 10
116.2733506944444
 20
159.7272013346354
 30
0.0
 10
116.4790228949653
 20
159.5594251844618
 30
0.0
 10
116.5306993272569
 20
159.309828016493
 30
0.0
 10
116.5823757595486
 20
159.0604031032986
 30
0.0
 10
116.4652425130208
 20
158.8237250434028
 30
0.0
 10
116.2681830512153
 20
158.7815226236979
 30
0.0
  0
SPLINE
  5
72
330
A
100
AcDbEntity
  8
IUS
 62
     7
100
AcDbSpline
210
0.0
220
0.0
230
1.0
 70
    11
 71
     3
 72
    23
 73
    19
 74
     0
 42
0.0000000001
 43
0.0000000001
 40
0.0
 40
0.0
 40
0.0
 40
0.0
 40
1.0
 40
1.0
 40
1.0
 40
2.0
 40
2.0
 40
2.0
 40
3.0
 40
3.0
 40
3.0
 40
4.0
 40
4.0
 40
4.0
 40
5.0
 40
5.0
 40
5.0
 40
6.0
 40
6.0
 40
6.0
 40
6.0
 10
116.2664605034722
 20
159.7371921115451
 30
0.0
 10
116.2323540581597
 20
159.72978515625
 30
0.0
 10
116.1303792317708
 20
159.6992960611979
 30
0.0
 10
116.1079861111111
 20
159.6944729275174
 30
0.0
 10
115.9081705729167
 20
159.6517537434896
 30
0.0
 10
115.7893147786458
 20
159.4138699001736
 30
0.0
 10
115.8427137586806
 20
159.1628946940104
 30
0.0
 10
115.8968017578125
 20
158.9119194878472
 30
0.0
 10
116.1017849392361
 20
158.7434543185764
 30
0.0
 10
116.3022894965278
 20
158.7860012478299
 30
0.0
 10
116.3363959418403
 20
158.793408203125
 30
0.0
 10
116.4383707682292
 20
158.8238972981771
 30
0.0
 10
116.4607638888889
 20
158.8287204318576
 30
0.0
 10
116.6605794270833
 20
158.8714396158854
 30
0.0
 10
116.7790907118056
 20
159.1093234592014
 30
0.0
 10
116.7253472222222
 20
159.3602986653646
 30
0.0
 10
116.6719482421875
 20
159.6112738715278
 30
0.0
 10
116.4666205512153
 20
159.7799112955729
 30
0.0
 10
116.2664605034722
 20
159.7371921115451
 30
0.0
  0
SPLINE
  5
71
330
A
100
AcDbEntity
  8
IUS
 62
     7
100
AcDbSpline
210
0.0
220
0.0
230
1.0
 70
     8
 71
     3
 72
    44
 73
    40
 74
     0
 42
0.0000000001
 43
0.0000000001
 40
0.0
 40
0.0
 40
0.0
 40
0.0
 40
1.0
 40
1.0
 40
1.0
 40
2.0
 40
2.0
 40
2.0
 40
3.0
 40
3.0
 40
3.0
 40
4.0
 40
4.0
 40
4.0
 40
5.0
 40
5.0
 40
5.0
 40
6.0
 40
6.0
 40
6.0
 40
7.0
 40
7.0
 40
7.0
 40
8.0
 40
8.0
 40
8.0
 40
9.0
 40
9.0
 40
9.0
 40
10.0
 40
10.0
 40
10.0
 40
11.0
 40
11.0
 40
11.0
 40
12.0
 40
12.0
 40
12.0
 40
13.0
 40
13.0
 40
13.0
 40
13.0
 10
109.2463894314236
 20
124.4103217230903
 30
0.0
 10
109.5109727647569
 20
124.5277994791667
 30
0.0
 10
109.5778076171875
 20
124.8898790147569
 30
0.0
 10
109.5778076171875
 20
124.9980550130208
 30
0.0
 10
109.5778076171875
 20
125.1055419921875
 30
0.0
 10
109.5778076171875
 20
130.4878146701389
 30
0.0
 10
109.5778076171875
 20
130.4878146701389
 30
0.0
 10
109.5778076171875
 20
130.4878146701389
 30
0.0
 10
109.5447347005208
 20
131.0876057942708
 30
0.0
 10
109.7335259331597
 20
131.7897162543403
 30
0.0
 10
109.7541965060764
 20
131.8661973741319
 30
0.0
 10
110.643031141493
 20
135.8600965711806
 30
0.0
 10
110.6526774088542
 20
135.8914469401042
 30
0.0
 10
110.8145968967014
 20
136.4144124348958
 30
0.0
 10
110.7601643880208
 20
136.8378146701389
 30
0.0
 10
110.7601643880208
 20
136.8378146701389
 30
0.0
 10
110.7601643880208
 20
136.8378146701389
 30
0.0
 10
110.7601643880208
 20
140.8243069118923
 30
0.0
 10
110.7601643880208
 20
140.8243069118923
 30
0.0
 10
110.7601643880208
 20
140.8243069118923
 30
0.0
 10
110.7443169487847
 20
141.353473578559
 30
0.0
 10
110.9448215060764
 20
141.7651624891493
 30
0.0
 10
111.1653076171875
 20
142.2178480360243
 30
0.0
 10
111.4174886067708
 20
142.9178914388021
 30
0.0
 10
111.4832899305555
 20
143.1030653211805
 30
0.0
 10
111.6262613932292
 20
143.505280219184
 30
0.0
 10
111.6452094184028
 20
143.9286824544271
 30
0.0
 10
111.6452094184028
 20
143.9286824544271
 30
0.0
 10
111.6452094184028
 20
143.9286824544271
 30
0.0
 10
111.6452094184028
 20
160.0970323350694
 30
0.0
 10
111.6452094184028
 20
160.0970323350694
 30
0.0
 10
111.6452094184028
 20
160.0970323350694
 30
0.0
 10
112.1151204427083
 20
160.8377278645833
 30
0.0
 10
112.1151204427083
 20
160.8377278645833
 30
0.0
 10
112.1151204427083
 20
160.8377278645833
 30
0.0
 10
113.6230387369792
 20
162.0035481770833
 30
0.0
 10
113.6230387369792
 20
162.0035481770833
 30
0.0
 10
113.6230387369792
 20
162.0035481770833
 30
0.0
 10
114.6572564019097
 20
162.5501125759548
 30
0.0
 10
114.6572564019097
 20
162.5501125759548
 30
0.0
  0
LINE
  5
70
330
A
100
AcDbEntity
  8
IUS
 62
     7
100
AcDbLine
 10
113.4855794270833
 20
162.3301432291667
 30
0.0
 11
113.6740261501736
 21
162.0376546223958
 31
0.0
  0
LINE
  5
6F
330
A
100
AcDbEntity
  8
IUS
 62
     7
100
AcDbLine
 10
111.8529486762153
 20
161.0825018988715
 30
0.0
 11
112.1127088758681
 21
160.8287706163194
 31
0.0
  0
LINE
  5
6E
330
A
100
AcDbEntity
  8
IUS
 62
     7
100
AcDbLine
 10
112.0348497178819
 20
160.2436211480035
 30
0.0
 11
113.1341796875
 21
160.7877739800347
 31
0.0
  0
LINE
  5
6D
330
A
100
AcDbEntity
  8
IUS
 62
     7
100
AcDbLine
 10
114.6744818793403
 20
164.5360378689236
 30
0.0
 11
115.4306803385417
 21
164.3376003689236
 31
0.0
  0
LWPOLYLINE
  5
68
330
A
100
AcDbEntity
  8
IUS
 62
     7
100
AcDbPolyline
 90
        3
 70
     0
 43
0.0
 10
114.3609781901042
 20
163.4029459635416
 10
114.3609781901042
 20
163.0954711914062
 10
113.9599690755208
 20
163.2008911132812
  0
SPLINE
  5
67
330
A
100
AcDbEntity
  8
IUS
 62
     7
100
AcDbSpline
210
0.0
220
0.0
230
1.0
 70
     8
 71
     3
 72
    38
 73
    34
 74
     0
 42
0.0000000001
 43
0.0000000001
 40
0.0
 40
0.0
 40
0.0
 40
0.0
 40
1.0
 40
1.0
 40
1.0
 40
2.0
 40
2.0
 40
2.0
 40
3.0
 40
3.0
 40
3.0
 40
4.0
 40
4.0
 40
4.0
 40
5.0
 40
5.0
 40
5.0
 40
6.0
 40
6.0
 40
6.0
 40
7.0
 40
7.0
 40
7.0
 40
8.0
 40
8.0
 40
8.0
 40
9.0
 40
9.0
 40
9.0
 40
10.0
 40
10.0
 40
10.0
 40
11.0
 40
11.0
 40
11.0
 40
11.0
 10
117.2865532769097
 20
165.6994466145833
 30
0.0
 10
117.2865532769097
 20
165.6994466145833
 30
0.0
 10
116.0893825954861
 20
164.8548814561632
 30
0.0
 10
115.9843071831597
 20
164.7875298394097
 30
0.0
 10
115.8792317708333
 20
164.7205227322048
 30
0.0
 10
115.6756266276042
 20
164.5770345052083
 30
0.0
 10
115.6756266276042
 20
164.3220974392361
 30
0.0
 10
115.6756266276042
 20
164.0657823350694
 30
0.0
 10
115.6756266276042
 20
162.83037109375
 30
0.0
 10
115.6756266276042
 20
162.83037109375
 30
0.0
 10
115.6756266276042
 20
162.83037109375
 30
0.0
 10
116.3515543619792
 20
162.638134765625
 30
0.0
 10
116.3515543619792
 20
162.638134765625
 30
0.0
 10
116.3515543619792
 20
162.638134765625
 30
0.0
 10
117.0832926432292
 20
161.4843722873264
 30
0.0
 10
117.0832926432292
 20
161.4843722873264
 30
0.0
 10
117.0832926432292
 20
161.4843722873264
 30
0.0
 10
117.0832926432292
 20
144.034619140625
 30
0.0
 10
117.0832926432292
 20
144.034619140625
 30
0.0
 10
117.0832926432292
 20
144.034619140625
 30
0.0
 10
117.0943169487847
 20
143.5759046766493
 30
0.0
 10
116.8824435763889
 20
143.3642035590278
 30
0.0
 10
116.8614284939236
 20
143.3431884765625
 30
0.0
 10
116.3226155598958
 20
142.8055813259549
 30
0.0
 10
116.3177924262153
 20
142.7998969184028
 30
0.0
 10
116.0518310546875
 20
142.4753689236111
 30
0.0
 10
116.0893825954861
 20
142.0590291341146
 30
0.0
 10
116.0893825954861
 20
142.0590291341146
 30
0.0
 10
116.0893825954861
 20
142.0590291341146
 30
0.0
 10
116.0893825954861
 20
138.3901746961805
 30
0.0
 10
116.0893825954861
 20
138.3901746961805
 30
0.0
 10
116.0893825954861
 20
138.3901746961805
 30
0.0
 10
116.1007514105903
 20
137.8003743489583
 30
0.0
 10
115.9298746744792
 20
137.5082302517361
 30
0.0
  0
LINE
  5
66
330
A
100
AcDbEntity
  8
IUS
 62
     7
100
AcDbLine
 10
113.607191297743
 20
159.5396158854167
 30
0.0
 11
113.607191297743
 21
159.2268012152778
 31
0.0
  0
LINE
  5
65
330
A
100
AcDbEntity
  8
IUS
 62
     7
100
AcDbLine
 10
113.607191297743
 20
158.9344848632812
 30
0.0
 11
113.607191297743
 21
136.4171685112847
 31
0.0
  0
LINE
  5
64
330
A
100
AcDbEntity
  8
IUS
 62
     7
100
AcDbLine
 10
113.607191297743
 20
136.0406195746528
 30
0.0
 11
113.607191297743
 21
135.6527018229166
 31
0.0
  0
SPLINE
  5
63
330
A
100
AcDbEntity
  8
IUS
 62
     7
100
AcDbSpline
210
0.0
220
0.0
230
1.0
 70
     8
 71
     3
 72
    35
 73
    31
 74
     0
 42
0.0000000001
 43
0.0000000001
 40
0.0
 40
0.0
 40
0.0
 40
0.0
 40
1.0
 40
1.0
 40
1.0
 40
2.0
 40
2.0
 40
2.0
 40
3.0
 40
3.0
 40
3.0
 40
4.0
 40
4.0
 40
4.0
 40
5.0
 40
5.0
 40
5.0
 40
6.0
 40
6.0
 40
6.0
 40
7.0
 40
7.0
 40
7.0
 40
8.0
 40
8.0
 40
8.0
 40
9.0
 40
9.0
 40
9.0
 40
10.0
 40
10.0
 40
10.0
 40
10.0
 10
115.4744330512153
 20
158.8207967122396
 30
0.0
 10
115.4744330512153
 20
158.8207967122396
 30
0.0
 10
115.4744330512153
 20
156.0802232530382
 30
0.0
 10
115.4744330512153
 20
156.0132161458333
 30
0.0
 10
115.4744330512153
 20
155.9463812934028
 30
0.0
 10
115.4448052300347
 20
155.9124471028646
 30
0.0
 10
115.3827935112847
 20
155.8318318684896
 30
0.0
 10
115.3376627604167
 20
155.7727484809028
 30
0.0
 10
115.2029595269097
 20
155.6156521267361
 30
0.0
 10
115.1437038845486
 20
155.6156521267361
 30
0.0
 10
115.0847927517361
 20
155.6156521267361
 30
0.0
 10
114.9280409071181
 20
155.8147786458333
 30
0.0
 10
114.8453586154514
 20
155.8974609375
 30
0.0
 10
114.7633653428819
 20
155.9794542100694
 30
0.0
 10
114.7730116102431
 20
156.0919365776909
 30
0.0
 10
114.7730116102431
 20
156.174274359809
 30
0.0
 10
114.7730116102431
 20
156.2705647786458
 30
0.0
 10
114.7799018012153
 20
156.2576456705729
 30
0.0
 10
114.7799018012153
 20
158.9482652452257
 30
0.0
 10
114.7799018012153
 20
158.9482652452257
 30
0.0
 10
114.7785237630208
 20
158.9430976019965
 30
0.0
 10
114.7785237630208
 20
158.9430976019965
 30
0.0
 10
114.7785237630208
 20
157.002992078993
 30
0.0
 10
114.7785237630208
 20
157.0072984483507
 30
0.0
 10
114.7785237630208
 20
156.9309895833333
 30
0.0
 10
114.7785237630208
 20
156.86484375
 30
0.0
 10
114.7881700303819
 20
156.7682088216146
 30
0.0
 10
114.8525933159722
 20
156.7413370768229
 30
0.0
 10
114.9170166015625
 20
156.716015625
 30
0.0
 10
115.4727105034722
 20
156.5423828125
 30
0.0
 10
115.4727105034722
 20
156.5423828125
 30
0.0
  0
SPLINE
  5
62
330
A
100
AcDbEntity
  8
IUS
 62
     7
100
AcDbSpline
210
0.0
220
0.0
230
1.0
 70
    11
 71
     3
 72
    23
 73
    19
 74
     0
 42
0.0000000001
 43
0.0000000001
 40
0.0
 40
0.0
 40
0.0
 40
0.0
 40
1.0
 40
1.0
 40
1.0
 40
2.0
 40
2.0
 40
2.0
 40
3.0
 40
3.0
 40
3.0
 40
4.0
 40
4.0
 40
4.0
 40
5.0
 40
5.0
 40
5.0
 40
6.0
 40
6.0
 40
6.0
 40
6.0
 10
111.6741482204861
 20
141.7017727322049
 30
0.0
 10
111.5907769097222
 20
141.58515625
 30
0.0
 10
111.3837266710069
 20
141.2744086371528
 30
0.0
 10
111.3327392578125
 20
141.1924153645833
 30
0.0
 10
111.2831298828125
 20
141.1097330729166
 30
0.0
 10
111.1597954644097
 20
140.9602159288194
 30
0.0
 10
111.3658121744792
 20
140.8849405924479
 30
0.0
 10
111.4443603515625
 20
140.8560017903646
 30
0.0
 10
111.6531331380208
 20
140.7907172309028
 30
0.0
 10
111.7709554036458
 20
140.7567830403646
 30
0.0
 10
111.8543267144097
 20
140.7328396267361
 30
0.0
 10
111.9097927517361
 20
140.7485148111979
 30
0.0
 10
111.9097927517361
 20
140.8790839301215
 30
0.0
 10
111.9097927517361
 20
141.010169813368
 30
0.0
 10
111.9097927517361
 20
141.5872233072917
 30
0.0
 10
111.9097927517361
 20
141.6852362738715
 30
0.0
 10
111.9097927517361
 20
141.7841105143229
 30
0.0
 10
111.7561414930556
 20
141.8183892144097
 30
0.0
 10
111.6741482204861
 20
141.7017727322049
 30
0.0
  0
SPLINE
  5
61
330
A
100
AcDbEntity
  8
IUS
 62
     7
100
AcDbSpline
210
0.0
220
0.0
230
1.0
 70
     8
 71
     3
 72
    11
 73
     7
 74
     0
 42
0.0000000001
 43
0.0000000001
 40
0.0
 40
0.0
 40
0.0
 40
0.0
 40
1.0
 40
1.0
 40
1.0
 40
2.0
 40
2.0
 40
2.0
 40
2.0
 10
111.5825086805556
 20
140.8189670138889
 30
0.0
 10
111.5831976996528
 20
140.8255126953125
 30
0.0
 10
111.58388671875
 20
140.9262817382812
 30
0.0
 10
111.58388671875
 20
140.9336886935764
 30
0.0
 10
111.58388671875
 20
141.0156819661458
 30
0.0
 10
111.58388671875
 20
141.4349500868055
 30
0.0
 10
111.58388671875
 20
141.5465711805555
 30
0.0
  0
SPLINE
  5
60
330
A
100
AcDbEntity
  8
IUS
 62
     7
100
AcDbSpline
210
0.0
220
0.0
230
1.0
 70
     8
 71
     3
 72
    14
 73
    10
 74
     0
 42
0.0000000001
 43
0.0000000001
 40
0.0
 40
0.0
 40
0.0
 40
0.0
 40
1.0
 40
1.0
 40
1.0
 40
2.0
 40
2.0
 40
2.0
 40
3.0
 40
3.0
 40
3.0
 40
3.0
 10
115.1533501519097
 20
163.5345486111111
 30
0.0
 10
115.1530056423611
 20
163.5298977322049
 30
0.0
 10
115.1516276041667
 20
163.3926106770833
 30
0.0
 10
115.1516276041667
 20
163.3876152886285
 30
0.0
 10
115.1516276041667
 20
163.2017523871528
 30
0.0
 10
115.1626519097222
 20
163.186077202691
 30
0.0
 10
115.1626519097222
 20
162.9395806206597
 30
0.0
 10
115.1626519097222
 20
162.8277872721354
 30
0.0
 10
115.2598036024306
 20
162.7361477322048
 30
0.0
 10
115.3252604166667
 20
162.7022135416667
 30
0.0
  0
LINE
  5
5F
330
A
100
AcDbEntity
  8
IUS
 62
     7
100
AcDbLine
 10
116.3536214192708
 20
162.6422688802083
 30
0.0
 11
116.627162000868
 21
162.8498358832465
 31
0.0
  0
LINE
  5
5E
330
A
100
AcDbEntity
  8
IUS
 62
     7
100
AcDbLine
 10
117.0857042100694
 20
161.480238172743
 30
0.0
 11
117.4660427517361
 21
161.6166639539931
 31
0.0
  0
SPLINE
  5
5D
330
A
100
AcDbEntity
  8
IUS
 62
     7
100
AcDbSpline
210
0.0
220
0.0
230
1.0
 70
     8
 71
     3
 72
    11
 73
     7
 74
     0
 42
0.0000000001
 43
0.0000000001
 40
0.0
 40
0.0
 40
0.0
 40
0.0
 40
1.0
 40
1.0
 40
1.0
 40
2.0
 40
2.0
 40
2.0
 40
2.0
 10
112.7679660373264
 20
127.0533989800347
 30
0.0
 10
112.7679660373264
 20
127.0533989800347
 30
0.0
 10
112.7845024956597
 20
134.9664388020833
 30
0.0
 10
112.7679660373264
 20
135.1707329644097
 30
0.0
 10
112.7286919487847
 20
135.6737169053819
 30
0.0
 10
112.3318169487847
 20
135.5414252387153
 30
0.0
 10
112.2315646701389
 20
135.3199055989583
 30
0.0
  0
SPLINE
  5
5C
330
A
100
AcDbEntity
  8
IUS
 62
     7
100
AcDbSpline
210
0.0
220
0.0
230
1.0
 70
     8
 71
     3
 72
     8
 73
     4
 74
     0
 42
0.0000000001
 43
0.0000000001
 40
0.0
 40
0.0
 40
0.0
 40
0.0
 40
1.0
 40
1.0
 40
1.0
 40
1.0
 10
112.2453450520833
 20
128.7418402777778
 30
0.0
 10
112.2450005425347
 20
128.0094129774305
 30
0.0
 10
112.2443115234375
 20
127.5136637369792
 30
0.0
 10
112.2443115234375
 20
127.5136637369792
 30
0.0
  0
SPLINE
  5
5B
330
A
100
AcDbEntity
  8
IUS
 62
     7
100
AcDbSpline
210
0.0
220
0.0
230
1.0
 70
     8
 71
     3
 72
     8
 73
     4
 74
     0
 42
0.0000000001
 43
0.0000000001
 40
0.0
 40
0.0
 40
0.0
 40
0.0
 40
1.0
 40
1.0
 40
1.0
 40
1.0
 10
112.2470675998264
 20
130.4351047092014
 30
0.0
 10
112.2467230902778
 20
130.0072238498264
 30
0.0
 10
112.2463785807292
 20
129.5931233723958
 30
0.0
 10
112.2456895616319
 20
129.2176079644097
 30
0.0
  0
SPLINE
  5
5A
330
A
100
AcDbEntity
  8
IUS
 62
     7
100
AcDbSpline
210
0.0
220
0.0
230
1.0
 70
     8
 71
     3
 72
     8
 73
     4
 74
     0
 42
0.0000000001
 43
0.0000000001
 40
0.0
 40
0.0
 40
0.0
 40
0.0
 40
1.0
 40
1.0
 40
1.0
 40
1.0
 10
112.2481011284722
 20
132.5779541015625
 30
0.0
 10
112.2477566189236
 20
132.0680799696181
 30
0.0
 10
112.247412109375
 20
131.512730577257
 30
0.0
 10
112.2470675998264
 20
130.9628933376736
 30
0.0
  0
SPLINE
  5
59
330
A
100
AcDbEntity
  8
IUS
 62
     7
100
AcDbSpline
210
0.0
220
0.0
230
1.0
 70
     8
 71
     3
 72
     8
 73
     4
 74
     0
 42
0.0000000001
 43
0.0000000001
 40
0.0
 40
0.0
 40
0.0
 40
0.0
 40
1.0
 40
1.0
 40
1.0
 40
1.0
 10
112.2443115234375
 20
134.7721354166667
 30
0.0
 10
112.2470675998264
 20
134.7721354166667
 30
0.0
 10
112.2477566189236
 20
134.0724365234375
 30
0.0
 10
112.2481011284722
 20
133.1071207682292
 30
0.0
  0
SPLINE
  5
58
330
A
100
AcDbEntity
  8
IUS
 62
     7
100
AcDbSpline
210
0.0
220
0.0
230
1.0
 70
     8
 71
     3
 72
     8
 73
     4
 74
     0
 42
0.0000000001
 43
0.0000000001
 40
0.0
 40
0.0
 40
0.0
 40
0.0
 40
1.0
 40
1.0
 40
1.0
 40
1.0
 10
112.2443115234375
 20
127.0299723307292
 30
0.0
 10
112.2443115234375
 20
127.0299723307292
 30
0.0
 10
112.2522352430556
 20
126.7571207682292
 30
0.0
 10
112.1199435763889
 20
126.598646375868
 30
0.0
  0
SPLINE
  5
57
330
A
100
AcDbEntity
  8
IUS
 62
     7
100
AcDbSpline
210
0.0
220
0.0
230
1.0
 70
     8
 71
     3
 72
    11
 73
     7
 74
     0
 42
0.0000000001
 43
0.0000000001
 40
0.0
 40
0.0
 40
0.0
 40
0.0
 40
1.0
 40
1.0
 40
1.0
 40
2.0
 40
2.0
 40
2.0
 40
2.0
 10
110.9138156467014
 20
125.5751085069444
 30
0.0
 10
110.891078016493
 20
125.575453016493
 30
0.0
 10
110.9151936848958
 20
131.739417860243
 30
0.0
 10
110.9138156467014
 20
131.7449300130208
 30
0.0
 10
110.8380235460069
 20
132.1635091145833
 30
0.0
 10
110.4549289279514
 20
131.9147732204861
 30
0.0
 10
110.4673312717014
 20
131.89892578125
 30
0.0
  0
LINE
  5
56
330
A
100
AcDbEntity
  8
IUS
 62
     7
100
AcDbLine
 10
110.3477864583333
 20
127.1188557942708
 30
0.0
 11
110.3477864583333
 21
125.9502794053819
 31
0.0
  0
LINE
  5
55
330
A
100
AcDbEntity
  8
IUS
 62
     7
100
AcDbLine
 10
110.3477864583333
 20
129.2089952256944
 30
0.0
 11
110.3477864583333
 21
127.7537868923611
 31
0.0
  0
LINE
  5
54
330
A
100
AcDbEntity
  8
IUS
 62
     7
100
AcDbLine
 10
110.3477864583333
 20
131.4579535590278
 30
0.0
 11
110.3477864583333
 21
129.8177435980903
 31
0.0
  0
SPLINE
  5
53
330
A
100
AcDbEntity
  8
IUS
 62
     7
100
AcDbSpline
210
0.0
220
0.0
230
1.0
 70
     8
 71
     3
 72
     8
 73
     4
 74
     0
 42
0.0000000001
 43
0.0000000001
 40
0.0
 40
0.0
 40
0.0
 40
0.0
 40
1.0
 40
1.0
 40
1.0
 40
1.0
 10
110.3477864583333
 20
125.6460774739583
 30
0.0
 10
110.3477864583333
 20
125.6460774739583
 30
0.0
 10
110.3743136935764
 20
125.2688395182292
 30
0.0
 10
110.2265190972222
 20
125.1079535590278
 30
0.0
  0
SPLINE
  5
52
330
A
100
AcDbEntity
  8
IUS
 62
     7
100
AcDbSpline
210
0.0
220
0.0
230
1.0
 70
     8
 71
     3
 72
    14
 73
    10
 74
     0
 42
0.0000000001
 43
0.0000000001
 40
0.0
 40
0.0
 40
0.0
 40
0.0
 40
1.0
 40
1.0
 40
1.0
 40
2.0
 40
2.0
 40
2.0
 40
3.0
 40
3.0
 40
3.0
 40
3.0
 10
111.6965413411458
 20
134.4038547092014
 30
0.0
 10
111.6510660807292
 20
134.5227105034722
 30
0.0
 10
111.5911214192708
 20
134.5895453559028
 30
0.0
 10
111.5649386935764
 20
134.5475151909722
 30
0.0
 10
111.5235975477431
 20
134.4817138671875
 30
0.0
 10
111.3754584418403
 20
134.2264322916667
 30
0.0
 10
111.3506537543403
 20
133.4771240234375
 30
0.0
 10
111.3582329644097
 20
133.4847032335069
 30
0.0
 10
111.3603000217014
 20
131.1399712456597
 30
0.0
 10
111.3506537543403
 20
131.1296359592014
 30
0.0
  0
SPLINE
  5
51
330
A
100
AcDbEntity
  8
IUS
 62
     7
100
AcDbSpline
210
0.0
220
0.0
230
1.0
 70
     8
 71
     3
 72
     8
 73
     4
 74
     0
 42
0.0000000001
 43
0.0000000001
 40
0.0
 40
0.0
 40
0.0
 40
0.0
 40
1.0
 40
1.0
 40
1.0
 40
1.0
 10
111.8026502821181
 20
133.6893419053819
 30
0.0
 10
111.759242078993
 20
134.0255832248264
 30
0.0
 10
111.7747450086805
 20
133.9618489583333
 30
0.0
 10
111.7409830729167
 20
134.14375
 30
0.0
  0
SPLINE
  5
50
330
A
100
AcDbEntity
  8
IUS
 62
     7
100
AcDbSpline
210
0.0
220
0.0
230
1.0
 70
    11
 71
     3
 72
    17
 73
    13
 74
     0
 42
0.0000000001
 43
0.0000000001
 40
0.0
 40
0.0
 40
0.0
 40
0.0
 40
1.0
 40
1.0
 40
1.0
 40
2.0
 40
2.0
 40
2.0
 40
3.0
 40
3.0
 40
3.0
 40
4.0
 40
4.0
 40
4.0
 40
4.0
 10
114.8584499782986
 20
163.3603990342882
 30
0.0
 10
114.8584499782986
 20
163.6902669270833
 30
0.0
 10
115.3197482638889
 20
163.6358344184028
 30
0.0
 10
115.3197482638889
 20
163.2124321831597
 30
0.0
 10
115.3197482638889
 20
162.7883409288194
 30
0.0
 10
115.3197482638889
 20
162.7097927517361
 30
0.0
 10
115.3197482638889
 20
162.5149726019965
 30
0.0
 10
115.3197482638889
 20
162.2405707465278
 30
0.0
 10
114.8746419270833
 20
162.3418565538194
 30
0.0
 10
114.8746419270833
 20
162.7097927517361
 30
0.0
 10
114.8746419270833
 20
163.0792792426215
 30
0.0
 10
114.8584499782986
 20
163.1028781467014
 30
0.0
 10
114.8584499782986
 20
163.3603990342882
 30
0.0
  0
SPLINE
  5
4F
330
A
100
AcDbEntity
  8
IUS
 62
     7
100
AcDbSpline
210
0.0
220
0.0
230
1.0
 70
     8
 71
     3
 72
     8
 73
     4
 74
     0
 42
0.0000000001
 43
0.0000000001
 40
0.0
 40
0.0
 40
0.0
 40
0.0
 40
1.0
 40
1.0
 40
1.0
 40
1.0
 10
106.3268432617187
 20
165.6565551757812
 30
0.0
 10
106.4336412217882
 20
165.7614583333333
 30
0.0
 10
106.6648071289063
 20
165.6798095703125
 30
0.0
 10
106.687200249566
 20
165.4172932942708
 30
0.0
  0
LWPOLYLINE
  5
49
330
A
100
AcDbEntity
  8
IUS
 62
     7
100
AcDbPolyline
 90
        4
 70
     0
 43
0.0
 10
113.9468777126736
 20
162.5778455946181
 10
114.4939588758681
 20
162.8668891059028
 10
114.6724148220486
 20
162.5559692382812
 10
113.7908148871528
 20
161.1743136935764
  0
LINE
  5
48
330
A
100
AcDbEntity
  8
IUS
 62
     7
100
AcDbLine
 10
111.8288330078125
 20
133.4778130425347
 30
0.0
 11
111.8288330078125
 21
131.6784396701389
 31
0.0
  0
LWPOLYLINE
  5
43
330
A
100
AcDbEntity
  8
IUS
 62
     7
100
AcDbPolyline
 90
        3
 70
     1
 43
0.0
 10
111.0881374782986
 20
128.0008002387153
 10
111.6965413411458
 20
128.4238579644097
 10
111.405775282118
 20
128.8737874348958
  0
LINE
  5
42
330
A
100
AcDbEntity
  8
IUS
 62
     7
100
AcDbLine
 10
111.3261935763889
 20
128.6092041015625
 30
0.0
 11
111.6965413411458
 21
128.4238579644097
 31
0.0
  0
LWPOLYLINE
  5
3D
330
A
100
AcDbEntity
  8
IUS
 62
     7
100
AcDbPolyline
 90
        3
 70
     1
 43
0.0
 10
111.5291097005208
 20
129.8236002604167
 10
112.1375135633681
 20
130.2466579861111
 10
111.8467475043403
 20
130.6965874565972
  0
LINE
  5
3C
330
A
100
AcDbEntity
  8
IUS
 62
     7
100
AcDbLine
 10
111.7671657986111
 20
130.4320041232639
 30
0.0
 11
112.1375135633681
 21
130.2466579861111
 31
0.0
  0
LWPOLYLINE
  5
37
330
A
100
AcDbEntity
  8
IUS
 62
     7
100
AcDbPolyline
 90
        3
 70
     0
 43
0.0
 10
105.5604817708333
 20
165.4886067708333
 10
106.1840440538194
 20
165.8026272243924
 10
106.5657606336805
 20
165.3719902886285
  0
SPLINE
  5
36
330
A
100
AcDbEntity
  8
IUS
 62
     7
100
AcDbSpline
210
0.0
220
0.0
230
1.0
 70
    11
 71
     3
 72
    17
 73
    13
 74
     0
 42
0.0000000001
 43
0.0000000001
 40
0.0
 40
0.0
 40
0.0
 40
0.0
 40
1.0
 40
1.0
 40
1.0
 40
2.0
 40
2.0
 40
2.0
 40
3.0
 40
3.0
 40
3.0
 40
4.0
 40
4.0
 40
4.0
 40
4.0
 10
113.5065945095486
 20
160.9353963216146
 30
0.0
 10
113.4500949435764
 20
160.7874294704861
 30
0.0
 10
112.8913004557292
 20
159.9349405924479
 30
0.0
 10
113.7591200086805
 20
159.9349405924479
 30
0.0
 10
114.6276285807292
 20
159.9349405924479
 30
0.0
 10
114.1415256076389
 20
160.7328247070312
 30
0.0
 10
114.1115532769097
 20
160.9171373155382
 30
0.0
 10
114.0808919270833
 20
161.1073065863715
 30
0.0
 10
113.9654812282986
 20
161.1689737955729
 30
0.0
 10
113.7970160590278
 20
161.1689737955729
 30
0.0
 10
113.6264838324653
 20
161.1689737955729
 30
0.0
 10
113.5775634765625
 20
161.1234985351562
 30
0.0
 10
113.5065945095486
 20
160.9353963216146
 30
0.0
  0
SPLINE
  5
35
330
A
100
AcDbEntity
  8
IUS
 62
     7
100
AcDbSpline
210
0.0
220
0.0
230
1.0
 70
     8
 71
     3
 72
    14
 73
    10
 74
     0
 42
0.0000000001
 43
0.0000000001
 40
0.0
 40
0.0
 40
0.0
 40
0.0
 40
1.0
 40
1.0
 40
1.0
 40
2.0
 40
2.0
 40
2.0
 40
3.0
 40
3.0
 40
3.0
 40
3.0
 10
115.4244791666667
 20
155.8947048611111
 30
0.0
 10
115.3817599826389
 20
155.9355292426215
 30
0.0
 10
115.2573920355903
 20
156.0755723741319
 30
0.0
 10
115.223974609375
 20
156.1086452907986
 30
0.0
 10
115.1733317057292
 20
156.1594604492187
 30
0.0
 10
115.1629964192708
 20
156.2306016710069
 30
0.0
 10
115.1629964192708
 20
156.28193359375
 30
0.0
 10
115.1629964192708
 20
156.2924411349826
 30
0.0
 10
115.1629964192708
 20
156.5151665581597
 30
0.0
 10
115.1629964192708
 20
156.6443576388889
 30
0.0
  0
SPLINE
  5
34
330
A
100
AcDbEntity
  8
IUS
 62
     7
100
AcDbSpline
210
0.0
220
0.0
230
1.0
 70
    11
 71
     3
 72
    17
 73
    13
 74
     0
 42
0.0000000001
 43
0.0000000001
 40
0.0
 40
0.0
 40
0.0
 40
0.0
 40
1.0
 40
1.0
 40
1.0
 40
2.0
 40
2.0
 40
2.0
 40
3.0
 40
3.0
 40
3.0
 40
4.0
 40
4.0
 40
4.0
 40
4.0
 10
111.4033637152778
 20
131.7817925347222
 30
0.0
 10
111.4033637152778
 20
131.7817925347222
 30
0.0
 10
111.8291775173611
 20
131.3890516493055
 30
0.0
 10
111.8291775173611
 20
131.3890516493055
 30
0.0
 10
111.8291775173611
 20
131.3890516493055
 30
0.0
 10
111.4829454210069
 20
131.1020751953125
 30
0.0
 10
111.3923394097222
 20
131.0431640625
 30
0.0
 10
111.3923394097222
 20
131.0541883680556
 30
0.0
 10
111.4023301866319
 20
131.7873046875
 30
0.0
 10
111.4033637152778
 20
131.7817925347222
 30
0.0
 10
111.4033637152778
 20
131.7817925347222
 30
0.0
 10
111.4033637152778
 20
131.7817925347222
 30
0.0
 10
111.4033637152778
 20
131.7817925347222
 30
0.0
  0
SPLINE
  5
33
330
A
100
AcDbEntity
  8
IUS
 62
     7
100
AcDbSpline
210
0.0
220
0.0
230
1.0
 70
     8
 71
     3
 72
   143
 73
   139
 74
     0
 42
0.0000000001
 43
0.0000000001
 40
0.0
 40
0.0
 40
0.0
 40
0.0
 40
1.0
 40
1.0
 40
1.0
 40
2.0
 40
2.0
 40
2.0
 40
3.0
 40
3.0
 40
3.0
 40
4.0
 40
4.0
 40
4.0
 40
5.0
 40
5.0
 40
5.0
 40
6.0
 40
6.0
 40
6.0
 40
7.0
 40
7.0
 40
7.0
 40
8.0
 40
8.0
 40
8.0
 40
9.0
 40
9.0
 40
9.0
 40
10.0
 40
10.0
 40
10.0
 40
11.0
 40
11.0
 40
11.0
 40
12.0
 40
12.0
 40
12.0
 40
13.0
 40
13.0
 40
13.0
 40
14.0
 40
14.0
 40
14.0
 40
15.0
 40
15.0
 40
15.0
 40
16.0
 40
16.0
 40
16.0
 40
17.0
 40
17.0
 40
17.0
 40
18.0
 40
18.0
 40
18.0
 40
19.0
 40
19.0
 40
19.0
 40
20.0
 40
20.0
 40
20.0
 40
21.0
 40
21.0
 40
21.0
 40
22.0
 40
22.0
 40
22.0
 40
23.0
 40
23.0
 40
23.0
 40
24.0
 40
24.0
 40
24.0
 40
25.0
 40
25.0
 40
25.0
 40
26.0
 40
26.0
 40
26.0
 40
27.0
 40
27.0
 40
27.0
 40
28.0
 40
28.0
 40
28.0
 40
29.0
 40
29.0
 40
29.0
 40
30.0
 40
30.0
 40
30.0
 40
31.0
 40
31.0
 40
31.0
 40
32.0
 40
32.0
 40
32.0
 40
33.0
 40
33.0
 40
33.0
 40
34.0
 40
34.0
 40
34.0
 40
35.0
 40
35.0
 40
35.0
 40
36.0
 40
36.0
 40
36.0
 40
37.0
 40
37.0
 40
37.0
 40
38.0
 40
38.0
 40
38.0
 40
39.0
 40
39.0
 40
39.0
 40
40.0
 40
40.0
 40
40.0
 40
41.0
 40
41.0
 40
41.0
 40
42.0
 40
42.0
 40
42.0
 40
43.0
 40
43.0
 40
43.0
 40
44.0
 40
44.0
 40
44.0
 40
45.0
 40
45.0
 40
45.0
 40
46.0
 40
46.0
 40
46.0
 40
46.0
 10
108.3699571397569
 20
124.3679470486111
 30
0.0
 10
108.4733100043403
 20
124.3255723741319
 30
0.0
 10
108.5308430989583
 20
124.3018012152778
 30
0.0
 10
108.5308430989583
 20
124.3018012152778
 30
0.0
 10
108.9160047743056
 20
124.091650390625
 30
0.0
 10
109.5340549045139
 20
124.6084147135417
 30
0.0
 10
109.5464572482639
 20
124.6170274522569
 30
0.0
 10
109.6267279730903
 20
124.6759385850694
 30
0.0
 10
110.3123019748264
 20
125.172376844618
 30
0.0
 10
110.3643229166667
 20
125.2137179904514
 30
0.0
 10
110.8614501953125
 20
125.2488579644097
 30
0.0
 10
110.9672146267361
 20
125.555126953125
 30
0.0
 10
110.9672146267361
 20
125.6863850911458
 30
0.0
 10
111.0051106770833
 20
125.7170464409722
 30
0.0
 10
111.9411431206597
 20
126.4122667100694
 30
0.0
 10
112.1626627604167
 20
126.5841769748264
 30
0.0
 10
112.5481689453125
 20
126.5049397786458
 30
0.0
 10
112.7696885850694
 20
126.7984619140625
 30
0.0
 10
112.7696885850694
 20
127.0533989800347
 30
0.0
 10
112.7696885850694
 20
127.0533989800347
 30
0.0
 10
112.7800238715278
 20
127.0613226996528
 30
0.0
 10
112.7913926866319
 20
127.0878499348958
 30
0.0
 10
112.8475477430555
 20
127.2177300347222
 30
0.0
 10
112.8788981119792
 20
127.3283175998264
 30
0.0
 10
112.8788981119792
 20
127.4457953559028
 30
0.0
 10
112.8788981119792
 20
127.5636176215278
 30
0.0
 10
112.9812174479167
 20
127.744140625
 30
0.0
 10
113.0697564019097
 20
127.8075303819444
 30
0.0
 10
113.1593288845486
 20
127.8722981770833
 30
0.0
 10
113.1476155598958
 20
127.9177734375
 30
0.0
 10
113.1476155598958
 20
127.9608371310764
 30
0.0
 10
113.1476155598958
 20
127.9608371310764
 30
0.0
 10
113.123499891493
 20
133.3400092230903
 30
0.0
 10
113.1476155598958
 20
133.7306830512153
 30
0.0
 10
113.1782769097222
 20
134.2274658203125
 30
0.0
 10
113.3195258246528
 20
134.5447591145833
 30
0.0
 10
113.5172743055556
 20
134.8062418619792
 30
0.0
 10
113.6512885199653
 20
134.9833197699653
 30
0.0
 10
116.0783582899306
 20
137.6625705295139
 30
0.0
 10
116.0893825954861
 20
137.67841796875
 30
0.0
 10
116.4549072265625
 20
138.1958713107639
 30
0.0
 10
116.4514621310764
 20
138.7078125
 30
0.0
 10
116.4514621310764
 20
138.7078125
 30
0.0
 10
116.4514621310764
 20
138.7078125
 30
0.0
 10
116.4514621310764
 20
142.1647935655382
 30
0.0
 10
116.4514621310764
 20
142.1647935655382
 30
0.0
 10
116.4514621310764
 20
142.1647935655382
 30
0.0
 10
116.4590413411458
 20
142.6233357747396
 30
0.0
 10
116.7883924696181
 20
142.9990234375
 30
0.0
 10
116.7994167751736
 20
143.0117702907986
 30
0.0
 10
117.1391031901042
 20
143.3431884765625
 30
0.0
 10
117.1625298394097
 20
143.3664428710937
 30
0.0
 10
117.4822347005208
 20
143.6816691080729
 30
0.0
 10
117.4684543185764
 20
144.1403835720486
 30
0.0
 10
117.4684543185764
 20
144.1403835720486
 30
0.0
 10
117.4684543185764
 20
144.1403835720486
 30
0.0
 10
117.4684543185764
 20
161.6207980685764
 30
0.0
 10
117.4684543185764
 20
161.6207980685764
 30
0.0
 10
117.4684543185764
 20
161.6207980685764
 30
0.0
 10
116.6285400390625
 20
162.8527642144097
 30
0.0
 10
116.6285400390625
 20
162.8527642144097
 30
0.0
 10
116.6285400390625
 20
162.8527642144097
 30
0.0
 10
116.0215142144097
 20
163.0479288736979
 30
0.0
 10
116.0215142144097
 20
163.0479288736979
 30
0.0
 10
116.0215142144097
 20
163.0479288736979
 30
0.0
 10
116.0215142144097
 20
163.7598578559028
 30
0.0
 10
116.0215142144097
 20
164.072328016493
 30
0.0
 10
116.0215142144097
 20
164.3856594509549
 30
0.0
 10
116.1448486328125
 20
164.4786770290799
 30
0.0
 10
116.2743842230903
 20
164.5828911675347
 30
0.0
 10
116.4152886284722
 20
164.6965793185764
 30
0.0
 10
117.2927544487847
 20
165.3163519965278
 30
0.0
 10
117.2927544487847
 20
165.3163519965278
 30
0.0
 10
117.2927544487847
 20
165.3163519965278
 30
0.0
 10
117.2927544487847
 20
165.7073703342014
 30
0.0
 10
117.2927544487847
 20
165.7073703342014
 30
0.0
 10
117.2927544487847
 20
165.7073703342014
 30
0.0
 10
116.6471435546875
 20
165.8839314778646
 30
0.0
 10
116.6471435546875
 20
165.8839314778646
 30
0.0
 10
116.6471435546875
 20
165.8839314778646
 30
0.0
 10
114.7309814453125
 20
165.0417778862847
 30
0.0
 10
114.5149739583333
 20
164.8867485894097
 30
0.0
 10
114.2996554904514
 20
164.7305135091146
 30
0.0
 10
114.3596001519097
 20
164.572900390625
 30
0.0
 10
114.3596001519097
 20
164.3985785590278
 30
0.0
 10
114.3596001519097
 20
164.2235677083333
 30
0.0
 10
114.3596001519097
 20
163.3993286132812
 30
0.0
 10
114.3596001519097
 20
163.3993286132812
 30
0.0
 10
114.3596001519097
 20
163.3993286132812
 30
0.0
 10
113.9468777126736
 20
163.2033026801215
 30
0.0
 10
113.9468777126736
 20
163.2033026801215
 30
0.0
 10
113.9468777126736
 20
163.2033026801215
 30
0.0
 10
113.9468777126736
 20
162.5778455946181
 30
0.0
 10
113.9468777126736
 20
162.5778455946181
 30
0.0
 10
113.9468777126736
 20
162.5778455946181
 30
0.0
 10
113.4783447265625
 20
162.3310045030382
 30
0.0
 10
113.4783447265625
 20
162.3310045030382
 30
0.0
 10
113.4783447265625
 20
162.3310045030382
 30
0.0
 10
111.8419243706597
 20
161.0974880642361
 30
0.0
 10
111.8419243706597
 20
161.0974880642361
 30
0.0
 10
111.8419243706597
 20
161.0974880642361
 30
0.0
 10
111.4863905164931
 20
160.6411851671007
 30
0.0
 10
111.3658121744792
 20
160.4455037434896
 30
0.0
 10
111.2855414496528
 20
160.3151068793403
 30
0.0
 10
111.2886420355903
 20
160.1921169704861
 30
0.0
 10
111.2886420355903
 20
160.0749837239583
 30
0.0
 10
111.2886420355903
 20
159.9588840060764
 30
0.0
 10
111.2886420355903
 20
143.9286824544271
 30
0.0
 10
111.2886420355903
 20
143.9286824544271
 30
0.0
 10
111.2886420355903
 20
143.9286824544271
 30
0.0
 10
111.2734836154514
 20
143.6463568793403
 30
0.0
 10
111.1305121527778
 20
143.2067626953125
 30
0.0
 10
111.0598876953125
 20
142.9895494249132
 30
0.0
 10
110.7381157769097
 20
142.3034586588541
 30
0.0
 10
110.5427788628472
 20
141.8419881184896
 30
0.0
 10
110.320570203993
 20
141.3179890950521
 30
0.0
 10
110.3495090060764
 20
140.8947591145833
 30
0.0
 10
110.3495090060764
 20
140.8947591145833
 30
0.0
 10
110.3495090060764
 20
140.8947591145833
 30
0.0
 10
110.3495090060764
 20
136.9080946180555
 30
0.0
 10
110.3495090060764
 20
136.9080946180555
 30
0.0
 10
110.3495090060764
 20
136.9080946180555
 30
0.0
 10
110.3560546875
 20
136.4850368923611
 30
0.0
 10
110.239954969618
 20
135.9517361111111
 30
0.0
 10
110.1765652126736
 20
135.6599365234375
 30
0.0
 10
109.3476752387153
 20
131.9667941623264
 30
0.0
 10
109.3287272135417
 20
131.8999593098958
 30
0.0
 10
109.1568169487847
 20
131.299134657118
 30
0.0
 10
109.1685302734375
 20
130.7699679904514
 30
0.0
 10
109.1685302734375
 20
130.7699679904514
 30
0.0
 10
109.1685302734375
 20
130.7699679904514
 30
0.0
 10
109.1685302734375
 20
129.9696723090278
 30
0.0
 10
109.1685302734375
 20
128.9602593315972
 30
0.0
 10
109.1685302734375
 20
128.9602593315972
 30
0.0
 10
109.1685302734375
 20
124.9363878038194
 30
0.0
 10
109.1685302734375
 20
124.9074490017361
 30
0.0
 10
109.1685302734375
 20
124.9074490017361
 30
0.0
 10
109.0930826822917
 20
124.538134765625
 30
0.0
 10
108.7888807508681
 20
124.6721489800347
 30
0.0
  0
SPLINE
  5
32
330
A
100
AcDbEntity
  8
IUS
 62
     7
100
AcDbSpline
210
0.0
220
0.0
230
1.0
 70
     8
 71
     3
 72
    17
 73
    13
 74
     0
 42
0.0000000001
 43
0.0000000001
 40
0.0
 40
0.0
 40
0.0
 40
0.0
 40
1.0
 40
1.0
 40
1.0
 40
2.0
 40
2.0
 40
2.0
 40
3.0
 40
3.0
 40
3.0
 40
4.0
 40
4.0
 40
4.0
 40
4.0
 10
104.1237046983507
 20
164.1725802951389
 30
0.0
 10
104.1237046983507
 20
164.1725802951389
 30
0.0
 10
104.1123358832465
 20
164.7728881835937
 30
0.0
 10
104.1123358832465
 20
164.7728881835937
 30
0.0
 10
104.1123358832465
 20
164.7728881835937
 30
0.0
 10
105.8701958550347
 20
165.6463921440972
 30
0.0
 10
105.8701958550347
 20
165.6463921440972
 30
0.0
 10
105.8701958550347
 20
165.6463921440972
 30
0.0
 10
105.8922444661458
 20
166.0947713216146
 30
0.0
 10
105.8922444661458
 20
166.3593546549479
 30
0.0
 10
105.8922444661458
 20
166.4356635199653
 30
0.0
 10
105.8865600585937
 20
166.5061157226562
 30
0.0
 10
105.8851820203993
 20
166.5700222439236
 30
0.0
  0
SPLINE
  5
31
330
A
100
AcDbEntity
  8
IUS
 62
     7
100
AcDbSpline
210
0.0
220
0.0
230
1.0
 70
     8
 71
     3
 72
    11
 73
     7
 74
     0
 42
0.0000000001
 43
0.0000000001
 40
0.0
 40
0.0
 40
0.0
 40
0.0
 40
1.0
 40
1.0
 40
1.0
 40
2.0
 40
2.0
 40
2.0
 40
2.0
 10
116.0811143663194
 20
155.3028374565972
 30
0.0
 10
116.2798963758681
 20
155.3453843858507
 30
0.0
 10
116.4855685763889
 20
155.1776082356771
 30
0.0
 10
116.5372450086805
 20
154.9280110677083
 30
0.0
 10
116.5889214409722
 20
154.6785861545139
 30
0.0
 10
116.4717881944444
 20
154.441908094618
 30
0.0
 10
116.2747287326389
 20
154.3997056749132
 30
0.0
  0
SPLINE
  5
30
330
A
100
AcDbEntity
  8
IUS
 62
     7
100
AcDbSpline
210
0.0
220
0.0
230
1.0
 70
    11
 71
     3
 72
    23
 73
    19
 74
     0
 42
0.0000000001
 43
0.0000000001
 40
0.0
 40
0.0
 40
0.0
 40
0.0
 40
1.0
 40
1.0
 40
1.0
 40
2.0
 40
2.0
 40
2.0
 40
3.0
 40
3.0
 40
3.0
 40
4.0
 40
4.0
 40
4.0
 40
5.0
 40
5.0
 40
5.0
 40
6.0
 40
6.0
 40
6.0
 40
6.0
 10
116.2730061848958
 20
155.3553751627604
 30
0.0
 10
116.2388997395833
 20
155.3479682074653
 30
0.0
 10
116.1369249131944
 20
155.3174791124132
 30
0.0
 10
116.1145317925347
 20
155.3126559787326
 30
0.0
 10
115.9147162543403
 20
155.2699367947049
 30
0.0
 10
115.7958604600694
 20
155.0320529513889
 30
0.0
 10
115.8492594401042
 20
154.7810777452257
 30
0.0
 10
115.9033474392361
 20
154.5301025390625
 30
0.0
 10
116.1083306206597
 20
154.3616373697917
 30
0.0
 10
116.3088351779514
 20
154.4041842990451
 30
0.0
 10
116.3429416232639
 20
154.4115912543403
 30
0.0
 10
116.4449164496528
 20
154.4420803493923
 30
0.0
 10
116.4673095703125
 20
154.4469034830729
 30
0.0
 10
116.6671251085069
 20
154.4896226671007
 30
0.0
 10
116.7856363932292
 20
154.7275065104167
 30
0.0
 10
116.7318929036458
 20
154.9784817165798
 30
0.0
 10
116.6784939236111
 20
155.2294569227431
 30
0.0
 10
116.4731662326389
 20
155.3980943467882
 30
0.0
 10
116.2730061848958
 20
155.3553751627604
 30
0.0
  0
SPLINE
  5
2F
330
A
100
AcDbEntity
  8
IUS
 62
     7
100
AcDbSpline
210
0.0
220
0.0
230
1.0
 70
     8
 71
     3
 72
    11
 73
     7
 74
     0
 42
0.0000000001
 43
0.0000000001
 40
0.0
 40
0.0
 40
0.0
 40
0.0
 40
1.0
 40
1.0
 40
1.0
 40
2.0
 40
2.0
 40
2.0
 40
2.0
 10
116.067333984375
 20
149.6051662868923
 30
0.0
 10
116.2661159939236
 20
149.6477132161458
 30
0.0
 10
116.4717881944444
 20
149.4799370659722
 30
0.0
 10
116.5234646267361
 20
149.2303398980035
 30
0.0
 10
116.5751410590278
 20
148.980914984809
 30
0.0
 10
116.4580078125
 20
148.7442369249132
 30
0.0
 10
116.2609483506944
 20
148.7020345052083
 30
0.0
  0
SPLINE
  5
2E
330
A
100
AcDbEntity
  8
IUS
 62
     7
100
AcDbSpline
210
0.0
220
0.0
230
1.0
 70
    11
 71
     3
 72
    23
 73
    19
 74
     0
 42
0.0000000001
 43
0.0000000001
 40
0.0
 40
0.0
 40
0.0
 40
0.0
 40
1.0
 40
1.0
 40
1.0
 40
2.0
 40
2.0
 40
2.0
 40
3.0
 40
3.0
 40
3.0
 40
4.0
 40
4.0
 40
4.0
 40
5.0
 40
5.0
 40
5.0
 40
6.0
 40
6.0
 40
6.0
 40
6.0
 10
116.2592258029514
 20
149.6577039930556
 30
0.0
 10
116.2251193576389
 20
149.6502970377604
 30
0.0
 10
116.12314453125
 20
149.6198079427083
 30
0.0
 10
116.1007514105903
 20
149.6149848090278
 30
0.0
 10
115.9009358723958
 20
149.572265625
 30
0.0
 10
115.782080078125
 20
149.334381781684
 30
0.0
 10
115.8354790581597
 20
149.0834065755208
 30
0.0
 10
115.8895670572917
 20
148.8324313693576
 30
0.0
 10
116.0945502387153
 20
148.6639662000868
 30
0.0
 10
116.2950547960069
 20
148.7065131293403
 30
0.0
 10
116.3291612413194
 20
148.7139200846354
 30
0.0
 10
116.4311360677083
 20
148.7444091796875
 30
0.0
 10
116.4535291883681
 20
148.7492323133681
 30
0.0
 10
116.6533447265625
 20
148.7919514973958
 30
0.0
 10
116.7718560112847
 20
149.0298353407118
 30
0.0
 10
116.7181125217014
 20
149.280810546875
 30
0.0
 10
116.6647135416667
 20
149.5317857530382
 30
0.0
 10
116.4593858506944
 20
149.7004231770833
 30
0.0
 10
116.2592258029514
 20
149.6577039930556
 30
0.0
  0
SPLINE
  5
2D
330
A
100
AcDbEntity
  8
IUS
 62
     7
100
AcDbSpline
210
0.0
220
0.0
230
1.0
 70
     8
 71
     3
 72
    11
 73
     7
 74
     0
 42
0.0000000001
 43
0.0000000001
 40
0.0
 40
0.0
 40
0.0
 40
0.0
 40
1.0
 40
1.0
 40
1.0
 40
2.0
 40
2.0
 40
2.0
 40
2.0
 10
116.0742241753472
 20
144.5038411458333
 30
0.0
 10
116.2730061848958
 20
144.5463880750868
 30
0.0
 10
116.4786783854167
 20
144.3786119249132
 30
0.0
 10
116.5303548177083
 20
144.1290147569444
 30
0.0
 10
116.58203125
 20
143.87958984375
 30
0.0
 10
116.4648980034722
 20
143.6429117838542
 30
0.0
 10
116.2678385416667
 20
143.6007093641493
 30
0.0
  0
SPLINE
  5
2C
330
A
100
AcDbEntity
  8
IUS
 62
     7
100
AcDbSpline
210
0.0
220
0.0
230
1.0
 70
    11
 71
     3
 72
    23
 73
    19
 74
     0
 42
0.0000000001
 43
0.0000000001
 40
0.0
 40
0.0
 40
0.0
 40
0.0
 40
1.0
 40
1.0
 40
1.0
 40
2.0
 40
2.0
 40
2.0
 40
3.0
 40
3.0
 40
3.0
 40
4.0
 40
4.0
 40
4.0
 40
5.0
 40
5.0
 40
5.0
 40
6.0
 40
6.0
 40
6.0
 40
6.0
 10
116.2661159939236
 20
144.5563788519965
 30
0.0
 10
116.2320095486111
 20
144.5489718967014
 30
0.0
 10
116.1300347222222
 20
144.5184828016493
 30
0.0
 10
116.1076416015625
 20
144.5136596679687
 30
0.0
 10
115.9078260633681
 20
144.470940483941
 30
0.0
 10
115.7889702690972
 20
144.233056640625
 30
0.0
 10
115.8423692491319
 20
143.9820814344618
 30
0.0
 10
115.8964572482639
 20
143.7311062282986
 30
0.0
 10
116.1014404296875
 20
143.5626410590278
 30
0.0
 10
116.3019449869792
 20
143.6051879882812
 30
0.0
 10
116.3360514322917
 20
143.6125949435764
 30
0.0
 10
116.4380262586806
 20
143.6430840386285
 30
0.0
 10
116.4604193793403
 20
143.647907172309
 30
0.0
 10
116.6602349175347
 20
143.6906263563368
 30
0.0
 10
116.7787462022569
 20
143.9285101996528
 30
0.0
 10
116.7250027126736
 20
144.179485405816
 30
0.0
 10
116.6716037326389
 20
144.4304606119792
 30
0.0
 10
116.4662760416667
 20
144.5990980360243
 30
0.0
 10
116.2661159939236
 20
144.5563788519965
 30
0.0
  0
LWPOLYLINE
  5
22
330
A
100
AcDbEntity
  8
BOOT
 62
     7
100
AcDbPolyline
 90
        7
 70
     1
 43
0.0
 10
112.0882486979167
 20
176.8620727539062
 10
112.0882486979167
 20
184.7795912000868
 10
104.7872300889757
 20
181.6149264865451
 10
104.7872300889757
 20
173.673981391059
 10
99.67401936848957
 20
171.441559516059
 10
108.6800157335069
 20
164.3825588650174
 10
116.9568576388889
 20
178.9876966688368
  0
ENDSEC
  0
SECTION
  2
OBJECTS
  0
DICTIONARY
  5
19
330
0
100
AcDbDictionary
281
     1
  3
ACAD_COLOR
350
140
  3
ACAD_GROUP
350
1A
  3
ACAD_LAYOUT
350
10D
  3
ACAD_MATERIAL
350
142
  3
ACAD_MLINESTYLE
350
1B
  3
ACAD_PLOTSETTINGS
350
10E
  3
ACAD_PLOTSTYLENAME
350
10B
  3
ACDBHEADERROUNDTRIPXREC
350
13F
  0
DICTIONARY
  5
140
102
{ACAD_REACTORS
330
19
102
}
330
19
100
AcDbDictionary
281
     1
  0
DICTIONARY
  5
1A
102
{ACAD_REACTORS
330
19
102
}
330
19
100
AcDbDictionary
281
     1
  0
DICTIONARY
  5
10D
102
{ACAD_REACTORS
330
19
102
}
330
19
100
AcDbDictionary
281
     1
  3
Layout1
350
110
  3
Model
350
10F
  0
DICTIONARY
  5
142
102
{ACAD_REACTORS
330
19
102
}
330
19
100
AcDbDictionary
281
     1
  0
DICTIONARY
  5
1B
102
{ACAD_REACTORS
330
19
102
}
330
19
100
AcDbDictionary
281
     1
  3
STANDARD
350
1C
  0
DICTIONARY
  5
10E
102
{ACAD_REACTORS
330
19
102
}
330
19
100
AcDbDictionary
281
     1
  0
ACDBDICTIONARYWDFLT
  5
10B
102
{ACAD_REACTORS
330
19
102
}
330
19
100
AcDbDictionary
281
     1
  3
Normal
350
10C
100
AcDbDictionaryWithDefault
340
10C
  0
DICTIONARY
  5
13F
102
{ACAD_REACTORS
330
19
102
}
330
19
100
AcDbDictionary
281
     1
  3
COLORDICT
350
141
  3
MATERIALDICT
350
143
  0
LAYOUT
  5
110
102
{ACAD_REACTORS
330
10D
102
}
102
{ACAD_XDICTIONARY
360
144
102
}
330
10D
100
AcDbPlotSettings
  1

  2
HP LaserJet 2100 Series PS
  4

  6

 40
0.0
 41
0.0
 42
0.0
 43
0.0
 44
0.0
 45
0.0
 46
0.0
 47
0.0
 48
0.0
 49
0.0
140
0.0
141
0.0
142
1.0
143
1.0
 70
   688
 72
     0
 73
     0
 74
     5
  7

 75
    16
147
1.0
148
0.0
149
0.0
100
AcDbLayout
  1
Layout1
 70
     0
 71
     1
 10
0.0
 20
0.0
 11
12.0
 21
9.0
 12
0.0
 22
0.0
 32
0.0
 14
1.000000000000000E+20
 24
1.000000000000000E+20
 34
1.000000000000000E+20
 15
-1.000000000000000E+20
 25
-1.000000000000000E+20
 35
-1.000000000000000E+20
146
0.0
 13
0.0
 23
0.0
 33
0.0
 16
1.0
 26
0.0
 36
0.0
 17
0.0
 27
1.0
 37
0.0
 76
     0
330
B
  0
LAYOUT
  5
10F
102
{ACAD_REACTORS
330
10D
102
}
102
{ACAD_XDICTIONARY
360
146
102
}
330
10D
100
AcDbPlotSettings
  1

  2
HP LaserJet 2100 Series PS
  4

  6

 40
0.0
 41
0.0
 42
0.0
 43
0.0
 44
0.0
 45
0.0
 46
0.0
 47
0.0
 48
0.0
 49
0.0
140
0.0
141
0.0
142
1.0
143
1.0
 70
  1712
 72
     0
 73
     0
 74
     0
  7

 75
     0
147
1.0
148
0.0
149
0.0
100
AcDbLayout
  1
Model
 70
     1
 71
     0
 10
0.0
 20
0.0
 11
12.0
 21
9.0
 12
0.0
 22
0.0
 32
0.0
 14
0.0
 24
0.0
 34
0.0
 15
0.0
 25
0.0
 35
0.0
146
0.0
 13
0.0
 23
0.0
 33
0.0
 16
1.0
 26
0.0
 36
0.0
 17
0.0
 27
1.0
 37
0.0
 76
     0
330
A
  0
MLINESTYLE
  5
1C
102
{ACAD_REACTORS
330
1B
102
}
330
1B
100
AcDbMlineStyle
  2
STANDARD
 70
     0
  3

 62
     0
 51
90.0000000000002
 52
90.0000000000002
 71
     2
 49
0.5
 62
   256
  6
BYLAYER
 49
-0.5
 62
   256
  6
BYLAYER
  0
ACDBPLACEHOLDER
  5
10C
102
{ACAD_REACTORS
330
10B
102
}
330
10B
  0
XRECORD
  5
141
102
{ACAD_REACTORS
330
13F
102
}
330
13F
100
AcDbXrecord
340
140
  0
XRECORD
  5
143
102
{ACAD_REACTORS
330
13F
102
}
330
13F
100
AcDbXrecord
340
142
  0
DICTIONARY
  5
144
330
110
100
AcDbDictionary
280
     1
281
     1
  3
ACAD_XREC_ROUNDTRIP
360
145
  0
DICTIONARY
  5
146
330
10F
100
AcDbDictionary
280
     1
281
     1
  3
ACAD_XREC_ROUNDTRIP
360
147
  0
XRECORD
  5
145
102
{ACAD_REACTORS
330
144
102
}
330
144
100
AcDbXrecord
102
SHADEPLOT
 70
 16392
102
SHADEPLOTRESLEVEL
 70
 16472
102
SHADEPLOTCUSTOMDPI
 70
-29840
  0
XRECORD
  5
147
102
{ACAD_REACTORS
330
146
102
}
330
146
100
AcDbXrecord
102
SHADEPLOT
 70
-30344
102
SHADEPLOTRESLEVEL
 70
-30384
102
SHADEPLOTCUSTOMDPI
 70
-30424
  0
ENDSEC
  0
EOF
