  0
SECTION
  2
HEADER
  9
$ACADVER
  1
AC1015
  9
$ACADMAINTVER
 70
     6
  9
$DWGCODEPAGE
  3
ANSI_1252
  9
$INSBASE
 10
0.0
 20
0.0
 30
0.0
  9
$EXTMIN
 10
2.769104035069589
 20
3.562768183431555
 30
-0.0000000000000004
  9
$EXTMAX
 10
10.2517090102794
 20
11.04545775150131
 30
0.0000000000000003
  9
$LIMMIN
 10
0.0
 20
0.0
  9
$LIMMAX
 10
12.0
 20
9.0
  9
$ORTHOMODE
 70
     0
  9
$REGENMODE
 70
     0
  9
$FILLMODE
 70
     1
  9
$QTEXTMODE
 70
     0
  9
$MIRRTEXT
 70
     1
  9
$LTSCALE
 40
0.25
  9
$ATTMODE
 70
     1
  9
$TEXTSIZE
 40
0.2
  9
$TRACEWID
 40
0.05
  9
$TEXTSTYLE
  7
STANDARD
  9
$CLAYER
  8
0
  9
$CELTYPE
  6
BYLAYER
  9
$CECOLOR
 62
   256
  9
$CELTSCALE
 40
1.0
  9
$DISPSILH
 70
     0
  9
$DIMSCALE
 40
1.0
  9
$DIMASZ
 40
0.18
  9
$DIMEXO
 40
0.0625
  9
$DIMDLI
 40
0.38
  9
$DIMRND
 40
0.0
  9
$DIMDLE
 40
0.0
  9
$DIMEXE
 40
0.18
  9
$DIMTP
 40
0.0
  9
$DIMTM
 40
0.0
  9
$DIMTXT
 40
0.18
  9
$DIMCEN
 40
0.09
  9
$DIMTSZ
 40
0.0
  9
$DIMTOL
 70
     0
  9
$DIMLIM
 70
     0
  9
$DIMTIH
 70
     1
  9
$DIMTOH
 70
     1
  9
$DIMSE1
 70
     0
  9
$DIMSE2
 70
     0
  9
$DIMTAD
 70
     0
  9
$DIMZIN
 70
     0
  9
$DIMBLK
  1

  9
$DIMASO
 70
     1
  9
$DIMSHO
 70
     1
  9
$DIMPOST
  1

  9
$DIMAPOST
  1

  9
$DIMALT
 70
     0
  9
$DIMALTD
 70
     2
  9
$DIMALTF
 40
25.4
  9
$DIMLFAC
 40
1.0
  9
$DIMTOFL
 70
     0
  9
$DIMTVP
 40
0.0
  9
$DIMTIX
 70
     0
  9
$DIMSOXD
 70
     0
  9
$DIMSAH
 70
     0
  9
$DIMBLK1
  1

  9
$DIMBLK2
  1

  9
$DIMSTYLE
  2
STANDARD
  9
$DIMCLRD
 70
     0
  9
$DIMCLRE
 70
     0
  9
$DIMCLRT
 70
     0
  9
$DIMTFAC
 40
1.0
  9
$DIMGAP
 40
0.09
  9
$DIMJUST
 70
     0
  9
$DIMSD1
 70
     0
  9
$DIMSD2
 70
     0
  9
$DIMTOLJ
 70
     1
  9
$DIMTZIN
 70
     0
  9
$DIMALTZ
 70
     0
  9
$DIMALTTZ
 70
     0
  9
$DIMUPT
 70
     0
  9
$DIMDEC
 70
     4
  9
$DIMTDEC
 70
     4
  9
$DIMALTU
 70
     2
  9
$DIMALTTD
 70
     2
  9
$DIMTXSTY
  7
STANDARD
  9
$DIMAUNIT
 70
     0
  9
$DIMADEC
 70
     0
  9
$DIMALTRND
 40
0.0
  9
$DIMAZIN
 70
     0
  9
$DIMDSEP
 70
    46
  9
$DIMATFIT
 70
     3
  9
$DIMFRAC
 70
     0
  9
$DIMLDRBLK
  1

  9
$DIMLUNIT
 70
     2
  9
$DIMLWD
 70
    -2
  9
$DIMLWE
 70
    -2
  9
$DIMTMOVE
 70
     0
  9
$LUNITS
 70
     2
  9
$LUPREC
 70
     4
  9
$SKETCHINC
 40
0.1
  9
$FILLETRAD
 40
0.2
  9
$AUNITS
 70
     0
  9
$AUPREC
 70
     0
  9
$MENU
  1
.
  9
$ELEVATION
 40
0.0
  9
$PELEVATION
 40
0.0
  9
$THICKNESS
 40
0.0
  9
$LIMCHECK
 70
     0
  9
$CHAMFERA
 40
0.5
  9
$CHAMFERB
 40
0.5
  9
$CHAMFERC
 40
1.0
  9
$CHAMFERD
 40
0.0
  9
$SKPOLY
 70
     1
  9
$TDCREATE
 40
2451890.587386782
  9
$TDUCREATE
 40
2451890.920720116
  9
$TDUPDATE
 40
2451893.675776111
  9
$TDUUPDATE
 40
2451894.009109445
  9
$TDINDWG
 40
0.8617108333
  9
$TDUSRTIMER
 40
0.8617108333
  9
$USRTIMER
 70
     1
  9
$ANGBASE
 50
0.0
  9
$ANGDIR
 70
     0
  9
$PDMODE
 70
     0
  9
$PDSIZE
 40
0.0
  9
$PLINEWID
 40
0.0
  9
$SPLFRAME
 70
     0
  9
$SPLINETYPE
 70
     6
  9
$SPLINESEGS
 70
     8
  9
$HANDSEED
  5
C75
  9
$SURFTAB1
 70
     6
  9
$SURFTAB2
 70
     6
  9
$SURFTYPE
 70
     6
  9
$SURFU
 70
     6
  9
$SURFV
 70
     6
  9
$UCSBASE
  2

  9
$UCSNAME
  2

  9
$UCSORG
 10
0.0
 20
0.0
 30
0.0
  9
$UCSXDIR
 10
1.0
 20
0.0
 30
0.0
  9
$UCSYDIR
 10
0.0
 20
1.0
 30
0.0
  9
$UCSORTHOREF
  2

  9
$UCSORTHOVIEW
 70
     0
  9
$UCSORGTOP
 10
0.0
 20
0.0
 30
0.0
  9
$UCSORGBOTTOM
 10
0.0
 20
0.0
 30
0.0
  9
$UCSORGLEFT
 10
0.0
 20
0.0
 30
0.0
  9
$UCSORGRIGHT
 10
0.0
 20
0.0
 30
0.0
  9
$UCSORGFRONT
 10
0.0
 20
0.0
 30
0.0
  9
$UCSORGBACK
 10
0.0
 20
0.0
 30
0.0
  9
$PUCSBASE
  2

  9
$PUCSNAME
  2

  9
$PUCSORG
 10
0.0
 20
0.0
 30
0.0
  9
$PUCSXDIR
 10
1.0
 20
0.0
 30
0.0
  9
$PUCSYDIR
 10
0.0
 20
1.0
 30
0.0
  9
$PUCSORTHOREF
  2

  9
$PUCSORTHOVIEW
 70
     0
  9
$PUCSORGTOP
 10
0.0
 20
0.0
 30
0.0
  9
$PUCSORGBOTTOM
 10
0.0
 20
0.0
 30
0.0
  9
$PUCSORGLEFT
 10
0.0
 20
0.0
 30
0.0
  9
$PUCSORGRIGHT
 10
0.0
 20
0.0
 30
0.0
  9
$PUCSORGFRONT
 10
0.0
 20
0.0
 30
0.0
  9
$PUCSORGBACK
 10
0.0
 20
0.0
 30
0.0
  9
$USERI1
 70
     0
  9
$USERI2
 70
     0
  9
$USERI3
 70
     0
  9
$USERI4
 70
     0
  9
$USERI5
 70
     0
  9
$USERR1
 40
0.0
  9
$USERR2
 40
0.0
  9
$USERR3
 40
0.0
  9
$USERR4
 40
0.0
  9
$USERR5
 40
0.0
  9
$WORLDVIEW
 70
     1
  9
$SHADEDGE
 70
     3
  9
$SHADEDIF
 70
    70
  9
$TILEMODE
 70
     1
  9
$MAXACTVP
 70
    48
  9
$PINSBASE
 10
0.0
 20
0.0
 30
0.0
  9
$PLIMCHECK
 70
     0
  9
$PEXTMIN
 10
1.000000000000000E+20
 20
1.000000000000000E+20
 30
1.000000000000000E+20
  9
$PEXTMAX
 10
-1.000000000000000E+20
 20
-1.000000000000000E+20
 30
-1.000000000000000E+20
  9
$PLIMMIN
 10
0.0
 20
0.0
  9
$PLIMMAX
 10
12.0
 20
9.0
  9
$UNITMODE
 70
     0
  9
$VISRETAIN
 70
     1
  9
$PLINEGEN
 70
     0
  9
$PSLTSCALE
 70
     1
  9
$TREEDEPTH
 70
  3020
  9
$CMLSTYLE
  2
STANDARD
  9
$CMLJUST
 70
     0
  9
$CMLSCALE
 40
1.0
  9
$PROXYGRAPHICS
 70
     1
  9
$MEASUREMENT
 70
     0
  9
$CELWEIGHT
370
    -1
  9
$ENDCAPS
280
     0
  9
$JOINSTYLE
280
     0
  9
$LWDISPLAY
290
     0
  9
$INSUNITS
 70
     1
  9
$HYPERLINKBASE
  1

  9
$STYLESHEET
  1

  9
$XEDIT
290
     1
  9
$CEPSNTYPE
380
     0
  9
$PSTYLEMODE
290
     0
  9
$FINGERPRINTGUID
  2
{FAEB1C30-E019-11D5-929B-00C0DF256EC4}
  9
$VERSIONGUID
  2
{FAEB1C32-E019-11D5-929B-00C0DF256EC4}
  9
$EXTNAMES
290
     1
  9
$PSVPSCALE
 40
0.0
  9
$OLESTARTUP
290
     0
  0
ENDSEC
  0
SECTION
  2
CLASSES
  0
CLASS
  1
LWPOLYLINE
  2
AcDbPolyline
  3
AutoCAD 2000
 90
        0
280
     0
281
     1
  0
CLASS
  1
DICTIONARYVAR
  2
AcDbDictionaryVar
  3
AutoCAD 2000
 90
        0
280
     0
281
     0
  0
CLASS
  1
HATCH
  2
AcDbHatch
  3
AutoCAD 2000
 90
        0
280
     0
281
     1
  0
CLASS
  1
ACDBPLACEHOLDER
  2
AcDbPlaceHolder
  3
ObjectDBX Classes
 90
        0
280
     0
281
     0
  0
CLASS
  1
LAYOUT
  2
AcDbLayout
  3
ObjectDBX Classes
 90
        0
280
     0
281
     0
  0
ENDSEC
  0
SECTION
  2
TABLES
  0
TABLE
  2
VPORT
  5
8
330
0
100
AcDbSymbolTable
 70
     2
  0
VPORT
  5
C67
330
8
100
AcDbSymbolTableRecord
100
AcDbViewportTableRecord
  2
*ACTIVE
 70
     0
 10
0.0
 20
0.0
 11
1.0
 21
1.0
 12
6.510406522674493
 22
7.304112967466432
 13
0.0
 23
0.0
 14
0.5
 24
0.5
 15
0.5
 25
0.5
 16
0.0
 26
0.0
 36
1.0
 17
0.0
 27
0.0
 37
0.0
 40
7.550406215744594
 41
1.519637462235649
 42
50.0
 43
0.0
 44
0.0
 50
0.0
 51
0.0
 71
     0
 72
  2000
 73
     1
 74
     0
 75
     0
 76
     0
 77
     0
 78
     0
281
     0
 65
     1
110
0.0
120
0.0
130
0.0
111
1.0
121
0.0
131
0.0
112
0.0
122
1.0
132
0.0
 79
     0
146
0.0
  0
ENDTAB
  0
TABLE
  2
LTYPE
  5
5
330
0
100
AcDbSymbolTable
 70
     3
  0
LTYPE
  5
13
330
5
100
AcDbSymbolTableRecord
100
AcDbLinetypeTableRecord
  2
BYBLOCK
 70
     0
  3

 72
    65
 73
     0
 40
0.0
  0
LTYPE
  5
14
330
5
100
AcDbSymbolTableRecord
100
AcDbLinetypeTableRecord
  2
BYLAYER
 70
     0
  3

 72
    65
 73
     0
 40
0.0
  0
LTYPE
  5
15
330
5
100
AcDbSymbolTableRecord
100
AcDbLinetypeTableRecord
  2
CONTINUOUS
 70
     0
  3
Solid line
 72
    65
 73
     0
 40
0.0
  0
LTYPE
  5
A96
330
5
100
AcDbSymbolTableRecord
100
AcDbLinetypeTableRecord
  2
DASHED
 70
     0
  3
Dashed __ __ __ __ __ __ __ __ __ __ __ __ __ _
 72
    65
 73
     2
 40
0.75
 49
0.5
 74
     0
 49
-0.25
 74
     0
  0
LTYPE
  5
C3C
330
5
100
AcDbSymbolTableRecord
100
AcDbLinetypeTableRecord
  2
DASHEDX2
 70
     0
  3
Dashed (2x) ____  ____  ____  ____  ____  ___
 72
    65
 73
     2
 40
1.5
 49
1.0
 74
     0
 49
-0.5
 74
     0
  0
ENDTAB
  0
TABLE
  2
LAYER
  5
2
330
0
100
AcDbSymbolTable
 70
     1
  0
LAYER
  5
F
330
2
100
AcDbSymbolTableRecord
100
AcDbLayerTableRecord
  2
0
 70
     0
 62
     7
  6
CONTINUOUS
370
    -3
390
0
  0
ENDTAB
  0
TABLE
  2
STYLE
  5
3
330
0
100
AcDbSymbolTable
 70
     1
  0
STYLE
  5
10
330
3
100
AcDbSymbolTableRecord
100
AcDbTextStyleTableRecord
  2
STANDARD
 70
     0
 40
0.0
 41
1.0
 50
0.0
 71
     0
 42
0.2
  3
txt
  4

  0
ENDTAB
  0
TABLE
  2
VIEW
  5
6
330
0
100
AcDbSymbolTable
 70
     1
  0
VIEW
  5
9D4
330
6
100
AcDbSymbolTableRecord
100
AcDbViewTableRecord
  2
INITIAL
 70
     0
 40
7.550406215744594
 10
6.510406522674493
 20
7.304112967466432
 41
11.47388014054239
 11
0.0
 21
0.0
 31
1.0
 12
0.0
 22
0.0
 32
0.0
 42
50.0
 43
0.0
 44
0.0
 50
0.0
 71
     0
281
     0
 72
     0
  0
ENDTAB
  0
TABLE
  2
UCS
  5
7
330
0
100
AcDbSymbolTable
 70
     0
  0
ENDTAB
  0
TABLE
  2
APPID
  5
9
330
0
100
AcDbSymbolTable
 70
     1
  0
APPID
  5
11
330
9
100
AcDbSymbolTableRecord
100
AcDbRegAppTableRecord
  2
ACAD
 70
     0
  0
ENDTAB
  0
TABLE
  2
DIMSTYLE
  5
A
330
0
100
AcDbSymbolTable
 70
     1
100
AcDbDimStyleTable
  0
DIMSTYLE
105
1D
330
A
100
AcDbSymbolTableRecord
100
AcDbDimStyleTableRecord
  2
STANDARD
 70
     0
  3

  4

340
10
  0
ENDTAB
  0
TABLE
  2
BLOCK_RECORD
  5
1
330
0
100
AcDbSymbolTable
 70
     0
  0
BLOCK_RECORD
  5
19
330
1
100
AcDbSymbolTableRecord
100
AcDbBlockTableRecord
  2
*MODEL_SPACE
340
C69
  0
BLOCK_RECORD
  5
16
330
1
100
AcDbSymbolTableRecord
100
AcDbBlockTableRecord
  2
*PAPER_SPACE
340
C6A
  0
ENDTAB
  0
ENDSEC
  0
SECTION
  2
BLOCKS
  0
BLOCK
  5
1A
330
19
100
AcDbEntity
  8
0
100
AcDbBlockBegin
  2
*MODEL_SPACE
 70
     0
 10
0.0
 20
0.0
 30
0.0
  3
*MODEL_SPACE
  1

  4

  0
ENDBLK
  5
1B
330
19
100
AcDbEntity
  8
0
100
AcDbBlockEnd
  0
BLOCK
  5
17
330
16
100
AcDbEntity
 67
     1
  8
0
100
AcDbBlockBegin
  2
*PAPER_SPACE
 70
     0
 10
0.0
 20
0.0
 30
0.0
  3
*PAPER_SPACE
  1

  4

  0
ENDBLK
  5
18
330
16
100
AcDbEntity
 67
     1
  8
0
100
AcDbBlockEnd
  0
ENDSEC
  0
SECTION
  2
ENTITIES
  0
LINE
  5
BF0
330
19
100
AcDbEntity
  8
0
100
AcDbLine
 10
7.536768384192103
 20
4.95247623811906
 30
0.0
 11
7.748923625309176
 21
4.900450225112556
 31
0.0
  0
LINE
  5
BF1
330
19
100
AcDbEntity
  8
0
100
AcDbLine
 10
7.748923625309176
 20
10.00877597970892
 30
0.0
 11
7.748923625309176
 21
4.900450225112556
 31
0.0
  0
LINE
  5
BF2
330
19
100
AcDbEntity
  8
0
100
AcDbLine
 10
7.536768384192103
 20
10.04302151075538
 30
0.0
 11
7.748923625309176
 21
10.00877597970892
 31
0.0
  0
LINE
  5
BF4
330
19
100
AcDbEntity
  8
0
100
AcDbLine
 10
7.748923625309176
 20
10.00877597970892
 30
0.0
 11
7.860953161463817
 21
10.77956265875622
 31
0.0
  0
LINE
  5
BF5
330
19
100
AcDbEntity
  8
0
100
AcDbLine
 10
7.55582707703504
 20
4.680111647542837
 30
0.0
 11
3.150901017971492
 21
5.687249771342928
 31
0.0
  0
LINE
  5
BF6
330
19
100
AcDbEntity
  8
0
100
AcDbLine
 10
7.55582707703504
 20
4.462231115557778
 30
0.0
 11
3.259187613880441
 21
5.479298449404537
 31
0.0
  0
LINE
  5
BF7
330
19
100
AcDbEntity
  8
0
100
AcDbLine
 10
7.55582707703504
 20
4.680111647542837
 30
0.0
 11
7.55582707703504
 21
4.462231115557778
 31
0.0
  0
LINE
  5
BF8
330
19
100
AcDbEntity
  8
0
100
AcDbLine
 10
8.032613169209668
 20
4.748734867629689
 30
0.0
 11
8.395718603057258
 21
5.412326858422912
 31
0.0
  0
LINE
  5
BF9
330
19
100
AcDbEntity
  8
0
100
AcDbLine
 10
5.292695511252148
 20
8.825184183810972
 30
0.0
 11
7.536768384192104
 21
8.440519180733226
 31
0.0
  0
LINE
  5
BFA
330
19
100
AcDbEntity
  8
0
100
AcDbLine
 10
5.143620973983514
 20
10.77328802851582
 30
0.0
 11
5.139569784892453
 21
9.047523761880941
 31
0.0
  0
LINE
  5
BFB
330
19
100
AcDbEntity
  8
0
100
AcDbLine
 10
9.919008667830436
 20
8.435989586512322
 30
0.0
 11
9.919008667830436
 21
8.81491279948029
 31
0.0
  0
ARC
  5
BFC
330
19
100
AcDbEntity
  8
0
100
AcDbCircle
 10
5.254556992812747
 20
8.868208666722536
 30
0.0
 40
0.2130163405398106
100
AcDbArc
 50
122.6703404845854
 51
192.4781835105542
  0
LINE
  5
BFE
330
19
100
AcDbEntity
  8
0
100
AcDbLine
 10
5.292695511252148
 20
8.825184183810972
 30
0.0
 11
5.224661494243644
 21
8.785164173805971
 31
0.0
  0
ARC
  5
BFF
330
19
100
AcDbEntity
  8
0
100
AcDbCircle
 10
5.151418859270692
 20
8.879693318630478
 30
0.0
 40
0.1195836226204636
100
AcDbArc
 50
208.7457681018524
 51
307.7690749680701
  0
LINE
  5
C00
330
19
100
AcDbEntity
  8
0
100
AcDbLine
 10
3.243670998996019
 20
7.085314248843488
 30
0.0
 11
4.39883257664355
 21
8.161806499026083
 31
0.0
  0
LINE
  5
C01
330
19
100
AcDbEntity
  8
0
100
AcDbLine
 10
9.919008667830436
 20
8.435989586512322
 30
0.0
 11
9.869255284343097
 21
8.330697542387959
 31
0.0
  0
LINE
  5
C02
330
19
100
AcDbEntity
  8
0
100
AcDbLine
 10
9.824073584633759
 20
8.169423954973263
 30
0.0
 11
9.815447579803088
 21
8.087476909081872
 31
0.0
  0
ARC
  5
C07
330
19
100
AcDbEntity
  8
0
100
AcDbCircle
 10
10.32132631109446
 20
8.117081562714231
 30
0.0
 40
0.5
100
AcDbArc
 50
154.7079788429781
 51
173.9909940425043
  0
ARC
  5
C08
330
19
100
AcDbEntity
  8
0
100
AcDbCircle
 10
9.318194853342384
 20
8.139819301340902
 30
0.0
 40
0.5
100
AcDbArc
 50
331.3133255346031
 51
353.9909940425044
  0
LINE
  5
C0A
330
19
100
AcDbEntity
  8
0
100
AcDbLine
 10
7.55582707703504
 20
4.462231115557778
 30
0.0
 11
7.718815491782378
 21
4.622152656890506
 31
0.0
  0
LINE
  5
C0B
330
19
100
AcDbEntity
  8
0
100
AcDbLine
 10
7.922955940747267
 20
4.683737302963137
 30
0.0
 11
7.883131207416715
 21
4.683737302963137
 31
0.0
  0
ARC
  5
C0F
330
19
100
AcDbEntity
  8
0
100
AcDbCircle
 10
7.922955940747268
 20
4.808737302963137
 30
0.0
 40
0.125
100
AcDbArc
 50
269.9999999999997
 51
331.3133255346031
  0
ARC
  5
C10
330
19
100
AcDbEntity
  8
0
100
AcDbCircle
 10
7.883131207416715
 20
4.433737302963137
 30
0.0
 40
0.25
100
AcDbArc
 50
90.0
 51
131.091455705541
  0
LINE
  5
C12
330
19
100
AcDbEntity
  8
0
100
AcDbLine
 10
7.55582707703504
 20
4.680111647542837
 30
0.0
 11
7.718394045417695
 21
4.821885166481202
 31
0.0
  0
LINE
  5
C13
330
19
100
AcDbEntity
  8
0
100
AcDbLine
 10
7.884660977415426
 20
4.868401145045825
 30
0.0
 11
7.883131207416714
 21
5.03527220309662
 31
0.0
  0
LINE
  5
C14
330
19
100
AcDbEntity
  8
0
100
AcDbLine
 10
7.748923625309176
 20
4.900450225112556
 30
0.0
 11
7.902473260682734
 21
5.052140272805358
 31
0.0
  0
LINE
  5
C15
330
19
100
AcDbEntity
  8
0
100
AcDbLine
 10
8.006052189591319
 20
5.005036434323516
 30
0.0
 11
8.006052189591319
 21
4.715356290824439
 31
0.0
  0
ARC
  5
C17
330
19
100
AcDbEntity
  8
0
100
AcDbCircle
 10
7.943552189591318
 20
5.005036434323516
 30
0.0
 40
0.0625
100
AcDbArc
 50
0.0
 51
131.0914557055412
  0
LINE
  5
C1B
330
19
100
AcDbEntity
  8
0
100
AcDbLine
 10
8.647641215758457
 20
7.447607128827178
 30
0.0
 11
8.682501638177795
 21
5.791311936805902
 31
0.0
  0
ARC
  5
C1C
330
19
100
AcDbEntity
  8
0
100
AcDbCircle
 10
8.254070630968576
 20
5.817512559781936
 30
0.0
 40
0.4292314067989894
100
AcDbArc
 50
289.2690028506166
 51
356.5004450041087
  0
ARC
  5
C1E
330
19
100
AcDbEntity
  8
0
100
AcDbCircle
 10
8.36613105043601
 20
7.407253834876252
 30
0.0
 40
0.2843876957826441
100
AcDbArc
 50
8.157537329456011
 51
60.88226743021453
  0
LINE
  5
C21
330
19
100
AcDbEntity
  8
0
100
AcDbLine
 10
8.679560313575749
 20
5.931060725215382
 30
0.0
 11
9.392342525518902
 21
7.233703216717981
 31
0.0
  0
LWPOLYLINE
  5
C23
330
19
100
AcDbEntity
  8
0
  6
DASHED
100
AcDbPolyline
 90
        3
 70
   128
 43
0.0
 10
8.438761848172973
 20
7.564440473401159
 42
0.1016864977072787
 10
8.395718603057258
 20
7.242504577551539
 10
8.395718603057258
 20
5.412326858422913
  0
LWPOLYLINE
  5
C29
330
19
100
AcDbEntity
  8
0
  6
DASHED
100
AcDbPolyline
 90
        3
 70
   128
 43
0.0
 10
9.435385770634618
 20
9.203148093667595
 42
0.1016864977072787
 10
9.392342525518902
 20
8.881212197817975
 10
9.392342525518902
 20
7.233703216717981
  0
LINE
  5
C2A
330
19
100
AcDbEntity
  8
0
100
AcDbLine
 10
9.648527128535854
 20
9.066486971632243
 30
0.0
 11
9.679125560639438
 21
7.612688295100968
 31
0.0
  0
ARC
  5
C2B
330
19
100
AcDbEntity
  8
0
100
AcDbCircle
 10
9.250694553430218
 20
7.638888918077003
 30
0.0
 40
0.4292314067989894
100
AcDbArc
 50
289.2690028506166
 51
356.5004450041087
  0
ARC
  5
C2C
330
19
100
AcDbEntity
  8
0
100
AcDbCircle
 10
9.367016963213409
 20
9.026133677681308
 30
0.0
 40
0.2843876957826441
100
AcDbArc
 50
8.157537329456011
 51
60.88226743021453
  0
LINE
  5
C2D
330
19
100
AcDbEntity
  8
0
100
AcDbLine
 10
9.676184236037393
 20
7.752437083510451
 30
0.0
 11
9.756823767191992
 21
7.899809560007109
 31
0.0
  0
LINE
  5
C2F
330
19
100
AcDbEntity
  8
0
100
AcDbLine
 10
7.536768384192104
 20
5.573337372034317
 30
0.0
 11
3.006552439716379
 21
6.571057120279206
 31
0.0
  0
ARC
  5
C30
330
19
100
AcDbEntity
  8
0
100
AcDbCircle
 10
3.034844372415731
 20
6.788035992025749
 30
0.0
 40
0.2188155941432585
100
AcDbArc
 50
203.6891046926124
 51
262.5711000156997
  0
LINE
  5
C31
330
19
100
AcDbEntity
  8
0
100
AcDbLine
 10
4.586744115858607
 20
8.186263843896693
 30
0.0
 11
7.536768384192104
 21
7.669398250537583
 31
0.0
  0
LINE
  5
C32
330
19
100
AcDbEntity
  8
0
100
AcDbLine
 10
4.421259793393218
 20
9.697620401920027
 30
0.0
 11
4.421259793393217
 21
8.383263001266279
 31
0.0
  0
ARC
  5
C35
330
19
100
AcDbEntity
  8
0
100
AcDbCircle
 10
4.621259793393218
 20
8.383263001266279
 30
0.0
 40
0.2
100
AcDbArc
 50
180.0
 51
260.0622340698935
  0
ARC
  5
C36
330
19
100
AcDbEntity
  8
0
100
AcDbCircle
 10
4.682817237273728
 20
9.704157456627188
 30
0.0
 40
0.2616391208010593
100
AcDbArc
 50
118.6610993529959
 51
181.4316843114011
  0
LWPOLYLINE
  5
C3B
330
19
100
AcDbEntity
  8
0
  6
DASHEDX2
100
AcDbPolyline
 90
        5
 70
   128
 43
0.0
 10
7.536768384192104
 20
7.978289482901147
 10
4.921989835182666
 20
8.435348779545988
 42
-0.3643901004215522
 10
4.756427377185114
 20
8.632361610856108
 10
4.756427377185114
 20
9.765654418928531
 42
0.3279022944404538
 10
4.646372349671357
 20
9.947745464451293
  0
LINE
  5
C3F
330
19
100
AcDbEntity
  8
0
100
AcDbLine
 10
4.879003150705615
 20
8.609276283120009
 30
0.0
 11
4.962530428710878
 21
8.687115149293714
 31
0.0
  0
LWPOLYLINE
  5
C44
330
19
100
AcDbEntity
  8
0
  6
DASHEDX2
100
AcDbPolyline
 90
        5
 70
   128
 43
0.0
 10
7.536768384192104
 20
5.934017066662036
 10
3.291457998988014
 20
6.895078538287383
 42
-0.3504119193288999
 10
3.135616971982512
 20
7.090142592136552
 10
3.135616971982512
 20
8.369305264956976
 42
0.1714951235423281
 10
3.041569948470756
 20
8.56205261802808
  0
LWPOLYLINE
  5
C46
330
19
100
AcDbEntity
  8
0
100
AcDbPolyline
 90
        2
 70
     1
 43
0.0
 10
10.23868766063868
 20
7.304423803620876
 42
-1.0
 10
2.781920970670015
 20
7.304423803620876
 42
-1.0
  0
LINE
  5
C47
330
19
100
AcDbEntity
  8
0
100
AcDbLine
 10
5.982040183588317
 20
7.126334759098615
 30
0.0
 11
6.36823328013659
 21
7.576559871654894
 31
0.0
  0
LINE
  5
C48
330
19
100
AcDbEntity
  8
0
100
AcDbLine
 10
6.36823328013659
 20
7.576559871654894
 30
0.0
 11
6.639368847920482
 21
6.926234709073603
 31
0.0
  0
LINE
  5
C49
330
19
100
AcDbEntity
  8
0
100
AcDbLine
 10
6.471284805899471
 20
7.651597390414274
 30
0.0
 11
6.756297472768948
 21
6.967987672830654
 31
0.0
  0
LINE
  5
C4A
330
19
100
AcDbEntity
  8
0
100
AcDbLine
 10
6.36823328013659
 20
7.576559871654894
 30
0.0
 11
6.471284805899471
 21
7.651597390414274
 31
0.0
  0
LINE
  5
C4C
330
19
100
AcDbEntity
  8
0
100
AcDbLine
 10
6.200149238115579
 20
7.734638911174654
 30
0.0
 11
6.32431884716717
 21
7.52536428917759
 31
0.0
  0
LINE
  5
C4D
330
19
100
AcDbEntity
  8
0
100
AcDbLine
 10
5.913005666329687
 20
7.210376780109121
 30
0.0
 11
6.092095211102073
 21
7.790666925181657
 31
0.0
  0
LINE
  5
C4E
330
19
100
AcDbEntity
  8
0
100
AcDbLine
 10
6.092095211102073
 20
7.790666925181657
 30
0.0
 11
6.200149238115579
 21
7.734638911174654
 31
0.0
  0
ARC
  5
C4F
330
19
100
AcDbEntity
  8
0
100
AcDbCircle
 10
5.512070723701192
 20
7.522846478511969
 30
0.0
 40
0.5083169686725823
100
AcDbArc
 50
299.7013439588125
 51
322.0688378447124
  0
LINE
  5
C50
330
19
100
AcDbEntity
  8
0
100
AcDbLine
 10
6.029483761653074
 20
7.181644629899498
 30
0.0
 11
6.200149238115579
 21
7.734638911174654
 31
0.0
  0
ARC
  5
C51
330
19
100
AcDbEntity
  8
0
100
AcDbCircle
 10
5.815456891942493
 20
7.382518406477864
 30
0.0
 40
0.3055815017963174
100
AcDbArc
 50
260.2926717655208
 51
303.0339163042067
  0
ARC
  5
C52
330
19
100
AcDbEntity
  8
0
100
AcDbCircle
 10
6.917308154557793
 20
7.176383372284734
 30
0.0
 40
0.3739312929942407
100
AcDbArc
 50
221.9875868844228
 51
273.5588443442779
  0
LINE
  5
C53
330
19
100
AcDbEntity
  8
0
100
AcDbLine
 10
6.860479403198121
 20
7.029286234836485
 30
0.0
 11
6.778438382687866
 21
7.707625404421277
 31
0.0
  0
LINE
  5
C54
330
19
100
AcDbEntity
  8
0
100
AcDbLine
 10
6.757803350329747
 20
6.955536636413321
 30
0.0
 11
6.669383855424234
 21
7.686614899168651
 31
0.0
  0
LINE
  5
C55
330
19
100
AcDbEntity
  8
0
100
AcDbLine
 10
6.669383855424234
 20
7.686614899168651
 30
0.0
 11
6.778438382687866
 21
7.707625404421277
 31
0.0
  0
LINE
  5
C56
330
19
100
AcDbEntity
  8
0
100
AcDbLine
 10
6.669383855424234
 20
7.686614899168651
 30
0.0
 11
6.536277106455684
 21
7.495711798674281
 31
0.0
  0
LINE
  5
C57
330
19
100
AcDbEntity
  8
0
100
AcDbLine
 10
6.000049188090567
 20
7.010276730084108
 30
0.0
 11
6.545321824408727
 21
6.877210196817476
 31
0.0
  0
ARC
  5
C58
330
19
100
AcDbEntity
  8
0
100
AcDbCircle
 10
7.274220638978662
 20
7.048520405961924
 30
0.0
 40
0.4141880774769974
100
AcDbArc
 50
182.6616731993163
 51
216.3244506229856
  0
ARC
  5
C59
330
19
100
AcDbEntity
  8
0
100
AcDbCircle
 10
7.078440418781063
 20
7.020240468451597
 30
0.0
 40
0.3271004670517778
100
AcDbArc
 50
191.4089387695596
 51
219.0481749115108
  0
LINE
  5
C5A
330
19
100
AcDbEntity
  8
0
100
AcDbLine
 10
7.536768384192104
 20
10.04302151075538
 30
0.0
 11
7.6572500145743
 21
10.85200860611476
 31
0.0
  0
LINE
  5
C5B
330
19
100
AcDbEntity
  8
0
100
AcDbLine
 10
7.536768384192104
 20
10.04302151075538
 30
0.0
 11
7.536768384192104
 21
4.952476238119059
 31
0.0
  0
LINE
  5
C60
330
19
100
AcDbEntity
  8
0
100
AcDbLine
 10
7.873834821118029
 20
4.869709087240313
 30
0.0
 11
7.884660977415427
 21
4.868401145045826
 31
0.0
  0
ARC
  5
C61
330
19
100
AcDbEntity
  8
0
100
AcDbCircle
 10
7.849846617925165
 20
4.671152883339307
 30
0.0
 40
0.2
100
AcDbArc
 50
83.11130154338329
 51
131.0914557055411
  0
ENDSEC
  0
SECTION
  2
OBJECTS
  0
DICTIONARY
  5
C
330
0
100
AcDbDictionary
281
     1
  3
ACAD_COLOR
350
C6D
  3
ACAD_GROUP
350
D
  3
ACAD_LAYOUT
350
C68
  3
ACAD_MATERIAL
350
C6F
  3
ACAD_MLINESTYLE
350
E
  3
ACDBHEADERROUNDTRIPXREC
350
C6C
  3
ACDBVARIABLEDICTIONARY
350
AC
  0
DICTIONARY
  5
C6D
102
{ACAD_REACTORS
330
C
102
}
330
C
100
AcDbDictionary
281
     1
  0
DICTIONARY
  5
D
102
{ACAD_REACTORS
330
C
102
}
330
C
100
AcDbDictionary
281
     1
  0
DICTIONARY
  5
C68
102
{ACAD_REACTORS
330
C
102
}
330
C
100
AcDbDictionary
281
     1
  3
Layout1
350
C6A
  3
Model
350
C69
  0
DICTIONARY
  5
C6F
102
{ACAD_REACTORS
330
C
102
}
330
C
100
AcDbDictionary
281
     1
  0
DICTIONARY
  5
E
102
{ACAD_REACTORS
330
C
102
}
330
C
100
AcDbDictionary
281
     1
  3
STANDARD
350
1C
  0
DICTIONARY
  5
C6C
102
{ACAD_REACTORS
330
C
102
}
330
C
100
AcDbDictionary
281
     1
  3
COLORDICT
350
C6E
  3
MATERIALDICT
350
C70
  0
DICTIONARY
  5
AC
102
{ACAD_REACTORS
330
C
102
}
330
C
100
AcDbDictionary
281
     1
  3
SORTENTS
350
C6B
  0
LAYOUT
  5
C6A
102
{ACAD_REACTORS
330
C68
102
}
102
{ACAD_XDICTIONARY
360
C71
102
}
330
C68
100
AcDbPlotSettings
  1

  2

  4

  6

 40
0.0
 41
0.0
 42
0.0
 43
0.0
 44
0.0
 45
0.0
 46
0.0
 47
0.0
 48
0.0
 49
0.0
140
0.0
141
0.0
142
1.0
143
1.0
 70
   688
 72
     0
 73
     0
 74
     5
  7

 75
    16
147
1.0
148
0.0
149
0.0
100
AcDbLayout
  1
Layout1
 70
     1
 71
     1
 10
0.0
 20
0.0
 11
0.0
 21
0.0
 12
0.0
 22
0.0
 32
0.0
 14
0.0
 24
0.0
 34
0.0
 15
0.0
 25
0.0
 35
0.0
146
0.0
 13
0.0
 23
0.0
 33
0.0
 16
1.0
 26
0.0
 36
0.0
 17
0.0
 27
1.0
 37
0.0
 76
     0
330
16
  0
LAYOUT
  5
C69
102
{ACAD_REACTORS
330
C68
102
}
102
{ACAD_XDICTIONARY
360
C73
102
}
330
C68
100
AcDbPlotSettings
  1

  2

  4

  6

 40
0.0
 41
0.0
 42
0.0
 43
0.0
 44
0.0
 45
0.0
 46
0.0
 47
0.0
 48
0.0
 49
0.0
140
0.0
141
0.0
142
1.0
143
1.0
 70
   688
 72
     0
 73
     0
 74
     5
  7

 75
    16
147
1.0
148
0.0
149
0.0
100
AcDbLayout
  1
Model
 70
     1
 71
     0
 10
0.0
 20
0.0
 11
0.0
 21
0.0
 12
0.0
 22
0.0
 32
0.0
 14
0.0
 24
0.0
 34
0.0
 15
0.0
 25
0.0
 35
0.0
146
0.0
 13
0.0
 23
0.0
 33
0.0
 16
1.0
 26
0.0
 36
0.0
 17
0.0
 27
1.0
 37
0.0
 76
     0
330
19
  0
MLINESTYLE
  5
1C
102
{ACAD_REACTORS
330
E
102
}
330
E
100
AcDbMlineStyle
  2
STANDARD
 70
     0
  3

 62
     0
 51
90.0
 52
90.0
 71
     2
 49
0.5
 62
   256
  6
BYLAYER
 49
-0.5
 62
   256
  6
BYLAYER
  0
XRECORD
  5
C6E
102
{ACAD_REACTORS
330
C6C
102
}
330
C6C
100
AcDbXrecord
340
C6D
  0
XRECORD
  5
C70
102
{ACAD_REACTORS
330
C6C
102
}
330
C6C
100
AcDbXrecord
340
C6F
  0
DICTIONARYVAR
  5
C6B
102
{ACAD_REACTORS
330
AC
102
}
330
AC
100
DictionaryVariables
280
     0
  1
96
  0
DICTIONARY
  5
C71
330
C6A
100
AcDbDictionary
280
     1
281
     1
  3
ACAD_XREC_ROUNDTRIP
360
C72
  0
DICTIONARY
  5
C73
330
C69
100
AcDbDictionary
280
     1
281
     1
  3
ACAD_XREC_ROUNDTRIP
360
C74
  0
XRECORD
  5
C72
102
{ACAD_REACTORS
330
C71
102
}
330
C71
100
AcDbXrecord
102
SHADEPLOT
 70
 16392
102
SHADEPLOTRESLEVEL
 70
 16472
102
SHADEPLOTCUSTOMDPI
 70
-29840
  0
XRECORD
  5
C74
102
{ACAD_REACTORS
330
C73
102
}
330
C73
100
AcDbXrecord
102
SHADEPLOT
 70
-30344
102
SHADEPLOTRESLEVEL
 70
-30384
102
SHADEPLOTCUSTOMDPI
 70
-30424
  0
ENDSEC
  0
EOF
